  0
SECTION
  2
HEADER
  9
$ACADVER
  1
AC1012
  9
$DWGCODEPAGE
  3
ANSI_1252
  9
$INSBASE
 10
0.0
 20
0.0
 30
0.0
  9
$EXTMIN
 10
-0.795
 20
0.0
 30
0.0
  9
$EXTMAX
 10
0.795
 20
11.85
 30
0.0
  9
$LIMMIN
 10
-1.754351
 20
-0.310672
  9
$LIMMAX
 10
2.346647
 20
12.443309
  9
$ORTHOMODE
 70
     1
  9
$REGENMODE
 70
     1
  9
$FILLMODE
 70
     1
  9
$QTEXTMODE
 70
     0
  9
$MIRRTEXT
 70
     1
  9
$DRAGMODE
 70
     2
  9
$LTSCALE
 40
0.25
  9
$OSMODE
 70
     0
  9
$ATTMODE
 70
     1
  9
$TEXTSIZE
 40
0.05
  9
$TRACEWID
 40
0.05
  9
$TEXTSTYLE
  7
STANDARD
  9
$CLAYER
  8
0
  9
$CELTYPE
  6
BYLAYER
  9
$CECOLOR
 62
   256
  9
$CELTSCALE
 40
1.0
  9
$DELOBJ
 70
     1
  9
$DISPSILH
 70
     0
  9
$DIMSCALE
 40
1.0
  9
$DIMASZ
 40
0.18
  9
$DIMEXO
 40
0.0625
  9
$DIMDLI
 40
0.38
  9
$DIMRND
 40
0.0
  9
$DIMDLE
 40
0.0
  9
$DIMEXE
 40
0.18
  9
$DIMTP
 40
0.0
  9
$DIMTM
 40
0.0
  9
$DIMTXT
 40
0.18
  9
$DIMCEN
 40
0.09
  9
$DIMTSZ
 40
0.0
  9
$DIMTOL
 70
     0
  9
$DIMLIM
 70
     0
  9
$DIMTIH
 70
     1
  9
$DIMTOH
 70
     1
  9
$DIMSE1
 70
     0
  9
$DIMSE2
 70
     0
  9
$DIMTAD
 70
     0
  9
$DIMZIN
 70
     0
  9
$DIMBLK
  1

  9
$DIMASO
 70
     1
  9
$DIMSHO
 70
     1
  9
$DIMPOST
  1

  9
$DIMAPOST
  1

  9
$DIMALT
 70
     0
  9
$DIMALTD
 70
     2
  9
$DIMALTF
 40
25.4
  9
$DIMLFAC
 40
1.0
  9
$DIMTOFL
 70
     0
  9
$DIMTVP
 40
0.0
  9
$DIMTIX
 70
     0
  9
$DIMSOXD
 70
     0
  9
$DIMSAH
 70
     0
  9
$DIMBLK1
  1

  9
$DIMBLK2
  1

  9
$DIMSTYLE
  2
STANDARD
  9
$DIMCLRD
 70
     0
  9
$DIMCLRE
 70
     0
  9
$DIMCLRT
 70
     0
  9
$DIMTFAC
 40
1.0
  9
$DIMGAP
 40
0.09
  9
$DIMJUST
 70
     0
  9
$DIMSD1
 70
     0
  9
$DIMSD2
 70
     0
  9
$DIMTOLJ
 70
     1
  9
$DIMTZIN
 70
     0
  9
$DIMALTZ
 70
     0
  9
$DIMALTTZ
 70
     0
  9
$DIMFIT
 70
     3
  9
$DIMUPT
 70
     0
  9
$DIMUNIT
 70
     2
  9
$DIMDEC
 70
     4
  9
$DIMTDEC
 70
     4
  9
$DIMALTU
 70
     2
  9
$DIMALTTD
 70
     2
  9
$DIMTXSTY
  7
STANDARD
  9
$DIMAUNIT
 70
     0
  9
$LUNITS
 70
     2
  9
$LUPREC
 70
     4
  9
$SKETCHINC
 40
0.1
  9
$FILLETRAD
 40
0.03125
  9
$AUNITS
 70
     0
  9
$AUPREC
 70
     0
  9
$MENU
  1
acad
  9
$ELEVATION
 40
0.0
  9
$PELEVATION
 40
0.0
  9
$THICKNESS
 40
0.0
  9
$LIMCHECK
 70
     0
  9
$BLIPMODE
 70
     1
  9
$CHAMFERA
 40
0.0
  9
$CHAMFERB
 40
0.0
  9
$CHAMFERC
 40
0.0
  9
$CHAMFERD
 40
0.0
  9
$SKPOLY
 70
     0
  9
$TDCREATE
 40
2450238.293903472
  9
$TDUPDATE
 40
2450886.494068055
  9
$TDINDWG
 40
0.0361465278
  9
$TDUSRTIMER
 40
0.0361465278
  9
$USRTIMER
 70
     1
  9
$ANGBASE
 50
0.0
  9
$ANGDIR
 70
     0
  9
$PDMODE
 70
     0
  9
$PDSIZE
 40
0.0
  9
$PLINEWID
 40
0.0
  9
$COORDS
 70
     1
  9
$SPLFRAME
 70
     0
  9
$SPLINETYPE
 70
     6
  9
$SPLINESEGS
 70
     8
  9
$ATTDIA
 70
     0
  9
$ATTREQ
 70
     1
  9
$HANDLING
 70
     1
  9
$HANDSEED
  5
15E
  9
$SURFTAB1
 70
     6
  9
$SURFTAB2
 70
     6
  9
$SURFTYPE
 70
     6
  9
$SURFU
 70
     6
  9
$SURFV
 70
     6
  9
$UCSNAME
  2

  9
$UCSORG
 10
0.0
 20
0.0
 30
0.0
  9
$UCSXDIR
 10
1.0
 20
0.0
 30
0.0
  9
$UCSYDIR
 10
0.0
 20
1.0
 30
0.0
  9
$PUCSNAME
  2

  9
$PUCSORG
 10
0.0
 20
0.0
 30
0.0
  9
$PUCSXDIR
 10
1.0
 20
0.0
 30
0.0
  9
$PUCSYDIR
 10
0.0
 20
1.0
 30
0.0
  9
$USERI1
 70
     0
  9
$USERI2
 70
     0
  9
$USERI3
 70
     0
  9
$USERI4
 70
     0
  9
$USERI5
 70
     0
  9
$USERR1
 40
0.0
  9
$USERR2
 40
0.0
  9
$USERR3
 40
0.0
  9
$USERR4
 40
0.0
  9
$USERR5
 40
0.0
  9
$WORLDVIEW
 70
     1
  9
$SHADEDGE
 70
     3
  9
$SHADEDIF
 70
    70
  9
$TILEMODE
 70
     1
  9
$MAXACTVP
 70
    16
  9
$PINSBASE
 10
0.0
 20
0.0
 30
0.0
  9
$PLIMCHECK
 70
     0
  9
$PEXTMIN
 10
1.000000E+20
 20
1.000000E+20
 30
1.000000E+20
  9
$PEXTMAX
 10
-1.000000E+20
 20
-1.000000E+20
 30
-1.000000E+20
  9
$PLIMMIN
 10
0.0
 20
0.0
  9
$PLIMMAX
 10
12.0
 20
9.0
  9
$UNITMODE
 70
     0
  9
$VISRETAIN
 70
     0
  9
$PLINEGEN
 70
     0
  9
$PSLTSCALE
 70
     1
  9
$TREEDEPTH
 70
  3020
  9
$PICKSTYLE
 70
     1
  9
$CMLSTYLE
  2
STANDARD
  9
$CMLJUST
 70
     0
  9
$CMLSCALE
 40
1.0
  9
$SAVEIMAGES
 70
     1
  0
ENDSEC
  0
SECTION
  2
CLASSES
  0
ENDSEC
  0
SECTION
  2
TABLES
  0
TABLE
  2
VPORT
  5
8
100
AcDbSymbolTable
 70
     2
  0
VPORT
  5
15D
100
AcDbSymbolTableRecord
100
AcDbViewportTableRecord
  2
*ACTIVE
 70
     0
 10
0.0
 20
0.0
 11
1.0
 21
1.0
 12
10.627369
 22
6.527847
 13
0.0
 23
0.0
 14
1.0
 24
1.0
 15
0.0
 25
0.0
 16
0.0
 26
0.0
 36
1.0
 17
0.0
 27
0.0
 37
0.0
 40
13.677039
 41
1.810585
 42
50.0
 43
0.0
 44
0.0
 50
0.0
 51
0.0
 71
     0
 72
   100
 73
     1
 74
     1
 75
     0
 76
     0
 77
     0
 78
     0
  0
ENDTAB
  0
TABLE
  2
LTYPE
  5
5
100
AcDbSymbolTable
 70
     2
  0
LTYPE
  5
12
100
AcDbSymbolTableRecord
100
AcDbLinetypeTableRecord
  2
BYBLOCK
 70
     0
  3

 72
    65
 73
     0
 40
0.0
  0
LTYPE
  5
13
100
AcDbSymbolTableRecord
100
AcDbLinetypeTableRecord
  2
BYLAYER
 70
     0
  3

 72
    65
 73
     0
 40
0.0
  0
LTYPE
  5
14
100
AcDbSymbolTableRecord
100
AcDbLinetypeTableRecord
  2
CONTINUOUS
 70
     0
  3
Solid line
 72
    65
 73
     0
 40
0.0
  0
LTYPE
  5
1C
100
AcDbSymbolTableRecord
100
AcDbLinetypeTableRecord
  2
CENTER
 70
     0
  3
____ _ ____ _ ____ _ ____ _ ____ _ ____ _ ____ 
 72
    65
 73
     4
 40
2.0
 49
1.25
 74
     0
 49
-0.25
 74
     0
 49
0.25
 74
     0
 49
-0.25
 74
     0
  0
ENDTAB
  0
TABLE
  2
LAYER
  5
2
100
AcDbSymbolTable
 70
     3
  0
LAYER
  5
F
100
AcDbSymbolTableRecord
100
AcDbLayerTableRecord
  2
0
 70
     0
 62
     7
  6
CONTINUOUS
  0
LAYER
  5
1F
100
AcDbSymbolTableRecord
100
AcDbLayerTableRecord
  2
CEN
 70
     0
 62
     2
  6
CENTER
  0
LAYER
  5
20
100
AcDbSymbolTableRecord
100
AcDbLayerTableRecord
  2
TEXT
 70
     0
 62
     2
  6
CONTINUOUS
  0
ENDTAB
  0
TABLE
  2
STYLE
  5
3
100
AcDbSymbolTable
 70
     1
  0
STYLE
  5
10
100
AcDbSymbolTableRecord
100
AcDbTextStyleTableRecord
  2
STANDARD
 70
     0
 40
0.0
 41
1.0
 50
0.0
 71
     0
 42
0.05
  3
txt
  4

  0
ENDTAB
  0
TABLE
  2
VIEW
  5
6
100
AcDbSymbolTable
 70
     0
  0
ENDTAB
  0
TABLE
  2
UCS
  5
7
100
AcDbSymbolTable
 70
     0
  0
ENDTAB
  0
TABLE
  2
APPID
  5
9
100
AcDbSymbolTable
 70
     1
  0
APPID
  5
11
100
AcDbSymbolTableRecord
100
AcDbRegAppTableRecord
  2
ACAD
 70
     0
  0
ENDTAB
  0
TABLE
  2
DIMSTYLE
  5
A
100
AcDbSymbolTable
 70
     1
  0
DIMSTYLE
105
64
100
AcDbSymbolTableRecord
100
AcDbDimStyleTableRecord
  2
STANDARD
 70
     0
  3

  4

  5

  6

  7

 40
1.0
 41
0.18
 42
0.0625
 43
0.38
 44
0.18
 45
0.0
 46
0.0
 47
0.0
 48
0.0
140
0.18
141
0.09
142
0.0
143
25.4
144
1.0
145
0.0
146
1.0
147
0.09
 71
     0
 72
     0
 73
     1
 74
     1
 75
     0
 76
     0
 77
     0
 78
     0
170
     0
171
     2
172
     0
173
     0
174
     0
175
     0
176
     0
177
     0
178
     0
270
     2
271
     4
272
     4
273
     2
274
     2
340
10
275
     0
280
     0
281
     0
282
     0
283
     1
284
     0
285
     0
286
     0
287
     3
288
     0
  0
ENDTAB
  0
TABLE
  2
BLOCK_RECORD
  5
1
100
AcDbSymbolTable
 70
     3
  0
BLOCK_RECORD
  5
18
100
AcDbSymbolTableRecord
100
AcDbBlockTableRecord
  2
*MODEL_SPACE
  0
BLOCK_RECORD
  5
15
100
AcDbSymbolTableRecord
100
AcDbBlockTableRecord
  2
*PAPER_SPACE
  0
BLOCK_RECORD
  5
A0
100
AcDbSymbolTableRecord
100
AcDbBlockTableRecord
  2
PCON_7
  0
BLOCK_RECORD
  5
DD
100
AcDbSymbolTableRecord
100
AcDbBlockTableRecord
  2
PCON_10
  0
BLOCK_RECORD
  5
134
100
AcDbSymbolTableRecord
100
AcDbBlockTableRecord
  2
9_PIN_D
  0
ENDTAB
  0
ENDSEC
  0
SECTION
  2
BLOCKS
  0
BLOCK
  5
23
100
AcDbEntity
  8
0
100
AcDbBlockBegin
  2
*MODEL_SPACE
 70
     0
 10
0.0
 20
0.0
 30
0.0
  3
*MODEL_SPACE
  1

  0
ENDBLK
  5
24
100
AcDbEntity
  8
0
100
AcDbBlockEnd
  0
BLOCK
  5
21
100
AcDbEntity
 67
     1
  8
0
100
AcDbBlockBegin
  2
*PAPER_SPACE
 70
     0
 10
0.0
 20
0.0
 30
0.0
  3
*PAPER_SPACE
  1

  0
ENDBLK
  5
22
100
AcDbEntity
 67
     1
  8
0
100
AcDbBlockEnd
  0
BLOCK
  5
D7
100
AcDbEntity
  8
0
100
AcDbBlockBegin
  2
PCON_7
 70
     0
 10
0.0
 20
0.0
 30
0.0
  3
PCON_7
  1

  0
LINE
  5
A1
100
AcDbEntity
  8
0
100
AcDbLine
 10
0.0
 20
1.393
 30
0.0
 11
0.0
 21
0.0
 31
0.0
  0
LINE
  5
A2
100
AcDbEntity
  8
0
100
AcDbLine
 10
-0.4895
 20
1.393
 30
0.0
 11
-0.4895
 21
0.0
 31
0.0
  0
LINE
  5
A3
100
AcDbEntity
  8
0
100
AcDbLine
 10
0.0
 20
0.0
 30
0.0
 11
-0.4895
 21
0.0
 31
0.0
  0
LINE
  5
A4
100
AcDbEntity
  8
0
100
AcDbLine
 10
0.0
 20
1.393
 30
0.0
 11
-0.4895
 21
1.393
 31
0.0
  0
LINE
  5
A5
100
AcDbEntity
  8
0
100
AcDbLine
 10
-0.4235
 20
1.393
 30
0.0
 11
-0.4235
 21
0.0
 31
0.0
  0
CIRCLE
  5
A6
100
AcDbEntity
  8
0
100
AcDbCircle
 10
-0.2605
 20
0.102
 30
0.0
 40
0.077
  0
CIRCLE
  5
A7
100
AcDbEntity
  8
0
100
AcDbCircle
 10
-0.2605
 20
0.102
 30
0.0
 40
0.075
  0
LINE
  5
A8
100
AcDbEntity
  8
0
100
AcDbLine
 10
-0.189789
 20
0.127
 30
0.0
 11
-0.331211
 21
0.127
 31
0.0
  0
LINE
  5
A9
100
AcDbEntity
  8
0
100
AcDbLine
 10
-0.189789
 20
0.077
 30
0.0
 11
-0.331211
 21
0.077
 31
0.0
  0
LINE
  5
AA
100
AcDbEntity
  8
0
100
AcDbLine
 10
-0.331211
 20
0.077
 30
0.0
 11
-0.331211
 21
0.127
 31
0.0
  0
LINE
  5
AB
100
AcDbEntity
  8
0
100
AcDbLine
 10
-0.189789
 20
0.127
 30
0.0
 11
-0.189789
 21
0.077
 31
0.0
  0
SOLID
  5
AC
100
AcDbEntity
  8
0
100
AcDbTrace
 10
-0.189789
 20
0.127
 30
0.0
 11
-0.331211
 21
0.127
 31
0.0
 12
-0.189789
 22
0.077
 32
0.0
 13
-0.331211
 23
0.077
 33
0.0
  0
SOLID
  5
AD
100
AcDbEntity
  8
0
100
AcDbTrace
 10
-0.189789
 20
0.324
 30
0.0
 11
-0.331211
 21
0.324
 31
0.0
 12
-0.189789
 22
0.274
 32
0.0
 13
-0.331211
 23
0.274
 33
0.0
  0
LINE
  5
AE
100
AcDbEntity
  8
0
100
AcDbLine
 10
-0.189789
 20
0.324
 30
0.0
 11
-0.189789
 21
0.274
 31
0.0
  0
LINE
  5
AF
100
AcDbEntity
  8
0
100
AcDbLine
 10
-0.331211
 20
0.274
 30
0.0
 11
-0.331211
 21
0.324
 31
0.0
  0
LINE
  5
B0
100
AcDbEntity
  8
0
100
AcDbLine
 10
-0.189789
 20
0.274
 30
0.0
 11
-0.331211
 21
0.274
 31
0.0
  0
LINE
  5
B1
100
AcDbEntity
  8
0
100
AcDbLine
 10
-0.189789
 20
0.324
 30
0.0
 11
-0.331211
 21
0.324
 31
0.0
  0
CIRCLE
  5
B2
100
AcDbEntity
  8
0
100
AcDbCircle
 10
-0.2605
 20
0.299
 30
0.0
 40
0.075
  0
CIRCLE
  5
B3
100
AcDbEntity
  8
0
100
AcDbCircle
 10
-0.2605
 20
0.299
 30
0.0
 40
0.077
  0
CIRCLE
  5
B4
100
AcDbEntity
  8
0
100
AcDbCircle
 10
-0.2605
 20
0.496
 30
0.0
 40
0.077
  0
CIRCLE
  5
B5
100
AcDbEntity
  8
0
100
AcDbCircle
 10
-0.2605
 20
0.496
 30
0.0
 40
0.075
  0
LINE
  5
B6
100
AcDbEntity
  8
0
100
AcDbLine
 10
-0.189789
 20
0.521
 30
0.0
 11
-0.331211
 21
0.521
 31
0.0
  0
LINE
  5
B7
100
AcDbEntity
  8
0
100
AcDbLine
 10
-0.189789
 20
0.471
 30
0.0
 11
-0.331211
 21
0.471
 31
0.0
  0
LINE
  5
B8
100
AcDbEntity
  8
0
100
AcDbLine
 10
-0.331211
 20
0.471
 30
0.0
 11
-0.331211
 21
0.521
 31
0.0
  0
LINE
  5
B9
100
AcDbEntity
  8
0
100
AcDbLine
 10
-0.189789
 20
0.521
 30
0.0
 11
-0.189789
 21
0.471
 31
0.0
  0
SOLID
  5
BA
100
AcDbEntity
  8
0
100
AcDbTrace
 10
-0.189789
 20
0.521
 30
0.0
 11
-0.331211
 21
0.521
 31
0.0
 12
-0.189789
 22
0.471
 32
0.0
 13
-0.331211
 23
0.471
 33
0.0
  0
SOLID
  5
BB
100
AcDbEntity
  8
0
100
AcDbTrace
 10
-0.189789
 20
1.119
 30
0.0
 11
-0.331211
 21
1.119
 31
0.0
 12
-0.189789
 22
1.069
 32
0.0
 13
-0.331211
 23
1.069
 33
0.0
  0
LINE
  5
BC
100
AcDbEntity
  8
0
100
AcDbLine
 10
-0.189789
 20
1.069
 30
0.0
 11
-0.331211
 21
1.069
 31
0.0
  0
LINE
  5
BD
100
AcDbEntity
  8
0
100
AcDbLine
 10
-0.189789
 20
1.119
 30
0.0
 11
-0.331211
 21
1.119
 31
0.0
  0
CIRCLE
  5
BE
100
AcDbEntity
  8
0
100
AcDbCircle
 10
-0.2605
 20
1.094
 30
0.0
 40
0.075
  0
CIRCLE
  5
BF
100
AcDbEntity
  8
0
100
AcDbCircle
 10
-0.2605
 20
1.094
 30
0.0
 40
0.077
  0
CIRCLE
  5
C0
100
AcDbEntity
  8
0
100
AcDbCircle
 10
-0.2605
 20
0.897
 30
0.0
 40
0.077
  0
CIRCLE
  5
C1
100
AcDbEntity
  8
0
100
AcDbCircle
 10
-0.2605
 20
0.897
 30
0.0
 40
0.075
  0
LINE
  5
C2
100
AcDbEntity
  8
0
100
AcDbLine
 10
-0.189789
 20
0.922
 30
0.0
 11
-0.331211
 21
0.922
 31
0.0
  0
LINE
  5
C3
100
AcDbEntity
  8
0
100
AcDbLine
 10
-0.189789
 20
0.872
 30
0.0
 11
-0.331211
 21
0.872
 31
0.0
  0
SOLID
  5
C4
100
AcDbEntity
  8
0
100
AcDbTrace
 10
-0.189789
 20
0.922
 30
0.0
 11
-0.331211
 21
0.922
 31
0.0
 12
-0.189789
 22
0.872
 32
0.0
 13
-0.331211
 23
0.872
 33
0.0
  0
SOLID
  5
C5
100
AcDbEntity
  8
0
100
AcDbTrace
 10
-0.189789
 20
0.725
 30
0.0
 11
-0.331211
 21
0.725
 31
0.0
 12
-0.189789
 22
0.675
 32
0.0
 13
-0.331211
 23
0.675
 33
0.0
  0
LINE
  5
C6
100
AcDbEntity
  8
0
100
AcDbLine
 10
-0.189789
 20
0.675
 30
0.0
 11
-0.331211
 21
0.675
 31
0.0
  0
LINE
  5
C7
100
AcDbEntity
  8
0
100
AcDbLine
 10
-0.189789
 20
0.725
 30
0.0
 11
-0.331211
 21
0.725
 31
0.0
  0
CIRCLE
  5
C8
100
AcDbEntity
  8
0
100
AcDbCircle
 10
-0.2605
 20
0.7
 30
0.0
 40
0.075
  0
CIRCLE
  5
C9
100
AcDbEntity
  8
0
100
AcDbCircle
 10
-0.2605
 20
0.7
 30
0.0
 40
0.077
  0
LINE
  5
CA
100
AcDbEntity
  8
0
100
AcDbLine
 10
-0.331211
 20
0.872
 30
0.0
 11
-0.331211
 21
0.922
 31
0.0
  0
LINE
  5
CB
100
AcDbEntity
  8
0
100
AcDbLine
 10
-0.331211
 20
0.675
 30
0.0
 11
-0.331211
 21
0.725
 31
0.0
  0
LINE
  5
CC
100
AcDbEntity
  8
0
100
AcDbLine
 10
-0.331211
 20
1.069
 30
0.0
 11
-0.331211
 21
1.119
 31
0.0
  0
LINE
  5
CD
100
AcDbEntity
  8
0
100
AcDbLine
 10
-0.189789
 20
0.922
 30
0.0
 11
-0.189789
 21
0.872
 31
0.0
  0
LINE
  5
CE
100
AcDbEntity
  8
0
100
AcDbLine
 10
-0.189789
 20
0.725
 30
0.0
 11
-0.189789
 21
0.675
 31
0.0
  0
LINE
  5
CF
100
AcDbEntity
  8
0
100
AcDbLine
 10
-0.189789
 20
1.119
 30
0.0
 11
-0.189789
 21
1.069
 31
0.0
  0
CIRCLE
  5
D0
100
AcDbEntity
  8
0
100
AcDbCircle
 10
-0.2605
 20
1.291
 30
0.0
 40
0.077
  0
CIRCLE
  5
D1
100
AcDbEntity
  8
0
100
AcDbCircle
 10
-0.2605
 20
1.291
 30
0.0
 40
0.075
  0
LINE
  5
D2
100
AcDbEntity
  8
0
100
AcDbLine
 10
-0.189789
 20
1.316
 30
0.0
 11
-0.331211
 21
1.316
 31
0.0
  0
LINE
  5
D3
100
AcDbEntity
  8
0
100
AcDbLine
 10
-0.189789
 20
1.266
 30
0.0
 11
-0.331211
 21
1.266
 31
0.0
  0
SOLID
  5
D4
100
AcDbEntity
  8
0
100
AcDbTrace
 10
-0.189789
 20
1.316
 30
0.0
 11
-0.331211
 21
1.316
 31
0.0
 12
-0.189789
 22
1.266
 32
0.0
 13
-0.331211
 23
1.266
 33
0.0
  0
LINE
  5
D5
100
AcDbEntity
  8
0
100
AcDbLine
 10
-0.331211
 20
1.266
 30
0.0
 11
-0.331211
 21
1.316
 31
0.0
  0
LINE
  5
D6
100
AcDbEntity
  8
0
100
AcDbLine
 10
-0.189789
 20
1.316
 30
0.0
 11
-0.189789
 21
1.266
 31
0.0
  0
ENDBLK
  5
D8
100
AcDbEntity
  8
0
100
AcDbBlockEnd
  0
BLOCK
  5
129
100
AcDbEntity
  8
0
100
AcDbBlockBegin
  2
PCON_10
 70
     0
 10
0.0
 20
0.0
 30
0.0
  3
PCON_10
  1

  0
LINE
  5
DE
100
AcDbEntity
  8
0
100
AcDbLine
 10
0.0
 20
1.991
 30
0.0
 11
0.0
 21
0.0
 31
0.0
  0
LINE
  5
DF
100
AcDbEntity
  8
0
100
AcDbLine
 10
-0.4895
 20
1.991
 30
0.0
 11
-0.4895
 21
0.0
 31
0.0
  0
LINE
  5
E0
100
AcDbEntity
  8
0
100
AcDbLine
 10
0.0
 20
0.0
 30
0.0
 11
-0.4895
 21
0.0
 31
0.0
  0
LINE
  5
E1
100
AcDbEntity
  8
0
100
AcDbLine
 10
0.0
 20
1.991
 30
0.0
 11
-0.4895
 21
1.991
 31
0.0
  0
LINE
  5
E2
100
AcDbEntity
  8
0
100
AcDbLine
 10
-0.4235
 20
1.991
 30
0.0
 11
-0.4235
 21
0.0
 31
0.0
  0
CIRCLE
  5
E3
100
AcDbEntity
  8
0
100
AcDbCircle
 10
-0.2605
 20
0.102
 30
0.0
 40
0.077
  0
CIRCLE
  5
E4
100
AcDbEntity
  8
0
100
AcDbCircle
 10
-0.2605
 20
0.102
 30
0.0
 40
0.075
  0
LINE
  5
E5
100
AcDbEntity
  8
0
100
AcDbLine
 10
-0.189789
 20
0.127
 30
0.0
 11
-0.331211
 21
0.127
 31
0.0
  0
LINE
  5
E6
100
AcDbEntity
  8
0
100
AcDbLine
 10
-0.189789
 20
0.077
 30
0.0
 11
-0.331211
 21
0.077
 31
0.0
  0
LINE
  5
E7
100
AcDbEntity
  8
0
100
AcDbLine
 10
-0.331211
 20
0.077
 30
0.0
 11
-0.331211
 21
0.127
 31
0.0
  0
LINE
  5
E8
100
AcDbEntity
  8
0
100
AcDbLine
 10
-0.189789
 20
0.127
 30
0.0
 11
-0.189789
 21
0.077
 31
0.0
  0
SOLID
  5
E9
100
AcDbEntity
  8
0
100
AcDbTrace
 10
-0.189789
 20
0.127
 30
0.0
 11
-0.331211
 21
0.127
 31
0.0
 12
-0.189789
 22
0.077
 32
0.0
 13
-0.331211
 23
0.077
 33
0.0
  0
SOLID
  5
EA
100
AcDbEntity
  8
0
100
AcDbTrace
 10
-0.189789
 20
0.324
 30
0.0
 11
-0.331211
 21
0.324
 31
0.0
 12
-0.189789
 22
0.274
 32
0.0
 13
-0.331211
 23
0.274
 33
0.0
  0
LINE
  5
EB
100
AcDbEntity
  8
0
100
AcDbLine
 10
-0.189789
 20
0.324
 30
0.0
 11
-0.189789
 21
0.274
 31
0.0
  0
LINE
  5
EC
100
AcDbEntity
  8
0
100
AcDbLine
 10
-0.331211
 20
0.274
 30
0.0
 11
-0.331211
 21
0.324
 31
0.0
  0
LINE
  5
ED
100
AcDbEntity
  8
0
100
AcDbLine
 10
-0.189789
 20
0.274
 30
0.0
 11
-0.331211
 21
0.274
 31
0.0
  0
LINE
  5
EE
100
AcDbEntity
  8
0
100
AcDbLine
 10
-0.189789
 20
0.324
 30
0.0
 11
-0.331211
 21
0.324
 31
0.0
  0
CIRCLE
  5
EF
100
AcDbEntity
  8
0
100
AcDbCircle
 10
-0.2605
 20
0.299
 30
0.0
 40
0.075
  0
CIRCLE
  5
F0
100
AcDbEntity
  8
0
100
AcDbCircle
 10
-0.2605
 20
0.299
 30
0.0
 40
0.077
  0
CIRCLE
  5
F1
100
AcDbEntity
  8
0
100
AcDbCircle
 10
-0.2605
 20
0.496
 30
0.0
 40
0.077
  0
CIRCLE
  5
F2
100
AcDbEntity
  8
0
100
AcDbCircle
 10
-0.2605
 20
0.496
 30
0.0
 40
0.075
  0
LINE
  5
F3
100
AcDbEntity
  8
0
100
AcDbLine
 10
-0.189789
 20
0.521
 30
0.0
 11
-0.331211
 21
0.521
 31
0.0
  0
LINE
  5
F4
100
AcDbEntity
  8
0
100
AcDbLine
 10
-0.189789
 20
0.471
 30
0.0
 11
-0.331211
 21
0.471
 31
0.0
  0
LINE
  5
F5
100
AcDbEntity
  8
0
100
AcDbLine
 10
-0.331211
 20
0.471
 30
0.0
 11
-0.331211
 21
0.521
 31
0.0
  0
LINE
  5
F6
100
AcDbEntity
  8
0
100
AcDbLine
 10
-0.189789
 20
0.521
 30
0.0
 11
-0.189789
 21
0.471
 31
0.0
  0
SOLID
  5
F7
100
AcDbEntity
  8
0
100
AcDbTrace
 10
-0.189789
 20
0.521
 30
0.0
 11
-0.331211
 21
0.521
 31
0.0
 12
-0.189789
 22
0.471
 32
0.0
 13
-0.331211
 23
0.471
 33
0.0
  0
SOLID
  5
F8
100
AcDbEntity
  8
0
100
AcDbTrace
 10
-0.189789
 20
1.119
 30
0.0
 11
-0.331211
 21
1.119
 31
0.0
 12
-0.189789
 22
1.069
 32
0.0
 13
-0.331211
 23
1.069
 33
0.0
  0
LINE
  5
F9
100
AcDbEntity
  8
0
100
AcDbLine
 10
-0.189789
 20
1.069
 30
0.0
 11
-0.331211
 21
1.069
 31
0.0
  0
LINE
  5
FA
100
AcDbEntity
  8
0
100
AcDbLine
 10
-0.189789
 20
1.119
 30
0.0
 11
-0.331211
 21
1.119
 31
0.0
  0
CIRCLE
  5
FB
100
AcDbEntity
  8
0
100
AcDbCircle
 10
-0.2605
 20
1.094
 30
0.0
 40
0.075
  0
CIRCLE
  5
FC
100
AcDbEntity
  8
0
100
AcDbCircle
 10
-0.2605
 20
1.094
 30
0.0
 40
0.077
  0
CIRCLE
  5
FD
100
AcDbEntity
  8
0
100
AcDbCircle
 10
-0.2605
 20
0.897
 30
0.0
 40
0.077
  0
CIRCLE
  5
FE
100
AcDbEntity
  8
0
100
AcDbCircle
 10
-0.2605
 20
0.897
 30
0.0
 40
0.075
  0
LINE
  5
FF
100
AcDbEntity
  8
0
100
AcDbLine
 10
-0.189789
 20
0.922
 30
0.0
 11
-0.331211
 21
0.922
 31
0.0
  0
LINE
  5
100
100
AcDbEntity
  8
0
100
AcDbLine
 10
-0.189789
 20
0.872
 30
0.0
 11
-0.331211
 21
0.872
 31
0.0
  0
SOLID
  5
101
100
AcDbEntity
  8
0
100
AcDbTrace
 10
-0.189789
 20
0.922
 30
0.0
 11
-0.331211
 21
0.922
 31
0.0
 12
-0.189789
 22
0.872
 32
0.0
 13
-0.331211
 23
0.872
 33
0.0
  0
SOLID
  5
102
100
AcDbEntity
  8
0
100
AcDbTrace
 10
-0.189789
 20
0.725
 30
0.0
 11
-0.331211
 21
0.725
 31
0.0
 12
-0.189789
 22
0.675
 32
0.0
 13
-0.331211
 23
0.675
 33
0.0
  0
LINE
  5
103
100
AcDbEntity
  8
0
100
AcDbLine
 10
-0.189789
 20
0.675
 30
0.0
 11
-0.331211
 21
0.675
 31
0.0
  0
LINE
  5
104
100
AcDbEntity
  8
0
100
AcDbLine
 10
-0.189789
 20
0.725
 30
0.0
 11
-0.331211
 21
0.725
 31
0.0
  0
CIRCLE
  5
105
100
AcDbEntity
  8
0
100
AcDbCircle
 10
-0.2605
 20
0.7
 30
0.0
 40
0.075
  0
CIRCLE
  5
106
100
AcDbEntity
  8
0
100
AcDbCircle
 10
-0.2605
 20
0.7
 30
0.0
 40
0.077
  0
LINE
  5
107
100
AcDbEntity
  8
0
100
AcDbLine
 10
-0.331211
 20
0.872
 30
0.0
 11
-0.331211
 21
0.922
 31
0.0
  0
LINE
  5
108
100
AcDbEntity
  8
0
100
AcDbLine
 10
-0.331211
 20
0.675
 30
0.0
 11
-0.331211
 21
0.725
 31
0.0
  0
LINE
  5
109
100
AcDbEntity
  8
0
100
AcDbLine
 10
-0.331211
 20
1.069
 30
0.0
 11
-0.331211
 21
1.119
 31
0.0
  0
LINE
  5
10A
100
AcDbEntity
  8
0
100
AcDbLine
 10
-0.189789
 20
0.922
 30
0.0
 11
-0.189789
 21
0.872
 31
0.0
  0
LINE
  5
10B
100
AcDbEntity
  8
0
100
AcDbLine
 10
-0.189789
 20
0.725
 30
0.0
 11
-0.189789
 21
0.675
 31
0.0
  0
LINE
  5
10C
100
AcDbEntity
  8
0
100
AcDbLine
 10
-0.189789
 20
1.119
 30
0.0
 11
-0.189789
 21
1.069
 31
0.0
  0
CIRCLE
  5
10D
100
AcDbEntity
  8
0
100
AcDbCircle
 10
-0.2605
 20
1.291
 30
0.0
 40
0.077
  0
CIRCLE
  5
10E
100
AcDbEntity
  8
0
100
AcDbCircle
 10
-0.2605
 20
1.291
 30
0.0
 40
0.075
  0
LINE
  5
10F
100
AcDbEntity
  8
0
100
AcDbLine
 10
-0.189789
 20
1.316
 30
0.0
 11
-0.331211
 21
1.316
 31
0.0
  0
LINE
  5
110
100
AcDbEntity
  8
0
100
AcDbLine
 10
-0.189789
 20
1.266
 30
0.0
 11
-0.331211
 21
1.266
 31
0.0
  0
SOLID
  5
111
100
AcDbEntity
  8
0
100
AcDbTrace
 10
-0.189789
 20
1.316
 30
0.0
 11
-0.331211
 21
1.316
 31
0.0
 12
-0.189789
 22
1.266
 32
0.0
 13
-0.331211
 23
1.266
 33
0.0
  0
LINE
  5
112
100
AcDbEntity
  8
0
100
AcDbLine
 10
-0.331211
 20
1.266
 30
0.0
 11
-0.331211
 21
1.316
 31
0.0
  0
LINE
  5
113
100
AcDbEntity
  8
0
100
AcDbLine
 10
-0.189789
 20
1.316
 30
0.0
 11
-0.189789
 21
1.266
 31
0.0
  0
SOLID
  5
114
100
AcDbEntity
  8
0
100
AcDbTrace
 10
-0.189789
 20
1.914
 30
0.0
 11
-0.331211
 21
1.914
 31
0.0
 12
-0.189789
 22
1.864
 32
0.0
 13
-0.331211
 23
1.864
 33
0.0
  0
LINE
  5
115
100
AcDbEntity
  8
0
100
AcDbLine
 10
-0.189789
 20
1.864
 30
0.0
 11
-0.331211
 21
1.864
 31
0.0
  0
LINE
  5
116
100
AcDbEntity
  8
0
100
AcDbLine
 10
-0.189789
 20
1.914
 30
0.0
 11
-0.331211
 21
1.914
 31
0.0
  0
CIRCLE
  5
117
100
AcDbEntity
  8
0
100
AcDbCircle
 10
-0.2605
 20
1.889
 30
0.0
 40
0.075
  0
CIRCLE
  5
118
100
AcDbEntity
  8
0
100
AcDbCircle
 10
-0.2605
 20
1.889
 30
0.0
 40
0.077
  0
SOLID
  5
119
100
AcDbEntity
  8
0
100
AcDbTrace
 10
-0.189789
 20
1.52
 30
0.0
 11
-0.331211
 21
1.52
 31
0.0
 12
-0.189789
 22
1.47
 32
0.0
 13
-0.331211
 23
1.47
 33
0.0
  0
LINE
  5
11A
100
AcDbEntity
  8
0
100
AcDbLine
 10
-0.189789
 20
1.47
 30
0.0
 11
-0.331211
 21
1.47
 31
0.0
  0
LINE
  5
11B
100
AcDbEntity
  8
0
100
AcDbLine
 10
-0.189789
 20
1.52
 30
0.0
 11
-0.331211
 21
1.52
 31
0.0
  0
CIRCLE
  5
11C
100
AcDbEntity
  8
0
100
AcDbCircle
 10
-0.2605
 20
1.495
 30
0.0
 40
0.075
  0
CIRCLE
  5
11D
100
AcDbEntity
  8
0
100
AcDbCircle
 10
-0.2605
 20
1.495
 30
0.0
 40
0.077
  0
CIRCLE
  5
11E
100
AcDbEntity
  8
0
100
AcDbCircle
 10
-0.2605
 20
1.692
 30
0.0
 40
0.077
  0
CIRCLE
  5
11F
100
AcDbEntity
  8
0
100
AcDbCircle
 10
-0.2605
 20
1.692
 30
0.0
 40
0.075
  0
LINE
  5
120
100
AcDbEntity
  8
0
100
AcDbLine
 10
-0.189789
 20
1.717
 30
0.0
 11
-0.331211
 21
1.717
 31
0.0
  0
LINE
  5
121
100
AcDbEntity
  8
0
100
AcDbLine
 10
-0.189789
 20
1.667
 30
0.0
 11
-0.331211
 21
1.667
 31
0.0
  0
SOLID
  5
122
100
AcDbEntity
  8
0
100
AcDbTrace
 10
-0.189789
 20
1.717
 30
0.0
 11
-0.331211
 21
1.717
 31
0.0
 12
-0.189789
 22
1.667
 32
0.0
 13
-0.331211
 23
1.667
 33
0.0
  0
LINE
  5
123
100
AcDbEntity
  8
0
100
AcDbLine
 10
-0.331211
 20
1.47
 30
0.0
 11
-0.331211
 21
1.52
 31
0.0
  0
LINE
  5
124
100
AcDbEntity
  8
0
100
AcDbLine
 10
-0.331211
 20
1.667
 30
0.0
 11
-0.331211
 21
1.717
 31
0.0
  0
LINE
  5
125
100
AcDbEntity
  8
0
100
AcDbLine
 10
-0.331211
 20
1.864
 30
0.0
 11
-0.331211
 21
1.914
 31
0.0
  0
LINE
  5
126
100
AcDbEntity
  8
0
100
AcDbLine
 10
-0.189789
 20
1.52
 30
0.0
 11
-0.189789
 21
1.47
 31
0.0
  0
LINE
  5
127
100
AcDbEntity
  8
0
100
AcDbLine
 10
-0.189789
 20
1.717
 30
0.0
 11
-0.189789
 21
1.667
 31
0.0
  0
LINE
  5
128
100
AcDbEntity
  8
0
100
AcDbLine
 10
-0.189789
 20
1.914
 30
0.0
 11
-0.189789
 21
1.864
 31
0.0
  0
ENDBLK
  5
12A
100
AcDbEntity
  8
0
100
AcDbBlockEnd
  0
BLOCK
  5
150
100
AcDbEntity
  8
0
100
AcDbBlockBegin
  2
9_PIN_D
 70
     0
 10
0.0
 20
0.0
 30
0.0
  3
9_PIN_D
  1

  0
LINE
  5
135
100
AcDbEntity
  8
0
100
AcDbLine
 10
-0.245
 20
0.54575
 30
0.0
 11
-0.245
 21
-0.54575
 31
0.0
  0
LINE
  5
136
100
AcDbEntity
  8
0
100
AcDbLine
 10
0.245
 20
0.54575
 30
0.0
 11
0.245
 21
-0.54575
 31
0.0
  0
LINE
  5
137
100
AcDbEntity
  8
0
100
AcDbLine
 10
0.1825
 20
-0.60825
 30
0.0
 11
-0.1825
 21
-0.60825
 31
0.0
  0
LINE
  5
138
100
AcDbEntity
  8
0
100
AcDbLine
 10
0.1825
 20
0.60825
 30
0.0
 11
-0.1825
 21
0.60825
 31
0.0
  0
CIRCLE
  5
139
100
AcDbEntity
  8
0
100
AcDbCircle
 10
0.0
 20
0.5
 30
0.0
 40
0.0585
  0
CIRCLE
  5
13A
100
AcDbEntity
  8
0
100
AcDbCircle
 10
0.0
 20
-0.5
 30
0.0
 40
0.0585
  0
LINE
  5
13B
100
AcDbEntity
  8
0
100
AcDbLine
 10
0.18175
 20
0.270844
 30
0.0
 11
0.18175
 21
-0.270844
 31
0.0
  0
LINE
  5
13C
100
AcDbEntity
  8
0
100
AcDbLine
 10
-0.18175
 20
0.283967
 30
0.0
 11
-0.18175
 21
-0.283967
 31
0.0
  0
LINE
  5
13D
100
AcDbEntity
  8
0
100
AcDbLine
 10
-0.115816
 20
0.346372
 30
0.0
 11
0.122684
 21
0.33325
 31
0.0
  0
ARC
  5
13E
100
AcDbEntity
  8
0
100
AcDbCircle
 10
0.11925
 20
0.270844
 30
0.0
 40
0.0625
100
AcDbArc
 50
0.0
 51
86.850725
  0
ARC
  5
13F
100
AcDbEntity
  8
0
100
AcDbCircle
 10
-0.11925
 20
0.283967
 30
0.0
 40
0.0625
100
AcDbArc
 50
86.850725
 51
180.0
  0
LINE
  5
140
100
AcDbEntity
  8
0
100
AcDbLine
 10
-0.115816
 20
-0.346372
 30
0.0
 11
0.122684
 21
-0.33325
 31
0.0
  0
ARC
  5
141
100
AcDbEntity
  8
0
100
AcDbCircle
 10
-0.11925
 20
-0.283967
 30
0.0
 40
0.0625
100
AcDbArc
 50
180.0
 51
273.149275
  0
ARC
  5
142
100
AcDbEntity
  8
0
100
AcDbCircle
 10
0.11925
 20
-0.270844
 30
0.0
 40
0.0625
100
AcDbArc
 50
273.149275
 51
360.0
  0
ARC
  5
143
100
AcDbEntity
  8
0
100
AcDbCircle
 10
0.1825
 20
0.54575
 30
0.0
 40
0.0625
100
AcDbArc
 50
0.0
 51
90.0
  0
ARC
  5
144
100
AcDbEntity
  8
0
100
AcDbCircle
 10
-0.1825
 20
0.54575
 30
0.0
 40
0.0625
100
AcDbArc
 50
90.0
 51
180.0
  0
ARC
  5
145
100
AcDbEntity
  8
0
100
AcDbCircle
 10
-0.1825
 20
-0.54575
 30
0.0
 40
0.0625
100
AcDbArc
 50
180.0
 51
270.0
  0
ARC
  5
146
100
AcDbEntity
  8
0
100
AcDbCircle
 10
0.1825
 20
-0.54575
 30
0.0
 40
0.0625
100
AcDbArc
 50
270.0
 51
0.0
  0
CIRCLE
  5
147
100
AcDbEntity
  8
0
100
AcDbCircle
 10
-0.0645
 20
0.0
 30
0.0
 40
0.0185
  0
CIRCLE
  5
148
100
AcDbEntity
  8
0
100
AcDbCircle
 10
-0.0645
 20
0.1
 30
0.0
 40
0.0185
  0
CIRCLE
  5
149
100
AcDbEntity
  8
0
100
AcDbCircle
 10
-0.0645
 20
0.2
 30
0.0
 40
0.0185
  0
CIRCLE
  5
14A
100
AcDbEntity
  8
0
100
AcDbCircle
 10
-0.0645
 20
-0.2
 30
0.0
 40
0.0185
  0
CIRCLE
  5
14B
100
AcDbEntity
  8
0
100
AcDbCircle
 10
-0.0645
 20
-0.1
 30
0.0
 40
0.0185
  0
CIRCLE
  5
14C
100
AcDbEntity
  8
0
100
AcDbCircle
 10
0.0645
 20
-0.05
 30
0.0
 40
0.0185
  0
CIRCLE
  5
14D
100
AcDbEntity
  8
0
100
AcDbCircle
 10
0.0645
 20
-0.15
 30
0.0
 40
0.0185
  0
CIRCLE
  5
14E
100
AcDbEntity
  8
0
100
AcDbCircle
 10
0.0645
 20
0.05
 30
0.0
 40
0.0185
  0
CIRCLE
  5
14F
100
AcDbEntity
  8
0
100
AcDbCircle
 10
0.0645
 20
0.15
 30
0.0
 40
0.0185
  0
ENDBLK
  5
151
100
AcDbEntity
  8
0
100
AcDbBlockEnd
  0
ENDSEC
  0
SECTION
  2
ENTITIES
  0
LINE
  5
25
100
AcDbEntity
  8
0
100
AcDbLine
 10
-0.76375
 20
1.1766
 30
0.0
 11
0.76375
 21
1.1766
 31
0.0
  0
LINE
  5
26
100
AcDbEntity
  8
0
100
AcDbLine
 10
-0.76375
 20
10.9766
 30
0.0
 11
0.76375
 21
10.9766
 31
0.0
  0
LINE
  5
27
100
AcDbEntity
  8
0
100
AcDbLine
 10
-0.795
 20
10.94535
 30
0.0
 11
-0.795
 21
1.20785
 31
0.0
  0
LINE
  5
28
100
AcDbEntity
  8
0
100
AcDbLine
 10
0.795
 20
10.94535
 30
0.0
 11
0.795
 21
1.20785
 31
0.0
  0
LINE
  5
29
100
AcDbEntity
  8
0
100
AcDbLine
 10
0.42625
 20
1.2966
 30
0.0
 11
0.795
 21
1.2966
 31
0.0
  0
LINE
  5
2A
100
AcDbEntity
  8
0
100
AcDbLine
 10
0.395
 20
1.26535
 30
0.0
 11
0.395
 21
1.1766
 31
0.0
  0
LINE
  5
2B
100
AcDbEntity
  8
0
100
AcDbLine
 10
-0.68625
 20
1.3016
 30
0.0
 11
0.795
 21
1.3016
 31
0.0
  0
LINE
  5
2C
100
AcDbEntity
  8
0
100
AcDbLine
 10
-0.68625
 20
7.1266
 30
0.0
 11
0.795
 21
7.1266
 31
0.0
  0
LINE
  5
2D
100
AcDbEntity
  8
0
100
AcDbLine
 10
-0.7175
 20
7.09535
 30
0.0
 11
-0.7175
 21
1.33285
 31
0.0
  0
LINE
  5
2E
100
AcDbEntity
  8
0
100
AcDbLine
 10
-0.795
 20
7.1316
 30
0.0
 11
0.795
 21
7.1316
 31
0.0
  0
LINE
  5
2F
100
AcDbEntity
  8
0
100
AcDbLine
 10
-0.709
 20
7.2116
 30
0.0
 11
0.795
 21
7.2116
 31
0.0
  0
LINE
  5
30
100
AcDbEntity
  8
0
100
AcDbLine
 10
-0.709
 20
10.8846
 30
0.0
 11
-0.709
 21
7.2116
 31
0.0
  0
LINE
  5
31
100
AcDbEntity
  8
0
100
AcDbLine
 10
0.795
 20
10.9066
 30
0.0
 11
-0.709
 21
10.8846
 31
0.0
  0
LINE
  5
32
100
AcDbEntity
  8
0
100
AcDbLine
 10
0.7115
 20
10.7726
 30
0.0
 11
0.7115
 21
7.4381
 31
0.0
  0
LINE
  5
33
100
AcDbEntity
  8
0
100
AcDbLine
 10
0.6445
 20
10.7056
 30
0.0
 11
0.6445
 21
7.5051
 31
0.0
  0
LINE
  5
34
100
AcDbEntity
  8
0
100
AcDbLine
 10
-0.709
 20
10.7056
 30
0.0
 11
0.6445
 21
10.7056
 31
0.0
  0
LINE
  5
35
100
AcDbEntity
  8
0
100
AcDbLine
 10
-0.709
 20
10.7726
 30
0.0
 11
0.7115
 21
10.7726
 31
0.0
  0
LINE
  5
36
100
AcDbEntity
  8
0
100
AcDbLine
 10
-0.709
 20
7.4381
 30
0.0
 11
0.7115
 21
7.4381
 31
0.0
  0
LINE
  5
37
100
AcDbEntity
  8
0
100
AcDbLine
 10
-0.709
 20
7.5051
 30
0.0
 11
0.6445
 21
7.5051
 31
0.0
  0
TEXT
  5
38
100
AcDbEntity
  8
TEXT
100
AcDbText
 10
-0.25
 20
6.6316
 30
0.0
 40
0.25
  1
PiC
 72
     1
 11
0.0
 21
6.6316
 31
0.0
100
AcDbText
  0
LINE
  5
39
100
AcDbEntity
  8
0
100
AcDbLine
 10
-0.709
 20
10.5226
 30
0.0
 11
0.6445
 21
10.5226
 31
0.0
  0
LINE
  5
3A
100
AcDbEntity
  8
0
100
AcDbLine
 10
-0.709
 20
10.3726
 30
0.0
 11
0.6445
 21
10.3726
 31
0.0
  0
LINE
  5
3B
100
AcDbEntity
  8
0
100
AcDbLine
 10
-0.709
 20
10.3126
 30
0.0
 11
0.6445
 21
10.3126
 31
0.0
  0
LINE
  5
3C
100
AcDbEntity
  8
0
100
AcDbLine
 10
-0.709
 20
10.3526
 30
0.0
 11
0.6445
 21
10.3526
 31
0.0
  0
SOLID
  5
3D
100
AcDbEntity
  8
0
100
AcDbTrace
 10
-0.709
 20
10.5226
 30
0.0
 11
-0.709
 21
10.3726
 31
0.0
 12
0.6445
 22
10.5226
 32
0.0
 13
0.6445
 23
10.3726
 33
0.0
  0
SOLID
  5
3E
100
AcDbEntity
  8
0
100
AcDbTrace
 10
-0.709
 20
10.3526
 30
0.0
 11
-0.709
 21
10.3126
 31
0.0
 12
0.6445
 22
10.3526
 32
0.0
 13
0.6445
 23
10.3126
 33
0.0
  0
TEXT
  5
3F
100
AcDbEntity
  8
TEXT
100
AcDbText
 10
-0.679
 20
10.5526
 30
0.0
 40
0.1
  1
CPU
100
AcDbText
  0
LINE
  5
41
100
AcDbEntity
  8
0
100
AcDbLine
 10
0.3945
 20
10.2826
 30
0.0
 11
0.3945
 21
10.1326
 31
0.0
  0
LINE
  5
42
100
AcDbEntity
  8
0
100
AcDbLine
 10
0.2445
 20
10.2826
 30
0.0
 11
0.3945
 21
10.2826
 31
0.0
  0
LINE
  5
43
100
AcDbEntity
  8
0
100
AcDbLine
 10
0.2445
 20
10.1326
 30
0.0
 11
0.3945
 21
10.1326
 31
0.0
  0
LINE
  5
44
100
AcDbEntity
  8
0
100
AcDbLine
 10
0.2445
 20
10.2826
 30
0.0
 11
0.2445
 21
10.1326
 31
0.0
  0
TEXT
  5
45
100
AcDbEntity
  8
TEXT
100
AcDbText
 10
-0.138833
 20
10.1576
 30
0.0
 40
0.1
  1
DIAG
 72
     2
 11
0.1945
 21
10.1576
 31
0.0
100
AcDbText
  0
SOLID
  5
46
100
AcDbEntity
  8
0
100
AcDbTrace
 10
0.2445
 20
10.2826
 30
0.0
 11
0.3945
 21
10.2826
 31
0.0
 12
0.2445
 22
10.1326
 32
0.0
 13
0.3945
 23
10.1326
 33
0.0
  0
LINE
  5
47
100
AcDbEntity
  8
0
100
AcDbLine
 10
-0.45875
 20
11.85
 30
0.0
 11
0.45875
 21
11.85
 31
0.0
  0
LINE
  5
48
100
AcDbEntity
  8
0
100
AcDbLine
 10
-0.49
 20
11.5725
 30
0.0
 11
0.49
 21
11.5725
 31
0.0
  0
LINE
  5
49
100
AcDbEntity
  8
0
100
AcDbLine
 10
0.49
 20
11.81875
 30
0.0
 11
0.49
 21
10.9766
 31
0.0
  0
LINE
  5
4A
100
AcDbEntity
  8
0
100
AcDbLine
 10
-0.49
 20
11.81875
 30
0.0
 11
-0.49
 21
10.9766
 31
0.0
  0
LINE
  5
4B
100
AcDbEntity
  8
0
100
AcDbLine
 10
0.0625
 20
11.5725
 30
0.0
 11
0.0625
 21
11.48125
 31
0.0
  0
LINE
  5
4C
100
AcDbEntity
  8
0
100
AcDbLine
 10
-0.0625
 20
11.5725
 30
0.0
 11
-0.0625
 21
11.48125
 31
0.0
  0
LINE
  5
4D
100
AcDbEntity
  8
0
100
AcDbLine
 10
-0.03125
 20
11.45
 30
0.0
 11
0.03125
 21
11.45
 31
0.0
  0
ARC
  5
4E
100
AcDbEntity
  8
0
100
AcDbCircle
 10
0.45875
 20
11.81875
 30
0.0
 40
0.03125
100
AcDbArc
 50
0.0
 51
90.0
  0
ARC
  5
4F
100
AcDbEntity
  8
0
100
AcDbCircle
 10
-0.45875
 20
11.81875
 30
0.0
 40
0.03125
100
AcDbArc
 50
90.0
 51
180.0
  0
ARC
  5
50
100
AcDbEntity
  8
0
100
AcDbCircle
 10
-0.76375
 20
10.94535
 30
0.0
 40
0.03125
100
AcDbArc
 50
90.0
 51
180.0
  0
ARC
  5
51
100
AcDbEntity
  8
0
100
AcDbCircle
 10
0.76375
 20
10.94535
 30
0.0
 40
0.03125
100
AcDbArc
 50
0.0
 51
90.0
  0
ARC
  5
52
100
AcDbEntity
  8
0
100
AcDbCircle
 10
0.03125
 20
11.48125
 30
0.0
 40
0.03125
100
AcDbArc
 50
270.0
 51
360.0
  0
ARC
  5
53
100
AcDbEntity
  8
0
100
AcDbCircle
 10
-0.03125
 20
11.48125
 30
0.0
 40
0.03125
100
AcDbArc
 50
180.0
 51
270.0
  0
ARC
  5
54
100
AcDbEntity
  8
0
100
AcDbCircle
 10
-0.76375
 20
1.20785
 30
0.0
 40
0.03125
100
AcDbArc
 50
180.0
 51
270.0
  0
ARC
  5
55
100
AcDbEntity
  8
0
100
AcDbCircle
 10
0.76375
 20
1.20785
 30
0.0
 40
0.03125
100
AcDbArc
 50
270.0
 51
0.0
  0
ARC
  5
56
100
AcDbEntity
  8
0
100
AcDbCircle
 10
-0.68625
 20
1.33285
 30
0.0
 40
0.03125
100
AcDbArc
 50
180.0
 51
270.0
  0
ARC
  5
57
100
AcDbEntity
  8
0
100
AcDbCircle
 10
0.42625
 20
1.26535
 30
0.0
 40
0.03125
100
AcDbArc
 50
90.0
 51
180.0
  0
ARC
  5
58
100
AcDbEntity
  8
0
100
AcDbCircle
 10
-0.68625
 20
7.09535
 30
0.0
 40
0.03125
100
AcDbArc
 50
90.0
 51
180.0
  0
LINE
  5
59
100
AcDbEntity
  8
0
100
AcDbLine
 10
-0.45875
 20
0.0
 30
0.0
 11
0.45875
 21
0.0
 31
0.0
  0
LINE
  5
5A
100
AcDbEntity
  8
0
100
AcDbLine
 10
-0.0625
 20
1.1766
 30
0.0
 11
-0.0625
 21
0.6
 31
0.0
  0
LINE
  5
5B
100
AcDbEntity
  8
0
100
AcDbLine
 10
0.0625
 20
1.1766
 30
0.0
 11
0.0625
 21
0.6
 31
0.0
  0
LINE
  5
5C
100
AcDbEntity
  8
0
100
AcDbLine
 10
0.49
 20
1.1766
 30
0.0
 11
0.49
 21
0.03125
 31
0.0
  0
LINE
  5
5D
100
AcDbEntity
  8
0
100
AcDbLine
 10
-0.49
 20
1.1766
 30
0.0
 11
-0.49
 21
0.03125
 31
0.0
  0
LINE
  5
5E
100
AcDbEntity
  8
0
100
AcDbLine
 10
-0.49
 20
0.35
 30
0.0
 11
0.49
 21
0.35
 31
0.0
  0
ARC
  5
5F
100
AcDbEntity
  8
0
100
AcDbCircle
 10
0.45875
 20
0.03125
 30
0.0
 40
0.03125
100
AcDbArc
 50
270.0
 51
0.0
  0
ARC
  5
60
100
AcDbEntity
  8
0
100
AcDbCircle
 10
-0.45875
 20
0.03125
 30
0.0
 40
0.03125
100
AcDbArc
 50
180.0
 51
270.0
  0
LINE
  5
61
100
AcDbEntity
  8
0
100
AcDbLine
 10
-0.0625
 20
0.6
 30
0.0
 11
0.0625
 21
0.6
 31
0.0
  0
TEXT
  5
62
100
AcDbEntity
  8
TEXT
100
AcDbText
 10
0.145
 20
1.4516
 30
0.0
 40
0.05
  1
900_CPU.DWG
 72
     2
 11
0.645
 21
1.4516
 31
0.0
100
AcDbText
  0
TEXT
  5
63
100
AcDbEntity
  8
TEXT
100
AcDbText
 10
-0.373917
 20
7.6551
 30
0.0
 40
0.1
  1
Part #:?
 72
     1
 11
-0.03225
 21
7.6551
 31
0.0
100
AcDbText
  0
SOLID
  5
6B
100
AcDbEntity
  8
0
100
AcDbTrace
 10
0.2445
 20
10.0326
 30
0.0
 11
0.3945
 21
10.0326
 31
0.0
 12
0.2445
 22
9.8826
 32
0.0
 13
0.3945
 23
9.8826
 33
0.0
  0
LINE
  5
6C
100
AcDbEntity
  8
0
100
AcDbLine
 10
0.2445
 20
9.8826
 30
0.0
 11
0.3945
 21
9.8826
 31
0.0
  0
LINE
  5
6D
100
AcDbEntity
  8
0
100
AcDbLine
 10
0.2445
 20
10.0326
 30
0.0
 11
0.3945
 21
10.0326
 31
0.0
  0
TEXT
  5
6E
100
AcDbEntity
  8
TEXT
100
AcDbText
 10
-0.338833
 20
9.9076
 30
0.0
 40
0.1
  1
CONFIG
 72
     2
 11
0.1945
 21
9.9076
 31
0.0
100
AcDbText
  0
LINE
  5
6F
100
AcDbEntity
  8
0
100
AcDbLine
 10
0.2445
 20
10.0326
 30
0.0
 11
0.2445
 21
9.8826
 31
0.0
  0
LINE
  5
70
100
AcDbEntity
  8
0
100
AcDbLine
 10
0.3945
 20
10.0326
 30
0.0
 11
0.3945
 21
9.8826
 31
0.0
  0
LINE
  5
71
100
AcDbEntity
  8
0
100
AcDbLine
 10
0.2445
 20
9.7826
 30
0.0
 11
0.3945
 21
9.7826
 31
0.0
  0
LINE
  5
72
100
AcDbEntity
  8
0
100
AcDbLine
 10
0.2445
 20
9.6326
 30
0.0
 11
0.3945
 21
9.6326
 31
0.0
  0
SOLID
  5
73
100
AcDbEntity
  8
0
100
AcDbTrace
 10
0.2445
 20
9.7826
 30
0.0
 11
0.3945
 21
9.7826
 31
0.0
 12
0.2445
 22
9.6326
 32
0.0
 13
0.3945
 23
9.6326
 33
0.0
  0
LINE
  5
74
100
AcDbEntity
  8
0
100
AcDbLine
 10
0.2445
 20
9.7826
 30
0.0
 11
0.2445
 21
9.6326
 31
0.0
  0
LINE
  5
75
100
AcDbEntity
  8
0
100
AcDbLine
 10
0.3945
 20
9.7826
 30
0.0
 11
0.3945
 21
9.6326
 31
0.0
  0
LINE
  5
76
100
AcDbEntity
  8
0
100
AcDbLine
 10
0.2445
 20
9.5326
 30
0.0
 11
0.3945
 21
9.5326
 31
0.0
  0
LINE
  5
77
100
AcDbEntity
  8
0
100
AcDbLine
 10
0.2445
 20
9.3826
 30
0.0
 11
0.3945
 21
9.3826
 31
0.0
  0
SOLID
  5
78
100
AcDbEntity
  8
0
100
AcDbTrace
 10
0.2445
 20
9.5326
 30
0.0
 11
0.3945
 21
9.5326
 31
0.0
 12
0.2445
 22
9.3826
 32
0.0
 13
0.3945
 23
9.3826
 33
0.0
  0
LINE
  5
79
100
AcDbEntity
  8
0
100
AcDbLine
 10
0.2445
 20
9.5326
 30
0.0
 11
0.2445
 21
9.3826
 31
0.0
  0
LINE
  5
7A
100
AcDbEntity
  8
0
100
AcDbLine
 10
0.3945
 20
9.5326
 30
0.0
 11
0.3945
 21
9.3826
 31
0.0
  0
LINE
  5
7B
100
AcDbEntity
  8
0
100
AcDbLine
 10
0.2445
 20
9.2826
 30
0.0
 11
0.3945
 21
9.2826
 31
0.0
  0
LINE
  5
7C
100
AcDbEntity
  8
0
100
AcDbLine
 10
0.2445
 20
9.1326
 30
0.0
 11
0.3945
 21
9.1326
 31
0.0
  0
SOLID
  5
7D
100
AcDbEntity
  8
0
100
AcDbTrace
 10
0.2445
 20
9.2826
 30
0.0
 11
0.3945
 21
9.2826
 31
0.0
 12
0.2445
 22
9.1326
 32
0.0
 13
0.3945
 23
9.1326
 33
0.0
  0
LINE
  5
7E
100
AcDbEntity
  8
0
100
AcDbLine
 10
0.2445
 20
9.2826
 30
0.0
 11
0.2445
 21
9.1326
 31
0.0
  0
LINE
  5
7F
100
AcDbEntity
  8
0
100
AcDbLine
 10
0.3945
 20
9.2826
 30
0.0
 11
0.3945
 21
9.1326
 31
0.0
  0
SOLID
  5
82
100
AcDbEntity
  8
0
100
AcDbTrace
 10
-0.0055
 20
9.2826
 30
0.0
 11
0.1445
 21
9.2826
 31
0.0
 12
-0.0055
 22
9.1326
 32
0.0
 13
0.1445
 23
9.1326
 33
0.0
  0
LINE
  5
83
100
AcDbEntity
  8
0
100
AcDbLine
 10
-0.0055
 20
9.1326
 30
0.0
 11
0.1445
 21
9.1326
 31
0.0
  0
LINE
  5
84
100
AcDbEntity
  8
0
100
AcDbLine
 10
-0.0055
 20
9.2826
 30
0.0
 11
0.1445
 21
9.2826
 31
0.0
  0
SOLID
  5
85
100
AcDbEntity
  8
0
100
AcDbTrace
 10
-0.0055
 20
9.5326
 30
0.0
 11
0.1445
 21
9.5326
 31
0.0
 12
-0.0055
 22
9.3826
 32
0.0
 13
0.1445
 23
9.3826
 33
0.0
  0
LINE
  5
86
100
AcDbEntity
  8
0
100
AcDbLine
 10
-0.0055
 20
9.3826
 30
0.0
 11
0.1445
 21
9.3826
 31
0.0
  0
LINE
  5
87
100
AcDbEntity
  8
0
100
AcDbLine
 10
-0.0055
 20
9.5326
 30
0.0
 11
0.1445
 21
9.5326
 31
0.0
  0
SOLID
  5
88
100
AcDbEntity
  8
0
100
AcDbTrace
 10
-0.0055
 20
9.7826
 30
0.0
 11
0.1445
 21
9.7826
 31
0.0
 12
-0.0055
 22
9.6326
 32
0.0
 13
0.1445
 23
9.6326
 33
0.0
  0
LINE
  5
89
100
AcDbEntity
  8
0
100
AcDbLine
 10
-0.0055
 20
9.6326
 30
0.0
 11
0.1445
 21
9.6326
 31
0.0
  0
LINE
  5
8A
100
AcDbEntity
  8
0
100
AcDbLine
 10
-0.0055
 20
9.7826
 30
0.0
 11
0.1445
 21
9.7826
 31
0.0
  0
LINE
  5
8B
100
AcDbEntity
  8
0
100
AcDbLine
 10
-0.0055
 20
9.2826
 30
0.0
 11
-0.0055
 21
9.1326
 31
0.0
  0
LINE
  5
8C
100
AcDbEntity
  8
0
100
AcDbLine
 10
-0.0055
 20
9.5326
 30
0.0
 11
-0.0055
 21
9.3826
 31
0.0
  0
LINE
  5
8D
100
AcDbEntity
  8
0
100
AcDbLine
 10
-0.0055
 20
9.7826
 30
0.0
 11
-0.0055
 21
9.6326
 31
0.0
  0
LINE
  5
8E
100
AcDbEntity
  8
0
100
AcDbLine
 10
0.1445
 20
9.2826
 30
0.0
 11
0.1445
 21
9.1326
 31
0.0
  0
LINE
  5
8F
100
AcDbEntity
  8
0
100
AcDbLine
 10
0.1445
 20
9.5326
 30
0.0
 11
0.1445
 21
9.3826
 31
0.0
  0
LINE
  5
90
100
AcDbEntity
  8
0
100
AcDbLine
 10
0.1445
 20
9.7826
 30
0.0
 11
0.1445
 21
9.6326
 31
0.0
  0
TEXT
  5
91
100
AcDbEntity
  8
TEXT
100
AcDbText
 10
-0.422167
 20
9.6576
 30
0.0
 40
0.1
  1
DATA
 72
     2
 11
-0.0555
 21
9.6576
 31
0.0
100
AcDbText
  0
TEXT
  5
92
100
AcDbEntity
  8
TEXT
100
AcDbText
 10
-0.622167
 20
9.4076
 30
0.0
 40
0.1
  1
ARCNET
 72
     2
 11
-0.0555
 21
9.4076
 31
0.0
100
AcDbText
  0
TEXT
  5
93
100
AcDbEntity
  8
TEXT
100
AcDbText
 10
-0.522167
 20
9.1576
 30
0.0
 40
0.1
  1
RS232
 72
     2
 11
-0.0555
 21
9.1576
 31
0.0
100
AcDbText
  0
TEXT
  5
95
100
AcDbEntity
  8
TEXT
100
AcDbText
 10
0.2445
 20
9.803881
 30
0.0
 40
0.05
  1
OUT
 41
1.125
 72
     5
 11
0.3945
 21
9.803881
 31
0.0
100
AcDbText
  0
TEXT
  5
96
100
AcDbEntity
  8
TEXT
100
AcDbText
 10
0.2445
 20
9.553881
 30
0.0
 40
0.05
  1
ACT
 41
1.125
 72
     5
 11
0.3945
 21
9.553881
 31
0.0
100
AcDbText
  0
TEXT
  5
97
100
AcDbEntity
  8
TEXT
100
AcDbText
 10
0.2445
 20
9.303881
 30
0.0
 40
0.05
  1
OUT
 41
1.125
 72
     5
 11
0.3945
 21
9.303881
 31
0.0
100
AcDbText
  0
TEXT
  5
98
100
AcDbEntity
  8
TEXT
100
AcDbText
 10
-0.0055
 20
9.303881
 30
0.0
 40
0.05
  1
IN
 41
2.25
 72
     5
 11
0.1445
 21
9.303881
 31
0.0
100
AcDbText
  0
TEXT
  5
99
100
AcDbEntity
  8
TEXT
100
AcDbText
 10
-0.0055
 20
9.553881
 30
0.0
 40
0.05
  1
TX
 41
1.8
 72
     5
 11
0.1445
 21
9.553881
 31
0.0
100
AcDbText
  0
TEXT
  5
9A
100
AcDbEntity
  8
TEXT
100
AcDbText
 10
-0.0055
 20
9.803881
 30
0.0
 40
0.05
  1
IN
 41
2.25
 72
     5
 11
0.1445
 21
9.803881
 31
0.0
100
AcDbText
  0
INSERT
  5
D9
100
AcDbEntity
  8
0
100
AcDbBlockReference
  2
PCON_7
 10
0.395
 20
5.2401
 30
0.0
  0
INSERT
  5
12B
100
AcDbEntity
  8
0
100
AcDbBlockReference
  2
PCON_10
 10
0.395
 20
1.9491
 30
0.0
  0
INSERT
  5
152
100
AcDbEntity
  8
0
100
AcDbBlockReference
  2
9_PIN_D
 10
0.2365
 20
4.5901
 30
0.0
  0
ENDSEC
  0
SECTION
  2
OBJECTS
  0
DICTIONARY
  5
C
100
AcDbDictionary
  3
ACAD_GROUP
350
D
  3
ACAD_MLINESTYLE
350
E
  0
DICTIONARY
  5
D
102
{ACAD_REACTORS
330
C
102
}
100
AcDbDictionary
  0
DICTIONARY
  5
E
102
{ACAD_REACTORS
330
C
102
}
100
AcDbDictionary
  3
STANDARD
350
1B
  0
MLINESTYLE
  5
1B
102
{ACAD_REACTORS
330
E
102
}
100
AcDbMlineStyle
  2
STANDARD
 70
     0
  3

 62
     0
 51
90.0
 52
90.0
 71
     2
 49
0.5
 62
   256
  6
BYLAYER
 49
-0.5
 62
   256
  6
BYLAYER
  0
ENDSEC
  0
EOF
