  0
SECTION
  2
HEADER
  9
$ACADVER
  1
AC1012
  9
$DWGCODEPAGE
  3
ANSI_1252
  9
$INSBASE
 10
0.0
 20
0.0
 30
0.0
  9
$EXTMIN
 10
-1.196472
 20
-0.006472
 30
0.0
  9
$EXTMAX
 10
1.196472
 20
11.856472
 30
0.0
  9
$LIMMIN
 10
-1.754351
 20
-0.310672
  9
$LIMMAX
 10
2.346647
 20
12.443309
  9
$ORTHOMODE
 70
     1
  9
$REGENMODE
 70
     1
  9
$FILLMODE
 70
     1
  9
$QTEXTMODE
 70
     0
  9
$MIRRTEXT
 70
     1
  9
$DRAGMODE
 70
     2
  9
$LTSCALE
 40
0.25
  9
$OSMODE
 70
     0
  9
$ATTMODE
 70
     1
  9
$TEXTSIZE
 40
0.14
  9
$TRACEWID
 40
0.05
  9
$TEXTSTYLE
  7
STANDARD
  9
$CLAYER
  8
0
  9
$CELTYPE
  6
BYLAYER
  9
$CECOLOR
 62
   256
  9
$CELTSCALE
 40
1.0
  9
$DELOBJ
 70
     1
  9
$DISPSILH
 70
     0
  9
$DIMSCALE
 40
1.0
  9
$DIMASZ
 40
0.18
  9
$DIMEXO
 40
0.0625
  9
$DIMDLI
 40
0.38
  9
$DIMRND
 40
0.0
  9
$DIMDLE
 40
0.0
  9
$DIMEXE
 40
0.18
  9
$DIMTP
 40
0.0
  9
$DIMTM
 40
0.0
  9
$DIMTXT
 40
0.18
  9
$DIMCEN
 40
0.09
  9
$DIMTSZ
 40
0.0
  9
$DIMTOL
 70
     0
  9
$DIMLIM
 70
     0
  9
$DIMTIH
 70
     1
  9
$DIMTOH
 70
     1
  9
$DIMSE1
 70
     0
  9
$DIMSE2
 70
     0
  9
$DIMTAD
 70
     0
  9
$DIMZIN
 70
     0
  9
$DIMBLK
  1

  9
$DIMASO
 70
     1
  9
$DIMSHO
 70
     1
  9
$DIMPOST
  1

  9
$DIMAPOST
  1

  9
$DIMALT
 70
     0
  9
$DIMALTD
 70
     2
  9
$DIMALTF
 40
25.4
  9
$DIMLFAC
 40
1.0
  9
$DIMTOFL
 70
     0
  9
$DIMTVP
 40
0.0
  9
$DIMTIX
 70
     0
  9
$DIMSOXD
 70
     0
  9
$DIMSAH
 70
     0
  9
$DIMBLK1
  1

  9
$DIMBLK2
  1

  9
$DIMSTYLE
  2
STANDARD
  9
$DIMCLRD
 70
     0
  9
$DIMCLRE
 70
     0
  9
$DIMCLRT
 70
     0
  9
$DIMTFAC
 40
1.0
  9
$DIMGAP
 40
0.09
  9
$DIMJUST
 70
     0
  9
$DIMSD1
 70
     0
  9
$DIMSD2
 70
     0
  9
$DIMTOLJ
 70
     1
  9
$DIMTZIN
 70
     0
  9
$DIMALTZ
 70
     0
  9
$DIMALTTZ
 70
     0
  9
$DIMFIT
 70
     3
  9
$DIMUPT
 70
     0
  9
$DIMUNIT
 70
     2
  9
$DIMDEC
 70
     4
  9
$DIMTDEC
 70
     4
  9
$DIMALTU
 70
     2
  9
$DIMALTTD
 70
     2
  9
$DIMTXSTY
  7
STANDARD
  9
$DIMAUNIT
 70
     0
  9
$LUNITS
 70
     2
  9
$LUPREC
 70
     4
  9
$SKETCHINC
 40
0.1
  9
$FILLETRAD
 40
0.03125
  9
$AUNITS
 70
     0
  9
$AUPREC
 70
     0
  9
$MENU
  1
acad
  9
$ELEVATION
 40
0.0
  9
$PELEVATION
 40
0.0
  9
$THICKNESS
 40
0.0
  9
$LIMCHECK
 70
     0
  9
$BLIPMODE
 70
     1
  9
$CHAMFERA
 40
0.0
  9
$CHAMFERB
 40
0.0
  9
$CHAMFERC
 40
0.0
  9
$CHAMFERD
 40
0.0
  9
$SKPOLY
 70
     0
  9
$TDCREATE
 40
2450238.293903472
  9
$TDUPDATE
 40
2450886.431241319
  9
$TDINDWG
 40
0.1504680556
  9
$TDUSRTIMER
 40
0.1504680556
  9
$USRTIMER
 70
     1
  9
$ANGBASE
 50
0.0
  9
$ANGDIR
 70
     0
  9
$PDMODE
 70
     0
  9
$PDSIZE
 40
0.0
  9
$PLINEWID
 40
0.0
  9
$COORDS
 70
     1
  9
$SPLFRAME
 70
     0
  9
$SPLINETYPE
 70
     6
  9
$SPLINESEGS
 70
     8
  9
$ATTDIA
 70
     0
  9
$ATTREQ
 70
     1
  9
$HANDLING
 70
     1
  9
$HANDSEED
  5
13E
  9
$SURFTAB1
 70
     6
  9
$SURFTAB2
 70
     6
  9
$SURFTYPE
 70
     6
  9
$SURFU
 70
     6
  9
$SURFV
 70
     6
  9
$UCSNAME
  2

  9
$UCSORG
 10
0.0
 20
0.0
 30
0.0
  9
$UCSXDIR
 10
1.0
 20
0.0
 30
0.0
  9
$UCSYDIR
 10
0.0
 20
1.0
 30
0.0
  9
$PUCSNAME
  2

  9
$PUCSORG
 10
0.0
 20
0.0
 30
0.0
  9
$PUCSXDIR
 10
1.0
 20
0.0
 30
0.0
  9
$PUCSYDIR
 10
0.0
 20
1.0
 30
0.0
  9
$USERI1
 70
     0
  9
$USERI2
 70
     0
  9
$USERI3
 70
     0
  9
$USERI4
 70
     0
  9
$USERI5
 70
     0
  9
$USERR1
 40
0.0
  9
$USERR2
 40
0.0
  9
$USERR3
 40
0.0
  9
$USERR4
 40
0.0
  9
$USERR5
 40
0.0
  9
$WORLDVIEW
 70
     1
  9
$SHADEDGE
 70
     3
  9
$SHADEDIF
 70
    70
  9
$TILEMODE
 70
     1
  9
$MAXACTVP
 70
    16
  9
$PINSBASE
 10
0.0
 20
0.0
 30
0.0
  9
$PLIMCHECK
 70
     0
  9
$PEXTMIN
 10
1.000000E+20
 20
1.000000E+20
 30
1.000000E+20
  9
$PEXTMAX
 10
-1.000000E+20
 20
-1.000000E+20
 30
-1.000000E+20
  9
$PLIMMIN
 10
0.0
 20
0.0
  9
$PLIMMAX
 10
12.0
 20
9.0
  9
$UNITMODE
 70
     0
  9
$VISRETAIN
 70
     0
  9
$PLINEGEN
 70
     0
  9
$PSLTSCALE
 70
     1
  9
$TREEDEPTH
 70
  3020
  9
$PICKSTYLE
 70
     1
  9
$CMLSTYLE
  2
STANDARD
  9
$CMLJUST
 70
     0
  9
$CMLSCALE
 40
1.0
  9
$SAVEIMAGES
 70
     1
  0
ENDSEC
  0
SECTION
  2
CLASSES
  0
ENDSEC
  0
SECTION
  2
TABLES
  0
TABLE
  2
VPORT
  5
8
100
AcDbSymbolTable
 70
     2
  0
VPORT
  5
13D
100
AcDbSymbolTableRecord
100
AcDbViewportTableRecord
  2
*ACTIVE
 70
     0
 10
0.0
 20
0.0
 11
1.0
 21
1.0
 12
10.627369
 22
6.527847
 13
0.0
 23
0.0
 14
1.0
 24
1.0
 15
0.0
 25
0.0
 16
0.0
 26
0.0
 36
1.0
 17
0.0
 27
0.0
 37
0.0
 40
13.677039
 41
1.810585
 42
50.0
 43
0.0
 44
0.0
 50
0.0
 51
0.0
 71
     0
 72
   100
 73
     1
 74
     1
 75
     0
 76
     0
 77
     0
 78
     0
  0
ENDTAB
  0
TABLE
  2
LTYPE
  5
5
100
AcDbSymbolTable
 70
     2
  0
LTYPE
  5
12
100
AcDbSymbolTableRecord
100
AcDbLinetypeTableRecord
  2
BYBLOCK
 70
     0
  3

 72
    65
 73
     0
 40
0.0
  0
LTYPE
  5
13
100
AcDbSymbolTableRecord
100
AcDbLinetypeTableRecord
  2
BYLAYER
 70
     0
  3

 72
    65
 73
     0
 40
0.0
  0
LTYPE
  5
14
100
AcDbSymbolTableRecord
100
AcDbLinetypeTableRecord
  2
CONTINUOUS
 70
     0
  3
Solid line
 72
    65
 73
     0
 40
0.0
  0
LTYPE
  5
CE
100
AcDbSymbolTableRecord
100
AcDbLinetypeTableRecord
  2
HIDDEN
 70
     0
  3
__ __ __ __ __ __ __ __ __ __ __ __ __ __ __ __
 72
    65
 73
     2
 40
0.375
 49
0.25
 74
     0
 49
-0.125
 74
     0
  0
ENDTAB
  0
TABLE
  2
LAYER
  5
2
100
AcDbSymbolTable
 70
     3
  0
LAYER
  5
F
100
AcDbSymbolTableRecord
100
AcDbLayerTableRecord
  2
0
 70
     0
 62
     7
  6
CONTINUOUS
  0
LAYER
  5
20
100
AcDbSymbolTableRecord
100
AcDbLayerTableRecord
  2
TEXT
 70
     0
 62
     2
  6
CONTINUOUS
  0
LAYER
  5
D3
100
AcDbSymbolTableRecord
100
AcDbLayerTableRecord
  2
HID
 70
     0
 62
     3
  6
HIDDEN
  0
ENDTAB
  0
TABLE
  2
STYLE
  5
3
100
AcDbSymbolTable
 70
     1
  0
STYLE
  5
10
100
AcDbSymbolTableRecord
100
AcDbTextStyleTableRecord
  2
STANDARD
 70
     0
 40
0.0
 41
1.0
 50
0.0
 71
     0
 42
0.14
  3
txt
  4

  0
ENDTAB
  0
TABLE
  2
VIEW
  5
6
100
AcDbSymbolTable
 70
     0
  0
ENDTAB
  0
TABLE
  2
UCS
  5
7
100
AcDbSymbolTable
 70
     0
  0
ENDTAB
  0
TABLE
  2
APPID
  5
9
100
AcDbSymbolTable
 70
     1
  0
APPID
  5
11
100
AcDbSymbolTableRecord
100
AcDbRegAppTableRecord
  2
ACAD
 70
     0
  0
ENDTAB
  0
TABLE
  2
DIMSTYLE
  5
A
100
AcDbSymbolTable
 70
     1
  0
DIMSTYLE
105
64
100
AcDbSymbolTableRecord
100
AcDbDimStyleTableRecord
  2
STANDARD
 70
     0
  3

  4

  5

  6

  7

 40
1.0
 41
0.18
 42
0.0625
 43
0.38
 44
0.18
 45
0.0
 46
0.0
 47
0.0
 48
0.0
140
0.18
141
0.09
142
0.0
143
25.4
144
1.0
145
0.0
146
1.0
147
0.09
 71
     0
 72
     0
 73
     1
 74
     1
 75
     0
 76
     0
 77
     0
 78
     0
170
     0
171
     2
172
     0
173
     0
174
     0
175
     0
176
     0
177
     0
178
     0
270
     2
271
     4
272
     4
273
     2
274
     2
340
10
275
     0
280
     0
281
     0
282
     0
283
     1
284
     0
285
     0
286
     0
287
     3
288
     0
  0
ENDTAB
  0
TABLE
  2
BLOCK_RECORD
  5
1
100
AcDbSymbolTable
 70
     1
  0
BLOCK_RECORD
  5
18
100
AcDbSymbolTableRecord
100
AcDbBlockTableRecord
  2
*MODEL_SPACE
  0
BLOCK_RECORD
  5
15
100
AcDbSymbolTableRecord
100
AcDbBlockTableRecord
  2
*PAPER_SPACE
  0
BLOCK_RECORD
  5
108
100
AcDbSymbolTableRecord
100
AcDbBlockTableRecord
  2
PIC_PCON
  0
ENDTAB
  0
ENDSEC
  0
SECTION
  2
BLOCKS
  0
BLOCK
  5
23
100
AcDbEntity
  8
0
100
AcDbBlockBegin
  2
*MODEL_SPACE
 70
     0
 10
0.0
 20
0.0
 30
0.0
  3
*MODEL_SPACE
  1

  0
ENDBLK
  5
24
100
AcDbEntity
  8
0
100
AcDbBlockEnd
  0
BLOCK
  5
21
100
AcDbEntity
 67
     1
  8
0
100
AcDbBlockBegin
  2
*PAPER_SPACE
 70
     0
 10
0.0
 20
0.0
 30
0.0
  3
*PAPER_SPACE
  1

  0
ENDBLK
  5
22
100
AcDbEntity
 67
     1
  8
0
100
AcDbBlockEnd
  0
BLOCK
  5
123
100
AcDbEntity
  8
0
100
AcDbBlockBegin
  2
PIC_PCON
 70
     0
 10
0.0
 20
0.0
 30
0.0
  3
PIC_PCON
  1

  0
LINE
  5
109
100
AcDbEntity
  8
0
100
AcDbLine
 10
0.0
 20
0.598
 30
0.0
 11
0.0
 21
0.0
 31
0.0
  0
LINE
  5
10A
100
AcDbEntity
  8
0
100
AcDbLine
 10
-0.4895
 20
0.598
 30
0.0
 11
-0.4895
 21
0.0
 31
0.0
  0
LINE
  5
10B
100
AcDbEntity
  8
0
100
AcDbLine
 10
0.0
 20
0.0
 30
0.0
 11
-0.4895
 21
0.0
 31
0.0
  0
LINE
  5
10C
100
AcDbEntity
  8
0
100
AcDbLine
 10
0.0
 20
0.598
 30
0.0
 11
-0.4895
 21
0.598
 31
0.0
  0
LINE
  5
10D
100
AcDbEntity
  8
0
100
AcDbLine
 10
-0.4235
 20
0.598
 30
0.0
 11
-0.4235
 21
0.0
 31
0.0
  0
CIRCLE
  5
10E
100
AcDbEntity
  8
0
100
AcDbCircle
 10
-0.2605
 20
0.102
 30
0.0
 40
0.077
  0
CIRCLE
  5
10F
100
AcDbEntity
  8
0
100
AcDbCircle
 10
-0.2605
 20
0.102
 30
0.0
 40
0.075
  0
LINE
  5
110
100
AcDbEntity
  8
0
100
AcDbLine
 10
-0.189789
 20
0.127
 30
0.0
 11
-0.331211
 21
0.127
 31
0.0
  0
LINE
  5
111
100
AcDbEntity
  8
0
100
AcDbLine
 10
-0.189789
 20
0.077
 30
0.0
 11
-0.331211
 21
0.077
 31
0.0
  0
LINE
  5
112
100
AcDbEntity
  8
0
100
AcDbLine
 10
-0.331211
 20
0.077
 30
0.0
 11
-0.331211
 21
0.127
 31
0.0
  0
LINE
  5
113
100
AcDbEntity
  8
0
100
AcDbLine
 10
-0.189789
 20
0.127
 30
0.0
 11
-0.189789
 21
0.077
 31
0.0
  0
SOLID
  5
114
100
AcDbEntity
  8
0
100
AcDbTrace
 10
-0.189789
 20
0.127
 30
0.0
 11
-0.331211
 21
0.127
 31
0.0
 12
-0.189789
 22
0.077
 32
0.0
 13
-0.331211
 23
0.077
 33
0.0
  0
SOLID
  5
115
100
AcDbEntity
  8
0
100
AcDbTrace
 10
-0.189789
 20
0.324
 30
0.0
 11
-0.331211
 21
0.324
 31
0.0
 12
-0.189789
 22
0.274
 32
0.0
 13
-0.331211
 23
0.274
 33
0.0
  0
LINE
  5
116
100
AcDbEntity
  8
0
100
AcDbLine
 10
-0.189789
 20
0.324
 30
0.0
 11
-0.189789
 21
0.274
 31
0.0
  0
LINE
  5
117
100
AcDbEntity
  8
0
100
AcDbLine
 10
-0.331211
 20
0.274
 30
0.0
 11
-0.331211
 21
0.324
 31
0.0
  0
LINE
  5
118
100
AcDbEntity
  8
0
100
AcDbLine
 10
-0.189789
 20
0.274
 30
0.0
 11
-0.331211
 21
0.274
 31
0.0
  0
LINE
  5
119
100
AcDbEntity
  8
0
100
AcDbLine
 10
-0.189789
 20
0.324
 30
0.0
 11
-0.331211
 21
0.324
 31
0.0
  0
CIRCLE
  5
11A
100
AcDbEntity
  8
0
100
AcDbCircle
 10
-0.2605
 20
0.299
 30
0.0
 40
0.075
  0
CIRCLE
  5
11B
100
AcDbEntity
  8
0
100
AcDbCircle
 10
-0.2605
 20
0.299
 30
0.0
 40
0.077
  0
CIRCLE
  5
11C
100
AcDbEntity
  8
0
100
AcDbCircle
 10
-0.2605
 20
0.496
 30
0.0
 40
0.077
  0
CIRCLE
  5
11D
100
AcDbEntity
  8
0
100
AcDbCircle
 10
-0.2605
 20
0.496
 30
0.0
 40
0.075
  0
LINE
  5
11E
100
AcDbEntity
  8
0
100
AcDbLine
 10
-0.189789
 20
0.521
 30
0.0
 11
-0.331211
 21
0.521
 31
0.0
  0
LINE
  5
11F
100
AcDbEntity
  8
0
100
AcDbLine
 10
-0.189789
 20
0.471
 30
0.0
 11
-0.331211
 21
0.471
 31
0.0
  0
LINE
  5
120
100
AcDbEntity
  8
0
100
AcDbLine
 10
-0.331211
 20
0.471
 30
0.0
 11
-0.331211
 21
0.521
 31
0.0
  0
LINE
  5
121
100
AcDbEntity
  8
0
100
AcDbLine
 10
-0.189789
 20
0.521
 30
0.0
 11
-0.189789
 21
0.471
 31
0.0
  0
SOLID
  5
122
100
AcDbEntity
  8
0
100
AcDbTrace
 10
-0.189789
 20
0.521
 30
0.0
 11
-0.331211
 21
0.521
 31
0.0
 12
-0.189789
 22
0.471
 32
0.0
 13
-0.331211
 23
0.471
 33
0.0
  0
ENDBLK
  5
124
100
AcDbEntity
  8
0
100
AcDbBlockEnd
  0
ENDSEC
  0
SECTION
  2
ENTITIES
  0
LINE
  5
25
100
AcDbEntity
  8
0
100
AcDbLine
 10
-1.15875
 20
1.1766
 30
0.0
 11
1.15875
 21
1.1766
 31
0.0
  0
LINE
  5
26
100
AcDbEntity
  8
0
100
AcDbLine
 10
-1.15875
 20
10.9766
 30
0.0
 11
1.15875
 21
10.9766
 31
0.0
  0
LINE
  5
27
100
AcDbEntity
  8
0
100
AcDbLine
 10
-1.19
 20
10.94535
 30
0.0
 11
-1.19
 21
1.20785
 31
0.0
  0
LINE
  5
28
100
AcDbEntity
  8
0
100
AcDbLine
 10
1.19
 20
10.94535
 30
0.0
 11
1.19
 21
1.20785
 31
0.0
  0
LINE
  5
2B
100
AcDbEntity
  8
0
100
AcDbLine
 10
-0.27875
 20
1.3016
 30
0.0
 11
1.19
 21
1.3016
 31
0.0
  0
LINE
  5
2E
100
AcDbEntity
  8
0
100
AcDbLine
 10
-1.19
 20
7.1316
 30
0.0
 11
1.19
 21
7.1316
 31
0.0
  0
LINE
  5
2F
100
AcDbEntity
  8
0
100
AcDbLine
 10
-1.19
 20
7.2116
 30
0.0
 11
1.19
 21
7.2116
 31
0.0
  0
LINE
  5
36
100
AcDbEntity
  8
0
100
AcDbLine
 10
-1.1085
 20
7.5966
 30
0.0
 11
1.08
 21
7.5966
 31
0.0
  0
LINE
  5
37
100
AcDbEntity
  8
0
100
AcDbLine
 10
-1.1085
 20
7.6636
 30
0.0
 11
1.01
 21
7.6636
 31
0.0
  0
TEXT
  5
38
100
AcDbEntity
  8
TEXT
100
AcDbText
 10
0.254157
 20
6.6316
 30
0.0
 40
0.25
  1
PiC
 72
     1
 11
0.504157
 21
6.6316
 31
0.0
100
AcDbText
  0
LINE
  5
39
100
AcDbEntity
  8
0
100
AcDbLine
 10
-1.1085
 20
10.5226
 30
0.0
 11
1.01
 21
10.5226
 31
0.0
  0
LINE
  5
3A
100
AcDbEntity
  8
0
100
AcDbLine
 10
-0.709
 20
10.3726
 30
0.0
 11
0.6445
 21
10.3726
 31
0.0
  0
LINE
  5
3B
100
AcDbEntity
  8
0
100
AcDbLine
 10
-0.709
 20
10.3126
 30
0.0
 11
0.6445
 21
10.3126
 31
0.0
  0
LINE
  5
3C
100
AcDbEntity
  8
0
100
AcDbLine
 10
-0.709
 20
10.3526
 30
0.0
 11
0.6445
 21
10.3526
 31
0.0
  0
TEXT
  5
3F
100
AcDbEntity
  8
TEXT
100
AcDbText
 10
-1.0785
 20
10.5526
 30
0.0
 40
0.1
  1
CSM
100
AcDbText
  0
LINE
  5
41
100
AcDbEntity
  8
0
100
AcDbLine
 10
0.86
 20
10.2826
 30
0.0
 11
0.86
 21
10.1326
 31
0.0
  0
LINE
  5
42
100
AcDbEntity
  8
0
100
AcDbLine
 10
0.71
 20
10.2826
 30
0.0
 11
0.86
 21
10.2826
 31
0.0
  0
LINE
  5
43
100
AcDbEntity
  8
0
100
AcDbLine
 10
0.71
 20
10.1326
 30
0.0
 11
0.86
 21
10.1326
 31
0.0
  0
LINE
  5
44
100
AcDbEntity
  8
0
100
AcDbLine
 10
0.71
 20
10.2826
 30
0.0
 11
0.71
 21
10.1326
 31
0.0
  0
TEXT
  5
45
100
AcDbEntity
  8
TEXT
100
AcDbText
 10
0.326667
 20
10.1576
 30
0.0
 40
0.1
  1
DIAG
 72
     2
 11
0.66
 21
10.1576
 31
0.0
100
AcDbText
  0
SOLID
  5
46
100
AcDbEntity
  8
0
100
AcDbTrace
 10
0.71
 20
10.2826
 30
0.0
 11
0.86
 21
10.2826
 31
0.0
 12
0.71
 22
10.1326
 32
0.0
 13
0.86
 23
10.1326
 33
0.0
  0
LINE
  5
47
100
AcDbEntity
  8
0
100
AcDbLine
 10
-0.45875
 20
11.85
 30
0.0
 11
0.45875
 21
11.85
 31
0.0
  0
LINE
  5
48
100
AcDbEntity
  8
0
100
AcDbLine
 10
-0.49
 20
11.5725
 30
0.0
 11
0.49
 21
11.5725
 31
0.0
  0
LINE
  5
49
100
AcDbEntity
  8
0
100
AcDbLine
 10
0.49
 20
11.81875
 30
0.0
 11
0.49
 21
10.9766
 31
0.0
  0
LINE
  5
4A
100
AcDbEntity
  8
0
100
AcDbLine
 10
-0.49
 20
11.81875
 30
0.0
 11
-0.49
 21
10.9766
 31
0.0
  0
LINE
  5
4B
100
AcDbEntity
  8
0
100
AcDbLine
 10
0.0625
 20
11.5725
 30
0.0
 11
0.0625
 21
11.48125
 31
0.0
  0
LINE
  5
4C
100
AcDbEntity
  8
0
100
AcDbLine
 10
-0.0625
 20
11.5725
 30
0.0
 11
-0.0625
 21
11.48125
 31
0.0
  0
LINE
  5
4D
100
AcDbEntity
  8
0
100
AcDbLine
 10
-0.03125
 20
11.45
 30
0.0
 11
0.03125
 21
11.45
 31
0.0
  0
ARC
  5
4E
100
AcDbEntity
  8
0
100
AcDbCircle
 10
0.45875
 20
11.81875
 30
0.0
 40
0.03125
100
AcDbArc
 50
0.0
 51
90.0
  0
ARC
  5
4F
100
AcDbEntity
  8
0
100
AcDbCircle
 10
-0.45875
 20
11.81875
 30
0.0
 40
0.03125
100
AcDbArc
 50
90.0
 51
180.0
  0
ARC
  5
50
100
AcDbEntity
  8
0
100
AcDbCircle
 10
-1.15875
 20
10.94535
 30
0.0
 40
0.03125
100
AcDbArc
 50
90.0
 51
180.0
  0
ARC
  5
51
100
AcDbEntity
  8
0
100
AcDbCircle
 10
1.15875
 20
10.94535
 30
0.0
 40
0.03125
100
AcDbArc
 50
0.0
 51
90.0
  0
ARC
  5
52
100
AcDbEntity
  8
0
100
AcDbCircle
 10
0.03125
 20
11.48125
 30
0.0
 40
0.03125
100
AcDbArc
 50
270.0
 51
360.0
  0
ARC
  5
53
100
AcDbEntity
  8
0
100
AcDbCircle
 10
-0.03125
 20
11.48125
 30
0.0
 40
0.03125
100
AcDbArc
 50
180.0
 51
270.0
  0
ARC
  5
54
100
AcDbEntity
  8
0
100
AcDbCircle
 10
-1.15875
 20
1.20785
 30
0.0
 40
0.03125
100
AcDbArc
 50
180.0
 51
270.0
  0
ARC
  5
55
100
AcDbEntity
  8
0
100
AcDbCircle
 10
1.15875
 20
1.20785
 30
0.0
 40
0.03125
100
AcDbArc
 50
270.0
 51
0.0
  0
ARC
  5
56
100
AcDbEntity
  8
0
100
AcDbCircle
 10
-0.27875
 20
1.33285
 30
0.0
 40
0.03125
100
AcDbArc
 50
180.0
 51
270.0
  0
LINE
  5
59
100
AcDbEntity
  8
0
100
AcDbLine
 10
-0.45875
 20
0.0
 30
0.0
 11
0.45875
 21
0.0
 31
0.0
  0
LINE
  5
5A
100
AcDbEntity
  8
0
100
AcDbLine
 10
-0.0625
 20
1.1766
 30
0.0
 11
-0.0625
 21
0.6
 31
0.0
  0
LINE
  5
5B
100
AcDbEntity
  8
0
100
AcDbLine
 10
0.0625
 20
1.1766
 30
0.0
 11
0.0625
 21
0.6
 31
0.0
  0
LINE
  5
5C
100
AcDbEntity
  8
0
100
AcDbLine
 10
0.49
 20
1.1766
 30
0.0
 11
0.49
 21
0.03125
 31
0.0
  0
LINE
  5
5D
100
AcDbEntity
  8
0
100
AcDbLine
 10
-0.49
 20
1.1766
 30
0.0
 11
-0.49
 21
0.03125
 31
0.0
  0
LINE
  5
5E
100
AcDbEntity
  8
0
100
AcDbLine
 10
-0.49
 20
0.35
 30
0.0
 11
0.49
 21
0.35
 31
0.0
  0
ARC
  5
5F
100
AcDbEntity
  8
0
100
AcDbCircle
 10
0.45875
 20
0.03125
 30
0.0
 40
0.03125
100
AcDbArc
 50
270.0
 51
0.0
  0
ARC
  5
60
100
AcDbEntity
  8
0
100
AcDbCircle
 10
-0.45875
 20
0.03125
 30
0.0
 40
0.03125
100
AcDbArc
 50
180.0
 51
270.0
  0
LINE
  5
61
100
AcDbEntity
  8
0
100
AcDbLine
 10
-0.0625
 20
0.6
 30
0.0
 11
0.0625
 21
0.6
 31
0.0
  0
TEXT
  5
62
100
AcDbEntity
  8
TEXT
100
AcDbText
 10
0.195
 20
1.4516
 30
0.0
 40
0.05
  1
900CSM.DWG
 72
     2
 11
0.645
 21
1.4516
 31
0.0
100
AcDbText
  0
LINE
  5
6E
100
AcDbEntity
  8
0
100
AcDbLine
 10
-1.1085
 20
10.8846
 30
0.0
 11
-1.1085
 21
7.2116
 31
0.0
  0
LINE
  5
72
100
AcDbEntity
  8
0
100
AcDbLine
 10
1.01
 20
10.3726
 30
0.0
 11
-1.1085
 21
10.3726
 31
0.0
  0
LINE
  5
73
100
AcDbEntity
  8
0
100
AcDbLine
 10
1.01
 20
10.3126
 30
0.0
 11
-1.1085
 21
10.3126
 31
0.0
  0
LINE
  5
74
100
AcDbEntity
  8
0
100
AcDbLine
 10
1.01
 20
10.3526
 30
0.0
 11
-1.1085
 21
10.3526
 31
0.0
  0
LINE
  5
7A
100
AcDbEntity
  8
0
100
AcDbLine
 10
1.08
 20
10.7766
 30
0.0
 11
1.08
 21
7.5966
 31
0.0
  0
LINE
  5
7B
100
AcDbEntity
  8
0
100
AcDbLine
 10
1.01
 20
10.7066
 30
0.0
 11
1.01
 21
7.6636
 31
0.0
  0
LINE
  5
7D
100
AcDbEntity
  8
0
100
AcDbLine
 10
1.19
 20
10.912378
 30
0.0
 11
-1.1085
 21
10.8846
 31
0.0
  0
LINE
  5
83
100
AcDbEntity
  8
0
100
AcDbLine
 10
-1.1085
 20
10.7766
 30
0.0
 11
1.08
 21
10.7766
 31
0.0
  0
LINE
  5
84
100
AcDbEntity
  8
0
100
AcDbLine
 10
-1.1085
 20
10.7066
 30
0.0
 11
1.01
 21
10.7066
 31
0.0
  0
TEXT
  5
88
100
AcDbEntity
  8
TEXT
100
AcDbText
 10
0.36
 20
9.9076
 30
0.0
 40
0.1
  1
PWR
 72
     2
 11
0.66
 21
9.9076
 31
0.0
100
AcDbText
  0
LINE
  5
89
100
AcDbEntity
  8
0
100
AcDbLine
 10
0.71
 20
10.0326
 30
0.0
 11
0.86
 21
10.0326
 31
0.0
  0
LINE
  5
8A
100
AcDbEntity
  8
0
100
AcDbLine
 10
0.71
 20
9.8826
 30
0.0
 11
0.86
 21
9.8826
 31
0.0
  0
SOLID
  5
8B
100
AcDbEntity
  8
0
100
AcDbTrace
 10
0.71
 20
10.0326
 30
0.0
 11
0.86
 21
10.0326
 31
0.0
 12
0.71
 22
9.8826
 32
0.0
 13
0.86
 23
9.8826
 33
0.0
  0
LINE
  5
8C
100
AcDbEntity
  8
0
100
AcDbLine
 10
0.71
 20
10.0326
 30
0.0
 11
0.71
 21
9.8826
 31
0.0
  0
LINE
  5
8D
100
AcDbEntity
  8
0
100
AcDbLine
 10
0.86
 20
10.0326
 30
0.0
 11
0.86
 21
9.8826
 31
0.0
  0
TEXT
  5
8E
100
AcDbEntity
  8
TEXT
100
AcDbText
 10
0.293333
 20
9.6576
 30
0.0
 40
0.1
  1
SCAN
 72
     2
 11
0.66
 21
9.6576
 31
0.0
100
AcDbText
  0
SOLID
  5
8F
100
AcDbEntity
  8
0
100
AcDbTrace
 10
0.71
 20
9.7826
 30
0.0
 11
0.86
 21
9.7826
 31
0.0
 12
0.71
 22
9.6326
 32
0.0
 13
0.86
 23
9.6326
 33
0.0
  0
LINE
  5
90
100
AcDbEntity
  8
0
100
AcDbLine
 10
0.71
 20
9.6326
 30
0.0
 11
0.86
 21
9.6326
 31
0.0
  0
LINE
  5
91
100
AcDbEntity
  8
0
100
AcDbLine
 10
0.71
 20
9.7826
 30
0.0
 11
0.86
 21
9.7826
 31
0.0
  0
LINE
  5
92
100
AcDbEntity
  8
0
100
AcDbLine
 10
0.71
 20
9.7826
 30
0.0
 11
0.71
 21
9.6326
 31
0.0
  0
LINE
  5
93
100
AcDbEntity
  8
0
100
AcDbLine
 10
0.86
 20
9.7826
 30
0.0
 11
0.86
 21
9.6326
 31
0.0
  0
TEXT
  5
94
100
AcDbEntity
  8
TEXT
100
AcDbText
 10
0.293333
 20
9.4076
 30
0.0
 40
0.1
  1
BATT
 72
     2
 11
0.66
 21
9.4076
 31
0.0
100
AcDbText
  0
LINE
  5
95
100
AcDbEntity
  8
0
100
AcDbLine
 10
0.71
 20
9.5326
 30
0.0
 11
0.86
 21
9.5326
 31
0.0
  0
LINE
  5
96
100
AcDbEntity
  8
0
100
AcDbLine
 10
0.71
 20
9.3826
 30
0.0
 11
0.86
 21
9.3826
 31
0.0
  0
SOLID
  5
97
100
AcDbEntity
  8
0
100
AcDbTrace
 10
0.71
 20
9.5326
 30
0.0
 11
0.86
 21
9.5326
 31
0.0
 12
0.71
 22
9.3826
 32
0.0
 13
0.86
 23
9.3826
 33
0.0
  0
LINE
  5
98
100
AcDbEntity
  8
0
100
AcDbLine
 10
0.71
 20
9.5326
 30
0.0
 11
0.71
 21
9.3826
 31
0.0
  0
LINE
  5
99
100
AcDbEntity
  8
0
100
AcDbLine
 10
0.86
 20
9.5326
 30
0.0
 11
0.86
 21
9.3826
 31
0.0
  0
SOLID
  5
9A
100
AcDbEntity
  8
0
100
AcDbTrace
 10
1.01
 20
10.3526
 30
0.0
 11
-1.1085
 21
10.3526
 31
0.0
 12
1.01
 22
10.3126
 32
0.0
 13
-1.1085
 23
10.3126
 33
0.0
  0
SOLID
  5
9B
100
AcDbEntity
  8
0
100
AcDbTrace
 10
1.01
 20
10.5226
 30
0.0
 11
-1.1085
 21
10.5226
 31
0.0
 12
1.01
 22
10.3726
 32
0.0
 13
-1.1085
 23
10.3726
 33
0.0
  0
CIRCLE
  5
A2
100
AcDbEntity
  8
0
100
AcDbCircle
 10
0.55
 20
8.6666
 30
0.0
 40
0.24
  0
TEXT
  5
A5
100
AcDbEntity
  8
TEXT
100
AcDbText
 10
-0.03531
 20
8.6166
 30
0.0
 40
0.1
  1
Run
 72
     2
 11
0.231357
 21
8.6666
 31
0.0
100
AcDbText
 73
     2
  0
TEXT
  5
A6
100
AcDbEntity
  8
TEXT
100
AcDbText
 10
0.367705
 20
8.211776
 30
0.0
 40
0.1
  1
Stop
 72
     2
 11
0.734372
 21
8.261776
 31
0.0
100
AcDbText
 73
     2
  0
TEXT
  5
AE
100
AcDbEntity
  8
TEXT
100
AcDbText
 10
-1.0085
 20
7.7636
 30
0.0
 40
0.1
  1
Programmble Industrial Computer
 50
360.0
 41
0.669244
 72
     5
 11
0.91
 21
7.7636
 31
0.0
100
AcDbText
  0
TEXT
  5
B6
100
AcDbEntity
  8
TEXT
100
AcDbText
 10
-1.0085
 20
8.0036
 30
0.0
 40
0.14
  1
G&L Motion Control
 50
360.0
 41
0.913571
 72
     5
 11
0.91
 21
8.0036
 31
0.0
100
AcDbText
  0
LINE
  5
B9
100
AcDbEntity
  8
0
100
AcDbLine
 10
-0.31
 20
7.1016
 30
0.0
 11
-0.31
 21
1.33285
 31
0.0
  0
LINE
  5
BB
100
AcDbEntity
  8
0
100
AcDbLine
 10
0.79
 20
1.2766
 30
0.0
 11
0.79
 21
1.1766
 31
0.0
  0
LINE
  5
BC
100
AcDbEntity
  8
0
100
AcDbLine
 10
-1.19
 20
1.2766
 30
0.0
 11
1.19
 21
1.2766
 31
0.0
  0
LINE
  5
C0
100
AcDbEntity
  8
0
100
AcDbLine
 10
-0.31
 20
7.1016
 30
0.0
 11
1.19
 21
7.1016
 31
0.0
  0
LINE
  5
C9
100
AcDbEntity
  8
0
100
AcDbLine
 10
1.11
 20
7.1016
 30
0.0
 11
1.11
 21
1.3016
 31
0.0
  0
LINE
  5
CA
100
AcDbEntity
  8
0
100
AcDbLine
 10
1.07
 20
7.1016
 30
0.0
 11
1.07
 21
1.3016
 31
0.0
  0
LINE
  5
CB
100
AcDbEntity
  8
0
100
AcDbLine
 10
0.94
 20
7.1016
 30
0.0
 11
0.94
 21
1.3016
 31
0.0
  0
LINE
  5
CC
100
AcDbEntity
  8
0
100
AcDbLine
 10
0.0605
 20
7.1016
 30
0.0
 11
0.0605
 21
1.3016
 31
0.0
  0
LINE
  5
E3
100
AcDbEntity
  8
HID
100
AcDbLine
 10
0.0625
 20
7.1316
 30
0.0
 11
0.0625
 21
7.0616
 31
0.0
  0
LINE
  5
E4
100
AcDbEntity
  8
HID
100
AcDbLine
 10
-0.0175
 20
7.1316
 30
0.0
 11
-0.0175
 21
7.0616
 31
0.0
  0
LINE
  5
E5
100
AcDbEntity
  8
HID
100
AcDbLine
 10
-0.0175
 20
7.0616
 30
0.0
 11
0.0625
 21
7.0616
 31
0.0
  0
LINE
  5
E7
100
AcDbEntity
  8
0
100
AcDbLine
 10
-1.1085
 20
7.0501
 30
0.0
 11
-1.1085
 21
1.4266
 31
0.0
  0
LINE
  5
E8
100
AcDbEntity
  8
0
100
AcDbLine
 10
-1.19
 20
7.0501
 30
0.0
 11
-1.1085
 21
7.0501
 31
0.0
  0
LINE
  5
E9
100
AcDbEntity
  8
0
100
AcDbLine
 10
-1.19
 20
1.4266
 30
0.0
 11
-1.1085
 21
1.4266
 31
0.0
  0
LINE
  5
ED
100
AcDbEntity
  8
HID
100
AcDbLine
 10
0.51
 20
2.0116
 30
0.0
 11
0.94
 21
2.0116
 31
0.0
  0
LINE
  5
EE
100
AcDbEntity
  8
HID
100
AcDbLine
 10
0.51
 20
2.6841
 30
0.0
 11
0.94
 21
2.6841
 31
0.0
  0
LINE
  5
F0
100
AcDbEntity
  8
HID
100
AcDbLine
 10
0.94
 20
2.6841
 30
0.0
 11
0.94
 21
2.0116
 31
0.0
  0
LINE
  5
F1
100
AcDbEntity
  8
HID
100
AcDbLine
 10
0.51
 20
3.3841
 30
0.0
 11
0.94
 21
3.3841
 31
0.0
  0
LINE
  5
F2
100
AcDbEntity
  8
HID
100
AcDbLine
 10
0.51
 20
2.6841
 30
0.0
 11
0.51
 21
2.0116
 31
0.0
  0
LINE
  5
F3
100
AcDbEntity
  8
HID
100
AcDbLine
 10
0.51
 20
4.1341
 30
0.0
 11
0.94
 21
4.1341
 31
0.0
  0
LINE
  5
F4
100
AcDbEntity
  8
HID
100
AcDbLine
 10
0.94
 20
4.1341
 30
0.0
 11
0.94
 21
3.3841
 31
0.0
  0
TEXT
  5
F6
100
AcDbEntity
  8
TEXT
100
AcDbText
 10
0.06469
 20
3.999336
 30
0.0
 40
0.1
  1
ON
 72
     2
 11
0.231357
 21
4.049336
 31
0.0
100
AcDbText
 73
     2
  0
TEXT
  5
F7
100
AcDbEntity
  8
TEXT
100
AcDbText
 10
-0.03531
 20
3.473564
 30
0.0
 40
0.1
  1
OFF
 72
     2
 11
0.231357
 21
3.523564
 31
0.0
100
AcDbText
 73
     2
  0
TEXT
  5
F8
100
AcDbEntity
  8
TEXT
100
AcDbText
 10
-0.368643
 20
2.585916
 30
0.0
 40
0.1
  1
L/LINE1
 72
     2
 11
0.231357
 21
2.635916
 31
0.0
100
AcDbText
 73
     2
  0
TEXT
  5
F9
100
AcDbEntity
  8
TEXT
100
AcDbText
 10
-0.33531
 20
2.007992
 30
0.0
 40
0.1
  1
E/GRND
 72
     2
 11
0.231357
 21
2.057992
 31
0.0
100
AcDbText
 73
     2
  0
TEXT
  5
FA
100
AcDbEntity
  8
TEXT
100
AcDbText
 10
-0.401976
 20
2.28008
 30
0.0
 40
0.1
  1
L/LINE2
 72
     2
 11
0.231357
 21
2.33008
 31
0.0
100
AcDbText
 73
     2
  0
INSERT
  5
125
100
AcDbEntity
  8
HID
100
AcDbBlockReference
  2
PIC_PCON
 10
0.96975
 20
2.04885
 30
0.0
  0
LINE
  5
12E
100
AcDbEntity
  8
HID
100
AcDbLine
 10
0.9055
 20
4.0741
 30
0.0
 11
0.9055
 21
3.4441
 31
0.0
  0
LINE
  5
12F
100
AcDbEntity
  8
HID
100
AcDbLine
 10
0.5445
 20
4.0741
 30
0.0
 11
0.5445
 21
3.4441
 31
0.0
  0
LINE
  5
130
100
AcDbEntity
  8
HID
100
AcDbLine
 10
0.5445
 20
4.0741
 30
0.0
 11
0.9055
 21
4.0741
 31
0.0
  0
LINE
  5
131
100
AcDbEntity
  8
HID
100
AcDbLine
 10
0.5445
 20
3.4441
 30
0.0
 11
0.9055
 21
3.4441
 31
0.0
  0
LINE
  5
132
100
AcDbEntity
  8
HID
100
AcDbLine
 10
0.51
 20
4.1341
 30
0.0
 11
0.51
 21
3.3841
 31
0.0
  0
LINE
  5
133
100
AcDbEntity
  8
HID
100
AcDbLine
 10
0.9055
 20
3.7591
 30
0.0
 11
0.5445
 21
3.7591
 31
0.0
  0
ENDSEC
  0
SECTION
  2
OBJECTS
  0
DICTIONARY
  5
C
100
AcDbDictionary
  3
ACAD_GROUP
350
D
  3
ACAD_MLINESTYLE
350
E
  0
DICTIONARY
  5
D
102
{ACAD_REACTORS
330
C
102
}
100
AcDbDictionary
  0
DICTIONARY
  5
E
102
{ACAD_REACTORS
330
C
102
}
100
AcDbDictionary
  3
STANDARD
350
1B
  0
MLINESTYLE
  5
1B
102
{ACAD_REACTORS
330
E
102
}
100
AcDbMlineStyle
  2
STANDARD
 70
     0
  3

 62
     0
 51
90.0
 52
90.0
 71
     2
 49
0.5
 62
   256
  6
BYLAYER
 49
-0.5
 62
   256
  6
BYLAYER
  0
ENDSEC
  0
EOF
