  0
SECTION
  2
HEADER
  9
$ACADVER
  1
AC1012
  9
$DWGCODEPAGE
  3
ANSI_1252
  9
$INSBASE
 10
0.0
 20
0.0
 30
0.0
  9
$EXTMIN
 10
0.121426
 20
0.000131
 30
0.0
  9
$EXTMAX
 10
21.726429
 20
13.970129
 30
0.0
  9
$LIMMIN
 10
0.0
 20
0.0
  9
$LIMMAX
 10
12.0
 20
9.0
  9
$ORTHOMODE
 70
     1
  9
$REGENMODE
 70
     1
  9
$FILLMODE
 70
     1
  9
$QTEXTMODE
 70
     0
  9
$MIRRTEXT
 70
     1
  9
$DRAGMODE
 70
     2
  9
$LTSCALE
 40
1.0
  9
$OSMODE
 70
     0
  9
$ATTMODE
 70
     1
  9
$TEXTSIZE
 40
0.1
  9
$TRACEWID
 40
0.05
  9
$TEXTSTYLE
  7
STANDARD
  9
$CLAYER
  8
0
  9
$CELTYPE
  6
BYLAYER
  9
$CECOLOR
 62
   256
  9
$CELTSCALE
 40
1.0
  9
$DELOBJ
 70
     1
  9
$DISPSILH
 70
     0
  9
$DIMSCALE
 40
1.0
  9
$DIMASZ
 40
0.18
  9
$DIMEXO
 40
0.0625
  9
$DIMDLI
 40
0.38
  9
$DIMRND
 40
0.0
  9
$DIMDLE
 40
0.0
  9
$DIMEXE
 40
0.18
  9
$DIMTP
 40
0.0
  9
$DIMTM
 40
0.0
  9
$DIMTXT
 40
0.18
  9
$DIMCEN
 40
0.09
  9
$DIMTSZ
 40
0.0
  9
$DIMTOL
 70
     0
  9
$DIMLIM
 70
     0
  9
$DIMTIH
 70
     1
  9
$DIMTOH
 70
     1
  9
$DIMSE1
 70
     0
  9
$DIMSE2
 70
     0
  9
$DIMTAD
 70
     0
  9
$DIMZIN
 70
     0
  9
$DIMBLK
  1

  9
$DIMASO
 70
     1
  9
$DIMSHO
 70
     1
  9
$DIMPOST
  1

  9
$DIMAPOST
  1

  9
$DIMALT
 70
     0
  9
$DIMALTD
 70
     2
  9
$DIMALTF
 40
25.4
  9
$DIMLFAC
 40
1.0
  9
$DIMTOFL
 70
     0
  9
$DIMTVP
 40
0.0
  9
$DIMTIX
 70
     0
  9
$DIMSOXD
 70
     0
  9
$DIMSAH
 70
     0
  9
$DIMBLK1
  1

  9
$DIMBLK2
  1

  9
$DIMSTYLE
  2
STANDARD
  9
$DIMCLRD
 70
     0
  9
$DIMCLRE
 70
     0
  9
$DIMCLRT
 70
     0
  9
$DIMTFAC
 40
1.0
  9
$DIMGAP
 40
0.09
  9
$DIMJUST
 70
     0
  9
$DIMSD1
 70
     0
  9
$DIMSD2
 70
     0
  9
$DIMTOLJ
 70
     1
  9
$DIMTZIN
 70
     0
  9
$DIMALTZ
 70
     0
  9
$DIMALTTZ
 70
     0
  9
$DIMFIT
 70
     3
  9
$DIMUPT
 70
     0
  9
$DIMUNIT
 70
     2
  9
$DIMDEC
 70
     4
  9
$DIMTDEC
 70
     4
  9
$DIMALTU
 70
     2
  9
$DIMALTTD
 70
     2
  9
$DIMTXSTY
  7
STANDARD
  9
$DIMAUNIT
 70
     0
  9
$LUNITS
 70
     2
  9
$LUPREC
 70
     4
  9
$SKETCHINC
 40
0.1
  9
$FILLETRAD
 40
0.0625
  9
$AUNITS
 70
     0
  9
$AUPREC
 70
     0
  9
$MENU
  1
acad
  9
$ELEVATION
 40
0.0
  9
$PELEVATION
 40
0.0
  9
$THICKNESS
 40
0.0
  9
$LIMCHECK
 70
     0
  9
$BLIPMODE
 70
     1
  9
$CHAMFERA
 40
0.0
  9
$CHAMFERB
 40
0.0
  9
$CHAMFERC
 40
0.0
  9
$CHAMFERD
 40
0.0
  9
$SKPOLY
 70
     0
  9
$TDCREATE
 40
2450238.425797106
  9
$TDUPDATE
 40
2451087.311590277
  9
$TDINDWG
 40
0.0307899306
  9
$TDUSRTIMER
 40
0.0307899306
  9
$USRTIMER
 70
     1
  9
$ANGBASE
 50
0.0
  9
$ANGDIR
 70
     0
  9
$PDMODE
 70
     0
  9
$PDSIZE
 40
0.0
  9
$PLINEWID
 40
0.0
  9
$COORDS
 70
     2
  9
$SPLFRAME
 70
     0
  9
$SPLINETYPE
 70
     6
  9
$SPLINESEGS
 70
     8
  9
$ATTDIA
 70
     0
  9
$ATTREQ
 70
     1
  9
$HANDLING
 70
     1
  9
$HANDSEED
  5
671
  9
$SURFTAB1
 70
     6
  9
$SURFTAB2
 70
     6
  9
$SURFTYPE
 70
     6
  9
$SURFU
 70
     6
  9
$SURFV
 70
     6
  9
$UCSNAME
  2

  9
$UCSORG
 10
0.0
 20
0.0
 30
0.0
  9
$UCSXDIR
 10
1.0
 20
0.0
 30
0.0
  9
$UCSYDIR
 10
0.0
 20
1.0
 30
0.0
  9
$PUCSNAME
  2

  9
$PUCSORG
 10
0.0
 20
0.0
 30
0.0
  9
$PUCSXDIR
 10
1.0
 20
0.0
 30
0.0
  9
$PUCSYDIR
 10
0.0
 20
1.0
 30
0.0
  9
$USERI1
 70
     0
  9
$USERI2
 70
     0
  9
$USERI3
 70
     0
  9
$USERI4
 70
     0
  9
$USERI5
 70
     0
  9
$USERR1
 40
0.0
  9
$USERR2
 40
0.0
  9
$USERR3
 40
0.0
  9
$USERR4
 40
0.0
  9
$USERR5
 40
0.0
  9
$WORLDVIEW
 70
     1
  9
$SHADEDGE
 70
     3
  9
$SHADEDIF
 70
    70
  9
$TILEMODE
 70
     1
  9
$MAXACTVP
 70
    16
  9
$PINSBASE
 10
0.0
 20
0.0
 30
0.0
  9
$PLIMCHECK
 70
     0
  9
$PEXTMIN
 10
1.000000E+20
 20
1.000000E+20
 30
1.000000E+20
  9
$PEXTMAX
 10
-1.000000E+20
 20
-1.000000E+20
 30
-1.000000E+20
  9
$PLIMMIN
 10
0.0
 20
0.0
  9
$PLIMMAX
 10
12.0
 20
9.0
  9
$UNITMODE
 70
     0
  9
$VISRETAIN
 70
     0
  9
$PLINEGEN
 70
     0
  9
$PSLTSCALE
 70
     0
  9
$TREEDEPTH
 70
  3020
  9
$PICKSTYLE
 70
     1
  9
$CMLSTYLE
  2
STANDARD
  9
$CMLJUST
 70
     0
  9
$CMLSCALE
 40
1.0
  9
$SAVEIMAGES
 70
     1
  0
ENDSEC
  0
SECTION
  2
CLASSES
  0
ENDSEC
  0
SECTION
  2
TABLES
  0
TABLE
  2
VPORT
  5
8
100
AcDbSymbolTable
 70
     2
  0
VPORT
  5
670
100
AcDbSymbolTableRecord
100
AcDbViewportTableRecord
  2
*ACTIVE
 70
     0
 10
0.0
 20
0.0
 11
1.0
 21
1.0
 12
13.562371
 22
7.490602
 13
0.0
 23
0.0
 14
1.0
 24
1.0
 15
0.0
 25
0.0
 16
0.0
 26
0.0
 36
1.0
 17
0.0
 27
0.0
 37
0.0
 40
14.981204
 41
1.810585
 42
50.0
 43
0.0
 44
0.0
 50
0.0
 51
0.0
 71
     0
 72
   100
 73
     1
 74
     1
 75
     0
 76
     0
 77
     0
 78
     0
  0
ENDTAB
  0
TABLE
  2
LTYPE
  5
5
100
AcDbSymbolTable
 70
     3
  0
LTYPE
  5
12
100
AcDbSymbolTableRecord
100
AcDbLinetypeTableRecord
  2
BYBLOCK
 70
     0
  3

 72
    65
 73
     0
 40
0.0
  0
LTYPE
  5
13
100
AcDbSymbolTableRecord
100
AcDbLinetypeTableRecord
  2
BYLAYER
 70
     0
  3

 72
    65
 73
     0
 40
0.0
  0
LTYPE
  5
14
100
AcDbSymbolTableRecord
100
AcDbLinetypeTableRecord
  2
CONTINUOUS
 70
     0
  3
Solid line
 72
    65
 73
     0
 40
0.0
  0
LTYPE
  5
1C
100
AcDbSymbolTableRecord
100
AcDbLinetypeTableRecord
  2
DASHED
 70
     0
  3
__ __ __ __ __ __ __ __ __ __ __ __ __ __ __ __
 72
    65
 73
     2
 40
0.75
 49
0.5
 74
     0
 49
-0.25
 74
     0
  0
LTYPE
  5
4C8
100
AcDbSymbolTableRecord
100
AcDbLinetypeTableRecord
  2
HIDDEN
 70
     0
  3
__ __ __ __ __ __ __ __ __ __ __ __ __ __ __ __
 72
    65
 73
     2
 40
0.375
 49
0.25
 74
     0
 49
-0.125
 74
     0
  0
ENDTAB
  0
TABLE
  2
LAYER
  5
2
100
AcDbSymbolTable
 70
     4
  0
LAYER
  5
F
100
AcDbSymbolTableRecord
100
AcDbLayerTableRecord
  2
0
 70
     0
 62
     7
  6
CONTINUOUS
  0
LAYER
  5
1F
100
AcDbSymbolTableRecord
100
AcDbLayerTableRecord
  2
L1
 70
     0
 62
     7
  6
CONTINUOUS
  0
LAYER
  5
20
100
AcDbSymbolTableRecord
100
AcDbLayerTableRecord
  2
TEXT
 70
     0
 62
     2
  6
CONTINUOUS
  0
LAYER
  5
4C9
100
AcDbSymbolTableRecord
100
AcDbLayerTableRecord
  2
HID
 70
     0
 62
     3
  6
HIDDEN
  0
ENDTAB
  0
TABLE
  2
STYLE
  5
3
100
AcDbSymbolTable
 70
     1
  0
STYLE
  5
10
100
AcDbSymbolTableRecord
100
AcDbTextStyleTableRecord
  2
STANDARD
 70
     0
 40
0.0
 41
1.0
 50
0.0
 71
     0
 42
0.1
  3
txt
  4

  0
ENDTAB
  0
TABLE
  2
VIEW
  5
6
100
AcDbSymbolTable
 70
     0
  0
ENDTAB
  0
TABLE
  2
UCS
  5
7
100
AcDbSymbolTable
 70
     0
  0
ENDTAB
  0
TABLE
  2
APPID
  5
9
100
AcDbSymbolTable
 70
     1
  0
APPID
  5
11
100
AcDbSymbolTableRecord
100
AcDbRegAppTableRecord
  2
ACAD
 70
     0
  0
ENDTAB
  0
TABLE
  2
DIMSTYLE
  5
A
100
AcDbSymbolTable
 70
     1
  0
DIMSTYLE
105
423
100
AcDbSymbolTableRecord
100
AcDbDimStyleTableRecord
  2
STANDARD
 70
     0
  3

  4

  5

  6

  7

 40
1.0
 41
0.18
 42
0.0625
 43
0.38
 44
0.18
 45
0.0
 46
0.0
 47
0.0
 48
0.0
140
0.18
141
0.09
142
0.0
143
25.4
144
1.0
145
0.0
146
1.0
147
0.09
 71
     0
 72
     0
 73
     1
 74
     1
 75
     0
 76
     0
 77
     0
 78
     0
170
     0
171
     2
172
     0
173
     0
174
     0
175
     0
176
     0
177
     0
178
     0
270
     2
271
     4
272
     4
273
     2
274
     2
340
10
275
     0
280
     0
281
     0
282
     0
283
     1
284
     0
285
     0
286
     0
287
     3
288
     0
  0
ENDTAB
  0
TABLE
  2
BLOCK_RECORD
  5
1
100
AcDbSymbolTable
 70
     7
  0
BLOCK_RECORD
  5
18
100
AcDbSymbolTableRecord
100
AcDbBlockTableRecord
  2
*MODEL_SPACE
  0
BLOCK_RECORD
  5
15
100
AcDbSymbolTableRecord
100
AcDbBlockTableRecord
  2
*PAPER_SPACE
  0
BLOCK_RECORD
  5
45D
100
AcDbSymbolTableRecord
100
AcDbBlockTableRecord
  2
900CARD
  0
BLOCK_RECORD
  5
4AB
100
AcDbSymbolTableRecord
100
AcDbBlockTableRecord
  2
PIC_PCON
  0
BLOCK_RECORD
  5
4CA
100
AcDbSymbolTableRecord
100
AcDbBlockTableRecord
  2
900CSM
  0
BLOCK_RECORD
  5
544
100
AcDbSymbolTableRecord
100
AcDbBlockTableRecord
  2
PCON_7
  0
BLOCK_RECORD
  5
57D
100
AcDbSymbolTableRecord
100
AcDbBlockTableRecord
  2
PCON_10
  0
BLOCK_RECORD
  5
5CB
100
AcDbSymbolTableRecord
100
AcDbBlockTableRecord
  2
9_PIN_D
  0
BLOCK_RECORD
  5
5E9
100
AcDbSymbolTableRecord
100
AcDbBlockTableRecord
  2
900_CPU
  0
ENDTAB
  0
ENDSEC
  0
SECTION
  2
BLOCKS
  0
BLOCK
  5
23
100
AcDbEntity
  8
0
100
AcDbBlockBegin
  2
*MODEL_SPACE
 70
     0
 10
0.0
 20
0.0
 30
0.0
  3
*MODEL_SPACE
  1

  0
ENDBLK
  5
24
100
AcDbEntity
  8
0
100
AcDbBlockEnd
  0
BLOCK
  5
21
100
AcDbEntity
 67
     1
  8
0
100
AcDbBlockBegin
  2
*PAPER_SPACE
 70
     0
 10
0.0
 20
0.0
 30
0.0
  3
*PAPER_SPACE
  1

  0
ENDBLK
  5
22
100
AcDbEntity
 67
     1
  8
0
100
AcDbBlockEnd
  0
BLOCK
  5
49D
100
AcDbEntity
  8
0
100
AcDbBlockBegin
  2
900CARD
 70
     0
 10
0.0
 20
0.0
 30
0.0
  3
900CARD
  1

  0
LINE
  5
45E
100
AcDbEntity
  8
0
100
AcDbLine
 10
-0.76375
 20
1.1766
 30
0.0
 11
0.76375
 21
1.1766
 31
0.0
  0
LINE
  5
45F
100
AcDbEntity
  8
0
100
AcDbLine
 10
-0.76375
 20
10.9766
 30
0.0
 11
0.76375
 21
10.9766
 31
0.0
  0
LINE
  5
460
100
AcDbEntity
  8
0
100
AcDbLine
 10
-0.795
 20
10.94535
 30
0.0
 11
-0.795
 21
1.20785
 31
0.0
  0
LINE
  5
461
100
AcDbEntity
  8
0
100
AcDbLine
 10
0.795
 20
10.94535
 30
0.0
 11
0.795
 21
1.20785
 31
0.0
  0
LINE
  5
462
100
AcDbEntity
  8
0
100
AcDbLine
 10
0.42625
 20
1.2966
 30
0.0
 11
0.795
 21
1.2966
 31
0.0
  0
LINE
  5
463
100
AcDbEntity
  8
0
100
AcDbLine
 10
0.395
 20
1.26535
 30
0.0
 11
0.395
 21
1.1766
 31
0.0
  0
LINE
  5
464
100
AcDbEntity
  8
0
100
AcDbLine
 10
-0.68625
 20
1.3016
 30
0.0
 11
0.795
 21
1.3016
 31
0.0
  0
LINE
  5
465
100
AcDbEntity
  8
0
100
AcDbLine
 10
-0.68625
 20
7.1266
 30
0.0
 11
0.795
 21
7.1266
 31
0.0
  0
LINE
  5
466
100
AcDbEntity
  8
0
100
AcDbLine
 10
-0.7175
 20
7.09535
 30
0.0
 11
-0.7175
 21
1.33285
 31
0.0
  0
LINE
  5
467
100
AcDbEntity
  8
0
100
AcDbLine
 10
-0.795
 20
7.1316
 30
0.0
 11
0.795
 21
7.1316
 31
0.0
  0
LINE
  5
468
100
AcDbEntity
  8
0
100
AcDbLine
 10
-0.709
 20
7.2116
 30
0.0
 11
0.795
 21
7.2116
 31
0.0
  0
LINE
  5
469
100
AcDbEntity
  8
0
100
AcDbLine
 10
-0.709
 20
10.8846
 30
0.0
 11
-0.709
 21
7.2116
 31
0.0
  0
LINE
  5
46A
100
AcDbEntity
  8
0
100
AcDbLine
 10
0.795
 20
10.9066
 30
0.0
 11
-0.709
 21
10.8846
 31
0.0
  0
LINE
  5
46B
100
AcDbEntity
  8
0
100
AcDbLine
 10
0.7115
 20
10.7726
 30
0.0
 11
0.7115
 21
7.4381
 31
0.0
  0
LINE
  5
46C
100
AcDbEntity
  8
0
100
AcDbLine
 10
0.6445
 20
10.7056
 30
0.0
 11
0.6445
 21
7.5051
 31
0.0
  0
LINE
  5
46D
100
AcDbEntity
  8
0
100
AcDbLine
 10
-0.709
 20
10.7056
 30
0.0
 11
0.6445
 21
10.7056
 31
0.0
  0
LINE
  5
46E
100
AcDbEntity
  8
0
100
AcDbLine
 10
-0.709
 20
10.7726
 30
0.0
 11
0.7115
 21
10.7726
 31
0.0
  0
LINE
  5
46F
100
AcDbEntity
  8
0
100
AcDbLine
 10
-0.709
 20
7.4381
 30
0.0
 11
0.7115
 21
7.4381
 31
0.0
  0
LINE
  5
470
100
AcDbEntity
  8
0
100
AcDbLine
 10
-0.709
 20
7.5051
 30
0.0
 11
0.6445
 21
7.5051
 31
0.0
  0
TEXT
  5
471
100
AcDbEntity
  8
TEXT
100
AcDbText
 10
-0.25
 20
6.6316
 30
0.0
 40
0.25
  1
PiC
 72
     1
 11
0.0
 21
6.6316
 31
0.0
100
AcDbText
  0
LINE
  5
472
100
AcDbEntity
  8
0
100
AcDbLine
 10
-0.709
 20
10.5226
 30
0.0
 11
0.6445
 21
10.5226
 31
0.0
  0
LINE
  5
473
100
AcDbEntity
  8
0
100
AcDbLine
 10
-0.709
 20
10.3726
 30
0.0
 11
0.6445
 21
10.3726
 31
0.0
  0
LINE
  5
474
100
AcDbEntity
  8
0
100
AcDbLine
 10
-0.709
 20
10.3126
 30
0.0
 11
0.6445
 21
10.3126
 31
0.0
  0
LINE
  5
475
100
AcDbEntity
  8
0
100
AcDbLine
 10
-0.709
 20
10.3526
 30
0.0
 11
0.6445
 21
10.3526
 31
0.0
  0
SOLID
  5
476
100
AcDbEntity
  8
0
100
AcDbTrace
 10
-0.709
 20
10.5226
 30
0.0
 11
-0.709
 21
10.3726
 31
0.0
 12
0.6445
 22
10.5226
 32
0.0
 13
0.6445
 23
10.3726
 33
0.0
  0
SOLID
  5
477
100
AcDbEntity
  8
0
100
AcDbTrace
 10
-0.709
 20
10.3526
 30
0.0
 11
-0.709
 21
10.3126
 31
0.0
 12
0.6445
 22
10.3526
 32
0.0
 13
0.6445
 23
10.3126
 33
0.0
  0
TEXT
  5
478
100
AcDbEntity
  8
TEXT
100
AcDbText
 10
-0.679
 20
10.5526
 30
0.0
 40
0.1
  1
IN/OUT?
100
AcDbText
  0
TEXT
  5
479
100
AcDbEntity
  8
TEXT
100
AcDbText
 10
0.277
 20
10.5526
 30
0.0
 40
0.075
  1
Type?
 72
     2
 11
0.6145
 21
10.5526
 31
0.0
100
AcDbText
  0
LINE
  5
47A
100
AcDbEntity
  8
0
100
AcDbLine
 10
0.3945
 20
10.2826
 30
0.0
 11
0.3945
 21
10.1326
 31
0.0
  0
LINE
  5
47B
100
AcDbEntity
  8
0
100
AcDbLine
 10
0.2445
 20
10.2826
 30
0.0
 11
0.3945
 21
10.2826
 31
0.0
  0
LINE
  5
47C
100
AcDbEntity
  8
0
100
AcDbLine
 10
0.2445
 20
10.1326
 30
0.0
 11
0.3945
 21
10.1326
 31
0.0
  0
LINE
  5
47D
100
AcDbEntity
  8
0
100
AcDbLine
 10
0.2445
 20
10.2826
 30
0.0
 11
0.2445
 21
10.1326
 31
0.0
  0
TEXT
  5
47E
100
AcDbEntity
  8
TEXT
100
AcDbText
 10
-0.138833
 20
10.1576
 30
0.0
 40
0.1
  1
DIAG
 72
     2
 11
0.1945
 21
10.1576
 31
0.0
100
AcDbText
  0
SOLID
  5
47F
100
AcDbEntity
  8
0
100
AcDbTrace
 10
0.2445
 20
10.2826
 30
0.0
 11
0.3945
 21
10.2826
 31
0.0
 12
0.2445
 22
10.1326
 32
0.0
 13
0.3945
 23
10.1326
 33
0.0
  0
LINE
  5
480
100
AcDbEntity
  8
0
100
AcDbLine
 10
-0.45875
 20
11.85
 30
0.0
 11
0.45875
 21
11.85
 31
0.0
  0
LINE
  5
481
100
AcDbEntity
  8
0
100
AcDbLine
 10
-0.49
 20
11.5725
 30
0.0
 11
0.49
 21
11.5725
 31
0.0
  0
LINE
  5
482
100
AcDbEntity
  8
0
100
AcDbLine
 10
0.49
 20
11.81875
 30
0.0
 11
0.49
 21
10.9766
 31
0.0
  0
LINE
  5
483
100
AcDbEntity
  8
0
100
AcDbLine
 10
-0.49
 20
11.81875
 30
0.0
 11
-0.49
 21
10.9766
 31
0.0
  0
LINE
  5
484
100
AcDbEntity
  8
0
100
AcDbLine
 10
0.0625
 20
11.5725
 30
0.0
 11
0.0625
 21
11.48125
 31
0.0
  0
LINE
  5
485
100
AcDbEntity
  8
0
100
AcDbLine
 10
-0.0625
 20
11.5725
 30
0.0
 11
-0.0625
 21
11.48125
 31
0.0
  0
LINE
  5
486
100
AcDbEntity
  8
0
100
AcDbLine
 10
-0.03125
 20
11.45
 30
0.0
 11
0.03125
 21
11.45
 31
0.0
  0
ARC
  5
487
100
AcDbEntity
  8
0
100
AcDbCircle
 10
0.45875
 20
11.81875
 30
0.0
 40
0.03125
100
AcDbArc
 50
0.0
 51
90.0
  0
ARC
  5
488
100
AcDbEntity
  8
0
100
AcDbCircle
 10
-0.45875
 20
11.81875
 30
0.0
 40
0.03125
100
AcDbArc
 50
90.0
 51
180.0
  0
ARC
  5
489
100
AcDbEntity
  8
0
100
AcDbCircle
 10
-0.76375
 20
10.94535
 30
0.0
 40
0.03125
100
AcDbArc
 50
90.0
 51
180.0
  0
ARC
  5
48A
100
AcDbEntity
  8
0
100
AcDbCircle
 10
0.76375
 20
10.94535
 30
0.0
 40
0.03125
100
AcDbArc
 50
0.0
 51
90.0
  0
ARC
  5
48B
100
AcDbEntity
  8
0
100
AcDbCircle
 10
0.03125
 20
11.48125
 30
0.0
 40
0.03125
100
AcDbArc
 50
270.0
 51
360.0
  0
ARC
  5
48C
100
AcDbEntity
  8
0
100
AcDbCircle
 10
-0.03125
 20
11.48125
 30
0.0
 40
0.03125
100
AcDbArc
 50
180.0
 51
270.0
  0
ARC
  5
48D
100
AcDbEntity
  8
0
100
AcDbCircle
 10
-0.76375
 20
1.20785
 30
0.0
 40
0.03125
100
AcDbArc
 50
180.0
 51
270.0
  0
ARC
  5
48E
100
AcDbEntity
  8
0
100
AcDbCircle
 10
0.76375
 20
1.20785
 30
0.0
 40
0.03125
100
AcDbArc
 50
270.0
 51
0.0
  0
ARC
  5
48F
100
AcDbEntity
  8
0
100
AcDbCircle
 10
-0.68625
 20
1.33285
 30
0.0
 40
0.03125
100
AcDbArc
 50
180.0
 51
270.0
  0
ARC
  5
490
100
AcDbEntity
  8
0
100
AcDbCircle
 10
0.42625
 20
1.26535
 30
0.0
 40
0.03125
100
AcDbArc
 50
90.0
 51
180.0
  0
ARC
  5
491
100
AcDbEntity
  8
0
100
AcDbCircle
 10
-0.68625
 20
7.09535
 30
0.0
 40
0.03125
100
AcDbArc
 50
90.0
 51
180.0
  0
LINE
  5
492
100
AcDbEntity
  8
0
100
AcDbLine
 10
-0.45875
 20
0.0
 30
0.0
 11
0.45875
 21
0.0
 31
0.0
  0
LINE
  5
493
100
AcDbEntity
  8
0
100
AcDbLine
 10
-0.0625
 20
1.1766
 30
0.0
 11
-0.0625
 21
0.6
 31
0.0
  0
LINE
  5
494
100
AcDbEntity
  8
0
100
AcDbLine
 10
0.0625
 20
1.1766
 30
0.0
 11
0.0625
 21
0.6
 31
0.0
  0
LINE
  5
495
100
AcDbEntity
  8
0
100
AcDbLine
 10
0.49
 20
1.1766
 30
0.0
 11
0.49
 21
0.03125
 31
0.0
  0
LINE
  5
496
100
AcDbEntity
  8
0
100
AcDbLine
 10
-0.49
 20
1.1766
 30
0.0
 11
-0.49
 21
0.03125
 31
0.0
  0
LINE
  5
497
100
AcDbEntity
  8
0
100
AcDbLine
 10
-0.49
 20
0.35
 30
0.0
 11
0.49
 21
0.35
 31
0.0
  0
ARC
  5
498
100
AcDbEntity
  8
0
100
AcDbCircle
 10
0.45875
 20
0.03125
 30
0.0
 40
0.03125
100
AcDbArc
 50
270.0
 51
0.0
  0
ARC
  5
499
100
AcDbEntity
  8
0
100
AcDbCircle
 10
-0.45875
 20
0.03125
 30
0.0
 40
0.03125
100
AcDbArc
 50
180.0
 51
270.0
  0
LINE
  5
49A
100
AcDbEntity
  8
0
100
AcDbLine
 10
-0.0625
 20
0.6
 30
0.0
 11
0.0625
 21
0.6
 31
0.0
  0
TEXT
  5
49B
100
AcDbEntity
  8
TEXT
100
AcDbText
 10
0.145
 20
1.4516
 30
0.0
 40
0.05
  1
900CARD.DWG
 72
     2
 11
0.645
 21
1.4516
 31
0.0
100
AcDbText
  0
TEXT
  5
49C
100
AcDbEntity
  8
TEXT
100
AcDbText
 10
-0.373917
 20
7.6551
 30
0.0
 40
0.1
  1
Part #:?
 72
     1
 11
-0.03225
 21
7.6551
 31
0.0
100
AcDbText
  0
ENDBLK
  5
49E
100
AcDbEntity
  8
0
100
AcDbBlockEnd
  0
BLOCK
  5
4C6
100
AcDbEntity
  8
0
100
AcDbBlockBegin
  2
PIC_PCON
 70
     0
 10
0.0
 20
0.0
 30
0.0
  3
PIC_PCON
  1

  0
LINE
  5
4AC
100
AcDbEntity
  8
0
100
AcDbLine
 10
0.0
 20
0.598
 30
0.0
 11
0.0
 21
0.0
 31
0.0
  0
LINE
  5
4AD
100
AcDbEntity
  8
0
100
AcDbLine
 10
-0.4895
 20
0.598
 30
0.0
 11
-0.4895
 21
0.0
 31
0.0
  0
LINE
  5
4AE
100
AcDbEntity
  8
0
100
AcDbLine
 10
0.0
 20
0.0
 30
0.0
 11
-0.4895
 21
0.0
 31
0.0
  0
LINE
  5
4AF
100
AcDbEntity
  8
0
100
AcDbLine
 10
0.0
 20
0.598
 30
0.0
 11
-0.4895
 21
0.598
 31
0.0
  0
LINE
  5
4B0
100
AcDbEntity
  8
0
100
AcDbLine
 10
-0.4235
 20
0.598
 30
0.0
 11
-0.4235
 21
0.0
 31
0.0
  0
CIRCLE
  5
4B1
100
AcDbEntity
  8
0
100
AcDbCircle
 10
-0.2605
 20
0.102
 30
0.0
 40
0.077
  0
CIRCLE
  5
4B2
100
AcDbEntity
  8
0
100
AcDbCircle
 10
-0.2605
 20
0.102
 30
0.0
 40
0.075
  0
LINE
  5
4B3
100
AcDbEntity
  8
0
100
AcDbLine
 10
-0.189789
 20
0.127
 30
0.0
 11
-0.331211
 21
0.127
 31
0.0
  0
LINE
  5
4B4
100
AcDbEntity
  8
0
100
AcDbLine
 10
-0.189789
 20
0.077
 30
0.0
 11
-0.331211
 21
0.077
 31
0.0
  0
LINE
  5
4B5
100
AcDbEntity
  8
0
100
AcDbLine
 10
-0.331211
 20
0.077
 30
0.0
 11
-0.331211
 21
0.127
 31
0.0
  0
LINE
  5
4B6
100
AcDbEntity
  8
0
100
AcDbLine
 10
-0.189789
 20
0.127
 30
0.0
 11
-0.189789
 21
0.077
 31
0.0
  0
SOLID
  5
4B7
100
AcDbEntity
  8
0
100
AcDbTrace
 10
-0.189789
 20
0.127
 30
0.0
 11
-0.331211
 21
0.127
 31
0.0
 12
-0.189789
 22
0.077
 32
0.0
 13
-0.331211
 23
0.077
 33
0.0
  0
SOLID
  5
4B8
100
AcDbEntity
  8
0
100
AcDbTrace
 10
-0.189789
 20
0.324
 30
0.0
 11
-0.331211
 21
0.324
 31
0.0
 12
-0.189789
 22
0.274
 32
0.0
 13
-0.331211
 23
0.274
 33
0.0
  0
LINE
  5
4B9
100
AcDbEntity
  8
0
100
AcDbLine
 10
-0.189789
 20
0.324
 30
0.0
 11
-0.189789
 21
0.274
 31
0.0
  0
LINE
  5
4BA
100
AcDbEntity
  8
0
100
AcDbLine
 10
-0.331211
 20
0.274
 30
0.0
 11
-0.331211
 21
0.324
 31
0.0
  0
LINE
  5
4BB
100
AcDbEntity
  8
0
100
AcDbLine
 10
-0.189789
 20
0.274
 30
0.0
 11
-0.331211
 21
0.274
 31
0.0
  0
LINE
  5
4BC
100
AcDbEntity
  8
0
100
AcDbLine
 10
-0.189789
 20
0.324
 30
0.0
 11
-0.331211
 21
0.324
 31
0.0
  0
CIRCLE
  5
4BD
100
AcDbEntity
  8
0
100
AcDbCircle
 10
-0.2605
 20
0.299
 30
0.0
 40
0.075
  0
CIRCLE
  5
4BE
100
AcDbEntity
  8
0
100
AcDbCircle
 10
-0.2605
 20
0.299
 30
0.0
 40
0.077
  0
CIRCLE
  5
4BF
100
AcDbEntity
  8
0
100
AcDbCircle
 10
-0.2605
 20
0.496
 30
0.0
 40
0.077
  0
CIRCLE
  5
4C0
100
AcDbEntity
  8
0
100
AcDbCircle
 10
-0.2605
 20
0.496
 30
0.0
 40
0.075
  0
LINE
  5
4C1
100
AcDbEntity
  8
0
100
AcDbLine
 10
-0.189789
 20
0.521
 30
0.0
 11
-0.331211
 21
0.521
 31
0.0
  0
LINE
  5
4C2
100
AcDbEntity
  8
0
100
AcDbLine
 10
-0.189789
 20
0.471
 30
0.0
 11
-0.331211
 21
0.471
 31
0.0
  0
LINE
  5
4C3
100
AcDbEntity
  8
0
100
AcDbLine
 10
-0.331211
 20
0.471
 30
0.0
 11
-0.331211
 21
0.521
 31
0.0
  0
LINE
  5
4C4
100
AcDbEntity
  8
0
100
AcDbLine
 10
-0.189789
 20
0.521
 30
0.0
 11
-0.189789
 21
0.471
 31
0.0
  0
SOLID
  5
4C5
100
AcDbEntity
  8
0
100
AcDbTrace
 10
-0.189789
 20
0.521
 30
0.0
 11
-0.331211
 21
0.521
 31
0.0
 12
-0.189789
 22
0.471
 32
0.0
 13
-0.331211
 23
0.471
 33
0.0
  0
ENDBLK
  5
4C7
100
AcDbEntity
  8
0
100
AcDbBlockEnd
  0
BLOCK
  5
53D
100
AcDbEntity
  8
0
100
AcDbBlockBegin
  2
900CSM
 70
     0
 10
0.0
 20
0.0
 30
0.0
  3
900CSM
  1

  0
LINE
  5
4CB
100
AcDbEntity
  8
0
100
AcDbLine
 10
-1.15875
 20
1.1766
 30
0.0
 11
1.15875
 21
1.1766
 31
0.0
  0
LINE
  5
4CC
100
AcDbEntity
  8
0
100
AcDbLine
 10
-1.15875
 20
10.9766
 30
0.0
 11
1.15875
 21
10.9766
 31
0.0
  0
LINE
  5
4CD
100
AcDbEntity
  8
0
100
AcDbLine
 10
-1.19
 20
10.94535
 30
0.0
 11
-1.19
 21
1.20785
 31
0.0
  0
LINE
  5
4CE
100
AcDbEntity
  8
0
100
AcDbLine
 10
1.19
 20
10.94535
 30
0.0
 11
1.19
 21
1.20785
 31
0.0
  0
LINE
  5
4CF
100
AcDbEntity
  8
0
100
AcDbLine
 10
-0.27875
 20
1.3016
 30
0.0
 11
1.19
 21
1.3016
 31
0.0
  0
LINE
  5
4D0
100
AcDbEntity
  8
0
100
AcDbLine
 10
-1.19
 20
7.1316
 30
0.0
 11
1.19
 21
7.1316
 31
0.0
  0
LINE
  5
4D1
100
AcDbEntity
  8
0
100
AcDbLine
 10
-1.19
 20
7.2116
 30
0.0
 11
1.19
 21
7.2116
 31
0.0
  0
LINE
  5
4D2
100
AcDbEntity
  8
0
100
AcDbLine
 10
-1.1085
 20
7.5966
 30
0.0
 11
1.08
 21
7.5966
 31
0.0
  0
LINE
  5
4D3
100
AcDbEntity
  8
0
100
AcDbLine
 10
-1.1085
 20
7.6636
 30
0.0
 11
1.01
 21
7.6636
 31
0.0
  0
TEXT
  5
4D4
100
AcDbEntity
  8
TEXT
100
AcDbText
 10
0.254157
 20
6.6316
 30
0.0
 40
0.25
  1
PiC
 72
     1
 11
0.504157
 21
6.6316
 31
0.0
100
AcDbText
  0
LINE
  5
4D5
100
AcDbEntity
  8
0
100
AcDbLine
 10
-1.1085
 20
10.5226
 30
0.0
 11
1.01
 21
10.5226
 31
0.0
  0
LINE
  5
4D6
100
AcDbEntity
  8
0
100
AcDbLine
 10
-0.709
 20
10.3726
 30
0.0
 11
0.6445
 21
10.3726
 31
0.0
  0
LINE
  5
4D7
100
AcDbEntity
  8
0
100
AcDbLine
 10
-0.709
 20
10.3126
 30
0.0
 11
0.6445
 21
10.3126
 31
0.0
  0
LINE
  5
4D8
100
AcDbEntity
  8
0
100
AcDbLine
 10
-0.709
 20
10.3526
 30
0.0
 11
0.6445
 21
10.3526
 31
0.0
  0
TEXT
  5
4D9
100
AcDbEntity
  8
TEXT
100
AcDbText
 10
-1.0785
 20
10.5526
 30
0.0
 40
0.1
  1
CSM
100
AcDbText
  0
LINE
  5
4DA
100
AcDbEntity
  8
0
100
AcDbLine
 10
0.86
 20
10.2826
 30
0.0
 11
0.86
 21
10.1326
 31
0.0
  0
LINE
  5
4DB
100
AcDbEntity
  8
0
100
AcDbLine
 10
0.71
 20
10.2826
 30
0.0
 11
0.86
 21
10.2826
 31
0.0
  0
LINE
  5
4DC
100
AcDbEntity
  8
0
100
AcDbLine
 10
0.71
 20
10.1326
 30
0.0
 11
0.86
 21
10.1326
 31
0.0
  0
LINE
  5
4DD
100
AcDbEntity
  8
0
100
AcDbLine
 10
0.71
 20
10.2826
 30
0.0
 11
0.71
 21
10.1326
 31
0.0
  0
TEXT
  5
4DE
100
AcDbEntity
  8
TEXT
100
AcDbText
 10
0.326667
 20
10.1576
 30
0.0
 40
0.1
  1
DIAG
 72
     2
 11
0.66
 21
10.1576
 31
0.0
100
AcDbText
  0
SOLID
  5
4DF
100
AcDbEntity
  8
0
100
AcDbTrace
 10
0.71
 20
10.2826
 30
0.0
 11
0.86
 21
10.2826
 31
0.0
 12
0.71
 22
10.1326
 32
0.0
 13
0.86
 23
10.1326
 33
0.0
  0
LINE
  5
4E0
100
AcDbEntity
  8
0
100
AcDbLine
 10
-0.45875
 20
11.85
 30
0.0
 11
0.45875
 21
11.85
 31
0.0
  0
LINE
  5
4E1
100
AcDbEntity
  8
0
100
AcDbLine
 10
-0.49
 20
11.5725
 30
0.0
 11
0.49
 21
11.5725
 31
0.0
  0
LINE
  5
4E2
100
AcDbEntity
  8
0
100
AcDbLine
 10
0.49
 20
11.81875
 30
0.0
 11
0.49
 21
10.9766
 31
0.0
  0
LINE
  5
4E3
100
AcDbEntity
  8
0
100
AcDbLine
 10
-0.49
 20
11.81875
 30
0.0
 11
-0.49
 21
10.9766
 31
0.0
  0
LINE
  5
4E4
100
AcDbEntity
  8
0
100
AcDbLine
 10
0.0625
 20
11.5725
 30
0.0
 11
0.0625
 21
11.48125
 31
0.0
  0
LINE
  5
4E5
100
AcDbEntity
  8
0
100
AcDbLine
 10
-0.0625
 20
11.5725
 30
0.0
 11
-0.0625
 21
11.48125
 31
0.0
  0
LINE
  5
4E6
100
AcDbEntity
  8
0
100
AcDbLine
 10
-0.03125
 20
11.45
 30
0.0
 11
0.03125
 21
11.45
 31
0.0
  0
ARC
  5
4E7
100
AcDbEntity
  8
0
100
AcDbCircle
 10
0.45875
 20
11.81875
 30
0.0
 40
0.03125
100
AcDbArc
 50
0.0
 51
90.0
  0
ARC
  5
4E8
100
AcDbEntity
  8
0
100
AcDbCircle
 10
-0.45875
 20
11.81875
 30
0.0
 40
0.03125
100
AcDbArc
 50
90.0
 51
180.0
  0
ARC
  5
4E9
100
AcDbEntity
  8
0
100
AcDbCircle
 10
-1.15875
 20
10.94535
 30
0.0
 40
0.03125
100
AcDbArc
 50
90.0
 51
180.0
  0
ARC
  5
4EA
100
AcDbEntity
  8
0
100
AcDbCircle
 10
1.15875
 20
10.94535
 30
0.0
 40
0.03125
100
AcDbArc
 50
0.0
 51
90.0
  0
ARC
  5
4EB
100
AcDbEntity
  8
0
100
AcDbCircle
 10
0.03125
 20
11.48125
 30
0.0
 40
0.03125
100
AcDbArc
 50
270.0
 51
360.0
  0
ARC
  5
4EC
100
AcDbEntity
  8
0
100
AcDbCircle
 10
-0.03125
 20
11.48125
 30
0.0
 40
0.03125
100
AcDbArc
 50
180.0
 51
270.0
  0
ARC
  5
4ED
100
AcDbEntity
  8
0
100
AcDbCircle
 10
-1.15875
 20
1.20785
 30
0.0
 40
0.03125
100
AcDbArc
 50
180.0
 51
270.0
  0
ARC
  5
4EE
100
AcDbEntity
  8
0
100
AcDbCircle
 10
1.15875
 20
1.20785
 30
0.0
 40
0.03125
100
AcDbArc
 50
270.0
 51
0.0
  0
ARC
  5
4EF
100
AcDbEntity
  8
0
100
AcDbCircle
 10
-0.27875
 20
1.33285
 30
0.0
 40
0.03125
100
AcDbArc
 50
180.0
 51
270.0
  0
LINE
  5
4F0
100
AcDbEntity
  8
0
100
AcDbLine
 10
-0.45875
 20
0.0
 30
0.0
 11
0.45875
 21
0.0
 31
0.0
  0
LINE
  5
4F1
100
AcDbEntity
  8
0
100
AcDbLine
 10
-0.0625
 20
1.1766
 30
0.0
 11
-0.0625
 21
0.6
 31
0.0
  0
LINE
  5
4F2
100
AcDbEntity
  8
0
100
AcDbLine
 10
0.0625
 20
1.1766
 30
0.0
 11
0.0625
 21
0.6
 31
0.0
  0
LINE
  5
4F3
100
AcDbEntity
  8
0
100
AcDbLine
 10
0.49
 20
1.1766
 30
0.0
 11
0.49
 21
0.03125
 31
0.0
  0
LINE
  5
4F4
100
AcDbEntity
  8
0
100
AcDbLine
 10
-0.49
 20
1.1766
 30
0.0
 11
-0.49
 21
0.03125
 31
0.0
  0
LINE
  5
4F5
100
AcDbEntity
  8
0
100
AcDbLine
 10
-0.49
 20
0.35
 30
0.0
 11
0.49
 21
0.35
 31
0.0
  0
ARC
  5
4F6
100
AcDbEntity
  8
0
100
AcDbCircle
 10
0.45875
 20
0.03125
 30
0.0
 40
0.03125
100
AcDbArc
 50
270.0
 51
0.0
  0
ARC
  5
4F7
100
AcDbEntity
  8
0
100
AcDbCircle
 10
-0.45875
 20
0.03125
 30
0.0
 40
0.03125
100
AcDbArc
 50
180.0
 51
270.0
  0
LINE
  5
4F8
100
AcDbEntity
  8
0
100
AcDbLine
 10
-0.0625
 20
0.6
 30
0.0
 11
0.0625
 21
0.6
 31
0.0
  0
TEXT
  5
4F9
100
AcDbEntity
  8
TEXT
100
AcDbText
 10
0.195
 20
1.4516
 30
0.0
 40
0.05
  1
900CSM.DWG
 72
     2
 11
0.645
 21
1.4516
 31
0.0
100
AcDbText
  0
LINE
  5
4FA
100
AcDbEntity
  8
0
100
AcDbLine
 10
-1.1085
 20
10.8846
 30
0.0
 11
-1.1085
 21
7.2116
 31
0.0
  0
LINE
  5
4FB
100
AcDbEntity
  8
0
100
AcDbLine
 10
1.01
 20
10.3726
 30
0.0
 11
-1.1085
 21
10.3726
 31
0.0
  0
LINE
  5
4FC
100
AcDbEntity
  8
0
100
AcDbLine
 10
1.01
 20
10.3126
 30
0.0
 11
-1.1085
 21
10.3126
 31
0.0
  0
LINE
  5
4FD
100
AcDbEntity
  8
0
100
AcDbLine
 10
1.01
 20
10.3526
 30
0.0
 11
-1.1085
 21
10.3526
 31
0.0
  0
LINE
  5
4FE
100
AcDbEntity
  8
0
100
AcDbLine
 10
1.08
 20
10.7766
 30
0.0
 11
1.08
 21
7.5966
 31
0.0
  0
LINE
  5
4FF
100
AcDbEntity
  8
0
100
AcDbLine
 10
1.01
 20
10.7066
 30
0.0
 11
1.01
 21
7.6636
 31
0.0
  0
LINE
  5
500
100
AcDbEntity
  8
0
100
AcDbLine
 10
1.19
 20
10.912378
 30
0.0
 11
-1.1085
 21
10.8846
 31
0.0
  0
LINE
  5
501
100
AcDbEntity
  8
0
100
AcDbLine
 10
-1.1085
 20
10.7766
 30
0.0
 11
1.08
 21
10.7766
 31
0.0
  0
LINE
  5
502
100
AcDbEntity
  8
0
100
AcDbLine
 10
-1.1085
 20
10.7066
 30
0.0
 11
1.01
 21
10.7066
 31
0.0
  0
TEXT
  5
503
100
AcDbEntity
  8
TEXT
100
AcDbText
 10
0.36
 20
9.9076
 30
0.0
 40
0.1
  1
PWR
 72
     2
 11
0.66
 21
9.9076
 31
0.0
100
AcDbText
  0
LINE
  5
504
100
AcDbEntity
  8
0
100
AcDbLine
 10
0.71
 20
10.0326
 30
0.0
 11
0.86
 21
10.0326
 31
0.0
  0
LINE
  5
505
100
AcDbEntity
  8
0
100
AcDbLine
 10
0.71
 20
9.8826
 30
0.0
 11
0.86
 21
9.8826
 31
0.0
  0
SOLID
  5
506
100
AcDbEntity
  8
0
100
AcDbTrace
 10
0.71
 20
10.0326
 30
0.0
 11
0.86
 21
10.0326
 31
0.0
 12
0.71
 22
9.8826
 32
0.0
 13
0.86
 23
9.8826
 33
0.0
  0
LINE
  5
507
100
AcDbEntity
  8
0
100
AcDbLine
 10
0.71
 20
10.0326
 30
0.0
 11
0.71
 21
9.8826
 31
0.0
  0
LINE
  5
508
100
AcDbEntity
  8
0
100
AcDbLine
 10
0.86
 20
10.0326
 30
0.0
 11
0.86
 21
9.8826
 31
0.0
  0
TEXT
  5
509
100
AcDbEntity
  8
TEXT
100
AcDbText
 10
0.293333
 20
9.6576
 30
0.0
 40
0.1
  1
SCAN
 72
     2
 11
0.66
 21
9.6576
 31
0.0
100
AcDbText
  0
SOLID
  5
50A
100
AcDbEntity
  8
0
100
AcDbTrace
 10
0.71
 20
9.7826
 30
0.0
 11
0.86
 21
9.7826
 31
0.0
 12
0.71
 22
9.6326
 32
0.0
 13
0.86
 23
9.6326
 33
0.0
  0
LINE
  5
50B
100
AcDbEntity
  8
0
100
AcDbLine
 10
0.71
 20
9.6326
 30
0.0
 11
0.86
 21
9.6326
 31
0.0
  0
LINE
  5
50C
100
AcDbEntity
  8
0
100
AcDbLine
 10
0.71
 20
9.7826
 30
0.0
 11
0.86
 21
9.7826
 31
0.0
  0
LINE
  5
50D
100
AcDbEntity
  8
0
100
AcDbLine
 10
0.71
 20
9.7826
 30
0.0
 11
0.71
 21
9.6326
 31
0.0
  0
LINE
  5
50E
100
AcDbEntity
  8
0
100
AcDbLine
 10
0.86
 20
9.7826
 30
0.0
 11
0.86
 21
9.6326
 31
0.0
  0
TEXT
  5
50F
100
AcDbEntity
  8
TEXT
100
AcDbText
 10
0.293333
 20
9.4076
 30
0.0
 40
0.1
  1
BATT
 72
     2
 11
0.66
 21
9.4076
 31
0.0
100
AcDbText
  0
LINE
  5
510
100
AcDbEntity
  8
0
100
AcDbLine
 10
0.71
 20
9.5326
 30
0.0
 11
0.86
 21
9.5326
 31
0.0
  0
LINE
  5
511
100
AcDbEntity
  8
0
100
AcDbLine
 10
0.71
 20
9.3826
 30
0.0
 11
0.86
 21
9.3826
 31
0.0
  0
SOLID
  5
512
100
AcDbEntity
  8
0
100
AcDbTrace
 10
0.71
 20
9.5326
 30
0.0
 11
0.86
 21
9.5326
 31
0.0
 12
0.71
 22
9.3826
 32
0.0
 13
0.86
 23
9.3826
 33
0.0
  0
LINE
  5
513
100
AcDbEntity
  8
0
100
AcDbLine
 10
0.71
 20
9.5326
 30
0.0
 11
0.71
 21
9.3826
 31
0.0
  0
LINE
  5
514
100
AcDbEntity
  8
0
100
AcDbLine
 10
0.86
 20
9.5326
 30
0.0
 11
0.86
 21
9.3826
 31
0.0
  0
SOLID
  5
515
100
AcDbEntity
  8
0
100
AcDbTrace
 10
1.01
 20
10.3526
 30
0.0
 11
-1.1085
 21
10.3526
 31
0.0
 12
1.01
 22
10.3126
 32
0.0
 13
-1.1085
 23
10.3126
 33
0.0
  0
SOLID
  5
516
100
AcDbEntity
  8
0
100
AcDbTrace
 10
1.01
 20
10.5226
 30
0.0
 11
-1.1085
 21
10.5226
 31
0.0
 12
1.01
 22
10.3726
 32
0.0
 13
-1.1085
 23
10.3726
 33
0.0
  0
CIRCLE
  5
517
100
AcDbEntity
  8
0
100
AcDbCircle
 10
0.55
 20
8.6666
 30
0.0
 40
0.24
  0
TEXT
  5
518
100
AcDbEntity
  8
TEXT
100
AcDbText
 10
-0.03531
 20
8.6166
 30
0.0
 40
0.1
  1
Run
 72
     2
 11
0.231357
 21
8.6666
 31
0.0
100
AcDbText
 73
     2
  0
TEXT
  5
519
100
AcDbEntity
  8
TEXT
100
AcDbText
 10
0.367705
 20
8.211776
 30
0.0
 40
0.1
  1
Stop
 72
     2
 11
0.734372
 21
8.261776
 31
0.0
100
AcDbText
 73
     2
  0
TEXT
  5
51A
100
AcDbEntity
  8
TEXT
100
AcDbText
 10
-1.0085
 20
7.7636
 30
0.0
 40
0.1
  1
Programmble Industrial Computer
 50
360.0
 41
0.669244
 72
     5
 11
0.91
 21
7.7636
 31
0.0
100
AcDbText
  0
TEXT
  5
51B
100
AcDbEntity
  8
TEXT
100
AcDbText
 10
-1.0085
 20
8.0036
 30
0.0
 40
0.14
  1
G&L Motion Control
 50
360.0
 41
0.913571
 72
     5
 11
0.91
 21
8.0036
 31
0.0
100
AcDbText
  0
LINE
  5
51C
100
AcDbEntity
  8
0
100
AcDbLine
 10
-0.31
 20
7.1016
 30
0.0
 11
-0.31
 21
1.33285
 31
0.0
  0
LINE
  5
51D
100
AcDbEntity
  8
0
100
AcDbLine
 10
0.79
 20
1.2766
 30
0.0
 11
0.79
 21
1.1766
 31
0.0
  0
LINE
  5
51E
100
AcDbEntity
  8
0
100
AcDbLine
 10
-1.19
 20
1.2766
 30
0.0
 11
1.19
 21
1.2766
 31
0.0
  0
LINE
  5
51F
100
AcDbEntity
  8
0
100
AcDbLine
 10
-0.31
 20
7.1016
 30
0.0
 11
1.19
 21
7.1016
 31
0.0
  0
LINE
  5
520
100
AcDbEntity
  8
0
100
AcDbLine
 10
1.11
 20
7.1016
 30
0.0
 11
1.11
 21
1.3016
 31
0.0
  0
LINE
  5
521
100
AcDbEntity
  8
0
100
AcDbLine
 10
1.07
 20
7.1016
 30
0.0
 11
1.07
 21
1.3016
 31
0.0
  0
LINE
  5
522
100
AcDbEntity
  8
0
100
AcDbLine
 10
0.94
 20
7.1016
 30
0.0
 11
0.94
 21
1.3016
 31
0.0
  0
LINE
  5
523
100
AcDbEntity
  8
0
100
AcDbLine
 10
0.0605
 20
7.1016
 30
0.0
 11
0.0605
 21
1.3016
 31
0.0
  0
LINE
  5
524
100
AcDbEntity
  8
HID
100
AcDbLine
 10
0.0625
 20
7.1316
 30
0.0
 11
0.0625
 21
7.0616
 31
0.0
  0
LINE
  5
525
100
AcDbEntity
  8
HID
100
AcDbLine
 10
-0.0175
 20
7.1316
 30
0.0
 11
-0.0175
 21
7.0616
 31
0.0
  0
LINE
  5
526
100
AcDbEntity
  8
HID
100
AcDbLine
 10
-0.0175
 20
7.0616
 30
0.0
 11
0.0625
 21
7.0616
 31
0.0
  0
LINE
  5
527
100
AcDbEntity
  8
0
100
AcDbLine
 10
-1.1085
 20
7.0501
 30
0.0
 11
-1.1085
 21
1.4266
 31
0.0
  0
LINE
  5
528
100
AcDbEntity
  8
0
100
AcDbLine
 10
-1.19
 20
7.0501
 30
0.0
 11
-1.1085
 21
7.0501
 31
0.0
  0
LINE
  5
529
100
AcDbEntity
  8
0
100
AcDbLine
 10
-1.19
 20
1.4266
 30
0.0
 11
-1.1085
 21
1.4266
 31
0.0
  0
LINE
  5
52A
100
AcDbEntity
  8
HID
100
AcDbLine
 10
0.51
 20
2.0116
 30
0.0
 11
0.94
 21
2.0116
 31
0.0
  0
LINE
  5
52B
100
AcDbEntity
  8
HID
100
AcDbLine
 10
0.51
 20
2.6841
 30
0.0
 11
0.94
 21
2.6841
 31
0.0
  0
LINE
  5
52C
100
AcDbEntity
  8
HID
100
AcDbLine
 10
0.94
 20
2.6841
 30
0.0
 11
0.94
 21
2.0116
 31
0.0
  0
LINE
  5
52D
100
AcDbEntity
  8
HID
100
AcDbLine
 10
0.51
 20
3.3841
 30
0.0
 11
0.94
 21
3.3841
 31
0.0
  0
LINE
  5
52E
100
AcDbEntity
  8
HID
100
AcDbLine
 10
0.51
 20
2.6841
 30
0.0
 11
0.51
 21
2.0116
 31
0.0
  0
LINE
  5
52F
100
AcDbEntity
  8
HID
100
AcDbLine
 10
0.51
 20
4.1341
 30
0.0
 11
0.94
 21
4.1341
 31
0.0
  0
LINE
  5
530
100
AcDbEntity
  8
HID
100
AcDbLine
 10
0.94
 20
4.1341
 30
0.0
 11
0.94
 21
3.3841
 31
0.0
  0
TEXT
  5
531
100
AcDbEntity
  8
TEXT
100
AcDbText
 10
0.06469
 20
3.999336
 30
0.0
 40
0.1
  1
ON
 72
     2
 11
0.231357
 21
4.049336
 31
0.0
100
AcDbText
 73
     2
  0
TEXT
  5
532
100
AcDbEntity
  8
TEXT
100
AcDbText
 10
-0.03531
 20
3.473564
 30
0.0
 40
0.1
  1
OFF
 72
     2
 11
0.231357
 21
3.523564
 31
0.0
100
AcDbText
 73
     2
  0
TEXT
  5
533
100
AcDbEntity
  8
TEXT
100
AcDbText
 10
-0.368643
 20
2.585916
 30
0.0
 40
0.1
  1
L/LINE1
 72
     2
 11
0.231357
 21
2.635916
 31
0.0
100
AcDbText
 73
     2
  0
TEXT
  5
534
100
AcDbEntity
  8
TEXT
100
AcDbText
 10
-0.33531
 20
2.007992
 30
0.0
 40
0.1
  1
E/GRND
 72
     2
 11
0.231357
 21
2.057992
 31
0.0
100
AcDbText
 73
     2
  0
TEXT
  5
535
100
AcDbEntity
  8
TEXT
100
AcDbText
 10
-0.401976
 20
2.28008
 30
0.0
 40
0.1
  1
L/LINE2
 72
     2
 11
0.231357
 21
2.33008
 31
0.0
100
AcDbText
 73
     2
  0
INSERT
  5
536
100
AcDbEntity
  8
HID
100
AcDbBlockReference
  2
PIC_PCON
 10
0.96975
 20
2.04885
 30
0.0
  0
LINE
  5
537
100
AcDbEntity
  8
HID
100
AcDbLine
 10
0.9055
 20
4.0741
 30
0.0
 11
0.9055
 21
3.4441
 31
0.0
  0
LINE
  5
538
100
AcDbEntity
  8
HID
100
AcDbLine
 10
0.5445
 20
4.0741
 30
0.0
 11
0.5445
 21
3.4441
 31
0.0
  0
LINE
  5
539
100
AcDbEntity
  8
HID
100
AcDbLine
 10
0.5445
 20
4.0741
 30
0.0
 11
0.9055
 21
4.0741
 31
0.0
  0
LINE
  5
53A
100
AcDbEntity
  8
HID
100
AcDbLine
 10
0.5445
 20
3.4441
 30
0.0
 11
0.9055
 21
3.4441
 31
0.0
  0
LINE
  5
53B
100
AcDbEntity
  8
HID
100
AcDbLine
 10
0.51
 20
4.1341
 30
0.0
 11
0.51
 21
3.3841
 31
0.0
  0
LINE
  5
53C
100
AcDbEntity
  8
HID
100
AcDbLine
 10
0.9055
 20
3.7591
 30
0.0
 11
0.5445
 21
3.7591
 31
0.0
  0
ENDBLK
  5
53E
100
AcDbEntity
  8
0
100
AcDbBlockEnd
  0
BLOCK
  5
57B
100
AcDbEntity
  8
0
100
AcDbBlockBegin
  2
PCON_7
 70
     0
 10
0.0
 20
0.0
 30
0.0
  3
PCON_7
  1

  0
LINE
  5
545
100
AcDbEntity
  8
0
100
AcDbLine
 10
0.0
 20
1.393
 30
0.0
 11
0.0
 21
0.0
 31
0.0
  0
LINE
  5
546
100
AcDbEntity
  8
0
100
AcDbLine
 10
-0.4895
 20
1.393
 30
0.0
 11
-0.4895
 21
0.0
 31
0.0
  0
LINE
  5
547
100
AcDbEntity
  8
0
100
AcDbLine
 10
0.0
 20
0.0
 30
0.0
 11
-0.4895
 21
0.0
 31
0.0
  0
LINE
  5
548
100
AcDbEntity
  8
0
100
AcDbLine
 10
0.0
 20
1.393
 30
0.0
 11
-0.4895
 21
1.393
 31
0.0
  0
LINE
  5
549
100
AcDbEntity
  8
0
100
AcDbLine
 10
-0.4235
 20
1.393
 30
0.0
 11
-0.4235
 21
0.0
 31
0.0
  0
CIRCLE
  5
54A
100
AcDbEntity
  8
0
100
AcDbCircle
 10
-0.2605
 20
0.102
 30
0.0
 40
0.077
  0
CIRCLE
  5
54B
100
AcDbEntity
  8
0
100
AcDbCircle
 10
-0.2605
 20
0.102
 30
0.0
 40
0.075
  0
LINE
  5
54C
100
AcDbEntity
  8
0
100
AcDbLine
 10
-0.189789
 20
0.127
 30
0.0
 11
-0.331211
 21
0.127
 31
0.0
  0
LINE
  5
54D
100
AcDbEntity
  8
0
100
AcDbLine
 10
-0.189789
 20
0.077
 30
0.0
 11
-0.331211
 21
0.077
 31
0.0
  0
LINE
  5
54E
100
AcDbEntity
  8
0
100
AcDbLine
 10
-0.331211
 20
0.077
 30
0.0
 11
-0.331211
 21
0.127
 31
0.0
  0
LINE
  5
54F
100
AcDbEntity
  8
0
100
AcDbLine
 10
-0.189789
 20
0.127
 30
0.0
 11
-0.189789
 21
0.077
 31
0.0
  0
SOLID
  5
550
100
AcDbEntity
  8
0
100
AcDbTrace
 10
-0.189789
 20
0.127
 30
0.0
 11
-0.331211
 21
0.127
 31
0.0
 12
-0.189789
 22
0.077
 32
0.0
 13
-0.331211
 23
0.077
 33
0.0
  0
SOLID
  5
551
100
AcDbEntity
  8
0
100
AcDbTrace
 10
-0.189789
 20
0.324
 30
0.0
 11
-0.331211
 21
0.324
 31
0.0
 12
-0.189789
 22
0.274
 32
0.0
 13
-0.331211
 23
0.274
 33
0.0
  0
LINE
  5
552
100
AcDbEntity
  8
0
100
AcDbLine
 10
-0.189789
 20
0.324
 30
0.0
 11
-0.189789
 21
0.274
 31
0.0
  0
LINE
  5
553
100
AcDbEntity
  8
0
100
AcDbLine
 10
-0.331211
 20
0.274
 30
0.0
 11
-0.331211
 21
0.324
 31
0.0
  0
LINE
  5
554
100
AcDbEntity
  8
0
100
AcDbLine
 10
-0.189789
 20
0.274
 30
0.0
 11
-0.331211
 21
0.274
 31
0.0
  0
LINE
  5
555
100
AcDbEntity
  8
0
100
AcDbLine
 10
-0.189789
 20
0.324
 30
0.0
 11
-0.331211
 21
0.324
 31
0.0
  0
CIRCLE
  5
556
100
AcDbEntity
  8
0
100
AcDbCircle
 10
-0.2605
 20
0.299
 30
0.0
 40
0.075
  0
CIRCLE
  5
557
100
AcDbEntity
  8
0
100
AcDbCircle
 10
-0.2605
 20
0.299
 30
0.0
 40
0.077
  0
CIRCLE
  5
558
100
AcDbEntity
  8
0
100
AcDbCircle
 10
-0.2605
 20
0.496
 30
0.0
 40
0.077
  0
CIRCLE
  5
559
100
AcDbEntity
  8
0
100
AcDbCircle
 10
-0.2605
 20
0.496
 30
0.0
 40
0.075
  0
LINE
  5
55A
100
AcDbEntity
  8
0
100
AcDbLine
 10
-0.189789
 20
0.521
 30
0.0
 11
-0.331211
 21
0.521
 31
0.0
  0
LINE
  5
55B
100
AcDbEntity
  8
0
100
AcDbLine
 10
-0.189789
 20
0.471
 30
0.0
 11
-0.331211
 21
0.471
 31
0.0
  0
LINE
  5
55C
100
AcDbEntity
  8
0
100
AcDbLine
 10
-0.331211
 20
0.471
 30
0.0
 11
-0.331211
 21
0.521
 31
0.0
  0
LINE
  5
55D
100
AcDbEntity
  8
0
100
AcDbLine
 10
-0.189789
 20
0.521
 30
0.0
 11
-0.189789
 21
0.471
 31
0.0
  0
SOLID
  5
55E
100
AcDbEntity
  8
0
100
AcDbTrace
 10
-0.189789
 20
0.521
 30
0.0
 11
-0.331211
 21
0.521
 31
0.0
 12
-0.189789
 22
0.471
 32
0.0
 13
-0.331211
 23
0.471
 33
0.0
  0
SOLID
  5
55F
100
AcDbEntity
  8
0
100
AcDbTrace
 10
-0.189789
 20
1.119
 30
0.0
 11
-0.331211
 21
1.119
 31
0.0
 12
-0.189789
 22
1.069
 32
0.0
 13
-0.331211
 23
1.069
 33
0.0
  0
LINE
  5
560
100
AcDbEntity
  8
0
100
AcDbLine
 10
-0.189789
 20
1.069
 30
0.0
 11
-0.331211
 21
1.069
 31
0.0
  0
LINE
  5
561
100
AcDbEntity
  8
0
100
AcDbLine
 10
-0.189789
 20
1.119
 30
0.0
 11
-0.331211
 21
1.119
 31
0.0
  0
CIRCLE
  5
562
100
AcDbEntity
  8
0
100
AcDbCircle
 10
-0.2605
 20
1.094
 30
0.0
 40
0.075
  0
CIRCLE
  5
563
100
AcDbEntity
  8
0
100
AcDbCircle
 10
-0.2605
 20
1.094
 30
0.0
 40
0.077
  0
CIRCLE
  5
564
100
AcDbEntity
  8
0
100
AcDbCircle
 10
-0.2605
 20
0.897
 30
0.0
 40
0.077
  0
CIRCLE
  5
565
100
AcDbEntity
  8
0
100
AcDbCircle
 10
-0.2605
 20
0.897
 30
0.0
 40
0.075
  0
LINE
  5
566
100
AcDbEntity
  8
0
100
AcDbLine
 10
-0.189789
 20
0.922
 30
0.0
 11
-0.331211
 21
0.922
 31
0.0
  0
LINE
  5
567
100
AcDbEntity
  8
0
100
AcDbLine
 10
-0.189789
 20
0.872
 30
0.0
 11
-0.331211
 21
0.872
 31
0.0
  0
SOLID
  5
568
100
AcDbEntity
  8
0
100
AcDbTrace
 10
-0.189789
 20
0.922
 30
0.0
 11
-0.331211
 21
0.922
 31
0.0
 12
-0.189789
 22
0.872
 32
0.0
 13
-0.331211
 23
0.872
 33
0.0
  0
SOLID
  5
569
100
AcDbEntity
  8
0
100
AcDbTrace
 10
-0.189789
 20
0.725
 30
0.0
 11
-0.331211
 21
0.725
 31
0.0
 12
-0.189789
 22
0.675
 32
0.0
 13
-0.331211
 23
0.675
 33
0.0
  0
LINE
  5
56A
100
AcDbEntity
  8
0
100
AcDbLine
 10
-0.189789
 20
0.675
 30
0.0
 11
-0.331211
 21
0.675
 31
0.0
  0
LINE
  5
56B
100
AcDbEntity
  8
0
100
AcDbLine
 10
-0.189789
 20
0.725
 30
0.0
 11
-0.331211
 21
0.725
 31
0.0
  0
CIRCLE
  5
56C
100
AcDbEntity
  8
0
100
AcDbCircle
 10
-0.2605
 20
0.7
 30
0.0
 40
0.075
  0
CIRCLE
  5
56D
100
AcDbEntity
  8
0
100
AcDbCircle
 10
-0.2605
 20
0.7
 30
0.0
 40
0.077
  0
LINE
  5
56E
100
AcDbEntity
  8
0
100
AcDbLine
 10
-0.331211
 20
0.872
 30
0.0
 11
-0.331211
 21
0.922
 31
0.0
  0
LINE
  5
56F
100
AcDbEntity
  8
0
100
AcDbLine
 10
-0.331211
 20
0.675
 30
0.0
 11
-0.331211
 21
0.725
 31
0.0
  0
LINE
  5
570
100
AcDbEntity
  8
0
100
AcDbLine
 10
-0.331211
 20
1.069
 30
0.0
 11
-0.331211
 21
1.119
 31
0.0
  0
LINE
  5
571
100
AcDbEntity
  8
0
100
AcDbLine
 10
-0.189789
 20
0.922
 30
0.0
 11
-0.189789
 21
0.872
 31
0.0
  0
LINE
  5
572
100
AcDbEntity
  8
0
100
AcDbLine
 10
-0.189789
 20
0.725
 30
0.0
 11
-0.189789
 21
0.675
 31
0.0
  0
LINE
  5
573
100
AcDbEntity
  8
0
100
AcDbLine
 10
-0.189789
 20
1.119
 30
0.0
 11
-0.189789
 21
1.069
 31
0.0
  0
CIRCLE
  5
574
100
AcDbEntity
  8
0
100
AcDbCircle
 10
-0.2605
 20
1.291
 30
0.0
 40
0.077
  0
CIRCLE
  5
575
100
AcDbEntity
  8
0
100
AcDbCircle
 10
-0.2605
 20
1.291
 30
0.0
 40
0.075
  0
LINE
  5
576
100
AcDbEntity
  8
0
100
AcDbLine
 10
-0.189789
 20
1.316
 30
0.0
 11
-0.331211
 21
1.316
 31
0.0
  0
LINE
  5
577
100
AcDbEntity
  8
0
100
AcDbLine
 10
-0.189789
 20
1.266
 30
0.0
 11
-0.331211
 21
1.266
 31
0.0
  0
SOLID
  5
578
100
AcDbEntity
  8
0
100
AcDbTrace
 10
-0.189789
 20
1.316
 30
0.0
 11
-0.331211
 21
1.316
 31
0.0
 12
-0.189789
 22
1.266
 32
0.0
 13
-0.331211
 23
1.266
 33
0.0
  0
LINE
  5
579
100
AcDbEntity
  8
0
100
AcDbLine
 10
-0.331211
 20
1.266
 30
0.0
 11
-0.331211
 21
1.316
 31
0.0
  0
LINE
  5
57A
100
AcDbEntity
  8
0
100
AcDbLine
 10
-0.189789
 20
1.316
 30
0.0
 11
-0.189789
 21
1.266
 31
0.0
  0
ENDBLK
  5
57C
100
AcDbEntity
  8
0
100
AcDbBlockEnd
  0
BLOCK
  5
5C9
100
AcDbEntity
  8
0
100
AcDbBlockBegin
  2
PCON_10
 70
     0
 10
0.0
 20
0.0
 30
0.0
  3
PCON_10
  1

  0
LINE
  5
57E
100
AcDbEntity
  8
0
100
AcDbLine
 10
0.0
 20
1.991
 30
0.0
 11
0.0
 21
0.0
 31
0.0
  0
LINE
  5
57F
100
AcDbEntity
  8
0
100
AcDbLine
 10
-0.4895
 20
1.991
 30
0.0
 11
-0.4895
 21
0.0
 31
0.0
  0
LINE
  5
580
100
AcDbEntity
  8
0
100
AcDbLine
 10
0.0
 20
0.0
 30
0.0
 11
-0.4895
 21
0.0
 31
0.0
  0
LINE
  5
581
100
AcDbEntity
  8
0
100
AcDbLine
 10
0.0
 20
1.991
 30
0.0
 11
-0.4895
 21
1.991
 31
0.0
  0
LINE
  5
582
100
AcDbEntity
  8
0
100
AcDbLine
 10
-0.4235
 20
1.991
 30
0.0
 11
-0.4235
 21
0.0
 31
0.0
  0
CIRCLE
  5
583
100
AcDbEntity
  8
0
100
AcDbCircle
 10
-0.2605
 20
0.102
 30
0.0
 40
0.077
  0
CIRCLE
  5
584
100
AcDbEntity
  8
0
100
AcDbCircle
 10
-0.2605
 20
0.102
 30
0.0
 40
0.075
  0
LINE
  5
585
100
AcDbEntity
  8
0
100
AcDbLine
 10
-0.189789
 20
0.127
 30
0.0
 11
-0.331211
 21
0.127
 31
0.0
  0
LINE
  5
586
100
AcDbEntity
  8
0
100
AcDbLine
 10
-0.189789
 20
0.077
 30
0.0
 11
-0.331211
 21
0.077
 31
0.0
  0
LINE
  5
587
100
AcDbEntity
  8
0
100
AcDbLine
 10
-0.331211
 20
0.077
 30
0.0
 11
-0.331211
 21
0.127
 31
0.0
  0
LINE
  5
588
100
AcDbEntity
  8
0
100
AcDbLine
 10
-0.189789
 20
0.127
 30
0.0
 11
-0.189789
 21
0.077
 31
0.0
  0
SOLID
  5
589
100
AcDbEntity
  8
0
100
AcDbTrace
 10
-0.189789
 20
0.127
 30
0.0
 11
-0.331211
 21
0.127
 31
0.0
 12
-0.189789
 22
0.077
 32
0.0
 13
-0.331211
 23
0.077
 33
0.0
  0
SOLID
  5
58A
100
AcDbEntity
  8
0
100
AcDbTrace
 10
-0.189789
 20
0.324
 30
0.0
 11
-0.331211
 21
0.324
 31
0.0
 12
-0.189789
 22
0.274
 32
0.0
 13
-0.331211
 23
0.274
 33
0.0
  0
LINE
  5
58B
100
AcDbEntity
  8
0
100
AcDbLine
 10
-0.189789
 20
0.324
 30
0.0
 11
-0.189789
 21
0.274
 31
0.0
  0
LINE
  5
58C
100
AcDbEntity
  8
0
100
AcDbLine
 10
-0.331211
 20
0.274
 30
0.0
 11
-0.331211
 21
0.324
 31
0.0
  0
LINE
  5
58D
100
AcDbEntity
  8
0
100
AcDbLine
 10
-0.189789
 20
0.274
 30
0.0
 11
-0.331211
 21
0.274
 31
0.0
  0
LINE
  5
58E
100
AcDbEntity
  8
0
100
AcDbLine
 10
-0.189789
 20
0.324
 30
0.0
 11
-0.331211
 21
0.324
 31
0.0
  0
CIRCLE
  5
58F
100
AcDbEntity
  8
0
100
AcDbCircle
 10
-0.2605
 20
0.299
 30
0.0
 40
0.075
  0
CIRCLE
  5
590
100
AcDbEntity
  8
0
100
AcDbCircle
 10
-0.2605
 20
0.299
 30
0.0
 40
0.077
  0
CIRCLE
  5
591
100
AcDbEntity
  8
0
100
AcDbCircle
 10
-0.2605
 20
0.496
 30
0.0
 40
0.077
  0
CIRCLE
  5
592
100
AcDbEntity
  8
0
100
AcDbCircle
 10
-0.2605
 20
0.496
 30
0.0
 40
0.075
  0
LINE
  5
593
100
AcDbEntity
  8
0
100
AcDbLine
 10
-0.189789
 20
0.521
 30
0.0
 11
-0.331211
 21
0.521
 31
0.0
  0
LINE
  5
594
100
AcDbEntity
  8
0
100
AcDbLine
 10
-0.189789
 20
0.471
 30
0.0
 11
-0.331211
 21
0.471
 31
0.0
  0
LINE
  5
595
100
AcDbEntity
  8
0
100
AcDbLine
 10
-0.331211
 20
0.471
 30
0.0
 11
-0.331211
 21
0.521
 31
0.0
  0
LINE
  5
596
100
AcDbEntity
  8
0
100
AcDbLine
 10
-0.189789
 20
0.521
 30
0.0
 11
-0.189789
 21
0.471
 31
0.0
  0
SOLID
  5
597
100
AcDbEntity
  8
0
100
AcDbTrace
 10
-0.189789
 20
0.521
 30
0.0
 11
-0.331211
 21
0.521
 31
0.0
 12
-0.189789
 22
0.471
 32
0.0
 13
-0.331211
 23
0.471
 33
0.0
  0
SOLID
  5
598
100
AcDbEntity
  8
0
100
AcDbTrace
 10
-0.189789
 20
1.119
 30
0.0
 11
-0.331211
 21
1.119
 31
0.0
 12
-0.189789
 22
1.069
 32
0.0
 13
-0.331211
 23
1.069
 33
0.0
  0
LINE
  5
599
100
AcDbEntity
  8
0
100
AcDbLine
 10
-0.189789
 20
1.069
 30
0.0
 11
-0.331211
 21
1.069
 31
0.0
  0
LINE
  5
59A
100
AcDbEntity
  8
0
100
AcDbLine
 10
-0.189789
 20
1.119
 30
0.0
 11
-0.331211
 21
1.119
 31
0.0
  0
CIRCLE
  5
59B
100
AcDbEntity
  8
0
100
AcDbCircle
 10
-0.2605
 20
1.094
 30
0.0
 40
0.075
  0
CIRCLE
  5
59C
100
AcDbEntity
  8
0
100
AcDbCircle
 10
-0.2605
 20
1.094
 30
0.0
 40
0.077
  0
CIRCLE
  5
59D
100
AcDbEntity
  8
0
100
AcDbCircle
 10
-0.2605
 20
0.897
 30
0.0
 40
0.077
  0
CIRCLE
  5
59E
100
AcDbEntity
  8
0
100
AcDbCircle
 10
-0.2605
 20
0.897
 30
0.0
 40
0.075
  0
LINE
  5
59F
100
AcDbEntity
  8
0
100
AcDbLine
 10
-0.189789
 20
0.922
 30
0.0
 11
-0.331211
 21
0.922
 31
0.0
  0
LINE
  5
5A0
100
AcDbEntity
  8
0
100
AcDbLine
 10
-0.189789
 20
0.872
 30
0.0
 11
-0.331211
 21
0.872
 31
0.0
  0
SOLID
  5
5A1
100
AcDbEntity
  8
0
100
AcDbTrace
 10
-0.189789
 20
0.922
 30
0.0
 11
-0.331211
 21
0.922
 31
0.0
 12
-0.189789
 22
0.872
 32
0.0
 13
-0.331211
 23
0.872
 33
0.0
  0
SOLID
  5
5A2
100
AcDbEntity
  8
0
100
AcDbTrace
 10
-0.189789
 20
0.725
 30
0.0
 11
-0.331211
 21
0.725
 31
0.0
 12
-0.189789
 22
0.675
 32
0.0
 13
-0.331211
 23
0.675
 33
0.0
  0
LINE
  5
5A3
100
AcDbEntity
  8
0
100
AcDbLine
 10
-0.189789
 20
0.675
 30
0.0
 11
-0.331211
 21
0.675
 31
0.0
  0
LINE
  5
5A4
100
AcDbEntity
  8
0
100
AcDbLine
 10
-0.189789
 20
0.725
 30
0.0
 11
-0.331211
 21
0.725
 31
0.0
  0
CIRCLE
  5
5A5
100
AcDbEntity
  8
0
100
AcDbCircle
 10
-0.2605
 20
0.7
 30
0.0
 40
0.075
  0
CIRCLE
  5
5A6
100
AcDbEntity
  8
0
100
AcDbCircle
 10
-0.2605
 20
0.7
 30
0.0
 40
0.077
  0
LINE
  5
5A7
100
AcDbEntity
  8
0
100
AcDbLine
 10
-0.331211
 20
0.872
 30
0.0
 11
-0.331211
 21
0.922
 31
0.0
  0
LINE
  5
5A8
100
AcDbEntity
  8
0
100
AcDbLine
 10
-0.331211
 20
0.675
 30
0.0
 11
-0.331211
 21
0.725
 31
0.0
  0
LINE
  5
5A9
100
AcDbEntity
  8
0
100
AcDbLine
 10
-0.331211
 20
1.069
 30
0.0
 11
-0.331211
 21
1.119
 31
0.0
  0
LINE
  5
5AA
100
AcDbEntity
  8
0
100
AcDbLine
 10
-0.189789
 20
0.922
 30
0.0
 11
-0.189789
 21
0.872
 31
0.0
  0
LINE
  5
5AB
100
AcDbEntity
  8
0
100
AcDbLine
 10
-0.189789
 20
0.725
 30
0.0
 11
-0.189789
 21
0.675
 31
0.0
  0
LINE
  5
5AC
100
AcDbEntity
  8
0
100
AcDbLine
 10
-0.189789
 20
1.119
 30
0.0
 11
-0.189789
 21
1.069
 31
0.0
  0
CIRCLE
  5
5AD
100
AcDbEntity
  8
0
100
AcDbCircle
 10
-0.2605
 20
1.291
 30
0.0
 40
0.077
  0
CIRCLE
  5
5AE
100
AcDbEntity
  8
0
100
AcDbCircle
 10
-0.2605
 20
1.291
 30
0.0
 40
0.075
  0
LINE
  5
5AF
100
AcDbEntity
  8
0
100
AcDbLine
 10
-0.189789
 20
1.316
 30
0.0
 11
-0.331211
 21
1.316
 31
0.0
  0
LINE
  5
5B0
100
AcDbEntity
  8
0
100
AcDbLine
 10
-0.189789
 20
1.266
 30
0.0
 11
-0.331211
 21
1.266
 31
0.0
  0
SOLID
  5
5B1
100
AcDbEntity
  8
0
100
AcDbTrace
 10
-0.189789
 20
1.316
 30
0.0
 11
-0.331211
 21
1.316
 31
0.0
 12
-0.189789
 22
1.266
 32
0.0
 13
-0.331211
 23
1.266
 33
0.0
  0
LINE
  5
5B2
100
AcDbEntity
  8
0
100
AcDbLine
 10
-0.331211
 20
1.266
 30
0.0
 11
-0.331211
 21
1.316
 31
0.0
  0
LINE
  5
5B3
100
AcDbEntity
  8
0
100
AcDbLine
 10
-0.189789
 20
1.316
 30
0.0
 11
-0.189789
 21
1.266
 31
0.0
  0
SOLID
  5
5B4
100
AcDbEntity
  8
0
100
AcDbTrace
 10
-0.189789
 20
1.914
 30
0.0
 11
-0.331211
 21
1.914
 31
0.0
 12
-0.189789
 22
1.864
 32
0.0
 13
-0.331211
 23
1.864
 33
0.0
  0
LINE
  5
5B5
100
AcDbEntity
  8
0
100
AcDbLine
 10
-0.189789
 20
1.864
 30
0.0
 11
-0.331211
 21
1.864
 31
0.0
  0
LINE
  5
5B6
100
AcDbEntity
  8
0
100
AcDbLine
 10
-0.189789
 20
1.914
 30
0.0
 11
-0.331211
 21
1.914
 31
0.0
  0
CIRCLE
  5
5B7
100
AcDbEntity
  8
0
100
AcDbCircle
 10
-0.2605
 20
1.889
 30
0.0
 40
0.075
  0
CIRCLE
  5
5B8
100
AcDbEntity
  8
0
100
AcDbCircle
 10
-0.2605
 20
1.889
 30
0.0
 40
0.077
  0
SOLID
  5
5B9
100
AcDbEntity
  8
0
100
AcDbTrace
 10
-0.189789
 20
1.52
 30
0.0
 11
-0.331211
 21
1.52
 31
0.0
 12
-0.189789
 22
1.47
 32
0.0
 13
-0.331211
 23
1.47
 33
0.0
  0
LINE
  5
5BA
100
AcDbEntity
  8
0
100
AcDbLine
 10
-0.189789
 20
1.47
 30
0.0
 11
-0.331211
 21
1.47
 31
0.0
  0
LINE
  5
5BB
100
AcDbEntity
  8
0
100
AcDbLine
 10
-0.189789
 20
1.52
 30
0.0
 11
-0.331211
 21
1.52
 31
0.0
  0
CIRCLE
  5
5BC
100
AcDbEntity
  8
0
100
AcDbCircle
 10
-0.2605
 20
1.495
 30
0.0
 40
0.075
  0
CIRCLE
  5
5BD
100
AcDbEntity
  8
0
100
AcDbCircle
 10
-0.2605
 20
1.495
 30
0.0
 40
0.077
  0
CIRCLE
  5
5BE
100
AcDbEntity
  8
0
100
AcDbCircle
 10
-0.2605
 20
1.692
 30
0.0
 40
0.077
  0
CIRCLE
  5
5BF
100
AcDbEntity
  8
0
100
AcDbCircle
 10
-0.2605
 20
1.692
 30
0.0
 40
0.075
  0
LINE
  5
5C0
100
AcDbEntity
  8
0
100
AcDbLine
 10
-0.189789
 20
1.717
 30
0.0
 11
-0.331211
 21
1.717
 31
0.0
  0
LINE
  5
5C1
100
AcDbEntity
  8
0
100
AcDbLine
 10
-0.189789
 20
1.667
 30
0.0
 11
-0.331211
 21
1.667
 31
0.0
  0
SOLID
  5
5C2
100
AcDbEntity
  8
0
100
AcDbTrace
 10
-0.189789
 20
1.717
 30
0.0
 11
-0.331211
 21
1.717
 31
0.0
 12
-0.189789
 22
1.667
 32
0.0
 13
-0.331211
 23
1.667
 33
0.0
  0
LINE
  5
5C3
100
AcDbEntity
  8
0
100
AcDbLine
 10
-0.331211
 20
1.47
 30
0.0
 11
-0.331211
 21
1.52
 31
0.0
  0
LINE
  5
5C4
100
AcDbEntity
  8
0
100
AcDbLine
 10
-0.331211
 20
1.667
 30
0.0
 11
-0.331211
 21
1.717
 31
0.0
  0
LINE
  5
5C5
100
AcDbEntity
  8
0
100
AcDbLine
 10
-0.331211
 20
1.864
 30
0.0
 11
-0.331211
 21
1.914
 31
0.0
  0
LINE
  5
5C6
100
AcDbEntity
  8
0
100
AcDbLine
 10
-0.189789
 20
1.52
 30
0.0
 11
-0.189789
 21
1.47
 31
0.0
  0
LINE
  5
5C7
100
AcDbEntity
  8
0
100
AcDbLine
 10
-0.189789
 20
1.717
 30
0.0
 11
-0.189789
 21
1.667
 31
0.0
  0
LINE
  5
5C8
100
AcDbEntity
  8
0
100
AcDbLine
 10
-0.189789
 20
1.914
 30
0.0
 11
-0.189789
 21
1.864
 31
0.0
  0
ENDBLK
  5
5CA
100
AcDbEntity
  8
0
100
AcDbBlockEnd
  0
BLOCK
  5
5E7
100
AcDbEntity
  8
0
100
AcDbBlockBegin
  2
9_PIN_D
 70
     0
 10
0.0
 20
0.0
 30
0.0
  3
9_PIN_D
  1

  0
LINE
  5
5CC
100
AcDbEntity
  8
0
100
AcDbLine
 10
-0.245
 20
0.54575
 30
0.0
 11
-0.245
 21
-0.54575
 31
0.0
  0
LINE
  5
5CD
100
AcDbEntity
  8
0
100
AcDbLine
 10
0.245
 20
0.54575
 30
0.0
 11
0.245
 21
-0.54575
 31
0.0
  0
LINE
  5
5CE
100
AcDbEntity
  8
0
100
AcDbLine
 10
0.1825
 20
-0.60825
 30
0.0
 11
-0.1825
 21
-0.60825
 31
0.0
  0
LINE
  5
5CF
100
AcDbEntity
  8
0
100
AcDbLine
 10
0.1825
 20
0.60825
 30
0.0
 11
-0.1825
 21
0.60825
 31
0.0
  0
CIRCLE
  5
5D0
100
AcDbEntity
  8
0
100
AcDbCircle
 10
0.0
 20
0.5
 30
0.0
 40
0.0585
  0
CIRCLE
  5
5D1
100
AcDbEntity
  8
0
100
AcDbCircle
 10
0.0
 20
-0.5
 30
0.0
 40
0.0585
  0
LINE
  5
5D2
100
AcDbEntity
  8
0
100
AcDbLine
 10
0.18175
 20
0.270844
 30
0.0
 11
0.18175
 21
-0.270844
 31
0.0
  0
LINE
  5
5D3
100
AcDbEntity
  8
0
100
AcDbLine
 10
-0.18175
 20
0.283967
 30
0.0
 11
-0.18175
 21
-0.283967
 31
0.0
  0
LINE
  5
5D4
100
AcDbEntity
  8
0
100
AcDbLine
 10
-0.115816
 20
0.346372
 30
0.0
 11
0.122684
 21
0.33325
 31
0.0
  0
ARC
  5
5D5
100
AcDbEntity
  8
0
100
AcDbCircle
 10
0.11925
 20
0.270844
 30
0.0
 40
0.0625
100
AcDbArc
 50
0.0
 51
86.850725
  0
ARC
  5
5D6
100
AcDbEntity
  8
0
100
AcDbCircle
 10
-0.11925
 20
0.283967
 30
0.0
 40
0.0625
100
AcDbArc
 50
86.850725
 51
180.0
  0
LINE
  5
5D7
100
AcDbEntity
  8
0
100
AcDbLine
 10
-0.115816
 20
-0.346372
 30
0.0
 11
0.122684
 21
-0.33325
 31
0.0
  0
ARC
  5
5D8
100
AcDbEntity
  8
0
100
AcDbCircle
 10
-0.11925
 20
-0.283967
 30
0.0
 40
0.0625
100
AcDbArc
 50
180.0
 51
273.149275
  0
ARC
  5
5D9
100
AcDbEntity
  8
0
100
AcDbCircle
 10
0.11925
 20
-0.270844
 30
0.0
 40
0.0625
100
AcDbArc
 50
273.149275
 51
360.0
  0
ARC
  5
5DA
100
AcDbEntity
  8
0
100
AcDbCircle
 10
0.1825
 20
0.54575
 30
0.0
 40
0.0625
100
AcDbArc
 50
0.0
 51
90.0
  0
ARC
  5
5DB
100
AcDbEntity
  8
0
100
AcDbCircle
 10
-0.1825
 20
0.54575
 30
0.0
 40
0.0625
100
AcDbArc
 50
90.0
 51
180.0
  0
ARC
  5
5DC
100
AcDbEntity
  8
0
100
AcDbCircle
 10
-0.1825
 20
-0.54575
 30
0.0
 40
0.0625
100
AcDbArc
 50
180.0
 51
270.0
  0
ARC
  5
5DD
100
AcDbEntity
  8
0
100
AcDbCircle
 10
0.1825
 20
-0.54575
 30
0.0
 40
0.0625
100
AcDbArc
 50
270.0
 51
0.0
  0
CIRCLE
  5
5DE
100
AcDbEntity
  8
0
100
AcDbCircle
 10
-0.0645
 20
0.0
 30
0.0
 40
0.0185
  0
CIRCLE
  5
5DF
100
AcDbEntity
  8
0
100
AcDbCircle
 10
-0.0645
 20
0.1
 30
0.0
 40
0.0185
  0
CIRCLE
  5
5E0
100
AcDbEntity
  8
0
100
AcDbCircle
 10
-0.0645
 20
0.2
 30
0.0
 40
0.0185
  0
CIRCLE
  5
5E1
100
AcDbEntity
  8
0
100
AcDbCircle
 10
-0.0645
 20
-0.2
 30
0.0
 40
0.0185
  0
CIRCLE
  5
5E2
100
AcDbEntity
  8
0
100
AcDbCircle
 10
-0.0645
 20
-0.1
 30
0.0
 40
0.0185
  0
CIRCLE
  5
5E3
100
AcDbEntity
  8
0
100
AcDbCircle
 10
0.0645
 20
-0.05
 30
0.0
 40
0.0185
  0
CIRCLE
  5
5E4
100
AcDbEntity
  8
0
100
AcDbCircle
 10
0.0645
 20
-0.15
 30
0.0
 40
0.0185
  0
CIRCLE
  5
5E5
100
AcDbEntity
  8
0
100
AcDbCircle
 10
0.0645
 20
0.05
 30
0.0
 40
0.0185
  0
CIRCLE
  5
5E6
100
AcDbEntity
  8
0
100
AcDbCircle
 10
0.0645
 20
0.15
 30
0.0
 40
0.0185
  0
ENDBLK
  5
5E8
100
AcDbEntity
  8
0
100
AcDbBlockEnd
  0
BLOCK
  5
658
100
AcDbEntity
  8
0
100
AcDbBlockBegin
  2
900_CPU
 70
     0
 10
0.0
 20
0.0
 30
0.0
  3
900_CPU
  1

  0
LINE
  5
5EA
100
AcDbEntity
  8
0
100
AcDbLine
 10
-0.76375
 20
1.1766
 30
0.0
 11
0.76375
 21
1.1766
 31
0.0
  0
LINE
  5
5EB
100
AcDbEntity
  8
0
100
AcDbLine
 10
-0.76375
 20
10.9766
 30
0.0
 11
0.76375
 21
10.9766
 31
0.0
  0
LINE
  5
5EC
100
AcDbEntity
  8
0
100
AcDbLine
 10
-0.795
 20
10.94535
 30
0.0
 11
-0.795
 21
1.20785
 31
0.0
  0
LINE
  5
5ED
100
AcDbEntity
  8
0
100
AcDbLine
 10
0.795
 20
10.94535
 30
0.0
 11
0.795
 21
1.20785
 31
0.0
  0
LINE
  5
5EE
100
AcDbEntity
  8
0
100
AcDbLine
 10
0.42625
 20
1.2966
 30
0.0
 11
0.795
 21
1.2966
 31
0.0
  0
LINE
  5
5EF
100
AcDbEntity
  8
0
100
AcDbLine
 10
0.395
 20
1.26535
 30
0.0
 11
0.395
 21
1.1766
 31
0.0
  0
LINE
  5
5F0
100
AcDbEntity
  8
0
100
AcDbLine
 10
-0.68625
 20
1.3016
 30
0.0
 11
0.795
 21
1.3016
 31
0.0
  0
LINE
  5
5F1
100
AcDbEntity
  8
0
100
AcDbLine
 10
-0.68625
 20
7.1266
 30
0.0
 11
0.795
 21
7.1266
 31
0.0
  0
LINE
  5
5F2
100
AcDbEntity
  8
0
100
AcDbLine
 10
-0.7175
 20
7.09535
 30
0.0
 11
-0.7175
 21
1.33285
 31
0.0
  0
LINE
  5
5F3
100
AcDbEntity
  8
0
100
AcDbLine
 10
-0.795
 20
7.1316
 30
0.0
 11
0.795
 21
7.1316
 31
0.0
  0
LINE
  5
5F4
100
AcDbEntity
  8
0
100
AcDbLine
 10
-0.709
 20
7.2116
 30
0.0
 11
0.795
 21
7.2116
 31
0.0
  0
LINE
  5
5F5
100
AcDbEntity
  8
0
100
AcDbLine
 10
-0.709
 20
10.8846
 30
0.0
 11
-0.709
 21
7.2116
 31
0.0
  0
LINE
  5
5F6
100
AcDbEntity
  8
0
100
AcDbLine
 10
0.795
 20
10.9066
 30
0.0
 11
-0.709
 21
10.8846
 31
0.0
  0
LINE
  5
5F7
100
AcDbEntity
  8
0
100
AcDbLine
 10
0.7115
 20
10.7726
 30
0.0
 11
0.7115
 21
7.4381
 31
0.0
  0
LINE
  5
5F8
100
AcDbEntity
  8
0
100
AcDbLine
 10
0.6445
 20
10.7056
 30
0.0
 11
0.6445
 21
7.5051
 31
0.0
  0
LINE
  5
5F9
100
AcDbEntity
  8
0
100
AcDbLine
 10
-0.709
 20
10.7056
 30
0.0
 11
0.6445
 21
10.7056
 31
0.0
  0
LINE
  5
5FA
100
AcDbEntity
  8
0
100
AcDbLine
 10
-0.709
 20
10.7726
 30
0.0
 11
0.7115
 21
10.7726
 31
0.0
  0
LINE
  5
5FB
100
AcDbEntity
  8
0
100
AcDbLine
 10
-0.709
 20
7.4381
 30
0.0
 11
0.7115
 21
7.4381
 31
0.0
  0
LINE
  5
5FC
100
AcDbEntity
  8
0
100
AcDbLine
 10
-0.709
 20
7.5051
 30
0.0
 11
0.6445
 21
7.5051
 31
0.0
  0
TEXT
  5
5FD
100
AcDbEntity
  8
TEXT
100
AcDbText
 10
-0.25
 20
6.6316
 30
0.0
 40
0.25
  1
PiC
 72
     1
 11
0.0
 21
6.6316
 31
0.0
100
AcDbText
  0
LINE
  5
5FE
100
AcDbEntity
  8
0
100
AcDbLine
 10
-0.709
 20
10.5226
 30
0.0
 11
0.6445
 21
10.5226
 31
0.0
  0
LINE
  5
5FF
100
AcDbEntity
  8
0
100
AcDbLine
 10
-0.709
 20
10.3726
 30
0.0
 11
0.6445
 21
10.3726
 31
0.0
  0
LINE
  5
600
100
AcDbEntity
  8
0
100
AcDbLine
 10
-0.709
 20
10.3126
 30
0.0
 11
0.6445
 21
10.3126
 31
0.0
  0
LINE
  5
601
100
AcDbEntity
  8
0
100
AcDbLine
 10
-0.709
 20
10.3526
 30
0.0
 11
0.6445
 21
10.3526
 31
0.0
  0
SOLID
  5
602
100
AcDbEntity
  8
0
100
AcDbTrace
 10
-0.709
 20
10.5226
 30
0.0
 11
-0.709
 21
10.3726
 31
0.0
 12
0.6445
 22
10.5226
 32
0.0
 13
0.6445
 23
10.3726
 33
0.0
  0
SOLID
  5
603
100
AcDbEntity
  8
0
100
AcDbTrace
 10
-0.709
 20
10.3526
 30
0.0
 11
-0.709
 21
10.3126
 31
0.0
 12
0.6445
 22
10.3526
 32
0.0
 13
0.6445
 23
10.3126
 33
0.0
  0
TEXT
  5
604
100
AcDbEntity
  8
TEXT
100
AcDbText
 10
-0.679
 20
10.5526
 30
0.0
 40
0.1
  1
CPU
100
AcDbText
  0
LINE
  5
605
100
AcDbEntity
  8
0
100
AcDbLine
 10
0.3945
 20
10.2826
 30
0.0
 11
0.3945
 21
10.1326
 31
0.0
  0
LINE
  5
606
100
AcDbEntity
  8
0
100
AcDbLine
 10
0.2445
 20
10.2826
 30
0.0
 11
0.3945
 21
10.2826
 31
0.0
  0
LINE
  5
607
100
AcDbEntity
  8
0
100
AcDbLine
 10
0.2445
 20
10.1326
 30
0.0
 11
0.3945
 21
10.1326
 31
0.0
  0
LINE
  5
608
100
AcDbEntity
  8
0
100
AcDbLine
 10
0.2445
 20
10.2826
 30
0.0
 11
0.2445
 21
10.1326
 31
0.0
  0
TEXT
  5
609
100
AcDbEntity
  8
TEXT
100
AcDbText
 10
-0.138833
 20
10.1576
 30
0.0
 40
0.1
  1
DIAG
 72
     2
 11
0.1945
 21
10.1576
 31
0.0
100
AcDbText
  0
SOLID
  5
60A
100
AcDbEntity
  8
0
100
AcDbTrace
 10
0.2445
 20
10.2826
 30
0.0
 11
0.3945
 21
10.2826
 31
0.0
 12
0.2445
 22
10.1326
 32
0.0
 13
0.3945
 23
10.1326
 33
0.0
  0
LINE
  5
60B
100
AcDbEntity
  8
0
100
AcDbLine
 10
-0.45875
 20
11.85
 30
0.0
 11
0.45875
 21
11.85
 31
0.0
  0
LINE
  5
60C
100
AcDbEntity
  8
0
100
AcDbLine
 10
-0.49
 20
11.5725
 30
0.0
 11
0.49
 21
11.5725
 31
0.0
  0
LINE
  5
60D
100
AcDbEntity
  8
0
100
AcDbLine
 10
0.49
 20
11.81875
 30
0.0
 11
0.49
 21
10.9766
 31
0.0
  0
LINE
  5
60E
100
AcDbEntity
  8
0
100
AcDbLine
 10
-0.49
 20
11.81875
 30
0.0
 11
-0.49
 21
10.9766
 31
0.0
  0
LINE
  5
60F
100
AcDbEntity
  8
0
100
AcDbLine
 10
0.0625
 20
11.5725
 30
0.0
 11
0.0625
 21
11.48125
 31
0.0
  0
LINE
  5
610
100
AcDbEntity
  8
0
100
AcDbLine
 10
-0.0625
 20
11.5725
 30
0.0
 11
-0.0625
 21
11.48125
 31
0.0
  0
LINE
  5
611
100
AcDbEntity
  8
0
100
AcDbLine
 10
-0.03125
 20
11.45
 30
0.0
 11
0.03125
 21
11.45
 31
0.0
  0
ARC
  5
612
100
AcDbEntity
  8
0
100
AcDbCircle
 10
0.45875
 20
11.81875
 30
0.0
 40
0.03125
100
AcDbArc
 50
0.0
 51
90.0
  0
ARC
  5
613
100
AcDbEntity
  8
0
100
AcDbCircle
 10
-0.45875
 20
11.81875
 30
0.0
 40
0.03125
100
AcDbArc
 50
90.0
 51
180.0
  0
ARC
  5
614
100
AcDbEntity
  8
0
100
AcDbCircle
 10
-0.76375
 20
10.94535
 30
0.0
 40
0.03125
100
AcDbArc
 50
90.0
 51
180.0
  0
ARC
  5
615
100
AcDbEntity
  8
0
100
AcDbCircle
 10
0.76375
 20
10.94535
 30
0.0
 40
0.03125
100
AcDbArc
 50
0.0
 51
90.0
  0
ARC
  5
616
100
AcDbEntity
  8
0
100
AcDbCircle
 10
0.03125
 20
11.48125
 30
0.0
 40
0.03125
100
AcDbArc
 50
270.0
 51
360.0
  0
ARC
  5
617
100
AcDbEntity
  8
0
100
AcDbCircle
 10
-0.03125
 20
11.48125
 30
0.0
 40
0.03125
100
AcDbArc
 50
180.0
 51
270.0
  0
ARC
  5
618
100
AcDbEntity
  8
0
100
AcDbCircle
 10
-0.76375
 20
1.20785
 30
0.0
 40
0.03125
100
AcDbArc
 50
180.0
 51
270.0
  0
ARC
  5
619
100
AcDbEntity
  8
0
100
AcDbCircle
 10
0.76375
 20
1.20785
 30
0.0
 40
0.03125
100
AcDbArc
 50
270.0
 51
0.0
  0
ARC
  5
61A
100
AcDbEntity
  8
0
100
AcDbCircle
 10
-0.68625
 20
1.33285
 30
0.0
 40
0.03125
100
AcDbArc
 50
180.0
 51
270.0
  0
ARC
  5
61B
100
AcDbEntity
  8
0
100
AcDbCircle
 10
0.42625
 20
1.26535
 30
0.0
 40
0.03125
100
AcDbArc
 50
90.0
 51
180.0
  0
ARC
  5
61C
100
AcDbEntity
  8
0
100
AcDbCircle
 10
-0.68625
 20
7.09535
 30
0.0
 40
0.03125
100
AcDbArc
 50
90.0
 51
180.0
  0
LINE
  5
61D
100
AcDbEntity
  8
0
100
AcDbLine
 10
-0.45875
 20
0.0
 30
0.0
 11
0.45875
 21
0.0
 31
0.0
  0
LINE
  5
61E
100
AcDbEntity
  8
0
100
AcDbLine
 10
-0.0625
 20
1.1766
 30
0.0
 11
-0.0625
 21
0.6
 31
0.0
  0
LINE
  5
61F
100
AcDbEntity
  8
0
100
AcDbLine
 10
0.0625
 20
1.1766
 30
0.0
 11
0.0625
 21
0.6
 31
0.0
  0
LINE
  5
620
100
AcDbEntity
  8
0
100
AcDbLine
 10
0.49
 20
1.1766
 30
0.0
 11
0.49
 21
0.03125
 31
0.0
  0
LINE
  5
621
100
AcDbEntity
  8
0
100
AcDbLine
 10
-0.49
 20
1.1766
 30
0.0
 11
-0.49
 21
0.03125
 31
0.0
  0
LINE
  5
622
100
AcDbEntity
  8
0
100
AcDbLine
 10
-0.49
 20
0.35
 30
0.0
 11
0.49
 21
0.35
 31
0.0
  0
ARC
  5
623
100
AcDbEntity
  8
0
100
AcDbCircle
 10
0.45875
 20
0.03125
 30
0.0
 40
0.03125
100
AcDbArc
 50
270.0
 51
0.0
  0
ARC
  5
624
100
AcDbEntity
  8
0
100
AcDbCircle
 10
-0.45875
 20
0.03125
 30
0.0
 40
0.03125
100
AcDbArc
 50
180.0
 51
270.0
  0
LINE
  5
625
100
AcDbEntity
  8
0
100
AcDbLine
 10
-0.0625
 20
0.6
 30
0.0
 11
0.0625
 21
0.6
 31
0.0
  0
TEXT
  5
626
100
AcDbEntity
  8
TEXT
100
AcDbText
 10
0.145
 20
1.4516
 30
0.0
 40
0.05
  1
900_CPU.DWG
 72
     2
 11
0.645
 21
1.4516
 31
0.0
100
AcDbText
  0
TEXT
  5
627
100
AcDbEntity
  8
TEXT
100
AcDbText
 10
-0.373917
 20
7.6551
 30
0.0
 40
0.1
  1
Part #:?
 72
     1
 11
-0.03225
 21
7.6551
 31
0.0
100
AcDbText
  0
SOLID
  5
628
100
AcDbEntity
  8
0
100
AcDbTrace
 10
0.2445
 20
10.0326
 30
0.0
 11
0.3945
 21
10.0326
 31
0.0
 12
0.2445
 22
9.8826
 32
0.0
 13
0.3945
 23
9.8826
 33
0.0
  0
LINE
  5
629
100
AcDbEntity
  8
0
100
AcDbLine
 10
0.2445
 20
9.8826
 30
0.0
 11
0.3945
 21
9.8826
 31
0.0
  0
LINE
  5
62A
100
AcDbEntity
  8
0
100
AcDbLine
 10
0.2445
 20
10.0326
 30
0.0
 11
0.3945
 21
10.0326
 31
0.0
  0
TEXT
  5
62B
100
AcDbEntity
  8
TEXT
100
AcDbText
 10
-0.338833
 20
9.9076
 30
0.0
 40
0.1
  1
CONFIG
 72
     2
 11
0.1945
 21
9.9076
 31
0.0
100
AcDbText
  0
LINE
  5
62C
100
AcDbEntity
  8
0
100
AcDbLine
 10
0.2445
 20
10.0326
 30
0.0
 11
0.2445
 21
9.8826
 31
0.0
  0
LINE
  5
62D
100
AcDbEntity
  8
0
100
AcDbLine
 10
0.3945
 20
10.0326
 30
0.0
 11
0.3945
 21
9.8826
 31
0.0
  0
LINE
  5
62E
100
AcDbEntity
  8
0
100
AcDbLine
 10
0.2445
 20
9.7826
 30
0.0
 11
0.3945
 21
9.7826
 31
0.0
  0
LINE
  5
62F
100
AcDbEntity
  8
0
100
AcDbLine
 10
0.2445
 20
9.6326
 30
0.0
 11
0.3945
 21
9.6326
 31
0.0
  0
SOLID
  5
630
100
AcDbEntity
  8
0
100
AcDbTrace
 10
0.2445
 20
9.7826
 30
0.0
 11
0.3945
 21
9.7826
 31
0.0
 12
0.2445
 22
9.6326
 32
0.0
 13
0.3945
 23
9.6326
 33
0.0
  0
LINE
  5
631
100
AcDbEntity
  8
0
100
AcDbLine
 10
0.2445
 20
9.7826
 30
0.0
 11
0.2445
 21
9.6326
 31
0.0
  0
LINE
  5
632
100
AcDbEntity
  8
0
100
AcDbLine
 10
0.3945
 20
9.7826
 30
0.0
 11
0.3945
 21
9.6326
 31
0.0
  0
LINE
  5
633
100
AcDbEntity
  8
0
100
AcDbLine
 10
0.2445
 20
9.5326
 30
0.0
 11
0.3945
 21
9.5326
 31
0.0
  0
LINE
  5
634
100
AcDbEntity
  8
0
100
AcDbLine
 10
0.2445
 20
9.3826
 30
0.0
 11
0.3945
 21
9.3826
 31
0.0
  0
SOLID
  5
635
100
AcDbEntity
  8
0
100
AcDbTrace
 10
0.2445
 20
9.5326
 30
0.0
 11
0.3945
 21
9.5326
 31
0.0
 12
0.2445
 22
9.3826
 32
0.0
 13
0.3945
 23
9.3826
 33
0.0
  0
LINE
  5
636
100
AcDbEntity
  8
0
100
AcDbLine
 10
0.2445
 20
9.5326
 30
0.0
 11
0.2445
 21
9.3826
 31
0.0
  0
LINE
  5
637
100
AcDbEntity
  8
0
100
AcDbLine
 10
0.3945
 20
9.5326
 30
0.0
 11
0.3945
 21
9.3826
 31
0.0
  0
LINE
  5
638
100
AcDbEntity
  8
0
100
AcDbLine
 10
0.2445
 20
9.2826
 30
0.0
 11
0.3945
 21
9.2826
 31
0.0
  0
LINE
  5
639
100
AcDbEntity
  8
0
100
AcDbLine
 10
0.2445
 20
9.1326
 30
0.0
 11
0.3945
 21
9.1326
 31
0.0
  0
SOLID
  5
63A
100
AcDbEntity
  8
0
100
AcDbTrace
 10
0.2445
 20
9.2826
 30
0.0
 11
0.3945
 21
9.2826
 31
0.0
 12
0.2445
 22
9.1326
 32
0.0
 13
0.3945
 23
9.1326
 33
0.0
  0
LINE
  5
63B
100
AcDbEntity
  8
0
100
AcDbLine
 10
0.2445
 20
9.2826
 30
0.0
 11
0.2445
 21
9.1326
 31
0.0
  0
LINE
  5
63C
100
AcDbEntity
  8
0
100
AcDbLine
 10
0.3945
 20
9.2826
 30
0.0
 11
0.3945
 21
9.1326
 31
0.0
  0
SOLID
  5
63D
100
AcDbEntity
  8
0
100
AcDbTrace
 10
-0.0055
 20
9.2826
 30
0.0
 11
0.1445
 21
9.2826
 31
0.0
 12
-0.0055
 22
9.1326
 32
0.0
 13
0.1445
 23
9.1326
 33
0.0
  0
LINE
  5
63E
100
AcDbEntity
  8
0
100
AcDbLine
 10
-0.0055
 20
9.1326
 30
0.0
 11
0.1445
 21
9.1326
 31
0.0
  0
LINE
  5
63F
100
AcDbEntity
  8
0
100
AcDbLine
 10
-0.0055
 20
9.2826
 30
0.0
 11
0.1445
 21
9.2826
 31
0.0
  0
SOLID
  5
640
100
AcDbEntity
  8
0
100
AcDbTrace
 10
-0.0055
 20
9.5326
 30
0.0
 11
0.1445
 21
9.5326
 31
0.0
 12
-0.0055
 22
9.3826
 32
0.0
 13
0.1445
 23
9.3826
 33
0.0
  0
LINE
  5
641
100
AcDbEntity
  8
0
100
AcDbLine
 10
-0.0055
 20
9.3826
 30
0.0
 11
0.1445
 21
9.3826
 31
0.0
  0
LINE
  5
642
100
AcDbEntity
  8
0
100
AcDbLine
 10
-0.0055
 20
9.5326
 30
0.0
 11
0.1445
 21
9.5326
 31
0.0
  0
SOLID
  5
643
100
AcDbEntity
  8
0
100
AcDbTrace
 10
-0.0055
 20
9.7826
 30
0.0
 11
0.1445
 21
9.7826
 31
0.0
 12
-0.0055
 22
9.6326
 32
0.0
 13
0.1445
 23
9.6326
 33
0.0
  0
LINE
  5
644
100
AcDbEntity
  8
0
100
AcDbLine
 10
-0.0055
 20
9.6326
 30
0.0
 11
0.1445
 21
9.6326
 31
0.0
  0
LINE
  5
645
100
AcDbEntity
  8
0
100
AcDbLine
 10
-0.0055
 20
9.7826
 30
0.0
 11
0.1445
 21
9.7826
 31
0.0
  0
LINE
  5
646
100
AcDbEntity
  8
0
100
AcDbLine
 10
-0.0055
 20
9.2826
 30
0.0
 11
-0.0055
 21
9.1326
 31
0.0
  0
LINE
  5
647
100
AcDbEntity
  8
0
100
AcDbLine
 10
-0.0055
 20
9.5326
 30
0.0
 11
-0.0055
 21
9.3826
 31
0.0
  0
LINE
  5
648
100
AcDbEntity
  8
0
100
AcDbLine
 10
-0.0055
 20
9.7826
 30
0.0
 11
-0.0055
 21
9.6326
 31
0.0
  0
LINE
  5
649
100
AcDbEntity
  8
0
100
AcDbLine
 10
0.1445
 20
9.2826
 30
0.0
 11
0.1445
 21
9.1326
 31
0.0
  0
LINE
  5
64A
100
AcDbEntity
  8
0
100
AcDbLine
 10
0.1445
 20
9.5326
 30
0.0
 11
0.1445
 21
9.3826
 31
0.0
  0
LINE
  5
64B
100
AcDbEntity
  8
0
100
AcDbLine
 10
0.1445
 20
9.7826
 30
0.0
 11
0.1445
 21
9.6326
 31
0.0
  0
TEXT
  5
64C
100
AcDbEntity
  8
TEXT
100
AcDbText
 10
-0.422167
 20
9.6576
 30
0.0
 40
0.1
  1
DATA
 72
     2
 11
-0.0555
 21
9.6576
 31
0.0
100
AcDbText
  0
TEXT
  5
64D
100
AcDbEntity
  8
TEXT
100
AcDbText
 10
-0.622167
 20
9.4076
 30
0.0
 40
0.1
  1
ARCNET
 72
     2
 11
-0.0555
 21
9.4076
 31
0.0
100
AcDbText
  0
TEXT
  5
64E
100
AcDbEntity
  8
TEXT
100
AcDbText
 10
-0.522167
 20
9.1576
 30
0.0
 40
0.1
  1
RS232
 72
     2
 11
-0.0555
 21
9.1576
 31
0.0
100
AcDbText
  0
TEXT
  5
64F
100
AcDbEntity
  8
TEXT
100
AcDbText
 10
0.2445
 20
9.803881
 30
0.0
 40
0.05
  1
OUT
 41
1.125
 72
     5
 11
0.3945
 21
9.803881
 31
0.0
100
AcDbText
  0
TEXT
  5
650
100
AcDbEntity
  8
TEXT
100
AcDbText
 10
0.2445
 20
9.553881
 30
0.0
 40
0.05
  1
ACT
 41
1.125
 72
     5
 11
0.3945
 21
9.553881
 31
0.0
100
AcDbText
  0
TEXT
  5
651
100
AcDbEntity
  8
TEXT
100
AcDbText
 10
0.2445
 20
9.303881
 30
0.0
 40
0.05
  1
OUT
 41
1.125
 72
     5
 11
0.3945
 21
9.303881
 31
0.0
100
AcDbText
  0
TEXT
  5
652
100
AcDbEntity
  8
TEXT
100
AcDbText
 10
-0.0055
 20
9.303881
 30
0.0
 40
0.05
  1
IN
 41
2.25
 72
     5
 11
0.1445
 21
9.303881
 31
0.0
100
AcDbText
  0
TEXT
  5
653
100
AcDbEntity
  8
TEXT
100
AcDbText
 10
-0.0055
 20
9.553881
 30
0.0
 40
0.05
  1
TX
 41
1.8
 72
     5
 11
0.1445
 21
9.553881
 31
0.0
100
AcDbText
  0
TEXT
  5
654
100
AcDbEntity
  8
TEXT
100
AcDbText
 10
-0.0055
 20
9.803881
 30
0.0
 40
0.05
  1
IN
 41
2.25
 72
     5
 11
0.1445
 21
9.803881
 31
0.0
100
AcDbText
  0
INSERT
  5
655
100
AcDbEntity
  8
0
100
AcDbBlockReference
  2
PCON_7
 10
0.395
 20
5.2401
 30
0.0
  0
INSERT
  5
656
100
AcDbEntity
  8
0
100
AcDbBlockReference
  2
PCON_10
 10
0.395
 20
1.9491
 30
0.0
  0
INSERT
  5
657
100
AcDbEntity
  8
0
100
AcDbBlockReference
  2
9_PIN_D
 10
0.2365
 20
4.5901
 30
0.0
  0
ENDBLK
  5
659
100
AcDbEntity
  8
0
100
AcDbBlockEnd
  0
ENDSEC
  0
SECTION
  2
ENTITIES
  0
LINE
  5
25
100
AcDbEntity
  8
L1
  6
CONTINUOUS
 62
     7
100
AcDbLine
 10
21.721429
 20
0.56313
 30
0.0
 11
21.721429
 21
12.707129
 31
0.0
  0
LINE
  5
26
100
AcDbEntity
  8
L1
  6
CONTINUOUS
 62
     7
100
AcDbLine
 10
0.684426
 20
13.970129
 30
0.0
 11
21.158429
 21
13.970129
 31
0.0
  0
LINE
  5
27
100
AcDbEntity
  8
L1
  6
CONTINUOUS
 62
     7
100
AcDbLine
 10
20.421429
 20
0.000131
 30
0.0
 11
21.158429
 21
0.000131
 31
0.0
  0
LINE
  5
28
100
AcDbEntity
  8
L1
  6
CONTINUOUS
 62
     7
100
AcDbLine
 10
0.621426
 20
0.500131
 30
0.0
 11
0.621426
 21
0.063131
 31
0.0
  0
LINE
  5
29
100
AcDbEntity
  8
L1
  6
CONTINUOUS
 62
     7
100
AcDbLine
 10
21.658429
 20
0.50013
 30
0.0
 11
0.184424
 21
0.50013
 31
0.0
  0
LINE
  5
2A
100
AcDbEntity
  8
L1
  6
CONTINUOUS
 62
     7
100
AcDbLine
 10
21.221429
 20
0.500132
 30
0.0
 11
21.221429
 21
0.063131
 31
0.0
  0
LINE
  5
2B
100
AcDbEntity
  8
L1
  6
CONTINUOUS
 62
     7
100
AcDbLine
 10
0.621426
 20
13.907129
 30
0.0
 11
0.621426
 21
12.814129
 31
0.0
  0
LINE
  5
2C
100
AcDbEntity
  8
L1
  6
CONTINUOUS
 62
     7
100
AcDbLine
 10
21.221429
 20
13.907129
 30
0.0
 11
21.221429
 21
12.814129
 31
0.0
  0
ARC
  5
2D
100
AcDbEntity
  8
L1
  6
CONTINUOUS
 62
     7
100
AcDbCircle
 10
1.521426
 20
13.283129
 30
0.0
 40
0.225
100
AcDbArc
 50
116.3878
 51
0.0
  0
LINE
  5
2E
100
AcDbEntity
  8
L1
  6
CONTINUOUS
 62
     7
100
AcDbLine
 10
1.421427
 20
13.484679
 30
0.0
 11
1.421427
 21
13.620129
 31
0.0
  0
LINE
  5
2F
100
AcDbEntity
  8
L1
  6
CONTINUOUS
 62
     7
100
AcDbLine
 10
1.621426
 20
13.484679
 30
0.0
 11
1.621426
 21
13.620129
 31
0.0
  0
ARC
  5
30
100
AcDbEntity
  8
L1
  6
CONTINUOUS
 62
     7
100
AcDbCircle
 10
1.521426
 20
13.283129
 30
0.0
 40
0.225
100
AcDbArc
 50
0.0
 51
63.61214
  0
ARC
  5
31
100
AcDbEntity
  8
L1
  6
CONTINUOUS
 62
     7
100
AcDbCircle
 10
1.521426
 20
13.620129
 30
0.0
 40
0.1
100
AcDbArc
 50
0.0
 51
180.0
  0
ARC
  5
32
100
AcDbEntity
  8
L1
  6
CONTINUOUS
 62
     7
100
AcDbCircle
 10
10.921426
 20
13.283129
 30
0.0
 40
0.225
100
AcDbArc
 50
116.3878
 51
0.0
  0
LINE
  5
33
100
AcDbEntity
  8
L1
  6
CONTINUOUS
 62
     7
100
AcDbLine
 10
10.821428
 20
13.484689
 30
0.0
 11
10.821428
 21
13.620129
 31
0.0
  0
LINE
  5
34
100
AcDbEntity
  8
L1
  6
CONTINUOUS
 62
     7
100
AcDbLine
 10
11.021426
 20
13.484689
 30
0.0
 11
11.021426
 21
13.620129
 31
0.0
  0
ARC
  5
35
100
AcDbEntity
  8
L1
  6
CONTINUOUS
 62
     7
100
AcDbCircle
 10
10.921426
 20
13.283129
 30
0.0
 40
0.225
100
AcDbArc
 50
0.0
 51
63.61214
  0
ARC
  5
36
100
AcDbEntity
  8
L1
  6
CONTINUOUS
 62
     7
100
AcDbCircle
 10
10.921426
 20
13.620129
 30
0.0
 40
0.1
100
AcDbArc
 50
0.0
 51
180.0
  0
ARC
  5
37
100
AcDbEntity
  8
L1
  6
CONTINUOUS
 62
     7
100
AcDbCircle
 10
20.321429
 20
13.283129
 30
0.0
 40
0.225
100
AcDbArc
 50
180.0
 51
63.61218
  0
LINE
  5
38
100
AcDbEntity
  8
L1
  6
CONTINUOUS
 62
     7
100
AcDbLine
 10
20.421429
 20
13.484679
 30
0.0
 11
20.421429
 21
13.620129
 31
0.0
  0
LINE
  5
39
100
AcDbEntity
  8
L1
  6
CONTINUOUS
 62
     7
100
AcDbLine
 10
20.221429
 20
13.484679
 30
0.0
 11
20.221429
 21
13.620129
 31
0.0
  0
ARC
  5
3A
100
AcDbEntity
  8
L1
  6
CONTINUOUS
 62
     7
100
AcDbCircle
 10
20.321429
 20
13.283129
 30
0.0
 40
0.225
100
AcDbArc
 50
116.3879
 51
180.0
  0
ARC
  5
3B
100
AcDbEntity
  8
L1
  6
CONTINUOUS
 62
     7
100
AcDbCircle
 10
20.321429
 20
13.620129
 30
0.0
 40
0.1
100
AcDbArc
 50
0.000015
 51
180.0
  0
ARC
  5
3E
100
AcDbEntity
  8
L1
  6
CONTINUOUS
 62
     7
100
AcDbCircle
 10
0.684426
 20
13.907129
 30
0.0
 40
0.063
100
AcDbArc
 50
90.0
 51
180.0
  0
ARC
  5
3F
100
AcDbEntity
  8
L1
  6
CONTINUOUS
 62
     7
100
AcDbCircle
 10
0.684426
 20
0.063131
 30
0.0
 40
0.063
100
AcDbArc
 50
180.0
 51
270.0
  0
ARC
  5
40
100
AcDbEntity
  8
L1
  6
CONTINUOUS
 62
     7
100
AcDbCircle
 10
21.158429
 20
0.063131
 30
0.0
 40
0.063
100
AcDbArc
 50
270.00001
 51
0.0
  0
ARC
  5
41
100
AcDbEntity
  8
L1
  6
CONTINUOUS
 62
     7
100
AcDbCircle
 10
21.158429
 20
13.907129
 30
0.0
 40
0.063
100
AcDbArc
 50
0.0
 51
89.99999
  0
LINE
  5
4B
100
AcDbEntity
  8
L1
  6
CONTINUOUS
 62
     7
100
AcDbLine
 10
11.021429
 20
0.250131
 30
0.0
 11
11.021429
 21
0.000131
 31
0.0
  0
LINE
  5
4C
100
AcDbEntity
  8
L1
  6
CONTINUOUS
 62
     7
100
AcDbLine
 10
10.821428
 20
0.250131
 30
0.0
 11
10.821428
 21
0.000131
 31
0.0
  0
LINE
  5
4D
100
AcDbEntity
  8
L1
  6
CONTINUOUS
 62
     7
100
AcDbLine
 10
1.621428
 20
0.000131
 30
0.0
 11
10.821428
 21
0.000131
 31
0.0
  0
ARC
  5
4E
100
AcDbEntity
  8
L1
  6
CONTINUOUS
 62
     7
100
AcDbCircle
 10
10.921426
 20
0.250131
 30
0.0
 40
0.1
100
AcDbArc
 50
0.000027
 51
180.0
  0
LINE
  5
4F
100
AcDbEntity
  8
L1
  6
CONTINUOUS
 62
     7
100
AcDbLine
 10
20.421429
 20
0.250131
 30
0.0
 11
20.421429
 21
0.000131
 31
0.0
  0
LINE
  5
50
100
AcDbEntity
  8
L1
  6
CONTINUOUS
 62
     7
100
AcDbLine
 10
20.221429
 20
0.250131
 30
0.0
 11
20.221429
 21
0.000131
 31
0.0
  0
ARC
  5
51
100
AcDbEntity
  8
L1
  6
CONTINUOUS
 62
     7
100
AcDbCircle
 10
20.321429
 20
0.250131
 30
0.0
 40
0.1
100
AcDbArc
 50
0.000027
 51
180.0
  0
LINE
  5
52
100
AcDbEntity
  8
L1
  6
CONTINUOUS
 62
     7
100
AcDbLine
 10
1.621428
 20
0.250131
 30
0.0
 11
1.621428
 21
0.000131
 31
0.0
  0
LINE
  5
53
100
AcDbEntity
  8
L1
  6
CONTINUOUS
 62
     7
100
AcDbLine
 10
1.421427
 20
0.250131
 30
0.0
 11
1.421427
 21
0.000131
 31
0.0
  0
ARC
  5
54
100
AcDbEntity
  8
L1
  6
CONTINUOUS
 62
     7
100
AcDbCircle
 10
1.521426
 20
0.250131
 30
0.0
 40
0.1
100
AcDbArc
 50
0.000027
 51
180.0
  0
LINE
  5
55
100
AcDbEntity
  8
L1
  6
CONTINUOUS
 62
     7
100
AcDbLine
 10
0.684426
 20
0.000131
 30
0.0
 11
1.421427
 21
0.000131
 31
0.0
  0
LINE
  5
56
100
AcDbEntity
  8
L1
  6
CONTINUOUS
 62
     7
100
AcDbLine
 10
11.021429
 20
0.000131
 30
0.0
 11
20.221429
 21
0.000131
 31
0.0
  0
LINE
  5
57
100
AcDbEntity
  8
L1
  6
CONTINUOUS
 62
     7
100
AcDbLine
 10
0.684426
 20
13.970129
 30
0.0
 11
21.158429
 21
13.970129
 31
0.0
  0
LINE
  5
58
100
AcDbEntity
  8
L1
  6
CONTINUOUS
 62
     7
100
AcDbLine
 10
0.621426
 20
13.907129
 30
0.0
 11
0.621426
 21
12.833129
 31
0.0
  0
LINE
  5
59
100
AcDbEntity
  8
L1
  6
CONTINUOUS
 62
     7
100
AcDbLine
 10
21.221429
 20
13.907129
 30
0.0
 11
21.221429
 21
12.833129
 31
0.0
  0
ARC
  5
5A
100
AcDbEntity
  8
L1
  6
CONTINUOUS
 62
     7
100
AcDbCircle
 10
1.521426
 20
13.283129
 30
0.0
 40
0.225
100
AcDbArc
 50
116.3878
 51
0.0
  0
LINE
  5
5B
100
AcDbEntity
  8
L1
  6
CONTINUOUS
 62
     7
100
AcDbLine
 10
1.421427
 20
13.484679
 30
0.0
 11
1.421427
 21
13.620129
 31
0.0
  0
LINE
  5
5C
100
AcDbEntity
  8
L1
  6
CONTINUOUS
 62
     7
100
AcDbLine
 10
1.621426
 20
13.484679
 30
0.0
 11
1.621426
 21
13.620129
 31
0.0
  0
ARC
  5
5D
100
AcDbEntity
  8
L1
  6
CONTINUOUS
 62
     7
100
AcDbCircle
 10
1.521426
 20
13.283129
 30
0.0
 40
0.225
100
AcDbArc
 50
0.0
 51
63.61214
  0
ARC
  5
5E
100
AcDbEntity
  8
L1
  6
CONTINUOUS
 62
     7
100
AcDbCircle
 10
1.521426
 20
13.620129
 30
0.0
 40
0.1
100
AcDbArc
 50
0.0
 51
180.0
  0
ARC
  5
5F
100
AcDbEntity
  8
L1
  6
CONTINUOUS
 62
     7
100
AcDbCircle
 10
10.921426
 20
13.283129
 30
0.0
 40
0.225
100
AcDbArc
 50
116.3878
 51
0.0
  0
LINE
  5
60
100
AcDbEntity
  8
L1
  6
CONTINUOUS
 62
     7
100
AcDbLine
 10
10.821428
 20
13.484689
 30
0.0
 11
10.821428
 21
13.620129
 31
0.0
  0
LINE
  5
61
100
AcDbEntity
  8
L1
  6
CONTINUOUS
 62
     7
100
AcDbLine
 10
11.021426
 20
13.484689
 30
0.0
 11
11.021426
 21
13.620129
 31
0.0
  0
ARC
  5
62
100
AcDbEntity
  8
L1
  6
CONTINUOUS
 62
     7
100
AcDbCircle
 10
10.921426
 20
13.283129
 30
0.0
 40
0.225
100
AcDbArc
 50
0.0
 51
63.61214
  0
ARC
  5
63
100
AcDbEntity
  8
L1
  6
CONTINUOUS
 62
     7
100
AcDbCircle
 10
10.921426
 20
13.620129
 30
0.0
 40
0.1
100
AcDbArc
 50
0.0
 51
180.0
  0
ARC
  5
64
100
AcDbEntity
  8
L1
  6
CONTINUOUS
 62
     7
100
AcDbCircle
 10
20.321429
 20
13.283129
 30
0.0
 40
0.225
100
AcDbArc
 50
180.0
 51
63.61218
  0
LINE
  5
65
100
AcDbEntity
  8
L1
  6
CONTINUOUS
 62
     7
100
AcDbLine
 10
20.421429
 20
13.484679
 30
0.0
 11
20.421429
 21
13.620129
 31
0.0
  0
LINE
  5
66
100
AcDbEntity
  8
L1
  6
CONTINUOUS
 62
     7
100
AcDbLine
 10
20.221429
 20
13.484679
 30
0.0
 11
20.221429
 21
13.620129
 31
0.0
  0
ARC
  5
67
100
AcDbEntity
  8
L1
  6
CONTINUOUS
 62
     7
100
AcDbCircle
 10
20.321429
 20
13.283129
 30
0.0
 40
0.225
100
AcDbArc
 50
116.3879
 51
180.0
  0
ARC
  5
68
100
AcDbEntity
  8
L1
  6
CONTINUOUS
 62
     7
100
AcDbCircle
 10
20.321429
 20
13.620129
 30
0.0
 40
0.1
100
AcDbArc
 50
0.000015
 51
180.0
  0
ARC
  5
69
100
AcDbEntity
  8
L1
  6
CONTINUOUS
 62
     7
100
AcDbCircle
 10
0.684426
 20
13.907129
 30
0.0
 40
0.063
100
AcDbArc
 50
90.0
 51
180.0
  0
ARC
  5
6A
100
AcDbEntity
  8
L1
  6
CONTINUOUS
 62
     7
100
AcDbCircle
 10
21.158429
 20
13.907129
 30
0.0
 40
0.063
100
AcDbArc
 50
0.0
 51
89.99999
  0
LINE
  5
6B
100
AcDbEntity
  8
L1
  6
CONTINUOUS
 62
     7
100
AcDbLine
 10
20.421429
 20
0.000131
 30
0.0
 11
21.158429
 21
0.000131
 31
0.0
  0
LINE
  5
6C
100
AcDbEntity
  8
L1
  6
CONTINUOUS
 62
     7
100
AcDbLine
 10
0.621426
 20
0.500131
 30
0.0
 11
0.621426
 21
0.063131
 31
0.0
  0
LINE
  5
6D
100
AcDbEntity
  8
L1
  6
CONTINUOUS
 62
     7
100
AcDbLine
 10
21.221429
 20
0.437131
 30
0.0
 11
21.221429
 21
0.063131
 31
0.0
  0
ARC
  5
6E
100
AcDbEntity
  8
L1
  6
CONTINUOUS
 62
     7
100
AcDbCircle
 10
0.684426
 20
0.063131
 30
0.0
 40
0.063
100
AcDbArc
 50
180.0
 51
270.0
  0
ARC
  5
6F
100
AcDbEntity
  8
L1
  6
CONTINUOUS
 62
     7
100
AcDbCircle
 10
21.158429
 20
0.063131
 30
0.0
 40
0.063
100
AcDbArc
 50
270.00001
 51
0.0
  0
LINE
  5
70
100
AcDbEntity
  8
L1
  6
CONTINUOUS
 62
     7
100
AcDbLine
 10
11.021429
 20
0.250131
 30
0.0
 11
11.021429
 21
0.000131
 31
0.0
  0
LINE
  5
71
100
AcDbEntity
  8
L1
  6
CONTINUOUS
 62
     7
100
AcDbLine
 10
10.821428
 20
0.250131
 30
0.0
 11
10.821428
 21
0.000131
 31
0.0
  0
LINE
  5
72
100
AcDbEntity
  8
L1
  6
CONTINUOUS
 62
     7
100
AcDbLine
 10
1.621428
 20
0.000131
 30
0.0
 11
10.821428
 21
0.000131
 31
0.0
  0
ARC
  5
73
100
AcDbEntity
  8
L1
  6
CONTINUOUS
 62
     7
100
AcDbCircle
 10
10.921426
 20
0.250131
 30
0.0
 40
0.1
100
AcDbArc
 50
0.000027
 51
180.0
  0
LINE
  5
74
100
AcDbEntity
  8
L1
  6
CONTINUOUS
 62
     7
100
AcDbLine
 10
20.421429
 20
0.250131
 30
0.0
 11
20.421429
 21
0.000131
 31
0.0
  0
LINE
  5
75
100
AcDbEntity
  8
L1
  6
CONTINUOUS
 62
     7
100
AcDbLine
 10
20.221429
 20
0.250131
 30
0.0
 11
20.221429
 21
0.000131
 31
0.0
  0
ARC
  5
76
100
AcDbEntity
  8
L1
  6
CONTINUOUS
 62
     7
100
AcDbCircle
 10
20.321429
 20
0.250131
 30
0.0
 40
0.1
100
AcDbArc
 50
0.000027
 51
180.0
  0
LINE
  5
77
100
AcDbEntity
  8
L1
  6
CONTINUOUS
 62
     7
100
AcDbLine
 10
1.621428
 20
0.250131
 30
0.0
 11
1.621428
 21
0.000131
 31
0.0
  0
LINE
  5
78
100
AcDbEntity
  8
L1
  6
CONTINUOUS
 62
     7
100
AcDbLine
 10
1.421427
 20
0.250131
 30
0.0
 11
1.421427
 21
0.000131
 31
0.0
  0
ARC
  5
79
100
AcDbEntity
  8
L1
  6
CONTINUOUS
 62
     7
100
AcDbCircle
 10
1.521426
 20
0.250131
 30
0.0
 40
0.1
100
AcDbArc
 50
0.000027
 51
180.0
  0
LINE
  5
7A
100
AcDbEntity
  8
L1
  6
CONTINUOUS
 62
     7
100
AcDbLine
 10
0.684426
 20
0.000131
 30
0.0
 11
1.421427
 21
0.000131
 31
0.0
  0
LINE
  5
7B
100
AcDbEntity
  8
L1
  6
CONTINUOUS
 62
     7
100
AcDbLine
 10
11.021429
 20
0.000131
 30
0.0
 11
20.221429
 21
0.000131
 31
0.0
  0
LINE
  5
7C
100
AcDbEntity
  8
L1
  6
CONTINUOUS
 62
     7
100
AcDbLine
 10
0.121426
 20
0.563131
 30
0.0
 11
0.121426
 21
12.707129
 31
0.0
  0
LINE
  5
7D
100
AcDbEntity
  8
L1
  6
CONTINUOUS
 62
     7
100
AcDbLine
 10
21.721429
 20
0.563131
 30
0.0
 11
21.721429
 21
12.751129
 31
0.0
  0
LINE
  5
7E
100
AcDbEntity
  8
L1
  6
CONTINUOUS
 62
     7
100
AcDbLine
 10
0.621426
 20
0.500131
 30
0.0
 11
0.184426
 21
0.500131
 31
0.0
  0
LINE
  5
7F
100
AcDbEntity
  8
L1
  6
DASHED
 62
     7
100
AcDbLine
 10
0.121426
 20
12.751129
 30
0.0
 11
21.721429
 21
12.751129
 31
0.0
  0
LINE
  5
80
100
AcDbEntity
  8
L1
  6
CONTINUOUS
 62
     7
100
AcDbLine
 10
0.121426
 20
0.563131
 30
0.0
 11
0.121426
 21
12.751129
 31
0.0
  0
LINE
  5
81
100
AcDbEntity
  8
L1
  6
DASHED
 62
     7
100
AcDbLine
 10
0.184428
 20
0.500131
 30
0.0
 11
0.184428
 21
12.814129
 31
0.0
  0
LINE
  5
82
100
AcDbEntity
  8
L1
  6
DASHED
 62
     7
100
AcDbLine
 10
21.658419
 20
0.500131
 30
0.0
 11
21.658429
 21
12.814129
 31
0.0
  0
LINE
  5
83
100
AcDbEntity
  8
L1
  6
DASHED
 62
     7
100
AcDbLine
 10
0.121426
 20
0.563131
 30
0.0
 11
21.721429
 21
0.563131
 31
0.0
  0
LINE
  5
84
100
AcDbEntity
  8
L1
  6
CONTINUOUS
 62
     7
100
AcDbLine
 10
21.658429
 20
0.500131
 30
0.0
 11
21.221429
 21
0.500131
 31
0.0
  0
LINE
  5
85
100
AcDbEntity
  8
L1
  6
CONTINUOUS
 62
     7
100
AcDbLine
 10
21.658429
 20
12.814129
 30
0.0
 11
0.621426
 21
12.814129
 31
0.0
  0
LINE
  5
86
100
AcDbEntity
  8
L1
  6
DASHED
 62
     1
100
AcDbLine
 10
1.521426
 20
0.250131
 30
0.0
 11
1.679094
 21
0.250131
 31
0.0
  0
LINE
  5
87
100
AcDbEntity
  8
L1
  6
DASHED
 62
     1
100
AcDbLine
 10
1.521426
 20
0.250131
 30
0.0
 11
1.372506
 21
0.250131
 31
0.0
  0
LINE
  5
88
100
AcDbEntity
  8
L1
  6
DASHED
 62
     1
100
AcDbLine
 10
1.521426
 20
0.250131
 30
0.0
 11
1.521426
 21
0.395847
 31
0.0
  0
LINE
  5
89
100
AcDbEntity
  8
L1
  6
DASHED
 62
     1
100
AcDbLine
 10
1.521426
 20
0.250131
 30
0.0
 11
1.521426
 21
0.103482
 31
0.0
  0
LINE
  5
8A
100
AcDbEntity
  8
L1
  6
DASHED
 62
     7
100
AcDbLine
 10
10.921426
 20
0.250131
 30
0.0
 11
11.127357
 21
0.250131
 31
0.0
  0
LINE
  5
8B
100
AcDbEntity
  8
L1
  6
DASHED
 62
     7
100
AcDbLine
 10
10.921426
 20
0.250131
 30
0.0
 11
10.772506
 21
0.250131
 31
0.0
  0
LINE
  5
8C
100
AcDbEntity
  8
L1
  6
DASHED
 62
     7
100
AcDbLine
 10
10.921426
 20
0.250131
 30
0.0
 11
10.921426
 21
0.395847
 31
0.0
  0
LINE
  5
8D
100
AcDbEntity
  8
L1
  6
DASHED
 62
     7
100
AcDbLine
 10
10.921426
 20
0.250131
 30
0.0
 11
10.921426
 21
0.103482
 31
0.0
  0
LINE
  5
8E
100
AcDbEntity
  8
L1
  6
DASHED
 62
     1
100
AcDbLine
 10
20.321429
 20
0.250131
 30
0.0
 11
20.479099
 21
0.250131
 31
0.0
  0
LINE
  5
8F
100
AcDbEntity
  8
L1
  6
DASHED
 62
     1
100
AcDbLine
 10
20.321429
 20
0.250131
 30
0.0
 11
20.172509
 21
0.250131
 31
0.0
  0
LINE
  5
90
100
AcDbEntity
  8
L1
  6
DASHED
 62
     1
100
AcDbLine
 10
20.321429
 20
0.250131
 30
0.0
 11
20.321429
 21
0.395847
 31
0.0
  0
LINE
  5
91
100
AcDbEntity
  8
L1
  6
DASHED
 62
     1
100
AcDbLine
 10
20.321429
 20
0.250131
 30
0.0
 11
20.321429
 21
0.103482
 31
0.0
  0
LINE
  5
92
100
AcDbEntity
  8
L1
  6
DASHED
 62
     1
100
AcDbLine
 10
1.521426
 20
13.620129
 30
0.0
 11
1.679094
 21
13.620129
 31
0.0
  0
LINE
  5
93
100
AcDbEntity
  8
L1
  6
DASHED
 62
     1
100
AcDbLine
 10
1.521426
 20
13.620129
 30
0.0
 11
1.372506
 21
13.620129
 31
0.0
  0
LINE
  5
94
100
AcDbEntity
  8
L1
  6
DASHED
 62
     1
100
AcDbLine
 10
1.521426
 20
13.620129
 30
0.0
 11
1.521426
 21
13.765849
 31
0.0
  0
LINE
  5
95
100
AcDbEntity
  8
L1
  6
DASHED
 62
     1
100
AcDbLine
 10
1.521426
 20
13.620129
 30
0.0
 11
1.521426
 21
13.473479
 31
0.0
  0
LINE
  5
96
100
AcDbEntity
  8
L1
  6
DASHED
 62
     1
100
AcDbLine
 10
10.921426
 20
13.620129
 30
0.0
 11
11.079094
 21
13.620129
 31
0.0
  0
LINE
  5
97
100
AcDbEntity
  8
L1
  6
DASHED
 62
     1
100
AcDbLine
 10
10.921426
 20
13.620129
 30
0.0
 11
10.772506
 21
13.620129
 31
0.0
  0
LINE
  5
98
100
AcDbEntity
  8
L1
  6
DASHED
 62
     1
100
AcDbLine
 10
10.921426
 20
13.620129
 30
0.0
 11
10.921426
 21
13.765849
 31
0.0
  0
LINE
  5
99
100
AcDbEntity
  8
L1
  6
DASHED
 62
     1
100
AcDbLine
 10
10.921426
 20
13.620129
 30
0.0
 11
10.921426
 21
13.473479
 31
0.0
  0
LINE
  5
9A
100
AcDbEntity
  8
L1
  6
DASHED
 62
     1
100
AcDbLine
 10
20.321429
 20
13.620129
 30
0.0
 11
20.479099
 21
13.620129
 31
0.0
  0
LINE
  5
9B
100
AcDbEntity
  8
L1
  6
DASHED
 62
     1
100
AcDbLine
 10
20.321429
 20
13.620129
 30
0.0
 11
20.172509
 21
13.620129
 31
0.0
  0
LINE
  5
9C
100
AcDbEntity
  8
L1
  6
DASHED
 62
     1
100
AcDbLine
 10
20.321429
 20
13.620129
 30
0.0
 11
20.321429
 21
13.765849
 31
0.0
  0
LINE
  5
9D
100
AcDbEntity
  8
L1
  6
DASHED
 62
     1
100
AcDbLine
 10
20.321429
 20
13.620129
 30
0.0
 11
20.321429
 21
13.473479
 31
0.0
  0
TEXT
  5
9E
100
AcDbEntity
  8
L1
  6
CONTINUOUS
 62
     1
100
AcDbText
 10
21.083334
 20
15.499691
 30
0.0
 40
0.1
  1
 
 41
0.838709
100
AcDbText
  0
LINE
  5
A3
100
AcDbEntity
  8
L1
  6
CONTINUOUS
 62
     7
100
AcDbLine
 10
0.184428
 20
12.814129
 30
0.0
 11
21.158429
 21
12.814129
 31
0.0
  0
LINE
  5
A4
100
AcDbEntity
  8
L1
  6
CONTINUOUS
 62
     7
100
AcDbLine
 10
21.721429
 20
0.56313
 30
0.0
 11
21.721429
 21
12.707129
 31
0.0
  0
LINE
  5
A5
100
AcDbEntity
  8
L1
  6
CONTINUOUS
 62
     7
100
AcDbLine
 10
0.684426
 20
13.970129
 30
0.0
 11
21.158429
 21
13.970129
 31
0.0
  0
LINE
  5
A6
100
AcDbEntity
  8
L1
  6
CONTINUOUS
 62
     7
100
AcDbLine
 10
20.421429
 20
0.000131
 30
0.0
 11
21.158429
 21
0.000131
 31
0.0
  0
LINE
  5
A7
100
AcDbEntity
  8
L1
  6
CONTINUOUS
 62
     7
100
AcDbLine
 10
0.621426
 20
0.500131
 30
0.0
 11
0.621426
 21
0.063131
 31
0.0
  0
LINE
  5
A8
100
AcDbEntity
  8
L1
  6
CONTINUOUS
 62
     7
100
AcDbLine
 10
21.658429
 20
0.50013
 30
0.0
 11
0.184424
 21
0.50013
 31
0.0
  0
LINE
  5
A9
100
AcDbEntity
  8
L1
  6
CONTINUOUS
 62
     7
100
AcDbLine
 10
21.221429
 20
0.500132
 30
0.0
 11
21.221429
 21
0.063131
 31
0.0
  0
LINE
  5
AA
100
AcDbEntity
  8
L1
  6
CONTINUOUS
 62
     7
100
AcDbLine
 10
0.621426
 20
13.907129
 30
0.0
 11
0.621426
 21
12.814129
 31
0.0
  0
LINE
  5
AB
100
AcDbEntity
  8
L1
  6
CONTINUOUS
 62
     7
100
AcDbLine
 10
21.221429
 20
13.907129
 30
0.0
 11
21.221429
 21
12.814129
 31
0.0
  0
ARC
  5
AC
100
AcDbEntity
  8
L1
  6
CONTINUOUS
 62
     7
100
AcDbCircle
 10
1.521426
 20
13.283129
 30
0.0
 40
0.225
100
AcDbArc
 50
116.3878
 51
0.0
  0
LINE
  5
AD
100
AcDbEntity
  8
L1
  6
CONTINUOUS
 62
     7
100
AcDbLine
 10
1.421427
 20
13.484679
 30
0.0
 11
1.421427
 21
13.620129
 31
0.0
  0
LINE
  5
AE
100
AcDbEntity
  8
L1
  6
CONTINUOUS
 62
     7
100
AcDbLine
 10
1.621426
 20
13.484679
 30
0.0
 11
1.621426
 21
13.620129
 31
0.0
  0
ARC
  5
AF
100
AcDbEntity
  8
L1
  6
CONTINUOUS
 62
     7
100
AcDbCircle
 10
1.521426
 20
13.283129
 30
0.0
 40
0.225
100
AcDbArc
 50
0.0
 51
63.61214
  0
ARC
  5
B0
100
AcDbEntity
  8
L1
  6
CONTINUOUS
 62
     7
100
AcDbCircle
 10
1.521426
 20
13.620129
 30
0.0
 40
0.1
100
AcDbArc
 50
0.0
 51
180.0
  0
ARC
  5
B1
100
AcDbEntity
  8
L1
  6
CONTINUOUS
 62
     7
100
AcDbCircle
 10
10.921426
 20
13.283129
 30
0.0
 40
0.225
100
AcDbArc
 50
116.3878
 51
0.0
  0
LINE
  5
B2
100
AcDbEntity
  8
L1
  6
CONTINUOUS
 62
     7
100
AcDbLine
 10
10.821428
 20
13.484689
 30
0.0
 11
10.821428
 21
13.620129
 31
0.0
  0
LINE
  5
B3
100
AcDbEntity
  8
L1
  6
CONTINUOUS
 62
     7
100
AcDbLine
 10
11.021426
 20
13.484689
 30
0.0
 11
11.021426
 21
13.620129
 31
0.0
  0
ARC
  5
B4
100
AcDbEntity
  8
L1
  6
CONTINUOUS
 62
     7
100
AcDbCircle
 10
10.921426
 20
13.283129
 30
0.0
 40
0.225
100
AcDbArc
 50
0.0
 51
63.61214
  0
ARC
  5
B5
100
AcDbEntity
  8
L1
  6
CONTINUOUS
 62
     7
100
AcDbCircle
 10
10.921426
 20
13.620129
 30
0.0
 40
0.1
100
AcDbArc
 50
0.0
 51
180.0
  0
ARC
  5
B6
100
AcDbEntity
  8
L1
  6
CONTINUOUS
 62
     7
100
AcDbCircle
 10
20.321429
 20
13.283129
 30
0.0
 40
0.225
100
AcDbArc
 50
180.0
 51
63.61218
  0
LINE
  5
B7
100
AcDbEntity
  8
L1
  6
CONTINUOUS
 62
     7
100
AcDbLine
 10
20.421429
 20
13.484679
 30
0.0
 11
20.421429
 21
13.620129
 31
0.0
  0
LINE
  5
B8
100
AcDbEntity
  8
L1
  6
CONTINUOUS
 62
     7
100
AcDbLine
 10
20.221429
 20
13.484679
 30
0.0
 11
20.221429
 21
13.620129
 31
0.0
  0
ARC
  5
B9
100
AcDbEntity
  8
L1
  6
CONTINUOUS
 62
     7
100
AcDbCircle
 10
20.321429
 20
13.283129
 30
0.0
 40
0.225
100
AcDbArc
 50
116.3879
 51
180.0
  0
ARC
  5
BA
100
AcDbEntity
  8
L1
  6
CONTINUOUS
 62
     7
100
AcDbCircle
 10
20.321429
 20
13.620129
 30
0.0
 40
0.1
100
AcDbArc
 50
0.000015
 51
180.0
  0
ARC
  5
BD
100
AcDbEntity
  8
L1
  6
CONTINUOUS
 62
     7
100
AcDbCircle
 10
0.684426
 20
13.907129
 30
0.0
 40
0.063
100
AcDbArc
 50
90.0
 51
180.0
  0
ARC
  5
BE
100
AcDbEntity
  8
L1
  6
CONTINUOUS
 62
     7
100
AcDbCircle
 10
0.684426
 20
0.063131
 30
0.0
 40
0.063
100
AcDbArc
 50
180.0
 51
270.0
  0
ARC
  5
BF
100
AcDbEntity
  8
L1
  6
CONTINUOUS
 62
     7
100
AcDbCircle
 10
21.158429
 20
0.063131
 30
0.0
 40
0.063
100
AcDbArc
 50
270.00001
 51
0.0
  0
ARC
  5
C0
100
AcDbEntity
  8
L1
  6
CONTINUOUS
 62
     7
100
AcDbCircle
 10
21.158429
 20
13.907129
 30
0.0
 40
0.063
100
AcDbArc
 50
0.0
 51
89.99999
  0
LINE
  5
C1
100
AcDbEntity
  8
L1
  6
CONTINUOUS
 62
     7
100
AcDbLine
 10
0.816427
 20
1.926731
 30
0.0
 11
0.816427
 21
0.781381
 31
0.0
  0
LINE
  5
C2
100
AcDbEntity
  8
L1
  6
CONTINUOUS
 62
     7
100
AcDbLine
 10
0.711427
 20
12.550129
 30
0.0
 11
0.711427
 21
11.987629
 31
0.0
  0
LINE
  5
C9
100
AcDbEntity
  8
L1
  6
CONTINUOUS
 62
     7
100
AcDbLine
 10
1.856426
 20
1.926731
 30
0.0
 11
1.856426
 21
0.781381
 31
0.0
  0
LINE
  5
CA
100
AcDbEntity
  8
L1
  6
CONTINUOUS
 62
     7
100
AcDbLine
 10
11.021429
 20
0.250131
 30
0.0
 11
11.021429
 21
0.000131
 31
0.0
  0
LINE
  5
CB
100
AcDbEntity
  8
L1
  6
CONTINUOUS
 62
     7
100
AcDbLine
 10
10.821428
 20
0.250131
 30
0.0
 11
10.821428
 21
0.000131
 31
0.0
  0
LINE
  5
CC
100
AcDbEntity
  8
L1
  6
CONTINUOUS
 62
     7
100
AcDbLine
 10
1.621428
 20
0.000131
 30
0.0
 11
10.821428
 21
0.000131
 31
0.0
  0
ARC
  5
CD
100
AcDbEntity
  8
L1
  6
CONTINUOUS
 62
     7
100
AcDbCircle
 10
10.921426
 20
0.250131
 30
0.0
 40
0.1
100
AcDbArc
 50
0.000027
 51
180.0
  0
LINE
  5
CE
100
AcDbEntity
  8
L1
  6
CONTINUOUS
 62
     7
100
AcDbLine
 10
20.421429
 20
0.250131
 30
0.0
 11
20.421429
 21
0.000131
 31
0.0
  0
LINE
  5
CF
100
AcDbEntity
  8
L1
  6
CONTINUOUS
 62
     7
100
AcDbLine
 10
20.221429
 20
0.250131
 30
0.0
 11
20.221429
 21
0.000131
 31
0.0
  0
ARC
  5
D0
100
AcDbEntity
  8
L1
  6
CONTINUOUS
 62
     7
100
AcDbCircle
 10
20.321429
 20
0.250131
 30
0.0
 40
0.1
100
AcDbArc
 50
0.000027
 51
180.0
  0
LINE
  5
D1
100
AcDbEntity
  8
L1
  6
CONTINUOUS
 62
     7
100
AcDbLine
 10
1.621428
 20
0.250131
 30
0.0
 11
1.621428
 21
0.000131
 31
0.0
  0
LINE
  5
D2
100
AcDbEntity
  8
L1
  6
CONTINUOUS
 62
     7
100
AcDbLine
 10
1.421427
 20
0.250131
 30
0.0
 11
1.421427
 21
0.000131
 31
0.0
  0
ARC
  5
D3
100
AcDbEntity
  8
L1
  6
CONTINUOUS
 62
     7
100
AcDbCircle
 10
1.521426
 20
0.250131
 30
0.0
 40
0.1
100
AcDbArc
 50
0.000027
 51
180.0
  0
LINE
  5
D4
100
AcDbEntity
  8
L1
  6
CONTINUOUS
 62
     7
100
AcDbLine
 10
0.684426
 20
0.000131
 30
0.0
 11
1.421427
 21
0.000131
 31
0.0
  0
LINE
  5
D5
100
AcDbEntity
  8
L1
  6
CONTINUOUS
 62
     7
100
AcDbLine
 10
11.021429
 20
0.000131
 30
0.0
 11
20.221429
 21
0.000131
 31
0.0
  0
LINE
  5
D6
100
AcDbEntity
  8
L1
  6
CONTINUOUS
 62
     7
100
AcDbLine
 10
0.684426
 20
13.970129
 30
0.0
 11
21.158429
 21
13.970129
 31
0.0
  0
LINE
  5
D7
100
AcDbEntity
  8
L1
  6
CONTINUOUS
 62
     7
100
AcDbLine
 10
0.621426
 20
13.907129
 30
0.0
 11
0.621426
 21
12.833129
 31
0.0
  0
LINE
  5
D8
100
AcDbEntity
  8
L1
  6
CONTINUOUS
 62
     7
100
AcDbLine
 10
21.221429
 20
13.907129
 30
0.0
 11
21.221429
 21
12.833129
 31
0.0
  0
ARC
  5
D9
100
AcDbEntity
  8
L1
  6
CONTINUOUS
 62
     7
100
AcDbCircle
 10
1.521426
 20
13.283129
 30
0.0
 40
0.225
100
AcDbArc
 50
116.3878
 51
0.0
  0
LINE
  5
DA
100
AcDbEntity
  8
L1
  6
CONTINUOUS
 62
     7
100
AcDbLine
 10
1.421427
 20
13.484679
 30
0.0
 11
1.421427
 21
13.620129
 31
0.0
  0
LINE
  5
DB
100
AcDbEntity
  8
L1
  6
CONTINUOUS
 62
     7
100
AcDbLine
 10
1.621426
 20
13.484679
 30
0.0
 11
1.621426
 21
13.620129
 31
0.0
  0
ARC
  5
DC
100
AcDbEntity
  8
L1
  6
CONTINUOUS
 62
     7
100
AcDbCircle
 10
1.521426
 20
13.283129
 30
0.0
 40
0.225
100
AcDbArc
 50
0.0
 51
63.61214
  0
ARC
  5
DD
100
AcDbEntity
  8
L1
  6
CONTINUOUS
 62
     7
100
AcDbCircle
 10
1.521426
 20
13.620129
 30
0.0
 40
0.1
100
AcDbArc
 50
0.0
 51
180.0
  0
ARC
  5
DE
100
AcDbEntity
  8
L1
  6
CONTINUOUS
 62
     7
100
AcDbCircle
 10
10.921426
 20
13.283129
 30
0.0
 40
0.225
100
AcDbArc
 50
116.3878
 51
0.0
  0
LINE
  5
DF
100
AcDbEntity
  8
L1
  6
CONTINUOUS
 62
     7
100
AcDbLine
 10
10.821428
 20
13.484689
 30
0.0
 11
10.821428
 21
13.620129
 31
0.0
  0
LINE
  5
E0
100
AcDbEntity
  8
L1
  6
CONTINUOUS
 62
     7
100
AcDbLine
 10
11.021426
 20
13.484689
 30
0.0
 11
11.021426
 21
13.620129
 31
0.0
  0
ARC
  5
E1
100
AcDbEntity
  8
L1
  6
CONTINUOUS
 62
     7
100
AcDbCircle
 10
10.921426
 20
13.283129
 30
0.0
 40
0.225
100
AcDbArc
 50
0.0
 51
63.61214
  0
ARC
  5
E2
100
AcDbEntity
  8
L1
  6
CONTINUOUS
 62
     7
100
AcDbCircle
 10
10.921426
 20
13.620129
 30
0.0
 40
0.1
100
AcDbArc
 50
0.0
 51
180.0
  0
ARC
  5
E3
100
AcDbEntity
  8
L1
  6
CONTINUOUS
 62
     7
100
AcDbCircle
 10
20.321429
 20
13.283129
 30
0.0
 40
0.225
100
AcDbArc
 50
180.0
 51
63.61218
  0
LINE
  5
E4
100
AcDbEntity
  8
L1
  6
CONTINUOUS
 62
     7
100
AcDbLine
 10
20.421429
 20
13.484679
 30
0.0
 11
20.421429
 21
13.620129
 31
0.0
  0
LINE
  5
E5
100
AcDbEntity
  8
L1
  6
CONTINUOUS
 62
     7
100
AcDbLine
 10
20.221429
 20
13.484679
 30
0.0
 11
20.221429
 21
13.620129
 31
0.0
  0
ARC
  5
E6
100
AcDbEntity
  8
L1
  6
CONTINUOUS
 62
     7
100
AcDbCircle
 10
20.321429
 20
13.283129
 30
0.0
 40
0.225
100
AcDbArc
 50
116.3879
 51
180.0
  0
ARC
  5
E7
100
AcDbEntity
  8
L1
  6
CONTINUOUS
 62
     7
100
AcDbCircle
 10
20.321429
 20
13.620129
 30
0.0
 40
0.1
100
AcDbArc
 50
0.000015
 51
180.0
  0
ARC
  5
E8
100
AcDbEntity
  8
L1
  6
CONTINUOUS
 62
     7
100
AcDbCircle
 10
0.684426
 20
13.907129
 30
0.0
 40
0.063
100
AcDbArc
 50
90.0
 51
180.0
  0
ARC
  5
E9
100
AcDbEntity
  8
L1
  6
CONTINUOUS
 62
     7
100
AcDbCircle
 10
21.158429
 20
13.907129
 30
0.0
 40
0.063
100
AcDbArc
 50
0.0
 51
89.99999
  0
LINE
  5
EA
100
AcDbEntity
  8
L1
  6
CONTINUOUS
 62
     7
100
AcDbLine
 10
20.421429
 20
0.000131
 30
0.0
 11
21.158429
 21
0.000131
 31
0.0
  0
LINE
  5
EB
100
AcDbEntity
  8
L1
  6
CONTINUOUS
 62
     7
100
AcDbLine
 10
0.621426
 20
0.500131
 30
0.0
 11
0.621426
 21
0.063131
 31
0.0
  0
LINE
  5
EC
100
AcDbEntity
  8
L1
  6
CONTINUOUS
 62
     7
100
AcDbLine
 10
21.221429
 20
0.437131
 30
0.0
 11
21.221429
 21
0.063131
 31
0.0
  0
ARC
  5
ED
100
AcDbEntity
  8
L1
  6
CONTINUOUS
 62
     7
100
AcDbCircle
 10
0.684426
 20
0.063131
 30
0.0
 40
0.063
100
AcDbArc
 50
180.0
 51
270.0
  0
ARC
  5
EE
100
AcDbEntity
  8
L1
  6
CONTINUOUS
 62
     7
100
AcDbCircle
 10
21.158429
 20
0.063131
 30
0.0
 40
0.063
100
AcDbArc
 50
270.00001
 51
0.0
  0
LINE
  5
EF
100
AcDbEntity
  8
L1
  6
CONTINUOUS
 62
     7
100
AcDbLine
 10
11.021429
 20
0.250131
 30
0.0
 11
11.021429
 21
0.000131
 31
0.0
  0
LINE
  5
F0
100
AcDbEntity
  8
L1
  6
CONTINUOUS
 62
     7
100
AcDbLine
 10
10.821428
 20
0.250131
 30
0.0
 11
10.821428
 21
0.000131
 31
0.0
  0
LINE
  5
F1
100
AcDbEntity
  8
L1
  6
CONTINUOUS
 62
     7
100
AcDbLine
 10
1.621428
 20
0.000131
 30
0.0
 11
10.821428
 21
0.000131
 31
0.0
  0
ARC
  5
F2
100
AcDbEntity
  8
L1
  6
CONTINUOUS
 62
     7
100
AcDbCircle
 10
10.921426
 20
0.250131
 30
0.0
 40
0.1
100
AcDbArc
 50
0.000027
 51
180.0
  0
LINE
  5
F3
100
AcDbEntity
  8
L1
  6
CONTINUOUS
 62
     7
100
AcDbLine
 10
20.421429
 20
0.250131
 30
0.0
 11
20.421429
 21
0.000131
 31
0.0
  0
LINE
  5
F4
100
AcDbEntity
  8
L1
  6
CONTINUOUS
 62
     7
100
AcDbLine
 10
20.221429
 20
0.250131
 30
0.0
 11
20.221429
 21
0.000131
 31
0.0
  0
ARC
  5
F5
100
AcDbEntity
  8
L1
  6
CONTINUOUS
 62
     7
100
AcDbCircle
 10
20.321429
 20
0.250131
 30
0.0
 40
0.1
100
AcDbArc
 50
0.000027
 51
180.0
  0
LINE
  5
F6
100
AcDbEntity
  8
L1
  6
CONTINUOUS
 62
     7
100
AcDbLine
 10
1.621428
 20
0.250131
 30
0.0
 11
1.621428
 21
0.000131
 31
0.0
  0
LINE
  5
F7
100
AcDbEntity
  8
L1
  6
CONTINUOUS
 62
     7
100
AcDbLine
 10
1.421427
 20
0.250131
 30
0.0
 11
1.421427
 21
0.000131
 31
0.0
  0
ARC
  5
F8
100
AcDbEntity
  8
L1
  6
CONTINUOUS
 62
     7
100
AcDbCircle
 10
1.521426
 20
0.250131
 30
0.0
 40
0.1
100
AcDbArc
 50
0.000027
 51
180.0
  0
LINE
  5
F9
100
AcDbEntity
  8
L1
  6
CONTINUOUS
 62
     7
100
AcDbLine
 10
0.684426
 20
0.000131
 30
0.0
 11
1.421427
 21
0.000131
 31
0.0
  0
LINE
  5
FA
100
AcDbEntity
  8
L1
  6
CONTINUOUS
 62
     7
100
AcDbLine
 10
11.021429
 20
0.000131
 30
0.0
 11
20.221429
 21
0.000131
 31
0.0
  0
LINE
  5
FB
100
AcDbEntity
  8
L1
  6
CONTINUOUS
 62
     7
100
AcDbLine
 10
0.121426
 20
0.563131
 30
0.0
 11
0.121426
 21
12.707129
 31
0.0
  0
LINE
  5
FC
100
AcDbEntity
  8
L1
  6
CONTINUOUS
 62
     7
100
AcDbLine
 10
21.721429
 20
0.563131
 30
0.0
 11
21.721429
 21
12.751129
 31
0.0
  0
LINE
  5
FD
100
AcDbEntity
  8
L1
  6
CONTINUOUS
 62
     7
100
AcDbLine
 10
0.621426
 20
0.500131
 30
0.0
 11
0.184426
 21
0.500131
 31
0.0
  0
LINE
  5
FE
100
AcDbEntity
  8
L1
  6
DASHED
 62
     7
100
AcDbLine
 10
0.121426
 20
12.751129
 30
0.0
 11
21.721429
 21
12.751129
 31
0.0
  0
LINE
  5
FF
100
AcDbEntity
  8
L1
  6
CONTINUOUS
 62
     7
100
AcDbLine
 10
0.121426
 20
0.563131
 30
0.0
 11
0.121426
 21
12.751129
 31
0.0
  0
LINE
  5
100
100
AcDbEntity
  8
L1
  6
DASHED
 62
     7
100
AcDbLine
 10
0.184428
 20
0.500131
 30
0.0
 11
0.184428
 21
12.814129
 31
0.0
  0
LINE
  5
101
100
AcDbEntity
  8
L1
  6
DASHED
 62
     7
100
AcDbLine
 10
21.658419
 20
0.500131
 30
0.0
 11
21.658429
 21
12.814129
 31
0.0
  0
LINE
  5
102
100
AcDbEntity
  8
L1
  6
DASHED
 62
     7
100
AcDbLine
 10
0.121426
 20
0.563131
 30
0.0
 11
21.721429
 21
0.563131
 31
0.0
  0
LINE
  5
103
100
AcDbEntity
  8
L1
  6
CONTINUOUS
 62
     7
100
AcDbLine
 10
21.658429
 20
0.500131
 30
0.0
 11
21.221429
 21
0.500131
 31
0.0
  0
LINE
  5
104
100
AcDbEntity
  8
L1
  6
CONTINUOUS
 62
     7
100
AcDbLine
 10
21.658429
 20
12.814129
 30
0.0
 11
0.621426
 21
12.814129
 31
0.0
  0
LINE
  5
105
100
AcDbEntity
  8
L1
  6
DASHED
 62
     1
100
AcDbLine
 10
1.521426
 20
0.250131
 30
0.0
 11
1.679094
 21
0.250131
 31
0.0
  0
LINE
  5
106
100
AcDbEntity
  8
L1
  6
DASHED
 62
     1
100
AcDbLine
 10
1.521426
 20
0.250131
 30
0.0
 11
1.372506
 21
0.250131
 31
0.0
  0
LINE
  5
107
100
AcDbEntity
  8
L1
  6
DASHED
 62
     1
100
AcDbLine
 10
1.521426
 20
0.250131
 30
0.0
 11
1.521426
 21
0.395847
 31
0.0
  0
LINE
  5
108
100
AcDbEntity
  8
L1
  6
DASHED
 62
     1
100
AcDbLine
 10
1.521426
 20
0.250131
 30
0.0
 11
1.521426
 21
0.103482
 31
0.0
  0
LINE
  5
109
100
AcDbEntity
  8
L1
  6
DASHED
 62
     7
100
AcDbLine
 10
10.921426
 20
0.250131
 30
0.0
 11
11.127357
 21
0.250131
 31
0.0
  0
LINE
  5
10A
100
AcDbEntity
  8
L1
  6
DASHED
 62
     7
100
AcDbLine
 10
10.921426
 20
0.250131
 30
0.0
 11
10.772506
 21
0.250131
 31
0.0
  0
LINE
  5
10B
100
AcDbEntity
  8
L1
  6
DASHED
 62
     7
100
AcDbLine
 10
10.921426
 20
0.250131
 30
0.0
 11
10.921426
 21
0.395847
 31
0.0
  0
LINE
  5
10C
100
AcDbEntity
  8
L1
  6
DASHED
 62
     7
100
AcDbLine
 10
10.921426
 20
0.250131
 30
0.0
 11
10.921426
 21
0.103482
 31
0.0
  0
LINE
  5
10D
100
AcDbEntity
  8
L1
  6
DASHED
 62
     1
100
AcDbLine
 10
20.321429
 20
0.250131
 30
0.0
 11
20.479099
 21
0.250131
 31
0.0
  0
LINE
  5
10E
100
AcDbEntity
  8
L1
  6
DASHED
 62
     1
100
AcDbLine
 10
20.321429
 20
0.250131
 30
0.0
 11
20.172509
 21
0.250131
 31
0.0
  0
LINE
  5
10F
100
AcDbEntity
  8
L1
  6
DASHED
 62
     1
100
AcDbLine
 10
20.321429
 20
0.250131
 30
0.0
 11
20.321429
 21
0.395847
 31
0.0
  0
LINE
  5
110
100
AcDbEntity
  8
L1
  6
DASHED
 62
     1
100
AcDbLine
 10
20.321429
 20
0.250131
 30
0.0
 11
20.321429
 21
0.103482
 31
0.0
  0
LINE
  5
111
100
AcDbEntity
  8
L1
  6
DASHED
 62
     1
100
AcDbLine
 10
1.521426
 20
13.620129
 30
0.0
 11
1.679094
 21
13.620129
 31
0.0
  0
LINE
  5
112
100
AcDbEntity
  8
L1
  6
DASHED
 62
     1
100
AcDbLine
 10
1.521426
 20
13.620129
 30
0.0
 11
1.372506
 21
13.620129
 31
0.0
  0
LINE
  5
113
100
AcDbEntity
  8
L1
  6
DASHED
 62
     1
100
AcDbLine
 10
1.521426
 20
13.620129
 30
0.0
 11
1.521426
 21
13.765849
 31
0.0
  0
LINE
  5
114
100
AcDbEntity
  8
L1
  6
DASHED
 62
     1
100
AcDbLine
 10
10.921426
 20
13.620129
 30
0.0
 11
11.079094
 21
13.620129
 31
0.0
  0
LINE
  5
115
100
AcDbEntity
  8
L1
  6
DASHED
 62
     1
100
AcDbLine
 10
10.921426
 20
13.620129
 30
0.0
 11
10.772506
 21
13.620129
 31
0.0
  0
LINE
  5
116
100
AcDbEntity
  8
L1
  6
DASHED
 62
     1
100
AcDbLine
 10
10.921426
 20
13.620129
 30
0.0
 11
10.921426
 21
13.765849
 31
0.0
  0
LINE
  5
117
100
AcDbEntity
  8
L1
  6
DASHED
 62
     1
100
AcDbLine
 10
10.921426
 20
13.620129
 30
0.0
 11
10.921426
 21
13.473479
 31
0.0
  0
LINE
  5
118
100
AcDbEntity
  8
L1
  6
DASHED
 62
     1
100
AcDbLine
 10
20.321429
 20
13.620129
 30
0.0
 11
20.479099
 21
13.620129
 31
0.0
  0
LINE
  5
119
100
AcDbEntity
  8
L1
  6
DASHED
 62
     1
100
AcDbLine
 10
20.321429
 20
13.620129
 30
0.0
 11
20.172509
 21
13.620129
 31
0.0
  0
LINE
  5
11A
100
AcDbEntity
  8
L1
  6
DASHED
 62
     1
100
AcDbLine
 10
20.321429
 20
13.620129
 30
0.0
 11
20.321429
 21
13.765849
 31
0.0
  0
LINE
  5
11B
100
AcDbEntity
  8
L1
  6
DASHED
 62
     1
100
AcDbLine
 10
20.321429
 20
13.620129
 30
0.0
 11
20.321429
 21
13.473479
 31
0.0
  0
TEXT
  5
11C
100
AcDbEntity
  8
L1
  6
CONTINUOUS
 62
     1
100
AcDbText
 10
21.083334
 20
15.499691
 30
0.0
 40
0.1
  1
 
 41
0.838709
100
AcDbText
  0
LINE
  5
11E
100
AcDbEntity
  8
L1
  6
CONTINUOUS
 62
     7
100
AcDbLine
 10
0.184428
 20
12.814129
 30
0.0
 11
21.158429
 21
12.814129
 31
0.0
  0
LINE
  5
153
100
AcDbEntity
  8
0
100
AcDbLine
 10
15.672678
 20
0.750131
 30
0.0
 11
16.590178
 21
0.750131
 31
0.0
  0
LINE
  5
154
100
AcDbEntity
  8
0
100
AcDbLine
 10
16.621428
 20
1.926731
 30
0.0
 11
16.621428
 21
0.781381
 31
0.0
  0
LINE
  5
155
100
AcDbEntity
  8
0
100
AcDbLine
 10
15.641428
 20
1.926731
 30
0.0
 11
15.641428
 21
0.781381
 31
0.0
  0
ARC
  5
156
100
AcDbEntity
  8
0
100
AcDbCircle
 10
16.590178
 20
0.781381
 30
0.0
 40
0.03125
100
AcDbArc
 50
270.0
 51
0.0
  0
ARC
  5
157
100
AcDbEntity
  8
0
100
AcDbCircle
 10
15.672678
 20
0.781381
 30
0.0
 40
0.03125
100
AcDbArc
 50
180.0
 51
270.0
  0
LINE
  5
18D
100
AcDbEntity
  8
0
100
AcDbLine
 10
14.07268
 20
0.750131
 30
0.0
 11
14.99018
 21
0.750131
 31
0.0
  0
LINE
  5
18E
100
AcDbEntity
  8
0
100
AcDbLine
 10
15.02143
 20
1.926731
 30
0.0
 11
15.02143
 21
0.781381
 31
0.0
  0
LINE
  5
18F
100
AcDbEntity
  8
0
100
AcDbLine
 10
14.04143
 20
1.926731
 30
0.0
 11
14.04143
 21
0.781381
 31
0.0
  0
ARC
  5
190
100
AcDbEntity
  8
0
100
AcDbCircle
 10
14.99018
 20
0.781381
 30
0.0
 40
0.03125
100
AcDbArc
 50
270.0
 51
0.0
  0
ARC
  5
191
100
AcDbEntity
  8
0
100
AcDbCircle
 10
14.07268
 20
0.781381
 30
0.0
 40
0.03125
100
AcDbArc
 50
180.0
 51
270.0
  0
LINE
  5
1C7
100
AcDbEntity
  8
0
100
AcDbLine
 10
12.472677
 20
0.750131
 30
0.0
 11
13.390177
 21
0.750131
 31
0.0
  0
LINE
  5
1C8
100
AcDbEntity
  8
0
100
AcDbLine
 10
13.421427
 20
1.926731
 30
0.0
 11
13.421427
 21
0.781381
 31
0.0
  0
LINE
  5
1C9
100
AcDbEntity
  8
0
100
AcDbLine
 10
12.441427
 20
1.926731
 30
0.0
 11
12.441427
 21
0.781381
 31
0.0
  0
ARC
  5
1CA
100
AcDbEntity
  8
0
100
AcDbCircle
 10
13.390177
 20
0.781381
 30
0.0
 40
0.03125
100
AcDbArc
 50
270.0
 51
0.0
  0
ARC
  5
1CB
100
AcDbEntity
  8
0
100
AcDbCircle
 10
12.472677
 20
0.781381
 30
0.0
 40
0.03125
100
AcDbArc
 50
180.0
 51
270.0
  0
LINE
  5
201
100
AcDbEntity
  8
0
100
AcDbLine
 10
10.872679
 20
0.750131
 30
0.0
 11
11.790179
 21
0.750131
 31
0.0
  0
LINE
  5
202
100
AcDbEntity
  8
0
100
AcDbLine
 10
11.821429
 20
1.926731
 30
0.0
 11
11.821429
 21
0.781381
 31
0.0
  0
LINE
  5
203
100
AcDbEntity
  8
0
100
AcDbLine
 10
10.841429
 20
1.926731
 30
0.0
 11
10.841429
 21
0.781381
 31
0.0
  0
ARC
  5
204
100
AcDbEntity
  8
0
100
AcDbCircle
 10
11.790179
 20
0.781381
 30
0.0
 40
0.03125
100
AcDbArc
 50
270.0
 51
0.0
  0
ARC
  5
205
100
AcDbEntity
  8
0
100
AcDbCircle
 10
10.872679
 20
0.781381
 30
0.0
 40
0.03125
100
AcDbArc
 50
180.0
 51
270.0
  0
LINE
  5
23B
100
AcDbEntity
  8
0
100
AcDbLine
 10
9.272677
 20
0.750131
 30
0.0
 11
10.190177
 21
0.750131
 31
0.0
  0
LINE
  5
23C
100
AcDbEntity
  8
0
100
AcDbLine
 10
10.221427
 20
1.926731
 30
0.0
 11
10.221427
 21
0.781381
 31
0.0
  0
LINE
  5
23D
100
AcDbEntity
  8
0
100
AcDbLine
 10
9.241427
 20
1.926731
 30
0.0
 11
9.241427
 21
0.781381
 31
0.0
  0
ARC
  5
23E
100
AcDbEntity
  8
0
100
AcDbCircle
 10
10.190177
 20
0.781381
 30
0.0
 40
0.03125
100
AcDbArc
 50
270.0
 51
0.0
  0
ARC
  5
23F
100
AcDbEntity
  8
0
100
AcDbCircle
 10
9.272677
 20
0.781381
 30
0.0
 40
0.03125
100
AcDbArc
 50
180.0
 51
270.0
  0
LINE
  5
275
100
AcDbEntity
  8
0
100
AcDbLine
 10
18.872679
 20
0.750131
 30
0.0
 11
19.790179
 21
0.750131
 31
0.0
  0
LINE
  5
276
100
AcDbEntity
  8
0
100
AcDbLine
 10
19.821429
 20
1.926731
 30
0.0
 11
19.821429
 21
0.781381
 31
0.0
  0
LINE
  5
277
100
AcDbEntity
  8
0
100
AcDbLine
 10
18.841429
 20
1.926731
 30
0.0
 11
18.841429
 21
0.781381
 31
0.0
  0
ARC
  5
278
100
AcDbEntity
  8
0
100
AcDbCircle
 10
19.790179
 20
0.781381
 30
0.0
 40
0.03125
100
AcDbArc
 50
270.0
 51
0.0
  0
ARC
  5
279
100
AcDbEntity
  8
0
100
AcDbCircle
 10
18.872679
 20
0.781381
 30
0.0
 40
0.03125
100
AcDbArc
 50
180.0
 51
270.0
  0
LINE
  5
2AF
100
AcDbEntity
  8
0
100
AcDbLine
 10
20.472679
 20
0.750131
 30
0.0
 11
21.390179
 21
0.750131
 31
0.0
  0
LINE
  5
2B0
100
AcDbEntity
  8
0
100
AcDbLine
 10
21.421429
 20
1.926731
 30
0.0
 11
21.421429
 21
0.781381
 31
0.0
  0
LINE
  5
2B1
100
AcDbEntity
  8
0
100
AcDbLine
 10
20.441429
 20
1.926731
 30
0.0
 11
20.441429
 21
0.781381
 31
0.0
  0
ARC
  5
2B2
100
AcDbEntity
  8
0
100
AcDbCircle
 10
21.390179
 20
0.781381
 30
0.0
 40
0.03125
100
AcDbArc
 50
270.0
 51
0.0
  0
ARC
  5
2B3
100
AcDbEntity
  8
0
100
AcDbCircle
 10
20.472679
 20
0.781381
 30
0.0
 40
0.03125
100
AcDbArc
 50
180.0
 51
270.0
  0
LINE
  5
2E9
100
AcDbEntity
  8
0
100
AcDbLine
 10
7.672678
 20
0.750131
 30
0.0
 11
8.590178
 21
0.750131
 31
0.0
  0
LINE
  5
2EA
100
AcDbEntity
  8
0
100
AcDbLine
 10
8.621428
 20
1.926731
 30
0.0
 11
8.621428
 21
0.781381
 31
0.0
  0
LINE
  5
2EB
100
AcDbEntity
  8
0
100
AcDbLine
 10
7.641428
 20
1.926731
 30
0.0
 11
7.641428
 21
0.781381
 31
0.0
  0
ARC
  5
2EC
100
AcDbEntity
  8
0
100
AcDbCircle
 10
8.590178
 20
0.781381
 30
0.0
 40
0.03125
100
AcDbArc
 50
270.0
 51
0.0
  0
ARC
  5
2ED
100
AcDbEntity
  8
0
100
AcDbCircle
 10
7.672678
 20
0.781381
 30
0.0
 40
0.03125
100
AcDbArc
 50
180.0
 51
270.0
  0
LINE
  5
323
100
AcDbEntity
  8
0
100
AcDbLine
 10
6.072676
 20
0.750131
 30
0.0
 11
6.990176
 21
0.750131
 31
0.0
  0
LINE
  5
324
100
AcDbEntity
  8
0
100
AcDbLine
 10
7.021426
 20
1.926731
 30
0.0
 11
7.021426
 21
0.781381
 31
0.0
  0
LINE
  5
325
100
AcDbEntity
  8
0
100
AcDbLine
 10
6.041426
 20
1.926731
 30
0.0
 11
6.041426
 21
0.781381
 31
0.0
  0
ARC
  5
326
100
AcDbEntity
  8
0
100
AcDbCircle
 10
6.990176
 20
0.781381
 30
0.0
 40
0.03125
100
AcDbArc
 50
270.0
 51
0.0
  0
ARC
  5
327
100
AcDbEntity
  8
0
100
AcDbCircle
 10
6.072676
 20
0.781381
 30
0.0
 40
0.03125
100
AcDbArc
 50
180.0
 51
270.0
  0
LINE
  5
35D
100
AcDbEntity
  8
0
100
AcDbLine
 10
4.472677
 20
0.750131
 30
0.0
 11
5.390177
 21
0.750131
 31
0.0
  0
LINE
  5
35E
100
AcDbEntity
  8
0
100
AcDbLine
 10
5.421427
 20
1.926731
 30
0.0
 11
5.421427
 21
0.781381
 31
0.0
  0
LINE
  5
35F
100
AcDbEntity
  8
0
100
AcDbLine
 10
4.441427
 20
1.926731
 30
0.0
 11
4.441427
 21
0.781381
 31
0.0
  0
ARC
  5
360
100
AcDbEntity
  8
0
100
AcDbCircle
 10
5.390177
 20
0.781381
 30
0.0
 40
0.03125
100
AcDbArc
 50
270.0
 51
0.0
  0
ARC
  5
361
100
AcDbEntity
  8
0
100
AcDbCircle
 10
4.472677
 20
0.781381
 30
0.0
 40
0.03125
100
AcDbArc
 50
180.0
 51
270.0
  0
LINE
  5
397
100
AcDbEntity
  8
0
100
AcDbLine
 10
2.872677
 20
0.750131
 30
0.0
 11
3.790177
 21
0.750131
 31
0.0
  0
LINE
  5
398
100
AcDbEntity
  8
0
100
AcDbLine
 10
3.821427
 20
1.926731
 30
0.0
 11
3.821427
 21
0.781381
 31
0.0
  0
LINE
  5
399
100
AcDbEntity
  8
0
100
AcDbLine
 10
2.841427
 20
1.926731
 30
0.0
 11
2.841427
 21
0.781381
 31
0.0
  0
ARC
  5
39B
100
AcDbEntity
  8
0
100
AcDbCircle
 10
2.872677
 20
0.781381
 30
0.0
 40
0.03125
100
AcDbArc
 50
180.0
 51
270.0
  0
LINE
  5
405
100
AcDbEntity
  8
0
100
AcDbLine
 10
17.272679
 20
0.750131
 30
0.0
 11
18.190179
 21
0.750131
 31
0.0
  0
LINE
  5
406
100
AcDbEntity
  8
0
100
AcDbLine
 10
18.221429
 20
1.926731
 30
0.0
 11
18.221429
 21
0.781381
 31
0.0
  0
LINE
  5
407
100
AcDbEntity
  8
0
100
AcDbLine
 10
17.241429
 20
1.926731
 30
0.0
 11
17.241429
 21
0.781381
 31
0.0
  0
ARC
  5
408
100
AcDbEntity
  8
0
100
AcDbCircle
 10
18.190179
 20
0.781381
 30
0.0
 40
0.03125
100
AcDbArc
 50
270.0
 51
0.0
  0
ARC
  5
409
100
AcDbEntity
  8
0
100
AcDbCircle
 10
17.272679
 20
0.781381
 30
0.0
 40
0.03125
100
AcDbArc
 50
180.0
 51
270.0
  0
LINE
  5
422
100
AcDbEntity
  8
L1
  6
CONTINUOUS
 62
     7
100
AcDbLine
 10
0.711427
 20
12.550129
 30
0.0
 11
21.441429
 21
12.550129
 31
0.0
  0
LINE
  5
425
100
AcDbEntity
  8
L1
  6
CONTINUOUS
 62
     7
100
AcDbLine
 10
0.836427
 20
12.055129
 30
0.0
 11
21.316429
 21
12.055129
 31
0.0
  0
LINE
  5
426
100
AcDbEntity
  8
L1
  6
CONTINUOUS
 62
     7
100
AcDbLine
 10
0.836427
 20
12.055129
 30
0.0
 11
0.836427
 21
11.987629
 31
0.0
  0
LINE
  5
428
100
AcDbEntity
  8
0
100
AcDbLine
 10
0.773927
 20
11.925129
 30
0.0
 11
0.773927
 21
11.925129
 31
0.0
  0
ARC
  5
42A
100
AcDbEntity
  8
0
100
AcDbCircle
 10
0.773927
 20
11.987629
 30
0.0
 40
0.0625
100
AcDbArc
 50
180.0
 51
270.0
  0
ARC
  5
42B
100
AcDbEntity
  8
0
100
AcDbCircle
 10
0.773927
 20
11.987629
 30
0.0
 40
0.0625
100
AcDbArc
 50
270.0
 51
0.0
  0
LINE
  5
42D
100
AcDbEntity
  8
L1
  6
CONTINUOUS
 62
     7
100
AcDbLine
 10
21.441429
 20
12.550129
 30
0.0
 11
21.441429
 21
11.987629
 31
0.0
  0
ARC
  5
42E
100
AcDbEntity
  8
0
100
AcDbCircle
 10
21.378929
 20
11.987629
 30
0.0
 40
0.0625
100
AcDbArc
 50
180.0
 51
270.0
  0
LINE
  5
42F
100
AcDbEntity
  8
0
100
AcDbLine
 10
21.378929
 20
11.925129
 30
0.0
 11
21.378929
 21
11.925129
 31
0.0
  0
LINE
  5
430
100
AcDbEntity
  8
L1
  6
CONTINUOUS
 62
     7
100
AcDbLine
 10
21.316429
 20
12.055129
 30
0.0
 11
21.316429
 21
11.987629
 31
0.0
  0
ARC
  5
431
100
AcDbEntity
  8
0
100
AcDbCircle
 10
21.378929
 20
11.987629
 30
0.0
 40
0.0625
100
AcDbArc
 50
270.0
 51
0.0
  0
LINE
  5
436
100
AcDbEntity
  8
0
100
AcDbLine
 10
1.856426
 20
1.926731
 30
0.0
 11
0.816427
 21
1.926731
 31
0.0
  0
LINE
  5
439
100
AcDbEntity
  8
0
100
AcDbLine
 10
21.421429
 20
1.926731
 30
0.0
 11
20.441429
 21
1.926731
 31
0.0
  0
LINE
  5
43A
100
AcDbEntity
  8
0
100
AcDbLine
 10
19.821429
 20
1.926731
 30
0.0
 11
18.841429
 21
1.926731
 31
0.0
  0
LINE
  5
43B
100
AcDbEntity
  8
0
100
AcDbLine
 10
18.221429
 20
1.926731
 30
0.0
 11
17.241429
 21
1.926731
 31
0.0
  0
LINE
  5
43C
100
AcDbEntity
  8
0
100
AcDbLine
 10
16.621428
 20
1.926731
 30
0.0
 11
15.641428
 21
1.926731
 31
0.0
  0
LINE
  5
43D
100
AcDbEntity
  8
0
100
AcDbLine
 10
15.02143
 20
1.926731
 30
0.0
 11
14.04143
 21
1.926731
 31
0.0
  0
LINE
  5
43E
100
AcDbEntity
  8
0
100
AcDbLine
 10
13.421427
 20
1.926731
 30
0.0
 11
12.441427
 21
1.926731
 31
0.0
  0
LINE
  5
43F
100
AcDbEntity
  8
0
100
AcDbLine
 10
11.821429
 20
1.926731
 30
0.0
 11
10.841429
 21
1.926731
 31
0.0
  0
LINE
  5
440
100
AcDbEntity
  8
0
100
AcDbLine
 10
10.221427
 20
1.926731
 30
0.0
 11
9.241427
 21
1.926731
 31
0.0
  0
LINE
  5
441
100
AcDbEntity
  8
0
100
AcDbLine
 10
8.621428
 20
1.926731
 30
0.0
 11
7.641428
 21
1.926731
 31
0.0
  0
LINE
  5
442
100
AcDbEntity
  8
0
100
AcDbLine
 10
7.021426
 20
1.926731
 30
0.0
 11
6.041426
 21
1.926731
 31
0.0
  0
LINE
  5
443
100
AcDbEntity
  8
0
100
AcDbLine
 10
5.421427
 20
1.926731
 30
0.0
 11
4.441427
 21
1.926731
 31
0.0
  0
LINE
  5
444
100
AcDbEntity
  8
0
100
AcDbLine
 10
3.821427
 20
1.926731
 30
0.0
 11
2.841427
 21
1.926731
 31
0.0
  0
TEXT
  5
447
100
AcDbEntity
  8
TEXT
100
AcDbText
 10
18.806026
 20
0.201289
 30
0.0
 40
0.1
  1
900_BACK.DWG
100
AcDbText
  0
ARC
  5
44B
100
AcDbEntity
  8
0
100
AcDbCircle
 10
0.847677
 20
0.781381
 30
0.0
 40
0.03125
100
AcDbArc
 50
180.0
 51
270.0
  0
ARC
  5
44C
100
AcDbEntity
  8
0
100
AcDbCircle
 10
1.825176
 20
0.781381
 30
0.0
 40
0.03125
100
AcDbArc
 50
270.0
 51
0.0
  0
LINE
  5
44D
100
AcDbEntity
  8
0
100
AcDbLine
 10
1.825176
 20
0.750131
 30
0.0
 11
0.847677
 21
0.750131
 31
0.0
  0
INSERT
  5
49F
100
AcDbEntity
  8
0
100
AcDbBlockReference
  2
900CARD
 10
20.931429
 20
0.750131
 30
0.0
  0
INSERT
  5
4A0
100
AcDbEntity
  8
0
100
AcDbBlockReference
  2
900CARD
 10
19.331429
 20
0.750131
 30
0.0
  0
INSERT
  5
4A1
100
AcDbEntity
  8
0
100
AcDbBlockReference
  2
900CARD
 10
17.731429
 20
0.750131
 30
0.0
  0
INSERT
  5
4A2
100
AcDbEntity
  8
0
100
AcDbBlockReference
  2
900CARD
 10
16.131428
 20
0.750131
 30
0.0
  0
INSERT
  5
4A3
100
AcDbEntity
  8
0
100
AcDbBlockReference
  2
900CARD
 10
14.53143
 20
0.750131
 30
0.0
  0
INSERT
  5
4A4
100
AcDbEntity
  8
0
100
AcDbBlockReference
  2
900CARD
 10
12.931427
 20
0.750131
 30
0.0
  0
INSERT
  5
4A5
100
AcDbEntity
  8
0
100
AcDbBlockReference
  2
900CARD
 10
11.331429
 20
0.750131
 30
0.0
  0
INSERT
  5
4A6
100
AcDbEntity
  8
0
100
AcDbBlockReference
  2
900CARD
 10
9.731427
 20
0.750131
 30
0.0
  0
INSERT
  5
4A7
100
AcDbEntity
  8
0
100
AcDbBlockReference
  2
900CARD
 10
8.131428
 20
0.750131
 30
0.0
  0
INSERT
  5
4A8
100
AcDbEntity
  8
0
100
AcDbBlockReference
  2
900CARD
 10
6.531426
 20
0.750131
 30
0.0
  0
INSERT
  5
4A9
100
AcDbEntity
  8
0
100
AcDbBlockReference
  2
900CARD
 10
4.931427
 20
0.750131
 30
0.0
  0
INSERT
  5
53F
100
AcDbEntity
  8
0
100
AcDbBlockReference
  2
900CSM
 10
1.336427
 20
0.750131
 30
0.0
  0
INSERT
  5
65C
100
AcDbEntity
  8
0
100
AcDbBlockReference
  2
900_CPU
 10
3.331427
 20
0.750131
 30
0.0
  0
ENDSEC
  0
SECTION
  2
OBJECTS
  0
DICTIONARY
  5
C
100
AcDbDictionary
  3
ACAD_GROUP
350
D
  3
ACAD_MLINESTYLE
350
E
  0
DICTIONARY
  5
D
102
{ACAD_REACTORS
330
C
102
}
100
AcDbDictionary
  0
DICTIONARY
  5
E
102
{ACAD_REACTORS
330
C
102
}
100
AcDbDictionary
  3
STANDARD
350
1B
  0
MLINESTYLE
  5
1B
102
{ACAD_REACTORS
330
E
102
}
100
AcDbMlineStyle
  2
STANDARD
 70
     0
  3

 62
     0
 51
90.0
 52
90.0
 71
     2
 49
0.5
 62
   256
  6
BYLAYER
 49
-0.5
 62
   256
  6
BYLAYER
  0
ENDSEC
  0
EOF
