  0
SECTION
  2
HEADER
  9
$ACADVER
  1
AC1012
  9
$DWGCODEPAGE
  3
ANSI_1252
  9
$INSBASE
 10
0.0
 20
0.0
 30
0.0
  9
$EXTMIN
 10
-1.19
 20
0.0
 30
0.0
  9
$EXTMAX
 10
1.19
 20
11.85
 30
0.0
  9
$LIMMIN
 10
-1.754351
 20
-0.310672
  9
$LIMMAX
 10
2.346647
 20
12.443309
  9
$ORTHOMODE
 70
     1
  9
$REGENMODE
 70
     1
  9
$FILLMODE
 70
     1
  9
$QTEXTMODE
 70
     0
  9
$MIRRTEXT
 70
     1
  9
$DRAGMODE
 70
     2
  9
$LTSCALE
 40
0.25
  9
$OSMODE
 70
     0
  9
$ATTMODE
 70
     1
  9
$TEXTSIZE
 40
0.05
  9
$TRACEWID
 40
0.05
  9
$TEXTSTYLE
  7
STANDARD
  9
$CLAYER
  8
0
  9
$CELTYPE
  6
BYLAYER
  9
$CECOLOR
 62
   256
  9
$CELTSCALE
 40
1.0
  9
$DELOBJ
 70
     1
  9
$DISPSILH
 70
     0
  9
$DIMSCALE
 40
1.0
  9
$DIMASZ
 40
0.18
  9
$DIMEXO
 40
0.0625
  9
$DIMDLI
 40
0.38
  9
$DIMRND
 40
0.0
  9
$DIMDLE
 40
0.0
  9
$DIMEXE
 40
0.18
  9
$DIMTP
 40
0.0
  9
$DIMTM
 40
0.0
  9
$DIMTXT
 40
0.18
  9
$DIMCEN
 40
0.09
  9
$DIMTSZ
 40
0.0
  9
$DIMTOL
 70
     0
  9
$DIMLIM
 70
     0
  9
$DIMTIH
 70
     1
  9
$DIMTOH
 70
     1
  9
$DIMSE1
 70
     0
  9
$DIMSE2
 70
     0
  9
$DIMTAD
 70
     0
  9
$DIMZIN
 70
     0
  9
$DIMBLK
  1

  9
$DIMASO
 70
     1
  9
$DIMSHO
 70
     1
  9
$DIMPOST
  1

  9
$DIMAPOST
  1

  9
$DIMALT
 70
     0
  9
$DIMALTD
 70
     2
  9
$DIMALTF
 40
25.4
  9
$DIMLFAC
 40
1.0
  9
$DIMTOFL
 70
     0
  9
$DIMTVP
 40
0.0
  9
$DIMTIX
 70
     0
  9
$DIMSOXD
 70
     0
  9
$DIMSAH
 70
     0
  9
$DIMBLK1
  1

  9
$DIMBLK2
  1

  9
$DIMSTYLE
  2
STANDARD
  9
$DIMCLRD
 70
     0
  9
$DIMCLRE
 70
     0
  9
$DIMCLRT
 70
     0
  9
$DIMTFAC
 40
1.0
  9
$DIMGAP
 40
0.09
  9
$DIMJUST
 70
     0
  9
$DIMSD1
 70
     0
  9
$DIMSD2
 70
     0
  9
$DIMTOLJ
 70
     1
  9
$DIMTZIN
 70
     0
  9
$DIMALTZ
 70
     0
  9
$DIMALTTZ
 70
     0
  9
$DIMFIT
 70
     3
  9
$DIMUPT
 70
     0
  9
$DIMUNIT
 70
     2
  9
$DIMDEC
 70
     4
  9
$DIMTDEC
 70
     4
  9
$DIMALTU
 70
     2
  9
$DIMALTTD
 70
     2
  9
$DIMTXSTY
  7
STANDARD
  9
$DIMAUNIT
 70
     0
  9
$LUNITS
 70
     2
  9
$LUPREC
 70
     4
  9
$SKETCHINC
 40
0.1
  9
$FILLETRAD
 40
0.03125
  9
$AUNITS
 70
     0
  9
$AUPREC
 70
     0
  9
$MENU
  1
acad
  9
$ELEVATION
 40
0.0
  9
$PELEVATION
 40
0.0
  9
$THICKNESS
 40
0.0
  9
$LIMCHECK
 70
     0
  9
$BLIPMODE
 70
     1
  9
$CHAMFERA
 40
0.0
  9
$CHAMFERB
 40
0.0
  9
$CHAMFERC
 40
0.0
  9
$CHAMFERD
 40
0.0
  9
$SKPOLY
 70
     0
  9
$TDCREATE
 40
2450238.293903472
  9
$TDUPDATE
 40
2450917.349064120
  9
$TDINDWG
 40
0.0436262731
  9
$TDUSRTIMER
 40
0.0436262731
  9
$USRTIMER
 70
     1
  9
$ANGBASE
 50
0.0
  9
$ANGDIR
 70
     0
  9
$PDMODE
 70
     0
  9
$PDSIZE
 40
0.0
  9
$PLINEWID
 40
0.0
  9
$COORDS
 70
     1
  9
$SPLFRAME
 70
     0
  9
$SPLINETYPE
 70
     6
  9
$SPLINESEGS
 70
     8
  9
$ATTDIA
 70
     0
  9
$ATTREQ
 70
     1
  9
$HANDLING
 70
     1
  9
$HANDSEED
  5
2B7
  9
$SURFTAB1
 70
     6
  9
$SURFTAB2
 70
     6
  9
$SURFTYPE
 70
     6
  9
$SURFU
 70
     6
  9
$SURFV
 70
     6
  9
$UCSNAME
  2

  9
$UCSORG
 10
0.0
 20
0.0
 30
0.0
  9
$UCSXDIR
 10
1.0
 20
0.0
 30
0.0
  9
$UCSYDIR
 10
0.0
 20
1.0
 30
0.0
  9
$PUCSNAME
  2

  9
$PUCSORG
 10
0.0
 20
0.0
 30
0.0
  9
$PUCSXDIR
 10
1.0
 20
0.0
 30
0.0
  9
$PUCSYDIR
 10
0.0
 20
1.0
 30
0.0
  9
$USERI1
 70
     0
  9
$USERI2
 70
     0
  9
$USERI3
 70
     0
  9
$USERI4
 70
     0
  9
$USERI5
 70
     0
  9
$USERR1
 40
0.0
  9
$USERR2
 40
0.0
  9
$USERR3
 40
0.0
  9
$USERR4
 40
0.0
  9
$USERR5
 40
0.0
  9
$WORLDVIEW
 70
     1
  9
$SHADEDGE
 70
     3
  9
$SHADEDIF
 70
    70
  9
$TILEMODE
 70
     1
  9
$MAXACTVP
 70
    16
  9
$PINSBASE
 10
0.0
 20
0.0
 30
0.0
  9
$PLIMCHECK
 70
     0
  9
$PEXTMIN
 10
1.000000E+20
 20
1.000000E+20
 30
1.000000E+20
  9
$PEXTMAX
 10
-1.000000E+20
 20
-1.000000E+20
 30
-1.000000E+20
  9
$PLIMMIN
 10
0.0
 20
0.0
  9
$PLIMMAX
 10
12.0
 20
9.0
  9
$UNITMODE
 70
     0
  9
$VISRETAIN
 70
     0
  9
$PLINEGEN
 70
     0
  9
$PSLTSCALE
 70
     1
  9
$TREEDEPTH
 70
  3020
  9
$PICKSTYLE
 70
     1
  9
$CMLSTYLE
  2
STANDARD
  9
$CMLJUST
 70
     0
  9
$CMLSCALE
 40
1.0
  9
$SAVEIMAGES
 70
     1
  0
ENDSEC
  0
SECTION
  2
CLASSES
  0
ENDSEC
  0
SECTION
  2
TABLES
  0
TABLE
  2
VPORT
  5
8
100
AcDbSymbolTable
 70
     2
  0
VPORT
  5
2B6
100
AcDbSymbolTableRecord
100
AcDbViewportTableRecord
  2
*ACTIVE
 70
     0
 10
0.0
 20
0.0
 11
1.0
 21
1.0
 12
10.627369
 22
6.527847
 13
0.0
 23
0.0
 14
1.0
 24
1.0
 15
0.0
 25
0.0
 16
0.0
 26
0.0
 36
1.0
 17
0.0
 27
0.0
 37
0.0
 40
13.677039
 41
1.810585
 42
50.0
 43
0.0
 44
0.0
 50
0.0
 51
0.0
 71
     0
 72
   100
 73
     1
 74
     1
 75
     0
 76
     0
 77
     0
 78
     0
  0
ENDTAB
  0
TABLE
  2
LTYPE
  5
5
100
AcDbSymbolTable
 70
     2
  0
LTYPE
  5
12
100
AcDbSymbolTableRecord
100
AcDbLinetypeTableRecord
  2
BYBLOCK
 70
     0
  3

 72
    65
 73
     0
 40
0.0
  0
LTYPE
  5
13
100
AcDbSymbolTableRecord
100
AcDbLinetypeTableRecord
  2
BYLAYER
 70
     0
  3

 72
    65
 73
     0
 40
0.0
  0
LTYPE
  5
14
100
AcDbSymbolTableRecord
100
AcDbLinetypeTableRecord
  2
CONTINUOUS
 70
     0
  3
Solid line
 72
    65
 73
     0
 40
0.0
  0
LTYPE
  5
17C
100
AcDbSymbolTableRecord
100
AcDbLinetypeTableRecord
  2
HIDDEN
 70
     0
  3
__ __ __ __ __ __ __ __ __ __ __ __ __ __ __ __
 72
    65
 73
     2
 40
0.375
 49
0.25
 74
     0
 49
-0.125
 74
     0
  0
ENDTAB
  0
TABLE
  2
LAYER
  5
2
100
AcDbSymbolTable
 70
     3
  0
LAYER
  5
F
100
AcDbSymbolTableRecord
100
AcDbLayerTableRecord
  2
0
 70
     0
 62
     7
  6
CONTINUOUS
  0
LAYER
  5
20
100
AcDbSymbolTableRecord
100
AcDbLayerTableRecord
  2
TEXT
 70
     0
 62
     2
  6
CONTINUOUS
  0
LAYER
  5
17D
100
AcDbSymbolTableRecord
100
AcDbLayerTableRecord
  2
HID
 70
     0
 62
     3
  6
HIDDEN
  0
ENDTAB
  0
TABLE
  2
STYLE
  5
3
100
AcDbSymbolTable
 70
     1
  0
STYLE
  5
10
100
AcDbSymbolTableRecord
100
AcDbTextStyleTableRecord
  2
STANDARD
 70
     0
 40
0.0
 41
1.0
 50
0.0
 71
     0
 42
0.05
  3
txt
  4

  0
ENDTAB
  0
TABLE
  2
VIEW
  5
6
100
AcDbSymbolTable
 70
     0
  0
ENDTAB
  0
TABLE
  2
UCS
  5
7
100
AcDbSymbolTable
 70
     0
  0
ENDTAB
  0
TABLE
  2
APPID
  5
9
100
AcDbSymbolTable
 70
     1
  0
APPID
  5
11
100
AcDbSymbolTableRecord
100
AcDbRegAppTableRecord
  2
ACAD
 70
     0
  0
ENDTAB
  0
TABLE
  2
DIMSTYLE
  5
A
100
AcDbSymbolTable
 70
     1
  0
DIMSTYLE
105
64
100
AcDbSymbolTableRecord
100
AcDbDimStyleTableRecord
  2
STANDARD
 70
     0
  3

  4

  5

  6

  7

 40
1.0
 41
0.18
 42
0.0625
 43
0.38
 44
0.18
 45
0.0
 46
0.0
 47
0.0
 48
0.0
140
0.18
141
0.09
142
0.0
143
25.4
144
1.0
145
0.0
146
1.0
147
0.09
 71
     0
 72
     0
 73
     1
 74
     1
 75
     0
 76
     0
 77
     0
 78
     0
170
     0
171
     2
172
     0
173
     0
174
     0
175
     0
176
     0
177
     0
178
     0
270
     2
271
     4
272
     4
273
     2
274
     2
340
10
275
     0
280
     0
281
     0
282
     0
283
     1
284
     0
285
     0
286
     0
287
     3
288
     0
  0
ENDTAB
  0
TABLE
  2
BLOCK_RECORD
  5
1
100
AcDbSymbolTable
 70
     4
  0
BLOCK_RECORD
  5
18
100
AcDbSymbolTableRecord
100
AcDbBlockTableRecord
  2
*MODEL_SPACE
  0
BLOCK_RECORD
  5
15
100
AcDbSymbolTableRecord
100
AcDbBlockTableRecord
  2
*PAPER_SPACE
  0
BLOCK_RECORD
  5
DD
100
AcDbSymbolTableRecord
100
AcDbBlockTableRecord
  2
PCON_10
  0
BLOCK_RECORD
  5
134
100
AcDbSymbolTableRecord
100
AcDbBlockTableRecord
  2
9_PIN_D
  0
BLOCK_RECORD
  5
15F
100
AcDbSymbolTableRecord
100
AcDbBlockTableRecord
  2
PIC_PCON
  0
BLOCK_RECORD
  5
28D
100
AcDbSymbolTableRecord
100
AcDbBlockTableRecord
  2
PCON_2
  0
ENDTAB
  0
ENDSEC
  0
SECTION
  2
BLOCKS
  0
BLOCK
  5
23
100
AcDbEntity
  8
0
100
AcDbBlockBegin
  2
*MODEL_SPACE
 70
     0
 10
0.0
 20
0.0
 30
0.0
  3
*MODEL_SPACE
  1

  0
ENDBLK
  5
24
100
AcDbEntity
  8
0
100
AcDbBlockEnd
  0
BLOCK
  5
21
100
AcDbEntity
 67
     1
  8
0
100
AcDbBlockBegin
  2
*PAPER_SPACE
 70
     0
 10
0.0
 20
0.0
 30
0.0
  3
*PAPER_SPACE
  1

  0
ENDBLK
  5
22
100
AcDbEntity
 67
     1
  8
0
100
AcDbBlockEnd
  0
BLOCK
  5
129
100
AcDbEntity
  8
0
100
AcDbBlockBegin
  2
PCON_10
 70
     0
 10
0.0
 20
0.0
 30
0.0
  3
PCON_10
  1

  0
LINE
  5
DE
100
AcDbEntity
  8
0
100
AcDbLine
 10
0.0
 20
1.991
 30
0.0
 11
0.0
 21
0.0
 31
0.0
  0
LINE
  5
DF
100
AcDbEntity
  8
0
100
AcDbLine
 10
-0.4895
 20
1.991
 30
0.0
 11
-0.4895
 21
0.0
 31
0.0
  0
LINE
  5
E0
100
AcDbEntity
  8
0
100
AcDbLine
 10
0.0
 20
0.0
 30
0.0
 11
-0.4895
 21
0.0
 31
0.0
  0
LINE
  5
E1
100
AcDbEntity
  8
0
100
AcDbLine
 10
0.0
 20
1.991
 30
0.0
 11
-0.4895
 21
1.991
 31
0.0
  0
LINE
  5
E2
100
AcDbEntity
  8
0
100
AcDbLine
 10
-0.4235
 20
1.991
 30
0.0
 11
-0.4235
 21
0.0
 31
0.0
  0
CIRCLE
  5
E3
100
AcDbEntity
  8
0
100
AcDbCircle
 10
-0.2605
 20
0.102
 30
0.0
 40
0.077
  0
CIRCLE
  5
E4
100
AcDbEntity
  8
0
100
AcDbCircle
 10
-0.2605
 20
0.102
 30
0.0
 40
0.075
  0
LINE
  5
E5
100
AcDbEntity
  8
0
100
AcDbLine
 10
-0.189789
 20
0.127
 30
0.0
 11
-0.331211
 21
0.127
 31
0.0
  0
LINE
  5
E6
100
AcDbEntity
  8
0
100
AcDbLine
 10
-0.189789
 20
0.077
 30
0.0
 11
-0.331211
 21
0.077
 31
0.0
  0
LINE
  5
E7
100
AcDbEntity
  8
0
100
AcDbLine
 10
-0.331211
 20
0.077
 30
0.0
 11
-0.331211
 21
0.127
 31
0.0
  0
LINE
  5
E8
100
AcDbEntity
  8
0
100
AcDbLine
 10
-0.189789
 20
0.127
 30
0.0
 11
-0.189789
 21
0.077
 31
0.0
  0
SOLID
  5
E9
100
AcDbEntity
  8
0
100
AcDbTrace
 10
-0.189789
 20
0.127
 30
0.0
 11
-0.331211
 21
0.127
 31
0.0
 12
-0.189789
 22
0.077
 32
0.0
 13
-0.331211
 23
0.077
 33
0.0
  0
SOLID
  5
EA
100
AcDbEntity
  8
0
100
AcDbTrace
 10
-0.189789
 20
0.324
 30
0.0
 11
-0.331211
 21
0.324
 31
0.0
 12
-0.189789
 22
0.274
 32
0.0
 13
-0.331211
 23
0.274
 33
0.0
  0
LINE
  5
EB
100
AcDbEntity
  8
0
100
AcDbLine
 10
-0.189789
 20
0.324
 30
0.0
 11
-0.189789
 21
0.274
 31
0.0
  0
LINE
  5
EC
100
AcDbEntity
  8
0
100
AcDbLine
 10
-0.331211
 20
0.274
 30
0.0
 11
-0.331211
 21
0.324
 31
0.0
  0
LINE
  5
ED
100
AcDbEntity
  8
0
100
AcDbLine
 10
-0.189789
 20
0.274
 30
0.0
 11
-0.331211
 21
0.274
 31
0.0
  0
LINE
  5
EE
100
AcDbEntity
  8
0
100
AcDbLine
 10
-0.189789
 20
0.324
 30
0.0
 11
-0.331211
 21
0.324
 31
0.0
  0
CIRCLE
  5
EF
100
AcDbEntity
  8
0
100
AcDbCircle
 10
-0.2605
 20
0.299
 30
0.0
 40
0.075
  0
CIRCLE
  5
F0
100
AcDbEntity
  8
0
100
AcDbCircle
 10
-0.2605
 20
0.299
 30
0.0
 40
0.077
  0
CIRCLE
  5
F1
100
AcDbEntity
  8
0
100
AcDbCircle
 10
-0.2605
 20
0.496
 30
0.0
 40
0.077
  0
CIRCLE
  5
F2
100
AcDbEntity
  8
0
100
AcDbCircle
 10
-0.2605
 20
0.496
 30
0.0
 40
0.075
  0
LINE
  5
F3
100
AcDbEntity
  8
0
100
AcDbLine
 10
-0.189789
 20
0.521
 30
0.0
 11
-0.331211
 21
0.521
 31
0.0
  0
LINE
  5
F4
100
AcDbEntity
  8
0
100
AcDbLine
 10
-0.189789
 20
0.471
 30
0.0
 11
-0.331211
 21
0.471
 31
0.0
  0
LINE
  5
F5
100
AcDbEntity
  8
0
100
AcDbLine
 10
-0.331211
 20
0.471
 30
0.0
 11
-0.331211
 21
0.521
 31
0.0
  0
LINE
  5
F6
100
AcDbEntity
  8
0
100
AcDbLine
 10
-0.189789
 20
0.521
 30
0.0
 11
-0.189789
 21
0.471
 31
0.0
  0
SOLID
  5
F7
100
AcDbEntity
  8
0
100
AcDbTrace
 10
-0.189789
 20
0.521
 30
0.0
 11
-0.331211
 21
0.521
 31
0.0
 12
-0.189789
 22
0.471
 32
0.0
 13
-0.331211
 23
0.471
 33
0.0
  0
SOLID
  5
F8
100
AcDbEntity
  8
0
100
AcDbTrace
 10
-0.189789
 20
1.119
 30
0.0
 11
-0.331211
 21
1.119
 31
0.0
 12
-0.189789
 22
1.069
 32
0.0
 13
-0.331211
 23
1.069
 33
0.0
  0
LINE
  5
F9
100
AcDbEntity
  8
0
100
AcDbLine
 10
-0.189789
 20
1.069
 30
0.0
 11
-0.331211
 21
1.069
 31
0.0
  0
LINE
  5
FA
100
AcDbEntity
  8
0
100
AcDbLine
 10
-0.189789
 20
1.119
 30
0.0
 11
-0.331211
 21
1.119
 31
0.0
  0
CIRCLE
  5
FB
100
AcDbEntity
  8
0
100
AcDbCircle
 10
-0.2605
 20
1.094
 30
0.0
 40
0.075
  0
CIRCLE
  5
FC
100
AcDbEntity
  8
0
100
AcDbCircle
 10
-0.2605
 20
1.094
 30
0.0
 40
0.077
  0
CIRCLE
  5
FD
100
AcDbEntity
  8
0
100
AcDbCircle
 10
-0.2605
 20
0.897
 30
0.0
 40
0.077
  0
CIRCLE
  5
FE
100
AcDbEntity
  8
0
100
AcDbCircle
 10
-0.2605
 20
0.897
 30
0.0
 40
0.075
  0
LINE
  5
FF
100
AcDbEntity
  8
0
100
AcDbLine
 10
-0.189789
 20
0.922
 30
0.0
 11
-0.331211
 21
0.922
 31
0.0
  0
LINE
  5
100
100
AcDbEntity
  8
0
100
AcDbLine
 10
-0.189789
 20
0.872
 30
0.0
 11
-0.331211
 21
0.872
 31
0.0
  0
SOLID
  5
101
100
AcDbEntity
  8
0
100
AcDbTrace
 10
-0.189789
 20
0.922
 30
0.0
 11
-0.331211
 21
0.922
 31
0.0
 12
-0.189789
 22
0.872
 32
0.0
 13
-0.331211
 23
0.872
 33
0.0
  0
SOLID
  5
102
100
AcDbEntity
  8
0
100
AcDbTrace
 10
-0.189789
 20
0.725
 30
0.0
 11
-0.331211
 21
0.725
 31
0.0
 12
-0.189789
 22
0.675
 32
0.0
 13
-0.331211
 23
0.675
 33
0.0
  0
LINE
  5
103
100
AcDbEntity
  8
0
100
AcDbLine
 10
-0.189789
 20
0.675
 30
0.0
 11
-0.331211
 21
0.675
 31
0.0
  0
LINE
  5
104
100
AcDbEntity
  8
0
100
AcDbLine
 10
-0.189789
 20
0.725
 30
0.0
 11
-0.331211
 21
0.725
 31
0.0
  0
CIRCLE
  5
105
100
AcDbEntity
  8
0
100
AcDbCircle
 10
-0.2605
 20
0.7
 30
0.0
 40
0.075
  0
CIRCLE
  5
106
100
AcDbEntity
  8
0
100
AcDbCircle
 10
-0.2605
 20
0.7
 30
0.0
 40
0.077
  0
LINE
  5
107
100
AcDbEntity
  8
0
100
AcDbLine
 10
-0.331211
 20
0.872
 30
0.0
 11
-0.331211
 21
0.922
 31
0.0
  0
LINE
  5
108
100
AcDbEntity
  8
0
100
AcDbLine
 10
-0.331211
 20
0.675
 30
0.0
 11
-0.331211
 21
0.725
 31
0.0
  0
LINE
  5
109
100
AcDbEntity
  8
0
100
AcDbLine
 10
-0.331211
 20
1.069
 30
0.0
 11
-0.331211
 21
1.119
 31
0.0
  0
LINE
  5
10A
100
AcDbEntity
  8
0
100
AcDbLine
 10
-0.189789
 20
0.922
 30
0.0
 11
-0.189789
 21
0.872
 31
0.0
  0
LINE
  5
10B
100
AcDbEntity
  8
0
100
AcDbLine
 10
-0.189789
 20
0.725
 30
0.0
 11
-0.189789
 21
0.675
 31
0.0
  0
LINE
  5
10C
100
AcDbEntity
  8
0
100
AcDbLine
 10
-0.189789
 20
1.119
 30
0.0
 11
-0.189789
 21
1.069
 31
0.0
  0
CIRCLE
  5
10D
100
AcDbEntity
  8
0
100
AcDbCircle
 10
-0.2605
 20
1.291
 30
0.0
 40
0.077
  0
CIRCLE
  5
10E
100
AcDbEntity
  8
0
100
AcDbCircle
 10
-0.2605
 20
1.291
 30
0.0
 40
0.075
  0
LINE
  5
10F
100
AcDbEntity
  8
0
100
AcDbLine
 10
-0.189789
 20
1.316
 30
0.0
 11
-0.331211
 21
1.316
 31
0.0
  0
LINE
  5
110
100
AcDbEntity
  8
0
100
AcDbLine
 10
-0.189789
 20
1.266
 30
0.0
 11
-0.331211
 21
1.266
 31
0.0
  0
SOLID
  5
111
100
AcDbEntity
  8
0
100
AcDbTrace
 10
-0.189789
 20
1.316
 30
0.0
 11
-0.331211
 21
1.316
 31
0.0
 12
-0.189789
 22
1.266
 32
0.0
 13
-0.331211
 23
1.266
 33
0.0
  0
LINE
  5
112
100
AcDbEntity
  8
0
100
AcDbLine
 10
-0.331211
 20
1.266
 30
0.0
 11
-0.331211
 21
1.316
 31
0.0
  0
LINE
  5
113
100
AcDbEntity
  8
0
100
AcDbLine
 10
-0.189789
 20
1.316
 30
0.0
 11
-0.189789
 21
1.266
 31
0.0
  0
SOLID
  5
114
100
AcDbEntity
  8
0
100
AcDbTrace
 10
-0.189789
 20
1.914
 30
0.0
 11
-0.331211
 21
1.914
 31
0.0
 12
-0.189789
 22
1.864
 32
0.0
 13
-0.331211
 23
1.864
 33
0.0
  0
LINE
  5
115
100
AcDbEntity
  8
0
100
AcDbLine
 10
-0.189789
 20
1.864
 30
0.0
 11
-0.331211
 21
1.864
 31
0.0
  0
LINE
  5
116
100
AcDbEntity
  8
0
100
AcDbLine
 10
-0.189789
 20
1.914
 30
0.0
 11
-0.331211
 21
1.914
 31
0.0
  0
CIRCLE
  5
117
100
AcDbEntity
  8
0
100
AcDbCircle
 10
-0.2605
 20
1.889
 30
0.0
 40
0.075
  0
CIRCLE
  5
118
100
AcDbEntity
  8
0
100
AcDbCircle
 10
-0.2605
 20
1.889
 30
0.0
 40
0.077
  0
SOLID
  5
119
100
AcDbEntity
  8
0
100
AcDbTrace
 10
-0.189789
 20
1.52
 30
0.0
 11
-0.331211
 21
1.52
 31
0.0
 12
-0.189789
 22
1.47
 32
0.0
 13
-0.331211
 23
1.47
 33
0.0
  0
LINE
  5
11A
100
AcDbEntity
  8
0
100
AcDbLine
 10
-0.189789
 20
1.47
 30
0.0
 11
-0.331211
 21
1.47
 31
0.0
  0
LINE
  5
11B
100
AcDbEntity
  8
0
100
AcDbLine
 10
-0.189789
 20
1.52
 30
0.0
 11
-0.331211
 21
1.52
 31
0.0
  0
CIRCLE
  5
11C
100
AcDbEntity
  8
0
100
AcDbCircle
 10
-0.2605
 20
1.495
 30
0.0
 40
0.075
  0
CIRCLE
  5
11D
100
AcDbEntity
  8
0
100
AcDbCircle
 10
-0.2605
 20
1.495
 30
0.0
 40
0.077
  0
CIRCLE
  5
11E
100
AcDbEntity
  8
0
100
AcDbCircle
 10
-0.2605
 20
1.692
 30
0.0
 40
0.077
  0
CIRCLE
  5
11F
100
AcDbEntity
  8
0
100
AcDbCircle
 10
-0.2605
 20
1.692
 30
0.0
 40
0.075
  0
LINE
  5
120
100
AcDbEntity
  8
0
100
AcDbLine
 10
-0.189789
 20
1.717
 30
0.0
 11
-0.331211
 21
1.717
 31
0.0
  0
LINE
  5
121
100
AcDbEntity
  8
0
100
AcDbLine
 10
-0.189789
 20
1.667
 30
0.0
 11
-0.331211
 21
1.667
 31
0.0
  0
SOLID
  5
122
100
AcDbEntity
  8
0
100
AcDbTrace
 10
-0.189789
 20
1.717
 30
0.0
 11
-0.331211
 21
1.717
 31
0.0
 12
-0.189789
 22
1.667
 32
0.0
 13
-0.331211
 23
1.667
 33
0.0
  0
LINE
  5
123
100
AcDbEntity
  8
0
100
AcDbLine
 10
-0.331211
 20
1.47
 30
0.0
 11
-0.331211
 21
1.52
 31
0.0
  0
LINE
  5
124
100
AcDbEntity
  8
0
100
AcDbLine
 10
-0.331211
 20
1.667
 30
0.0
 11
-0.331211
 21
1.717
 31
0.0
  0
LINE
  5
125
100
AcDbEntity
  8
0
100
AcDbLine
 10
-0.331211
 20
1.864
 30
0.0
 11
-0.331211
 21
1.914
 31
0.0
  0
LINE
  5
126
100
AcDbEntity
  8
0
100
AcDbLine
 10
-0.189789
 20
1.52
 30
0.0
 11
-0.189789
 21
1.47
 31
0.0
  0
LINE
  5
127
100
AcDbEntity
  8
0
100
AcDbLine
 10
-0.189789
 20
1.717
 30
0.0
 11
-0.189789
 21
1.667
 31
0.0
  0
LINE
  5
128
100
AcDbEntity
  8
0
100
AcDbLine
 10
-0.189789
 20
1.914
 30
0.0
 11
-0.189789
 21
1.864
 31
0.0
  0
ENDBLK
  5
12A
100
AcDbEntity
  8
0
100
AcDbBlockEnd
  0
BLOCK
  5
150
100
AcDbEntity
  8
0
100
AcDbBlockBegin
  2
9_PIN_D
 70
     0
 10
0.0
 20
0.0
 30
0.0
  3
9_PIN_D
  1

  0
LINE
  5
135
100
AcDbEntity
  8
0
100
AcDbLine
 10
-0.245
 20
0.54575
 30
0.0
 11
-0.245
 21
-0.54575
 31
0.0
  0
LINE
  5
136
100
AcDbEntity
  8
0
100
AcDbLine
 10
0.245
 20
0.54575
 30
0.0
 11
0.245
 21
-0.54575
 31
0.0
  0
LINE
  5
137
100
AcDbEntity
  8
0
100
AcDbLine
 10
0.1825
 20
-0.60825
 30
0.0
 11
-0.1825
 21
-0.60825
 31
0.0
  0
LINE
  5
138
100
AcDbEntity
  8
0
100
AcDbLine
 10
0.1825
 20
0.60825
 30
0.0
 11
-0.1825
 21
0.60825
 31
0.0
  0
CIRCLE
  5
139
100
AcDbEntity
  8
0
100
AcDbCircle
 10
0.0
 20
0.5
 30
0.0
 40
0.0585
  0
CIRCLE
  5
13A
100
AcDbEntity
  8
0
100
AcDbCircle
 10
0.0
 20
-0.5
 30
0.0
 40
0.0585
  0
LINE
  5
13B
100
AcDbEntity
  8
0
100
AcDbLine
 10
0.18175
 20
0.270844
 30
0.0
 11
0.18175
 21
-0.270844
 31
0.0
  0
LINE
  5
13C
100
AcDbEntity
  8
0
100
AcDbLine
 10
-0.18175
 20
0.283967
 30
0.0
 11
-0.18175
 21
-0.283967
 31
0.0
  0
LINE
  5
13D
100
AcDbEntity
  8
0
100
AcDbLine
 10
-0.115816
 20
0.346372
 30
0.0
 11
0.122684
 21
0.33325
 31
0.0
  0
ARC
  5
13E
100
AcDbEntity
  8
0
100
AcDbCircle
 10
0.11925
 20
0.270844
 30
0.0
 40
0.0625
100
AcDbArc
 50
0.0
 51
86.850725
  0
ARC
  5
13F
100
AcDbEntity
  8
0
100
AcDbCircle
 10
-0.11925
 20
0.283967
 30
0.0
 40
0.0625
100
AcDbArc
 50
86.850725
 51
180.0
  0
LINE
  5
140
100
AcDbEntity
  8
0
100
AcDbLine
 10
-0.115816
 20
-0.346372
 30
0.0
 11
0.122684
 21
-0.33325
 31
0.0
  0
ARC
  5
141
100
AcDbEntity
  8
0
100
AcDbCircle
 10
-0.11925
 20
-0.283967
 30
0.0
 40
0.0625
100
AcDbArc
 50
180.0
 51
273.149275
  0
ARC
  5
142
100
AcDbEntity
  8
0
100
AcDbCircle
 10
0.11925
 20
-0.270844
 30
0.0
 40
0.0625
100
AcDbArc
 50
273.149275
 51
360.0
  0
ARC
  5
143
100
AcDbEntity
  8
0
100
AcDbCircle
 10
0.1825
 20
0.54575
 30
0.0
 40
0.0625
100
AcDbArc
 50
0.0
 51
90.0
  0
ARC
  5
144
100
AcDbEntity
  8
0
100
AcDbCircle
 10
-0.1825
 20
0.54575
 30
0.0
 40
0.0625
100
AcDbArc
 50
90.0
 51
180.0
  0
ARC
  5
145
100
AcDbEntity
  8
0
100
AcDbCircle
 10
-0.1825
 20
-0.54575
 30
0.0
 40
0.0625
100
AcDbArc
 50
180.0
 51
270.0
  0
ARC
  5
146
100
AcDbEntity
  8
0
100
AcDbCircle
 10
0.1825
 20
-0.54575
 30
0.0
 40
0.0625
100
AcDbArc
 50
270.0
 51
0.0
  0
CIRCLE
  5
147
100
AcDbEntity
  8
0
100
AcDbCircle
 10
-0.0645
 20
0.0
 30
0.0
 40
0.0185
  0
CIRCLE
  5
148
100
AcDbEntity
  8
0
100
AcDbCircle
 10
-0.0645
 20
0.1
 30
0.0
 40
0.0185
  0
CIRCLE
  5
149
100
AcDbEntity
  8
0
100
AcDbCircle
 10
-0.0645
 20
0.2
 30
0.0
 40
0.0185
  0
CIRCLE
  5
14A
100
AcDbEntity
  8
0
100
AcDbCircle
 10
-0.0645
 20
-0.2
 30
0.0
 40
0.0185
  0
CIRCLE
  5
14B
100
AcDbEntity
  8
0
100
AcDbCircle
 10
-0.0645
 20
-0.1
 30
0.0
 40
0.0185
  0
CIRCLE
  5
14C
100
AcDbEntity
  8
0
100
AcDbCircle
 10
0.0645
 20
-0.05
 30
0.0
 40
0.0185
  0
CIRCLE
  5
14D
100
AcDbEntity
  8
0
100
AcDbCircle
 10
0.0645
 20
-0.15
 30
0.0
 40
0.0185
  0
CIRCLE
  5
14E
100
AcDbEntity
  8
0
100
AcDbCircle
 10
0.0645
 20
0.05
 30
0.0
 40
0.0185
  0
CIRCLE
  5
14F
100
AcDbEntity
  8
0
100
AcDbCircle
 10
0.0645
 20
0.15
 30
0.0
 40
0.0185
  0
ENDBLK
  5
151
100
AcDbEntity
  8
0
100
AcDbBlockEnd
  0
BLOCK
  5
17A
100
AcDbEntity
  8
0
100
AcDbBlockBegin
  2
PIC_PCON
 70
     0
 10
0.0
 20
0.0
 30
0.0
  3
PIC_PCON
  1

  0
LINE
  5
160
100
AcDbEntity
  8
0
100
AcDbLine
 10
0.0
 20
0.598
 30
0.0
 11
0.0
 21
0.0
 31
0.0
  0
LINE
  5
161
100
AcDbEntity
  8
0
100
AcDbLine
 10
-0.4895
 20
0.598
 30
0.0
 11
-0.4895
 21
0.0
 31
0.0
  0
LINE
  5
162
100
AcDbEntity
  8
0
100
AcDbLine
 10
0.0
 20
0.0
 30
0.0
 11
-0.4895
 21
0.0
 31
0.0
  0
LINE
  5
163
100
AcDbEntity
  8
0
100
AcDbLine
 10
0.0
 20
0.598
 30
0.0
 11
-0.4895
 21
0.598
 31
0.0
  0
LINE
  5
164
100
AcDbEntity
  8
0
100
AcDbLine
 10
-0.4235
 20
0.598
 30
0.0
 11
-0.4235
 21
0.0
 31
0.0
  0
CIRCLE
  5
165
100
AcDbEntity
  8
0
100
AcDbCircle
 10
-0.2605
 20
0.102
 30
0.0
 40
0.077
  0
CIRCLE
  5
166
100
AcDbEntity
  8
0
100
AcDbCircle
 10
-0.2605
 20
0.102
 30
0.0
 40
0.075
  0
LINE
  5
167
100
AcDbEntity
  8
0
100
AcDbLine
 10
-0.189789
 20
0.127
 30
0.0
 11
-0.331211
 21
0.127
 31
0.0
  0
LINE
  5
168
100
AcDbEntity
  8
0
100
AcDbLine
 10
-0.189789
 20
0.077
 30
0.0
 11
-0.331211
 21
0.077
 31
0.0
  0
LINE
  5
169
100
AcDbEntity
  8
0
100
AcDbLine
 10
-0.331211
 20
0.077
 30
0.0
 11
-0.331211
 21
0.127
 31
0.0
  0
LINE
  5
16A
100
AcDbEntity
  8
0
100
AcDbLine
 10
-0.189789
 20
0.127
 30
0.0
 11
-0.189789
 21
0.077
 31
0.0
  0
SOLID
  5
16B
100
AcDbEntity
  8
0
100
AcDbTrace
 10
-0.189789
 20
0.127
 30
0.0
 11
-0.331211
 21
0.127
 31
0.0
 12
-0.189789
 22
0.077
 32
0.0
 13
-0.331211
 23
0.077
 33
0.0
  0
SOLID
  5
16C
100
AcDbEntity
  8
0
100
AcDbTrace
 10
-0.189789
 20
0.324
 30
0.0
 11
-0.331211
 21
0.324
 31
0.0
 12
-0.189789
 22
0.274
 32
0.0
 13
-0.331211
 23
0.274
 33
0.0
  0
LINE
  5
16D
100
AcDbEntity
  8
0
100
AcDbLine
 10
-0.189789
 20
0.324
 30
0.0
 11
-0.189789
 21
0.274
 31
0.0
  0
LINE
  5
16E
100
AcDbEntity
  8
0
100
AcDbLine
 10
-0.331211
 20
0.274
 30
0.0
 11
-0.331211
 21
0.324
 31
0.0
  0
LINE
  5
16F
100
AcDbEntity
  8
0
100
AcDbLine
 10
-0.189789
 20
0.274
 30
0.0
 11
-0.331211
 21
0.274
 31
0.0
  0
LINE
  5
170
100
AcDbEntity
  8
0
100
AcDbLine
 10
-0.189789
 20
0.324
 30
0.0
 11
-0.331211
 21
0.324
 31
0.0
  0
CIRCLE
  5
171
100
AcDbEntity
  8
0
100
AcDbCircle
 10
-0.2605
 20
0.299
 30
0.0
 40
0.075
  0
CIRCLE
  5
172
100
AcDbEntity
  8
0
100
AcDbCircle
 10
-0.2605
 20
0.299
 30
0.0
 40
0.077
  0
CIRCLE
  5
173
100
AcDbEntity
  8
0
100
AcDbCircle
 10
-0.2605
 20
0.496
 30
0.0
 40
0.077
  0
CIRCLE
  5
174
100
AcDbEntity
  8
0
100
AcDbCircle
 10
-0.2605
 20
0.496
 30
0.0
 40
0.075
  0
LINE
  5
175
100
AcDbEntity
  8
0
100
AcDbLine
 10
-0.189789
 20
0.521
 30
0.0
 11
-0.331211
 21
0.521
 31
0.0
  0
LINE
  5
176
100
AcDbEntity
  8
0
100
AcDbLine
 10
-0.189789
 20
0.471
 30
0.0
 11
-0.331211
 21
0.471
 31
0.0
  0
LINE
  5
177
100
AcDbEntity
  8
0
100
AcDbLine
 10
-0.331211
 20
0.471
 30
0.0
 11
-0.331211
 21
0.521
 31
0.0
  0
LINE
  5
178
100
AcDbEntity
  8
0
100
AcDbLine
 10
-0.189789
 20
0.521
 30
0.0
 11
-0.189789
 21
0.471
 31
0.0
  0
SOLID
  5
179
100
AcDbEntity
  8
0
100
AcDbTrace
 10
-0.189789
 20
0.521
 30
0.0
 11
-0.331211
 21
0.521
 31
0.0
 12
-0.189789
 22
0.471
 32
0.0
 13
-0.331211
 23
0.471
 33
0.0
  0
ENDBLK
  5
17B
100
AcDbEntity
  8
0
100
AcDbBlockEnd
  0
BLOCK
  5
2A1
100
AcDbEntity
  8
0
100
AcDbBlockBegin
  2
PCON_2
 70
     0
 10
0.0
 20
0.0
 30
0.0
  3
PCON_2
  1

  0
LINE
  5
28E
100
AcDbEntity
  8
0
100
AcDbLine
 10
0.0
 20
0.401
 30
0.0
 11
0.0
 21
0.0
 31
0.0
  0
LINE
  5
28F
100
AcDbEntity
  8
0
100
AcDbLine
 10
-0.4895
 20
0.401
 30
0.0
 11
-0.4895
 21
0.0
 31
0.0
  0
LINE
  5
290
100
AcDbEntity
  8
0
100
AcDbLine
 10
0.0
 20
0.0
 30
0.0
 11
-0.4895
 21
0.0
 31
0.0
  0
LINE
  5
291
100
AcDbEntity
  8
0
100
AcDbLine
 10
0.0
 20
0.401
 30
0.0
 11
-0.4895
 21
0.401
 31
0.0
  0
LINE
  5
292
100
AcDbEntity
  8
0
100
AcDbLine
 10
-0.4235
 20
0.401
 30
0.0
 11
-0.4235
 21
0.0
 31
0.0
  0
CIRCLE
  5
293
100
AcDbEntity
  8
0
100
AcDbCircle
 10
-0.2605
 20
0.102
 30
0.0
 40
0.077
  0
CIRCLE
  5
294
100
AcDbEntity
  8
0
100
AcDbCircle
 10
-0.2605
 20
0.102
 30
0.0
 40
0.075
  0
LINE
  5
295
100
AcDbEntity
  8
0
100
AcDbLine
 10
-0.189789
 20
0.127
 30
0.0
 11
-0.331211
 21
0.127
 31
0.0
  0
LINE
  5
296
100
AcDbEntity
  8
0
100
AcDbLine
 10
-0.189789
 20
0.077
 30
0.0
 11
-0.331211
 21
0.077
 31
0.0
  0
LINE
  5
297
100
AcDbEntity
  8
0
100
AcDbLine
 10
-0.331211
 20
0.077
 30
0.0
 11
-0.331211
 21
0.127
 31
0.0
  0
LINE
  5
298
100
AcDbEntity
  8
0
100
AcDbLine
 10
-0.189789
 20
0.127
 30
0.0
 11
-0.189789
 21
0.077
 31
0.0
  0
SOLID
  5
299
100
AcDbEntity
  8
0
100
AcDbTrace
 10
-0.189789
 20
0.127
 30
0.0
 11
-0.331211
 21
0.127
 31
0.0
 12
-0.189789
 22
0.077
 32
0.0
 13
-0.331211
 23
0.077
 33
0.0
  0
SOLID
  5
29A
100
AcDbEntity
  8
0
100
AcDbTrace
 10
-0.189789
 20
0.324
 30
0.0
 11
-0.331211
 21
0.324
 31
0.0
 12
-0.189789
 22
0.274
 32
0.0
 13
-0.331211
 23
0.274
 33
0.0
  0
LINE
  5
29B
100
AcDbEntity
  8
0
100
AcDbLine
 10
-0.189789
 20
0.324
 30
0.0
 11
-0.189789
 21
0.274
 31
0.0
  0
LINE
  5
29C
100
AcDbEntity
  8
0
100
AcDbLine
 10
-0.331211
 20
0.274
 30
0.0
 11
-0.331211
 21
0.324
 31
0.0
  0
LINE
  5
29D
100
AcDbEntity
  8
0
100
AcDbLine
 10
-0.189789
 20
0.274
 30
0.0
 11
-0.331211
 21
0.274
 31
0.0
  0
LINE
  5
29E
100
AcDbEntity
  8
0
100
AcDbLine
 10
-0.189789
 20
0.324
 30
0.0
 11
-0.331211
 21
0.324
 31
0.0
  0
CIRCLE
  5
29F
100
AcDbEntity
  8
0
100
AcDbCircle
 10
-0.2605
 20
0.299
 30
0.0
 40
0.075
  0
CIRCLE
  5
2A0
100
AcDbEntity
  8
0
100
AcDbCircle
 10
-0.2605
 20
0.299
 30
0.0
 40
0.077
  0
ENDBLK
  5
2A2
100
AcDbEntity
  8
0
100
AcDbBlockEnd
  0
ENDSEC
  0
SECTION
  2
ENTITIES
  0
INSERT
  5
12B
100
AcDbEntity
  8
0
100
AcDbBlockReference
  2
PCON_10
 10
0.96975
 20
1.8206
 30
0.0
  0
INSERT
  5
152
100
AcDbEntity
  8
0
100
AcDbBlockReference
  2
9_PIN_D
 10
0.72475
 20
4.86085
 30
0.0
  0
LINE
  5
1F4
100
AcDbEntity
  8
0
100
AcDbLine
 10
-1.15875
 20
1.1766
 30
0.0
 11
1.15875
 21
1.1766
 31
0.0
  0
LINE
  5
1F5
100
AcDbEntity
  8
0
100
AcDbLine
 10
-1.15875
 20
10.9766
 30
0.0
 11
1.15875
 21
10.9766
 31
0.0
  0
LINE
  5
1F6
100
AcDbEntity
  8
0
100
AcDbLine
 10
-1.19
 20
10.94535
 30
0.0
 11
-1.19
 21
1.20785
 31
0.0
  0
LINE
  5
1F7
100
AcDbEntity
  8
0
100
AcDbLine
 10
1.19
 20
10.94535
 30
0.0
 11
1.19
 21
1.20785
 31
0.0
  0
LINE
  5
1F8
100
AcDbEntity
  8
0
100
AcDbLine
 10
-0.27875
 20
1.3016
 30
0.0
 11
1.19
 21
1.3016
 31
0.0
  0
LINE
  5
1F9
100
AcDbEntity
  8
0
100
AcDbLine
 10
-1.19
 20
7.1316
 30
0.0
 11
1.19
 21
7.1316
 31
0.0
  0
LINE
  5
1FA
100
AcDbEntity
  8
0
100
AcDbLine
 10
-1.19
 20
7.2116
 30
0.0
 11
1.19
 21
7.2116
 31
0.0
  0
LINE
  5
1FB
100
AcDbEntity
  8
0
100
AcDbLine
 10
-1.1085
 20
7.5966
 30
0.0
 11
1.08
 21
7.5966
 31
0.0
  0
LINE
  5
1FC
100
AcDbEntity
  8
0
100
AcDbLine
 10
-1.1085
 20
7.6636
 30
0.0
 11
1.01
 21
7.6636
 31
0.0
  0
LINE
  5
1FE
100
AcDbEntity
  8
0
100
AcDbLine
 10
-1.1085
 20
10.5226
 30
0.0
 11
1.01
 21
10.5226
 31
0.0
  0
LINE
  5
1FF
100
AcDbEntity
  8
0
100
AcDbLine
 10
-0.709
 20
10.3726
 30
0.0
 11
0.6445
 21
10.3726
 31
0.0
  0
LINE
  5
200
100
AcDbEntity
  8
0
100
AcDbLine
 10
-0.709
 20
10.3126
 30
0.0
 11
0.6445
 21
10.3126
 31
0.0
  0
LINE
  5
201
100
AcDbEntity
  8
0
100
AcDbLine
 10
-0.709
 20
10.3526
 30
0.0
 11
0.6445
 21
10.3526
 31
0.0
  0
TEXT
  5
202
100
AcDbEntity
  8
TEXT
100
AcDbText
 10
-1.0785
 20
10.5526
 30
0.0
 40
0.1
  1
CSM/CPU
100
AcDbText
  0
LINE
  5
203
100
AcDbEntity
  8
0
100
AcDbLine
 10
0.86
 20
10.2826
 30
0.0
 11
0.86
 21
10.1326
 31
0.0
  0
LINE
  5
204
100
AcDbEntity
  8
0
100
AcDbLine
 10
0.71
 20
10.2826
 30
0.0
 11
0.86
 21
10.2826
 31
0.0
  0
LINE
  5
205
100
AcDbEntity
  8
0
100
AcDbLine
 10
0.71
 20
10.1326
 30
0.0
 11
0.86
 21
10.1326
 31
0.0
  0
LINE
  5
206
100
AcDbEntity
  8
0
100
AcDbLine
 10
0.71
 20
10.2826
 30
0.0
 11
0.71
 21
10.1326
 31
0.0
  0
TEXT
  5
207
100
AcDbEntity
  8
TEXT
100
AcDbText
 10
0.326667
 20
10.1576
 30
0.0
 40
0.1
  1
DIAG
 72
     2
 11
0.66
 21
10.1576
 31
0.0
100
AcDbText
  0
SOLID
  5
208
100
AcDbEntity
  8
0
100
AcDbTrace
 10
0.71
 20
10.2826
 30
0.0
 11
0.86
 21
10.2826
 31
0.0
 12
0.71
 22
10.1326
 32
0.0
 13
0.86
 23
10.1326
 33
0.0
  0
LINE
  5
209
100
AcDbEntity
  8
0
100
AcDbLine
 10
-0.45875
 20
11.85
 30
0.0
 11
0.45875
 21
11.85
 31
0.0
  0
LINE
  5
20A
100
AcDbEntity
  8
0
100
AcDbLine
 10
-0.49
 20
11.5725
 30
0.0
 11
0.49
 21
11.5725
 31
0.0
  0
LINE
  5
20B
100
AcDbEntity
  8
0
100
AcDbLine
 10
0.49
 20
11.81875
 30
0.0
 11
0.49
 21
10.9766
 31
0.0
  0
LINE
  5
20C
100
AcDbEntity
  8
0
100
AcDbLine
 10
-0.49
 20
11.81875
 30
0.0
 11
-0.49
 21
10.9766
 31
0.0
  0
LINE
  5
20D
100
AcDbEntity
  8
0
100
AcDbLine
 10
0.0625
 20
11.5725
 30
0.0
 11
0.0625
 21
11.48125
 31
0.0
  0
LINE
  5
20E
100
AcDbEntity
  8
0
100
AcDbLine
 10
-0.0625
 20
11.5725
 30
0.0
 11
-0.0625
 21
11.48125
 31
0.0
  0
LINE
  5
20F
100
AcDbEntity
  8
0
100
AcDbLine
 10
-0.03125
 20
11.45
 30
0.0
 11
0.03125
 21
11.45
 31
0.0
  0
ARC
  5
210
100
AcDbEntity
  8
0
100
AcDbCircle
 10
0.45875
 20
11.81875
 30
0.0
 40
0.03125
100
AcDbArc
 50
0.0
 51
90.0
  0
ARC
  5
211
100
AcDbEntity
  8
0
100
AcDbCircle
 10
-0.45875
 20
11.81875
 30
0.0
 40
0.03125
100
AcDbArc
 50
90.0
 51
180.0
  0
ARC
  5
212
100
AcDbEntity
  8
0
100
AcDbCircle
 10
-1.15875
 20
10.94535
 30
0.0
 40
0.03125
100
AcDbArc
 50
90.0
 51
180.0
  0
ARC
  5
213
100
AcDbEntity
  8
0
100
AcDbCircle
 10
1.15875
 20
10.94535
 30
0.0
 40
0.03125
100
AcDbArc
 50
0.0
 51
90.0
  0
ARC
  5
214
100
AcDbEntity
  8
0
100
AcDbCircle
 10
0.03125
 20
11.48125
 30
0.0
 40
0.03125
100
AcDbArc
 50
270.0
 51
360.0
  0
ARC
  5
215
100
AcDbEntity
  8
0
100
AcDbCircle
 10
-0.03125
 20
11.48125
 30
0.0
 40
0.03125
100
AcDbArc
 50
180.0
 51
270.0
  0
ARC
  5
216
100
AcDbEntity
  8
0
100
AcDbCircle
 10
-1.15875
 20
1.20785
 30
0.0
 40
0.03125
100
AcDbArc
 50
180.0
 51
270.0
  0
ARC
  5
217
100
AcDbEntity
  8
0
100
AcDbCircle
 10
1.15875
 20
1.20785
 30
0.0
 40
0.03125
100
AcDbArc
 50
270.0
 51
0.0
  0
ARC
  5
218
100
AcDbEntity
  8
0
100
AcDbCircle
 10
-0.27875
 20
1.33285
 30
0.0
 40
0.03125
100
AcDbArc
 50
180.0
 51
270.0
  0
LINE
  5
219
100
AcDbEntity
  8
0
100
AcDbLine
 10
-0.45875
 20
0.0
 30
0.0
 11
0.45875
 21
0.0
 31
0.0
  0
LINE
  5
21A
100
AcDbEntity
  8
0
100
AcDbLine
 10
-0.0625
 20
1.1766
 30
0.0
 11
-0.0625
 21
0.6
 31
0.0
  0
LINE
  5
21B
100
AcDbEntity
  8
0
100
AcDbLine
 10
0.0625
 20
1.1766
 30
0.0
 11
0.0625
 21
0.6
 31
0.0
  0
LINE
  5
21C
100
AcDbEntity
  8
0
100
AcDbLine
 10
0.49
 20
1.1766
 30
0.0
 11
0.49
 21
0.03125
 31
0.0
  0
LINE
  5
21D
100
AcDbEntity
  8
0
100
AcDbLine
 10
-0.49
 20
1.1766
 30
0.0
 11
-0.49
 21
0.03125
 31
0.0
  0
LINE
  5
21E
100
AcDbEntity
  8
0
100
AcDbLine
 10
-0.49
 20
0.35
 30
0.0
 11
0.49
 21
0.35
 31
0.0
  0
ARC
  5
21F
100
AcDbEntity
  8
0
100
AcDbCircle
 10
0.45875
 20
0.03125
 30
0.0
 40
0.03125
100
AcDbArc
 50
270.0
 51
0.0
  0
ARC
  5
220
100
AcDbEntity
  8
0
100
AcDbCircle
 10
-0.45875
 20
0.03125
 30
0.0
 40
0.03125
100
AcDbArc
 50
180.0
 51
270.0
  0
LINE
  5
221
100
AcDbEntity
  8
0
100
AcDbLine
 10
-0.0625
 20
0.6
 30
0.0
 11
0.0625
 21
0.6
 31
0.0
  0
TEXT
  5
222
100
AcDbEntity
  8
TEXT
100
AcDbText
 10
0.236667
 20
1.4516
 30
0.0
 40
0.05
  1
90CPU.DWG
 72
     2
 11
0.645
 21
1.4516
 31
0.0
100
AcDbText
  0
LINE
  5
223
100
AcDbEntity
  8
0
100
AcDbLine
 10
-1.1085
 20
10.8846
 30
0.0
 11
-1.1085
 21
7.2116
 31
0.0
  0
LINE
  5
224
100
AcDbEntity
  8
0
100
AcDbLine
 10
1.01
 20
10.3726
 30
0.0
 11
-1.1085
 21
10.3726
 31
0.0
  0
LINE
  5
225
100
AcDbEntity
  8
0
100
AcDbLine
 10
1.01
 20
10.3126
 30
0.0
 11
-1.1085
 21
10.3126
 31
0.0
  0
LINE
  5
226
100
AcDbEntity
  8
0
100
AcDbLine
 10
1.01
 20
10.3526
 30
0.0
 11
-1.1085
 21
10.3526
 31
0.0
  0
LINE
  5
227
100
AcDbEntity
  8
0
100
AcDbLine
 10
1.08
 20
10.7766
 30
0.0
 11
1.08
 21
7.5966
 31
0.0
  0
LINE
  5
228
100
AcDbEntity
  8
0
100
AcDbLine
 10
1.01
 20
10.7066
 30
0.0
 11
1.01
 21
7.6636
 31
0.0
  0
LINE
  5
229
100
AcDbEntity
  8
0
100
AcDbLine
 10
1.19
 20
10.912378
 30
0.0
 11
-1.1085
 21
10.8846
 31
0.0
  0
LINE
  5
22A
100
AcDbEntity
  8
0
100
AcDbLine
 10
-1.1085
 20
10.7766
 30
0.0
 11
1.08
 21
10.7766
 31
0.0
  0
LINE
  5
22B
100
AcDbEntity
  8
0
100
AcDbLine
 10
-1.1085
 20
10.7066
 30
0.0
 11
1.01
 21
10.7066
 31
0.0
  0
TEXT
  5
22C
100
AcDbEntity
  8
TEXT
100
AcDbText
 10
0.36
 20
9.9076
 30
0.0
 40
0.1
  1
PWR
 72
     2
 11
0.66
 21
9.9076
 31
0.0
100
AcDbText
  0
LINE
  5
22D
100
AcDbEntity
  8
0
100
AcDbLine
 10
0.71
 20
10.0326
 30
0.0
 11
0.86
 21
10.0326
 31
0.0
  0
LINE
  5
22E
100
AcDbEntity
  8
0
100
AcDbLine
 10
0.71
 20
9.8826
 30
0.0
 11
0.86
 21
9.8826
 31
0.0
  0
SOLID
  5
22F
100
AcDbEntity
  8
0
100
AcDbTrace
 10
0.71
 20
10.0326
 30
0.0
 11
0.86
 21
10.0326
 31
0.0
 12
0.71
 22
9.8826
 32
0.0
 13
0.86
 23
9.8826
 33
0.0
  0
LINE
  5
230
100
AcDbEntity
  8
0
100
AcDbLine
 10
0.71
 20
10.0326
 30
0.0
 11
0.71
 21
9.8826
 31
0.0
  0
LINE
  5
231
100
AcDbEntity
  8
0
100
AcDbLine
 10
0.86
 20
10.0326
 30
0.0
 11
0.86
 21
9.8826
 31
0.0
  0
TEXT
  5
232
100
AcDbEntity
  8
TEXT
100
AcDbText
 10
0.293333
 20
9.6576
 30
0.0
 40
0.1
  1
SCAN
 72
     2
 11
0.66
 21
9.6576
 31
0.0
100
AcDbText
  0
SOLID
  5
233
100
AcDbEntity
  8
0
100
AcDbTrace
 10
0.71
 20
9.7826
 30
0.0
 11
0.86
 21
9.7826
 31
0.0
 12
0.71
 22
9.6326
 32
0.0
 13
0.86
 23
9.6326
 33
0.0
  0
LINE
  5
234
100
AcDbEntity
  8
0
100
AcDbLine
 10
0.71
 20
9.6326
 30
0.0
 11
0.86
 21
9.6326
 31
0.0
  0
LINE
  5
235
100
AcDbEntity
  8
0
100
AcDbLine
 10
0.71
 20
9.7826
 30
0.0
 11
0.86
 21
9.7826
 31
0.0
  0
LINE
  5
236
100
AcDbEntity
  8
0
100
AcDbLine
 10
0.71
 20
9.7826
 30
0.0
 11
0.71
 21
9.6326
 31
0.0
  0
LINE
  5
237
100
AcDbEntity
  8
0
100
AcDbLine
 10
0.86
 20
9.7826
 30
0.0
 11
0.86
 21
9.6326
 31
0.0
  0
TEXT
  5
238
100
AcDbEntity
  8
TEXT
100
AcDbText
 10
0.293333
 20
9.4076
 30
0.0
 40
0.1
  1
BATT
 72
     2
 11
0.66
 21
9.4076
 31
0.0
100
AcDbText
  0
LINE
  5
239
100
AcDbEntity
  8
0
100
AcDbLine
 10
0.71
 20
9.5326
 30
0.0
 11
0.86
 21
9.5326
 31
0.0
  0
LINE
  5
23A
100
AcDbEntity
  8
0
100
AcDbLine
 10
0.71
 20
9.3826
 30
0.0
 11
0.86
 21
9.3826
 31
0.0
  0
SOLID
  5
23B
100
AcDbEntity
  8
0
100
AcDbTrace
 10
0.71
 20
9.5326
 30
0.0
 11
0.86
 21
9.5326
 31
0.0
 12
0.71
 22
9.3826
 32
0.0
 13
0.86
 23
9.3826
 33
0.0
  0
LINE
  5
23C
100
AcDbEntity
  8
0
100
AcDbLine
 10
0.71
 20
9.5326
 30
0.0
 11
0.71
 21
9.3826
 31
0.0
  0
LINE
  5
23D
100
AcDbEntity
  8
0
100
AcDbLine
 10
0.86
 20
9.5326
 30
0.0
 11
0.86
 21
9.3826
 31
0.0
  0
SOLID
  5
23E
100
AcDbEntity
  8
0
100
AcDbTrace
 10
1.01
 20
10.3526
 30
0.0
 11
-1.1085
 21
10.3526
 31
0.0
 12
1.01
 22
10.3126
 32
0.0
 13
-1.1085
 23
10.3126
 33
0.0
  0
SOLID
  5
23F
100
AcDbEntity
  8
0
100
AcDbTrace
 10
1.01
 20
10.5226
 30
0.0
 11
-1.1085
 21
10.5226
 31
0.0
 12
1.01
 22
10.3726
 32
0.0
 13
-1.1085
 23
10.3726
 33
0.0
  0
CIRCLE
  5
240
100
AcDbEntity
  8
0
100
AcDbCircle
 10
0.55
 20
8.6666
 30
0.0
 40
0.24
  0
TEXT
  5
241
100
AcDbEntity
  8
TEXT
100
AcDbText
 10
-0.03531
 20
8.6166
 30
0.0
 40
0.1
  1
Run
 72
     2
 11
0.231357
 21
8.6666
 31
0.0
100
AcDbText
 73
     2
  0
TEXT
  5
242
100
AcDbEntity
  8
TEXT
100
AcDbText
 10
0.367705
 20
8.211776
 30
0.0
 40
0.1
  1
Stop
 72
     2
 11
0.734372
 21
8.261776
 31
0.0
100
AcDbText
 73
     2
  0
TEXT
  5
243
100
AcDbEntity
  8
TEXT
100
AcDbText
 10
-1.0085
 20
7.7636
 30
0.0
 40
0.1
  1
Programmble Industrial Computer
 50
360.0
 41
0.669244
 72
     5
 11
0.91
 21
7.7636
 31
0.0
100
AcDbText
  0
TEXT
  5
244
100
AcDbEntity
  8
TEXT
100
AcDbText
 10
-1.0085
 20
8.0036
 30
0.0
 40
0.14
  1
G&L Motion Control
 50
360.0
 41
0.913571
 72
     5
 11
0.91
 21
8.0036
 31
0.0
100
AcDbText
  0
LINE
  5
245
100
AcDbEntity
  8
0
100
AcDbLine
 10
-0.31
 20
7.1016
 30
0.0
 11
-0.31
 21
1.33285
 31
0.0
  0
LINE
  5
246
100
AcDbEntity
  8
0
100
AcDbLine
 10
0.79
 20
1.2766
 30
0.0
 11
0.79
 21
1.1766
 31
0.0
  0
LINE
  5
247
100
AcDbEntity
  8
0
100
AcDbLine
 10
-1.19
 20
1.2766
 30
0.0
 11
1.19
 21
1.2766
 31
0.0
  0
LINE
  5
248
100
AcDbEntity
  8
0
100
AcDbLine
 10
-0.31
 20
7.1016
 30
0.0
 11
1.19
 21
7.1016
 31
0.0
  0
LINE
  5
249
100
AcDbEntity
  8
0
100
AcDbLine
 10
1.11
 20
7.1016
 30
0.0
 11
1.11
 21
1.3016
 31
0.0
  0
LINE
  5
24A
100
AcDbEntity
  8
0
100
AcDbLine
 10
1.07
 20
7.1016
 30
0.0
 11
1.07
 21
1.3016
 31
0.0
  0
LINE
  5
24C
100
AcDbEntity
  8
0
100
AcDbLine
 10
0.0605
 20
7.1016
 30
0.0
 11
0.0605
 21
1.3016
 31
0.0
  0
LINE
  5
24D
100
AcDbEntity
  8
HID
100
AcDbLine
 10
0.0625
 20
7.1316
 30
0.0
 11
0.0625
 21
7.0616
 31
0.0
  0
LINE
  5
24E
100
AcDbEntity
  8
HID
100
AcDbLine
 10
-0.0175
 20
7.1316
 30
0.0
 11
-0.0175
 21
7.0616
 31
0.0
  0
LINE
  5
24F
100
AcDbEntity
  8
HID
100
AcDbLine
 10
-0.0175
 20
7.0616
 30
0.0
 11
0.0625
 21
7.0616
 31
0.0
  0
LINE
  5
250
100
AcDbEntity
  8
0
100
AcDbLine
 10
-1.1085
 20
7.0501
 30
0.0
 11
-1.1085
 21
1.4266
 31
0.0
  0
LINE
  5
251
100
AcDbEntity
  8
0
100
AcDbLine
 10
-1.19
 20
7.0501
 30
0.0
 11
-1.1085
 21
7.0501
 31
0.0
  0
LINE
  5
252
100
AcDbEntity
  8
0
100
AcDbLine
 10
-1.19
 20
1.4266
 30
0.0
 11
-1.1085
 21
1.4266
 31
0.0
  0
LINE
  5
253
100
AcDbEntity
  8
HID
100
AcDbLine
 10
0.51
 20
5.4891
 30
0.0
 11
0.94
 21
5.4891
 31
0.0
  0
LINE
  5
255
100
AcDbEntity
  8
HID
100
AcDbLine
 10
0.94
 20
6.1616
 30
0.0
 11
0.94
 21
5.4891
 31
0.0
  0
LINE
  5
256
100
AcDbEntity
  8
HID
100
AcDbLine
 10
0.51
 20
6.1816
 30
0.0
 11
0.94
 21
6.1816
 31
0.0
  0
LINE
  5
257
100
AcDbEntity
  8
HID
100
AcDbLine
 10
0.51
 20
6.1616
 30
0.0
 11
0.51
 21
5.4891
 31
0.0
  0
LINE
  5
258
100
AcDbEntity
  8
HID
100
AcDbLine
 10
0.51
 20
6.9316
 30
0.0
 11
0.94
 21
6.9316
 31
0.0
  0
LINE
  5
259
100
AcDbEntity
  8
HID
100
AcDbLine
 10
0.94
 20
6.9316
 30
0.0
 11
0.94
 21
6.1816
 31
0.0
  0
TEXT
  5
25A
100
AcDbEntity
  8
TEXT
100
AcDbText
 10
0.06469
 20
6.796836
 30
0.0
 40
0.1
  1
ON
 72
     2
 11
0.231357
 21
6.846836
 31
0.0
100
AcDbText
 73
     2
  0
TEXT
  5
25B
100
AcDbEntity
  8
TEXT
100
AcDbText
 10
-0.03531
 20
6.271064
 30
0.0
 40
0.1
  1
OFF
 72
     2
 11
0.231357
 21
6.321064
 31
0.0
100
AcDbText
 73
     2
  0
TEXT
  5
25C
100
AcDbEntity
  8
TEXT
100
AcDbText
 10
-0.368643
 20
6.063416
 30
0.0
 40
0.1
  1
L/LINE1
 72
     2
 11
0.231357
 21
6.113416
 31
0.0
100
AcDbText
 73
     2
  0
TEXT
  5
25D
100
AcDbEntity
  8
TEXT
100
AcDbText
 10
-0.33531
 20
5.485492
 30
0.0
 40
0.1
  1
E/GRND
 72
     2
 11
0.231357
 21
5.535492
 31
0.0
100
AcDbText
 73
     2
  0
TEXT
  5
25E
100
AcDbEntity
  8
TEXT
100
AcDbText
 10
-0.401976
 20
5.75758
 30
0.0
 40
0.1
  1
L/LINE2
 72
     2
 11
0.231357
 21
5.80758
 31
0.0
100
AcDbText
 73
     2
  0
INSERT
  5
25F
100
AcDbEntity
  8
HID
100
AcDbBlockReference
  2
PIC_PCON
 10
0.96975
 20
5.52635
 30
0.0
  0
LINE
  5
260
100
AcDbEntity
  8
HID
100
AcDbLine
 10
0.9055
 20
6.8716
 30
0.0
 11
0.9055
 21
6.2416
 31
0.0
  0
LINE
  5
261
100
AcDbEntity
  8
HID
100
AcDbLine
 10
0.5445
 20
6.8716
 30
0.0
 11
0.5445
 21
6.2416
 31
0.0
  0
LINE
  5
262
100
AcDbEntity
  8
HID
100
AcDbLine
 10
0.5445
 20
6.8716
 30
0.0
 11
0.9055
 21
6.8716
 31
0.0
  0
LINE
  5
263
100
AcDbEntity
  8
HID
100
AcDbLine
 10
0.5445
 20
6.2416
 30
0.0
 11
0.9055
 21
6.2416
 31
0.0
  0
LINE
  5
264
100
AcDbEntity
  8
HID
100
AcDbLine
 10
0.51
 20
6.9316
 30
0.0
 11
0.51
 21
6.1816
 31
0.0
  0
LINE
  5
265
100
AcDbEntity
  8
HID
100
AcDbLine
 10
0.9055
 20
6.5566
 30
0.0
 11
0.5445
 21
6.5566
 31
0.0
  0
TEXT
  5
266
100
AcDbEntity
  8
TEXT
100
AcDbText
 10
-1.0085
 20
8.308051
 30
0.0
 40
0.14
  1
PiC90        
 50
360.0
 41
1.126321
 72
     5
 11
0.91
 21
8.308051
 31
0.0
100
AcDbText
  0
LINE
  5
268
100
AcDbEntity
  8
HID
100
AcDbLine
 10
0.51
 20
6.1616
 30
0.0
 11
0.94
 21
6.1616
 31
0.0
  0
INSERT
  5
2A5
100
AcDbEntity
  8
0
100
AcDbBlockReference
  2
PCON_2
 10
0.96975
 20
3.8316
 30
0.0
  0
ENDSEC
  0
SECTION
  2
OBJECTS
  0
DICTIONARY
  5
C
100
AcDbDictionary
  3
ACAD_GROUP
350
D
  3
ACAD_MLINESTYLE
350
E
  0
DICTIONARY
  5
D
102
{ACAD_REACTORS
330
C
102
}
100
AcDbDictionary
  0
DICTIONARY
  5
E
102
{ACAD_REACTORS
330
C
102
}
100
AcDbDictionary
  3
STANDARD
350
1B
  0
MLINESTYLE
  5
1B
102
{ACAD_REACTORS
330
E
102
}
100
AcDbMlineStyle
  2
STANDARD
 70
     0
  3

 62
     0
 51
90.0
 52
90.0
 71
     2
 49
0.5
 62
   256
  6
BYLAYER
 49
-0.5
 62
   256
  6
BYLAYER
  0
ENDSEC
  0
EOF
