  0
SECTION
  2
HEADER
  9
$ACADVER
  1
AC1012
  9
$DWGCODEPAGE
  3
ANSI_1252
  9
$INSBASE
 10
0.0
 20
0.0
 30
0.0
  9
$EXTMIN
 10
-4.4
 20
-6.985
 30
0.0
  9
$EXTMAX
 10
4.4
 20
6.984998
 30
0.0
  9
$LIMMIN
 10
-4.551833
 20
-7.136619
  9
$LIMMAX
 10
4.601514
 20
7.202229
  9
$ORTHOMODE
 70
     1
  9
$REGENMODE
 70
     1
  9
$FILLMODE
 70
     1
  9
$QTEXTMODE
 70
     0
  9
$MIRRTEXT
 70
     1
  9
$DRAGMODE
 70
     2
  9
$LTSCALE
 40
1.0
  9
$OSMODE
 70
     0
  9
$ATTMODE
 70
     1
  9
$TEXTSIZE
 40
0.2
  9
$TRACEWID
 40
0.05
  9
$TEXTSTYLE
  7
STANDARD
  9
$CLAYER
  8
0
  9
$CELTYPE
  6
BYLAYER
  9
$CECOLOR
 62
   256
  9
$CELTSCALE
 40
1.0
  9
$DELOBJ
 70
     1
  9
$DISPSILH
 70
     0
  9
$DIMSCALE
 40
1.0
  9
$DIMASZ
 40
0.18
  9
$DIMEXO
 40
0.0625
  9
$DIMDLI
 40
0.38
  9
$DIMRND
 40
0.0
  9
$DIMDLE
 40
0.0
  9
$DIMEXE
 40
0.18
  9
$DIMTP
 40
0.0
  9
$DIMTM
 40
0.0
  9
$DIMTXT
 40
0.18
  9
$DIMCEN
 40
0.09
  9
$DIMTSZ
 40
0.0
  9
$DIMTOL
 70
     0
  9
$DIMLIM
 70
     0
  9
$DIMTIH
 70
     1
  9
$DIMTOH
 70
     1
  9
$DIMSE1
 70
     0
  9
$DIMSE2
 70
     0
  9
$DIMTAD
 70
     0
  9
$DIMZIN
 70
     0
  9
$DIMBLK
  1

  9
$DIMASO
 70
     1
  9
$DIMSHO
 70
     1
  9
$DIMPOST
  1

  9
$DIMAPOST
  1

  9
$DIMALT
 70
     0
  9
$DIMALTD
 70
     2
  9
$DIMALTF
 40
25.4
  9
$DIMLFAC
 40
1.0
  9
$DIMTOFL
 70
     0
  9
$DIMTVP
 40
0.0
  9
$DIMTIX
 70
     0
  9
$DIMSOXD
 70
     0
  9
$DIMSAH
 70
     0
  9
$DIMBLK1
  1

  9
$DIMBLK2
  1

  9
$DIMSTYLE
  2
STANDARD
  9
$DIMCLRD
 70
     0
  9
$DIMCLRE
 70
     0
  9
$DIMCLRT
 70
     0
  9
$DIMTFAC
 40
1.0
  9
$DIMGAP
 40
0.09
  9
$DIMJUST
 70
     0
  9
$DIMSD1
 70
     0
  9
$DIMSD2
 70
     0
  9
$DIMTOLJ
 70
     1
  9
$DIMTZIN
 70
     0
  9
$DIMALTZ
 70
     0
  9
$DIMALTTZ
 70
     0
  9
$DIMFIT
 70
     3
  9
$DIMUPT
 70
     0
  9
$DIMUNIT
 70
     2
  9
$DIMDEC
 70
     4
  9
$DIMTDEC
 70
     4
  9
$DIMALTU
 70
     2
  9
$DIMALTTD
 70
     2
  9
$DIMTXSTY
  7
STANDARD
  9
$DIMAUNIT
 70
     0
  9
$LUNITS
 70
     2
  9
$LUPREC
 70
     4
  9
$SKETCHINC
 40
0.1
  9
$FILLETRAD
 40
0.0
  9
$AUNITS
 70
     0
  9
$AUPREC
 70
     0
  9
$MENU
  1
acad
  9
$ELEVATION
 40
0.0
  9
$PELEVATION
 40
0.0
  9
$THICKNESS
 40
0.0
  9
$LIMCHECK
 70
     0
  9
$BLIPMODE
 70
     1
  9
$CHAMFERA
 40
0.0
  9
$CHAMFERB
 40
0.0
  9
$CHAMFERC
 40
0.0
  9
$CHAMFERD
 40
0.0
  9
$SKPOLY
 70
     0
  9
$TDCREATE
 40
2450675.662725578
  9
$TDUPDATE
 40
2451087.311484027
  9
$TDINDWG
 40
0.0223164352
  9
$TDUSRTIMER
 40
0.0223164352
  9
$USRTIMER
 70
     1
  9
$ANGBASE
 50
0.0
  9
$ANGDIR
 70
     0
  9
$PDMODE
 70
     0
  9
$PDSIZE
 40
0.0
  9
$PLINEWID
 40
0.0
  9
$COORDS
 70
     1
  9
$SPLFRAME
 70
     0
  9
$SPLINETYPE
 70
     6
  9
$SPLINESEGS
 70
     8
  9
$ATTDIA
 70
     0
  9
$ATTREQ
 70
     1
  9
$HANDLING
 70
     1
  9
$HANDSEED
  5
55B
  9
$SURFTAB1
 70
     6
  9
$SURFTAB2
 70
     6
  9
$SURFTYPE
 70
     6
  9
$SURFU
 70
     6
  9
$SURFV
 70
     6
  9
$UCSNAME
  2

  9
$UCSORG
 10
0.0
 20
0.0
 30
0.0
  9
$UCSXDIR
 10
1.0
 20
0.0
 30
0.0
  9
$UCSYDIR
 10
0.0
 20
1.0
 30
0.0
  9
$PUCSNAME
  2

  9
$PUCSORG
 10
0.0
 20
0.0
 30
0.0
  9
$PUCSXDIR
 10
1.0
 20
0.0
 30
0.0
  9
$PUCSYDIR
 10
0.0
 20
1.0
 30
0.0
  9
$USERI1
 70
     0
  9
$USERI2
 70
     0
  9
$USERI3
 70
     0
  9
$USERI4
 70
     0
  9
$USERI5
 70
     0
  9
$USERR1
 40
0.0
  9
$USERR2
 40
0.0
  9
$USERR3
 40
0.0
  9
$USERR4
 40
0.0
  9
$USERR5
 40
0.0
  9
$WORLDVIEW
 70
     1
  9
$SHADEDGE
 70
     3
  9
$SHADEDIF
 70
    70
  9
$TILEMODE
 70
     1
  9
$MAXACTVP
 70
    16
  9
$PINSBASE
 10
0.0
 20
0.0
 30
0.0
  9
$PLIMCHECK
 70
     0
  9
$PEXTMIN
 10
1.000000E+20
 20
1.000000E+20
 30
1.000000E+20
  9
$PEXTMAX
 10
-1.000000E+20
 20
-1.000000E+20
 30
-1.000000E+20
  9
$PLIMMIN
 10
0.0
 20
0.0
  9
$PLIMMAX
 10
12.0
 20
9.0
  9
$UNITMODE
 70
     0
  9
$VISRETAIN
 70
     0
  9
$PLINEGEN
 70
     0
  9
$PSLTSCALE
 70
     1
  9
$TREEDEPTH
 70
  3020
  9
$PICKSTYLE
 70
     1
  9
$CMLSTYLE
  2
STANDARD
  9
$CMLJUST
 70
     0
  9
$CMLSCALE
 40
1.0
  9
$SAVEIMAGES
 70
     1
  0
ENDSEC
  0
SECTION
  2
CLASSES
  0
ENDSEC
  0
SECTION
  2
TABLES
  0
TABLE
  2
VPORT
  5
8
100
AcDbSymbolTable
 70
     2
  0
VPORT
  5
55A
100
AcDbSymbolTableRecord
100
AcDbViewportTableRecord
  2
*ACTIVE
 70
     0
 10
0.0
 20
0.0
 11
1.0
 21
1.0
 12
9.368496
 22
0.551685
 13
0.0
 23
0.0
 14
1.0
 24
1.0
 15
0.0
 25
0.0
 16
0.0
 26
0.0
 36
1.0
 17
0.0
 27
0.0
 37
0.0
 40
15.376609
 41
1.810585
 42
50.0
 43
0.0
 44
0.0
 50
0.0
 51
0.0
 71
     0
 72
   100
 73
     1
 74
     1
 75
     0
 76
     0
 77
     0
 78
     0
  0
ENDTAB
  0
TABLE
  2
LTYPE
  5
5
100
AcDbSymbolTable
 70
     3
  0
LTYPE
  5
14
100
AcDbSymbolTableRecord
100
AcDbLinetypeTableRecord
  2
BYBLOCK
 70
     0
  3

 72
    65
 73
     0
 40
0.0
  0
LTYPE
  5
15
100
AcDbSymbolTableRecord
100
AcDbLinetypeTableRecord
  2
BYLAYER
 70
     0
  3

 72
    65
 73
     0
 40
0.0
  0
LTYPE
  5
16
100
AcDbSymbolTableRecord
100
AcDbLinetypeTableRecord
  2
CONTINUOUS
 70
     0
  3
Solid line
 72
    65
 73
     0
 40
0.0
  0
LTYPE
  5
28
100
AcDbSymbolTableRecord
100
AcDbLinetypeTableRecord
  2
DASHED
 70
     0
  3
__ __ __ __ __ __ __ __ __ __ __ __ __ __ __ __
 72
    65
 73
     2
 40
0.75
 49
0.5
 74
     0
 49
-0.25
 74
     0
  0
LTYPE
  5
4D0
100
AcDbSymbolTableRecord
100
AcDbLinetypeTableRecord
  2
HIDDEN
 70
     0
  3
__ __ __ __ __ __ __ __ __ __ __ __ __ __ __ __
 72
    65
 73
     2
 40
0.375
 49
0.25
 74
     0
 49
-0.125
 74
     0
  0
ENDTAB
  0
TABLE
  2
LAYER
  5
2
100
AcDbSymbolTable
 70
     4
  0
LAYER
  5
F
100
AcDbSymbolTableRecord
100
AcDbLayerTableRecord
  2
0
 70
     0
 62
     7
  6
CONTINUOUS
  0
LAYER
  5
29
100
AcDbSymbolTableRecord
100
AcDbLayerTableRecord
  2
L1
 70
     0
 62
     7
  6
CONTINUOUS
  0
LAYER
  5
2A
100
AcDbSymbolTableRecord
100
AcDbLayerTableRecord
  2
TEXT
 70
     0
 62
     2
  6
CONTINUOUS
  0
LAYER
  5
4D1
100
AcDbSymbolTableRecord
100
AcDbLayerTableRecord
  2
HID
 70
     0
 62
     3
  6
HIDDEN
  0
ENDTAB
  0
TABLE
  2
STYLE
  5
3
100
AcDbSymbolTable
 70
     1
  0
STYLE
  5
10
100
AcDbSymbolTableRecord
100
AcDbTextStyleTableRecord
  2
STANDARD
 70
     0
 40
0.0
 41
1.0
 50
0.0
 71
     0
 42
0.2
  3
txt
  4

  0
ENDTAB
  0
TABLE
  2
VIEW
  5
6
100
AcDbSymbolTable
 70
     0
  0
ENDTAB
  0
TABLE
  2
UCS
  5
7
100
AcDbSymbolTable
 70
     0
  0
ENDTAB
  0
TABLE
  2
APPID
  5
9
100
AcDbSymbolTable
 70
     1
  0
APPID
  5
11
100
AcDbSymbolTableRecord
100
AcDbRegAppTableRecord
  2
ACAD
 70
     0
  0
ENDTAB
  0
TABLE
  2
DIMSTYLE
  5
A
100
AcDbSymbolTable
 70
     1
  0
DIMSTYLE
105
1D
100
AcDbSymbolTableRecord
100
AcDbDimStyleTableRecord
  2
STANDARD
 70
     0
  3

  4

  5

  6

  7

 40
1.0
 41
0.18
 42
0.0625
 43
0.38
 44
0.18
 45
0.0
 46
0.0
 47
0.0
 48
0.0
140
0.18
141
0.09
142
0.0
143
25.4
144
1.0
145
0.0
146
1.0
147
0.09
 71
     0
 72
     0
 73
     1
 74
     1
 75
     0
 76
     0
 77
     0
 78
     0
170
     0
171
     2
172
     0
173
     0
174
     0
175
     0
176
     0
177
     0
178
     0
270
     2
271
     4
272
     4
273
     2
274
     2
340
10
275
     0
280
     0
281
     0
282
     0
283
     1
284
     0
285
     0
286
     0
287
     3
288
     0
  0
ENDTAB
  0
TABLE
  2
BLOCK_RECORD
  5
1
100
AcDbSymbolTable
 70
     5
  0
BLOCK_RECORD
  5
1A
100
AcDbSymbolTableRecord
100
AcDbBlockTableRecord
  2
*MODEL_SPACE
  0
BLOCK_RECORD
  5
17
100
AcDbSymbolTableRecord
100
AcDbBlockTableRecord
  2
*PAPER_SPACE
  0
BLOCK_RECORD
  5
431
100
AcDbSymbolTableRecord
100
AcDbBlockTableRecord
  2
PCON_10
  0
BLOCK_RECORD
  5
47F
100
AcDbSymbolTableRecord
100
AcDbBlockTableRecord
  2
9_PIN_D
  0
BLOCK_RECORD
  5
49D
100
AcDbSymbolTableRecord
100
AcDbBlockTableRecord
  2
PIC_PCON
  0
BLOCK_RECORD
  5
4BA
100
AcDbSymbolTableRecord
100
AcDbBlockTableRecord
  2
PCON_2
  0
BLOCK_RECORD
  5
4D2
100
AcDbSymbolTableRecord
100
AcDbBlockTableRecord
  2
90_CPU
  0
ENDTAB
  0
ENDSEC
  0
SECTION
  2
BLOCKS
  0
BLOCK
  5
1B
100
AcDbEntity
  8
0
100
AcDbBlockBegin
  2
*MODEL_SPACE
 70
     0
 10
0.0
 20
0.0
 30
0.0
  3
*MODEL_SPACE
  1

  0
ENDBLK
  5
1C
100
AcDbEntity
  8
0
100
AcDbBlockEnd
  0
BLOCK
  5
18
100
AcDbEntity
 67
     1
  8
0
100
AcDbBlockBegin
  2
*PAPER_SPACE
 70
     0
 10
0.0
 20
0.0
 30
0.0
  3
*PAPER_SPACE
  1

  0
ENDBLK
  5
19
100
AcDbEntity
 67
     1
  8
0
100
AcDbBlockEnd
  0
BLOCK
  5
47D
100
AcDbEntity
  8
0
100
AcDbBlockBegin
  2
PCON_10
 70
     0
 10
0.0
 20
0.0
 30
0.0
  3
PCON_10
  1

  0
LINE
  5
432
100
AcDbEntity
  8
0
100
AcDbLine
 10
0.0
 20
1.991
 30
0.0
 11
0.0
 21
0.0
 31
0.0
  0
LINE
  5
433
100
AcDbEntity
  8
0
100
AcDbLine
 10
-0.4895
 20
1.991
 30
0.0
 11
-0.4895
 21
0.0
 31
0.0
  0
LINE
  5
434
100
AcDbEntity
  8
0
100
AcDbLine
 10
0.0
 20
0.0
 30
0.0
 11
-0.4895
 21
0.0
 31
0.0
  0
LINE
  5
435
100
AcDbEntity
  8
0
100
AcDbLine
 10
0.0
 20
1.991
 30
0.0
 11
-0.4895
 21
1.991
 31
0.0
  0
LINE
  5
436
100
AcDbEntity
  8
0
100
AcDbLine
 10
-0.4235
 20
1.991
 30
0.0
 11
-0.4235
 21
0.0
 31
0.0
  0
CIRCLE
  5
437
100
AcDbEntity
  8
0
100
AcDbCircle
 10
-0.2605
 20
0.102
 30
0.0
 40
0.077
  0
CIRCLE
  5
438
100
AcDbEntity
  8
0
100
AcDbCircle
 10
-0.2605
 20
0.102
 30
0.0
 40
0.075
  0
LINE
  5
439
100
AcDbEntity
  8
0
100
AcDbLine
 10
-0.189789
 20
0.127
 30
0.0
 11
-0.331211
 21
0.127
 31
0.0
  0
LINE
  5
43A
100
AcDbEntity
  8
0
100
AcDbLine
 10
-0.189789
 20
0.077
 30
0.0
 11
-0.331211
 21
0.077
 31
0.0
  0
LINE
  5
43B
100
AcDbEntity
  8
0
100
AcDbLine
 10
-0.331211
 20
0.077
 30
0.0
 11
-0.331211
 21
0.127
 31
0.0
  0
LINE
  5
43C
100
AcDbEntity
  8
0
100
AcDbLine
 10
-0.189789
 20
0.127
 30
0.0
 11
-0.189789
 21
0.077
 31
0.0
  0
SOLID
  5
43D
100
AcDbEntity
  8
0
100
AcDbTrace
 10
-0.189789
 20
0.127
 30
0.0
 11
-0.331211
 21
0.127
 31
0.0
 12
-0.189789
 22
0.077
 32
0.0
 13
-0.331211
 23
0.077
 33
0.0
  0
SOLID
  5
43E
100
AcDbEntity
  8
0
100
AcDbTrace
 10
-0.189789
 20
0.324
 30
0.0
 11
-0.331211
 21
0.324
 31
0.0
 12
-0.189789
 22
0.274
 32
0.0
 13
-0.331211
 23
0.274
 33
0.0
  0
LINE
  5
43F
100
AcDbEntity
  8
0
100
AcDbLine
 10
-0.189789
 20
0.324
 30
0.0
 11
-0.189789
 21
0.274
 31
0.0
  0
LINE
  5
440
100
AcDbEntity
  8
0
100
AcDbLine
 10
-0.331211
 20
0.274
 30
0.0
 11
-0.331211
 21
0.324
 31
0.0
  0
LINE
  5
441
100
AcDbEntity
  8
0
100
AcDbLine
 10
-0.189789
 20
0.274
 30
0.0
 11
-0.331211
 21
0.274
 31
0.0
  0
LINE
  5
442
100
AcDbEntity
  8
0
100
AcDbLine
 10
-0.189789
 20
0.324
 30
0.0
 11
-0.331211
 21
0.324
 31
0.0
  0
CIRCLE
  5
443
100
AcDbEntity
  8
0
100
AcDbCircle
 10
-0.2605
 20
0.299
 30
0.0
 40
0.075
  0
CIRCLE
  5
444
100
AcDbEntity
  8
0
100
AcDbCircle
 10
-0.2605
 20
0.299
 30
0.0
 40
0.077
  0
CIRCLE
  5
445
100
AcDbEntity
  8
0
100
AcDbCircle
 10
-0.2605
 20
0.496
 30
0.0
 40
0.077
  0
CIRCLE
  5
446
100
AcDbEntity
  8
0
100
AcDbCircle
 10
-0.2605
 20
0.496
 30
0.0
 40
0.075
  0
LINE
  5
447
100
AcDbEntity
  8
0
100
AcDbLine
 10
-0.189789
 20
0.521
 30
0.0
 11
-0.331211
 21
0.521
 31
0.0
  0
LINE
  5
448
100
AcDbEntity
  8
0
100
AcDbLine
 10
-0.189789
 20
0.471
 30
0.0
 11
-0.331211
 21
0.471
 31
0.0
  0
LINE
  5
449
100
AcDbEntity
  8
0
100
AcDbLine
 10
-0.331211
 20
0.471
 30
0.0
 11
-0.331211
 21
0.521
 31
0.0
  0
LINE
  5
44A
100
AcDbEntity
  8
0
100
AcDbLine
 10
-0.189789
 20
0.521
 30
0.0
 11
-0.189789
 21
0.471
 31
0.0
  0
SOLID
  5
44B
100
AcDbEntity
  8
0
100
AcDbTrace
 10
-0.189789
 20
0.521
 30
0.0
 11
-0.331211
 21
0.521
 31
0.0
 12
-0.189789
 22
0.471
 32
0.0
 13
-0.331211
 23
0.471
 33
0.0
  0
SOLID
  5
44C
100
AcDbEntity
  8
0
100
AcDbTrace
 10
-0.189789
 20
1.119
 30
0.0
 11
-0.331211
 21
1.119
 31
0.0
 12
-0.189789
 22
1.069
 32
0.0
 13
-0.331211
 23
1.069
 33
0.0
  0
LINE
  5
44D
100
AcDbEntity
  8
0
100
AcDbLine
 10
-0.189789
 20
1.069
 30
0.0
 11
-0.331211
 21
1.069
 31
0.0
  0
LINE
  5
44E
100
AcDbEntity
  8
0
100
AcDbLine
 10
-0.189789
 20
1.119
 30
0.0
 11
-0.331211
 21
1.119
 31
0.0
  0
CIRCLE
  5
44F
100
AcDbEntity
  8
0
100
AcDbCircle
 10
-0.2605
 20
1.094
 30
0.0
 40
0.075
  0
CIRCLE
  5
450
100
AcDbEntity
  8
0
100
AcDbCircle
 10
-0.2605
 20
1.094
 30
0.0
 40
0.077
  0
CIRCLE
  5
451
100
AcDbEntity
  8
0
100
AcDbCircle
 10
-0.2605
 20
0.897
 30
0.0
 40
0.077
  0
CIRCLE
  5
452
100
AcDbEntity
  8
0
100
AcDbCircle
 10
-0.2605
 20
0.897
 30
0.0
 40
0.075
  0
LINE
  5
453
100
AcDbEntity
  8
0
100
AcDbLine
 10
-0.189789
 20
0.922
 30
0.0
 11
-0.331211
 21
0.922
 31
0.0
  0
LINE
  5
454
100
AcDbEntity
  8
0
100
AcDbLine
 10
-0.189789
 20
0.872
 30
0.0
 11
-0.331211
 21
0.872
 31
0.0
  0
SOLID
  5
455
100
AcDbEntity
  8
0
100
AcDbTrace
 10
-0.189789
 20
0.922
 30
0.0
 11
-0.331211
 21
0.922
 31
0.0
 12
-0.189789
 22
0.872
 32
0.0
 13
-0.331211
 23
0.872
 33
0.0
  0
SOLID
  5
456
100
AcDbEntity
  8
0
100
AcDbTrace
 10
-0.189789
 20
0.725
 30
0.0
 11
-0.331211
 21
0.725
 31
0.0
 12
-0.189789
 22
0.675
 32
0.0
 13
-0.331211
 23
0.675
 33
0.0
  0
LINE
  5
457
100
AcDbEntity
  8
0
100
AcDbLine
 10
-0.189789
 20
0.675
 30
0.0
 11
-0.331211
 21
0.675
 31
0.0
  0
LINE
  5
458
100
AcDbEntity
  8
0
100
AcDbLine
 10
-0.189789
 20
0.725
 30
0.0
 11
-0.331211
 21
0.725
 31
0.0
  0
CIRCLE
  5
459
100
AcDbEntity
  8
0
100
AcDbCircle
 10
-0.2605
 20
0.7
 30
0.0
 40
0.075
  0
CIRCLE
  5
45A
100
AcDbEntity
  8
0
100
AcDbCircle
 10
-0.2605
 20
0.7
 30
0.0
 40
0.077
  0
LINE
  5
45B
100
AcDbEntity
  8
0
100
AcDbLine
 10
-0.331211
 20
0.872
 30
0.0
 11
-0.331211
 21
0.922
 31
0.0
  0
LINE
  5
45C
100
AcDbEntity
  8
0
100
AcDbLine
 10
-0.331211
 20
0.675
 30
0.0
 11
-0.331211
 21
0.725
 31
0.0
  0
LINE
  5
45D
100
AcDbEntity
  8
0
100
AcDbLine
 10
-0.331211
 20
1.069
 30
0.0
 11
-0.331211
 21
1.119
 31
0.0
  0
LINE
  5
45E
100
AcDbEntity
  8
0
100
AcDbLine
 10
-0.189789
 20
0.922
 30
0.0
 11
-0.189789
 21
0.872
 31
0.0
  0
LINE
  5
45F
100
AcDbEntity
  8
0
100
AcDbLine
 10
-0.189789
 20
0.725
 30
0.0
 11
-0.189789
 21
0.675
 31
0.0
  0
LINE
  5
460
100
AcDbEntity
  8
0
100
AcDbLine
 10
-0.189789
 20
1.119
 30
0.0
 11
-0.189789
 21
1.069
 31
0.0
  0
CIRCLE
  5
461
100
AcDbEntity
  8
0
100
AcDbCircle
 10
-0.2605
 20
1.291
 30
0.0
 40
0.077
  0
CIRCLE
  5
462
100
AcDbEntity
  8
0
100
AcDbCircle
 10
-0.2605
 20
1.291
 30
0.0
 40
0.075
  0
LINE
  5
463
100
AcDbEntity
  8
0
100
AcDbLine
 10
-0.189789
 20
1.316
 30
0.0
 11
-0.331211
 21
1.316
 31
0.0
  0
LINE
  5
464
100
AcDbEntity
  8
0
100
AcDbLine
 10
-0.189789
 20
1.266
 30
0.0
 11
-0.331211
 21
1.266
 31
0.0
  0
SOLID
  5
465
100
AcDbEntity
  8
0
100
AcDbTrace
 10
-0.189789
 20
1.316
 30
0.0
 11
-0.331211
 21
1.316
 31
0.0
 12
-0.189789
 22
1.266
 32
0.0
 13
-0.331211
 23
1.266
 33
0.0
  0
LINE
  5
466
100
AcDbEntity
  8
0
100
AcDbLine
 10
-0.331211
 20
1.266
 30
0.0
 11
-0.331211
 21
1.316
 31
0.0
  0
LINE
  5
467
100
AcDbEntity
  8
0
100
AcDbLine
 10
-0.189789
 20
1.316
 30
0.0
 11
-0.189789
 21
1.266
 31
0.0
  0
SOLID
  5
468
100
AcDbEntity
  8
0
100
AcDbTrace
 10
-0.189789
 20
1.914
 30
0.0
 11
-0.331211
 21
1.914
 31
0.0
 12
-0.189789
 22
1.864
 32
0.0
 13
-0.331211
 23
1.864
 33
0.0
  0
LINE
  5
469
100
AcDbEntity
  8
0
100
AcDbLine
 10
-0.189789
 20
1.864
 30
0.0
 11
-0.331211
 21
1.864
 31
0.0
  0
LINE
  5
46A
100
AcDbEntity
  8
0
100
AcDbLine
 10
-0.189789
 20
1.914
 30
0.0
 11
-0.331211
 21
1.914
 31
0.0
  0
CIRCLE
  5
46B
100
AcDbEntity
  8
0
100
AcDbCircle
 10
-0.2605
 20
1.889
 30
0.0
 40
0.075
  0
CIRCLE
  5
46C
100
AcDbEntity
  8
0
100
AcDbCircle
 10
-0.2605
 20
1.889
 30
0.0
 40
0.077
  0
SOLID
  5
46D
100
AcDbEntity
  8
0
100
AcDbTrace
 10
-0.189789
 20
1.52
 30
0.0
 11
-0.331211
 21
1.52
 31
0.0
 12
-0.189789
 22
1.47
 32
0.0
 13
-0.331211
 23
1.47
 33
0.0
  0
LINE
  5
46E
100
AcDbEntity
  8
0
100
AcDbLine
 10
-0.189789
 20
1.47
 30
0.0
 11
-0.331211
 21
1.47
 31
0.0
  0
LINE
  5
46F
100
AcDbEntity
  8
0
100
AcDbLine
 10
-0.189789
 20
1.52
 30
0.0
 11
-0.331211
 21
1.52
 31
0.0
  0
CIRCLE
  5
470
100
AcDbEntity
  8
0
100
AcDbCircle
 10
-0.2605
 20
1.495
 30
0.0
 40
0.075
  0
CIRCLE
  5
471
100
AcDbEntity
  8
0
100
AcDbCircle
 10
-0.2605
 20
1.495
 30
0.0
 40
0.077
  0
CIRCLE
  5
472
100
AcDbEntity
  8
0
100
AcDbCircle
 10
-0.2605
 20
1.692
 30
0.0
 40
0.077
  0
CIRCLE
  5
473
100
AcDbEntity
  8
0
100
AcDbCircle
 10
-0.2605
 20
1.692
 30
0.0
 40
0.075
  0
LINE
  5
474
100
AcDbEntity
  8
0
100
AcDbLine
 10
-0.189789
 20
1.717
 30
0.0
 11
-0.331211
 21
1.717
 31
0.0
  0
LINE
  5
475
100
AcDbEntity
  8
0
100
AcDbLine
 10
-0.189789
 20
1.667
 30
0.0
 11
-0.331211
 21
1.667
 31
0.0
  0
SOLID
  5
476
100
AcDbEntity
  8
0
100
AcDbTrace
 10
-0.189789
 20
1.717
 30
0.0
 11
-0.331211
 21
1.717
 31
0.0
 12
-0.189789
 22
1.667
 32
0.0
 13
-0.331211
 23
1.667
 33
0.0
  0
LINE
  5
477
100
AcDbEntity
  8
0
100
AcDbLine
 10
-0.331211
 20
1.47
 30
0.0
 11
-0.331211
 21
1.52
 31
0.0
  0
LINE
  5
478
100
AcDbEntity
  8
0
100
AcDbLine
 10
-0.331211
 20
1.667
 30
0.0
 11
-0.331211
 21
1.717
 31
0.0
  0
LINE
  5
479
100
AcDbEntity
  8
0
100
AcDbLine
 10
-0.331211
 20
1.864
 30
0.0
 11
-0.331211
 21
1.914
 31
0.0
  0
LINE
  5
47A
100
AcDbEntity
  8
0
100
AcDbLine
 10
-0.189789
 20
1.52
 30
0.0
 11
-0.189789
 21
1.47
 31
0.0
  0
LINE
  5
47B
100
AcDbEntity
  8
0
100
AcDbLine
 10
-0.189789
 20
1.717
 30
0.0
 11
-0.189789
 21
1.667
 31
0.0
  0
LINE
  5
47C
100
AcDbEntity
  8
0
100
AcDbLine
 10
-0.189789
 20
1.914
 30
0.0
 11
-0.189789
 21
1.864
 31
0.0
  0
ENDBLK
  5
47E
100
AcDbEntity
  8
0
100
AcDbBlockEnd
  0
BLOCK
  5
49B
100
AcDbEntity
  8
0
100
AcDbBlockBegin
  2
9_PIN_D
 70
     0
 10
0.0
 20
0.0
 30
0.0
  3
9_PIN_D
  1

  0
LINE
  5
480
100
AcDbEntity
  8
0
100
AcDbLine
 10
-0.245
 20
0.54575
 30
0.0
 11
-0.245
 21
-0.54575
 31
0.0
  0
LINE
  5
481
100
AcDbEntity
  8
0
100
AcDbLine
 10
0.245
 20
0.54575
 30
0.0
 11
0.245
 21
-0.54575
 31
0.0
  0
LINE
  5
482
100
AcDbEntity
  8
0
100
AcDbLine
 10
0.1825
 20
-0.60825
 30
0.0
 11
-0.1825
 21
-0.60825
 31
0.0
  0
LINE
  5
483
100
AcDbEntity
  8
0
100
AcDbLine
 10
0.1825
 20
0.60825
 30
0.0
 11
-0.1825
 21
0.60825
 31
0.0
  0
CIRCLE
  5
484
100
AcDbEntity
  8
0
100
AcDbCircle
 10
0.0
 20
0.5
 30
0.0
 40
0.0585
  0
CIRCLE
  5
485
100
AcDbEntity
  8
0
100
AcDbCircle
 10
0.0
 20
-0.5
 30
0.0
 40
0.0585
  0
LINE
  5
486
100
AcDbEntity
  8
0
100
AcDbLine
 10
0.18175
 20
0.270844
 30
0.0
 11
0.18175
 21
-0.270844
 31
0.0
  0
LINE
  5
487
100
AcDbEntity
  8
0
100
AcDbLine
 10
-0.18175
 20
0.283967
 30
0.0
 11
-0.18175
 21
-0.283967
 31
0.0
  0
LINE
  5
488
100
AcDbEntity
  8
0
100
AcDbLine
 10
-0.115816
 20
0.346372
 30
0.0
 11
0.122684
 21
0.33325
 31
0.0
  0
ARC
  5
489
100
AcDbEntity
  8
0
100
AcDbCircle
 10
0.11925
 20
0.270844
 30
0.0
 40
0.0625
100
AcDbArc
 50
0.0
 51
86.850725
  0
ARC
  5
48A
100
AcDbEntity
  8
0
100
AcDbCircle
 10
-0.11925
 20
0.283967
 30
0.0
 40
0.0625
100
AcDbArc
 50
86.850725
 51
180.0
  0
LINE
  5
48B
100
AcDbEntity
  8
0
100
AcDbLine
 10
-0.115816
 20
-0.346372
 30
0.0
 11
0.122684
 21
-0.33325
 31
0.0
  0
ARC
  5
48C
100
AcDbEntity
  8
0
100
AcDbCircle
 10
-0.11925
 20
-0.283967
 30
0.0
 40
0.0625
100
AcDbArc
 50
180.0
 51
273.149275
  0
ARC
  5
48D
100
AcDbEntity
  8
0
100
AcDbCircle
 10
0.11925
 20
-0.270844
 30
0.0
 40
0.0625
100
AcDbArc
 50
273.149275
 51
360.0
  0
ARC
  5
48E
100
AcDbEntity
  8
0
100
AcDbCircle
 10
0.1825
 20
0.54575
 30
0.0
 40
0.0625
100
AcDbArc
 50
0.0
 51
90.0
  0
ARC
  5
48F
100
AcDbEntity
  8
0
100
AcDbCircle
 10
-0.1825
 20
0.54575
 30
0.0
 40
0.0625
100
AcDbArc
 50
90.0
 51
180.0
  0
ARC
  5
490
100
AcDbEntity
  8
0
100
AcDbCircle
 10
-0.1825
 20
-0.54575
 30
0.0
 40
0.0625
100
AcDbArc
 50
180.0
 51
270.0
  0
ARC
  5
491
100
AcDbEntity
  8
0
100
AcDbCircle
 10
0.1825
 20
-0.54575
 30
0.0
 40
0.0625
100
AcDbArc
 50
270.0
 51
0.0
  0
CIRCLE
  5
492
100
AcDbEntity
  8
0
100
AcDbCircle
 10
-0.0645
 20
0.0
 30
0.0
 40
0.0185
  0
CIRCLE
  5
493
100
AcDbEntity
  8
0
100
AcDbCircle
 10
-0.0645
 20
0.1
 30
0.0
 40
0.0185
  0
CIRCLE
  5
494
100
AcDbEntity
  8
0
100
AcDbCircle
 10
-0.0645
 20
0.2
 30
0.0
 40
0.0185
  0
CIRCLE
  5
495
100
AcDbEntity
  8
0
100
AcDbCircle
 10
-0.0645
 20
-0.2
 30
0.0
 40
0.0185
  0
CIRCLE
  5
496
100
AcDbEntity
  8
0
100
AcDbCircle
 10
-0.0645
 20
-0.1
 30
0.0
 40
0.0185
  0
CIRCLE
  5
497
100
AcDbEntity
  8
0
100
AcDbCircle
 10
0.0645
 20
-0.05
 30
0.0
 40
0.0185
  0
CIRCLE
  5
498
100
AcDbEntity
  8
0
100
AcDbCircle
 10
0.0645
 20
-0.15
 30
0.0
 40
0.0185
  0
CIRCLE
  5
499
100
AcDbEntity
  8
0
100
AcDbCircle
 10
0.0645
 20
0.05
 30
0.0
 40
0.0185
  0
CIRCLE
  5
49A
100
AcDbEntity
  8
0
100
AcDbCircle
 10
0.0645
 20
0.15
 30
0.0
 40
0.0185
  0
ENDBLK
  5
49C
100
AcDbEntity
  8
0
100
AcDbBlockEnd
  0
BLOCK
  5
4B8
100
AcDbEntity
  8
0
100
AcDbBlockBegin
  2
PIC_PCON
 70
     0
 10
0.0
 20
0.0
 30
0.0
  3
PIC_PCON
  1

  0
LINE
  5
49E
100
AcDbEntity
  8
0
100
AcDbLine
 10
0.0
 20
0.598
 30
0.0
 11
0.0
 21
0.0
 31
0.0
  0
LINE
  5
49F
100
AcDbEntity
  8
0
100
AcDbLine
 10
-0.4895
 20
0.598
 30
0.0
 11
-0.4895
 21
0.0
 31
0.0
  0
LINE
  5
4A0
100
AcDbEntity
  8
0
100
AcDbLine
 10
0.0
 20
0.0
 30
0.0
 11
-0.4895
 21
0.0
 31
0.0
  0
LINE
  5
4A1
100
AcDbEntity
  8
0
100
AcDbLine
 10
0.0
 20
0.598
 30
0.0
 11
-0.4895
 21
0.598
 31
0.0
  0
LINE
  5
4A2
100
AcDbEntity
  8
0
100
AcDbLine
 10
-0.4235
 20
0.598
 30
0.0
 11
-0.4235
 21
0.0
 31
0.0
  0
CIRCLE
  5
4A3
100
AcDbEntity
  8
0
100
AcDbCircle
 10
-0.2605
 20
0.102
 30
0.0
 40
0.077
  0
CIRCLE
  5
4A4
100
AcDbEntity
  8
0
100
AcDbCircle
 10
-0.2605
 20
0.102
 30
0.0
 40
0.075
  0
LINE
  5
4A5
100
AcDbEntity
  8
0
100
AcDbLine
 10
-0.189789
 20
0.127
 30
0.0
 11
-0.331211
 21
0.127
 31
0.0
  0
LINE
  5
4A6
100
AcDbEntity
  8
0
100
AcDbLine
 10
-0.189789
 20
0.077
 30
0.0
 11
-0.331211
 21
0.077
 31
0.0
  0
LINE
  5
4A7
100
AcDbEntity
  8
0
100
AcDbLine
 10
-0.331211
 20
0.077
 30
0.0
 11
-0.331211
 21
0.127
 31
0.0
  0
LINE
  5
4A8
100
AcDbEntity
  8
0
100
AcDbLine
 10
-0.189789
 20
0.127
 30
0.0
 11
-0.189789
 21
0.077
 31
0.0
  0
SOLID
  5
4A9
100
AcDbEntity
  8
0
100
AcDbTrace
 10
-0.189789
 20
0.127
 30
0.0
 11
-0.331211
 21
0.127
 31
0.0
 12
-0.189789
 22
0.077
 32
0.0
 13
-0.331211
 23
0.077
 33
0.0
  0
SOLID
  5
4AA
100
AcDbEntity
  8
0
100
AcDbTrace
 10
-0.189789
 20
0.324
 30
0.0
 11
-0.331211
 21
0.324
 31
0.0
 12
-0.189789
 22
0.274
 32
0.0
 13
-0.331211
 23
0.274
 33
0.0
  0
LINE
  5
4AB
100
AcDbEntity
  8
0
100
AcDbLine
 10
-0.189789
 20
0.324
 30
0.0
 11
-0.189789
 21
0.274
 31
0.0
  0
LINE
  5
4AC
100
AcDbEntity
  8
0
100
AcDbLine
 10
-0.331211
 20
0.274
 30
0.0
 11
-0.331211
 21
0.324
 31
0.0
  0
LINE
  5
4AD
100
AcDbEntity
  8
0
100
AcDbLine
 10
-0.189789
 20
0.274
 30
0.0
 11
-0.331211
 21
0.274
 31
0.0
  0
LINE
  5
4AE
100
AcDbEntity
  8
0
100
AcDbLine
 10
-0.189789
 20
0.324
 30
0.0
 11
-0.331211
 21
0.324
 31
0.0
  0
CIRCLE
  5
4AF
100
AcDbEntity
  8
0
100
AcDbCircle
 10
-0.2605
 20
0.299
 30
0.0
 40
0.075
  0
CIRCLE
  5
4B0
100
AcDbEntity
  8
0
100
AcDbCircle
 10
-0.2605
 20
0.299
 30
0.0
 40
0.077
  0
CIRCLE
  5
4B1
100
AcDbEntity
  8
0
100
AcDbCircle
 10
-0.2605
 20
0.496
 30
0.0
 40
0.077
  0
CIRCLE
  5
4B2
100
AcDbEntity
  8
0
100
AcDbCircle
 10
-0.2605
 20
0.496
 30
0.0
 40
0.075
  0
LINE
  5
4B3
100
AcDbEntity
  8
0
100
AcDbLine
 10
-0.189789
 20
0.521
 30
0.0
 11
-0.331211
 21
0.521
 31
0.0
  0
LINE
  5
4B4
100
AcDbEntity
  8
0
100
AcDbLine
 10
-0.189789
 20
0.471
 30
0.0
 11
-0.331211
 21
0.471
 31
0.0
  0
LINE
  5
4B5
100
AcDbEntity
  8
0
100
AcDbLine
 10
-0.331211
 20
0.471
 30
0.0
 11
-0.331211
 21
0.521
 31
0.0
  0
LINE
  5
4B6
100
AcDbEntity
  8
0
100
AcDbLine
 10
-0.189789
 20
0.521
 30
0.0
 11
-0.189789
 21
0.471
 31
0.0
  0
SOLID
  5
4B7
100
AcDbEntity
  8
0
100
AcDbTrace
 10
-0.189789
 20
0.521
 30
0.0
 11
-0.331211
 21
0.521
 31
0.0
 12
-0.189789
 22
0.471
 32
0.0
 13
-0.331211
 23
0.471
 33
0.0
  0
ENDBLK
  5
4B9
100
AcDbEntity
  8
0
100
AcDbBlockEnd
  0
BLOCK
  5
4CE
100
AcDbEntity
  8
0
100
AcDbBlockBegin
  2
PCON_2
 70
     0
 10
0.0
 20
0.0
 30
0.0
  3
PCON_2
  1

  0
LINE
  5
4BB
100
AcDbEntity
  8
0
100
AcDbLine
 10
0.0
 20
0.401
 30
0.0
 11
0.0
 21
0.0
 31
0.0
  0
LINE
  5
4BC
100
AcDbEntity
  8
0
100
AcDbLine
 10
-0.4895
 20
0.401
 30
0.0
 11
-0.4895
 21
0.0
 31
0.0
  0
LINE
  5
4BD
100
AcDbEntity
  8
0
100
AcDbLine
 10
0.0
 20
0.0
 30
0.0
 11
-0.4895
 21
0.0
 31
0.0
  0
LINE
  5
4BE
100
AcDbEntity
  8
0
100
AcDbLine
 10
0.0
 20
0.401
 30
0.0
 11
-0.4895
 21
0.401
 31
0.0
  0
LINE
  5
4BF
100
AcDbEntity
  8
0
100
AcDbLine
 10
-0.4235
 20
0.401
 30
0.0
 11
-0.4235
 21
0.0
 31
0.0
  0
CIRCLE
  5
4C0
100
AcDbEntity
  8
0
100
AcDbCircle
 10
-0.2605
 20
0.102
 30
0.0
 40
0.077
  0
CIRCLE
  5
4C1
100
AcDbEntity
  8
0
100
AcDbCircle
 10
-0.2605
 20
0.102
 30
0.0
 40
0.075
  0
LINE
  5
4C2
100
AcDbEntity
  8
0
100
AcDbLine
 10
-0.189789
 20
0.127
 30
0.0
 11
-0.331211
 21
0.127
 31
0.0
  0
LINE
  5
4C3
100
AcDbEntity
  8
0
100
AcDbLine
 10
-0.189789
 20
0.077
 30
0.0
 11
-0.331211
 21
0.077
 31
0.0
  0
LINE
  5
4C4
100
AcDbEntity
  8
0
100
AcDbLine
 10
-0.331211
 20
0.077
 30
0.0
 11
-0.331211
 21
0.127
 31
0.0
  0
LINE
  5
4C5
100
AcDbEntity
  8
0
100
AcDbLine
 10
-0.189789
 20
0.127
 30
0.0
 11
-0.189789
 21
0.077
 31
0.0
  0
SOLID
  5
4C6
100
AcDbEntity
  8
0
100
AcDbTrace
 10
-0.189789
 20
0.127
 30
0.0
 11
-0.331211
 21
0.127
 31
0.0
 12
-0.189789
 22
0.077
 32
0.0
 13
-0.331211
 23
0.077
 33
0.0
  0
SOLID
  5
4C7
100
AcDbEntity
  8
0
100
AcDbTrace
 10
-0.189789
 20
0.324
 30
0.0
 11
-0.331211
 21
0.324
 31
0.0
 12
-0.189789
 22
0.274
 32
0.0
 13
-0.331211
 23
0.274
 33
0.0
  0
LINE
  5
4C8
100
AcDbEntity
  8
0
100
AcDbLine
 10
-0.189789
 20
0.324
 30
0.0
 11
-0.189789
 21
0.274
 31
0.0
  0
LINE
  5
4C9
100
AcDbEntity
  8
0
100
AcDbLine
 10
-0.331211
 20
0.274
 30
0.0
 11
-0.331211
 21
0.324
 31
0.0
  0
LINE
  5
4CA
100
AcDbEntity
  8
0
100
AcDbLine
 10
-0.189789
 20
0.274
 30
0.0
 11
-0.331211
 21
0.274
 31
0.0
  0
LINE
  5
4CB
100
AcDbEntity
  8
0
100
AcDbLine
 10
-0.189789
 20
0.324
 30
0.0
 11
-0.331211
 21
0.324
 31
0.0
  0
CIRCLE
  5
4CC
100
AcDbEntity
  8
0
100
AcDbCircle
 10
-0.2605
 20
0.299
 30
0.0
 40
0.075
  0
CIRCLE
  5
4CD
100
AcDbEntity
  8
0
100
AcDbCircle
 10
-0.2605
 20
0.299
 30
0.0
 40
0.077
  0
ENDBLK
  5
4CF
100
AcDbEntity
  8
0
100
AcDbBlockEnd
  0
BLOCK
  5
547
100
AcDbEntity
  8
0
100
AcDbBlockBegin
  2
90_CPU
 70
     0
 10
0.0
 20
0.0
 30
0.0
  3
90_CPU
  1

  0
INSERT
  5
4D3
100
AcDbEntity
  8
0
100
AcDbBlockReference
  2
PCON_10
 10
0.96975
 20
1.8206
 30
0.0
  0
INSERT
  5
4D4
100
AcDbEntity
  8
0
100
AcDbBlockReference
  2
9_PIN_D
 10
0.72475
 20
4.86085
 30
0.0
  0
LINE
  5
4D5
100
AcDbEntity
  8
0
100
AcDbLine
 10
-1.15875
 20
1.1766
 30
0.0
 11
1.15875
 21
1.1766
 31
0.0
  0
LINE
  5
4D6
100
AcDbEntity
  8
0
100
AcDbLine
 10
-1.15875
 20
10.9766
 30
0.0
 11
1.15875
 21
10.9766
 31
0.0
  0
LINE
  5
4D7
100
AcDbEntity
  8
0
100
AcDbLine
 10
-1.19
 20
10.94535
 30
0.0
 11
-1.19
 21
1.20785
 31
0.0
  0
LINE
  5
4D8
100
AcDbEntity
  8
0
100
AcDbLine
 10
1.19
 20
10.94535
 30
0.0
 11
1.19
 21
1.20785
 31
0.0
  0
LINE
  5
4D9
100
AcDbEntity
  8
0
100
AcDbLine
 10
-0.27875
 20
1.3016
 30
0.0
 11
1.19
 21
1.3016
 31
0.0
  0
LINE
  5
4DA
100
AcDbEntity
  8
0
100
AcDbLine
 10
-1.19
 20
7.1316
 30
0.0
 11
1.19
 21
7.1316
 31
0.0
  0
LINE
  5
4DB
100
AcDbEntity
  8
0
100
AcDbLine
 10
-1.19
 20
7.2116
 30
0.0
 11
1.19
 21
7.2116
 31
0.0
  0
LINE
  5
4DC
100
AcDbEntity
  8
0
100
AcDbLine
 10
-1.1085
 20
7.5966
 30
0.0
 11
1.08
 21
7.5966
 31
0.0
  0
LINE
  5
4DD
100
AcDbEntity
  8
0
100
AcDbLine
 10
-1.1085
 20
7.6636
 30
0.0
 11
1.01
 21
7.6636
 31
0.0
  0
LINE
  5
4DE
100
AcDbEntity
  8
0
100
AcDbLine
 10
-1.1085
 20
10.5226
 30
0.0
 11
1.01
 21
10.5226
 31
0.0
  0
LINE
  5
4DF
100
AcDbEntity
  8
0
100
AcDbLine
 10
-0.709
 20
10.3726
 30
0.0
 11
0.6445
 21
10.3726
 31
0.0
  0
LINE
  5
4E0
100
AcDbEntity
  8
0
100
AcDbLine
 10
-0.709
 20
10.3126
 30
0.0
 11
0.6445
 21
10.3126
 31
0.0
  0
LINE
  5
4E1
100
AcDbEntity
  8
0
100
AcDbLine
 10
-0.709
 20
10.3526
 30
0.0
 11
0.6445
 21
10.3526
 31
0.0
  0
TEXT
  5
4E2
100
AcDbEntity
  8
TEXT
100
AcDbText
 10
-1.0785
 20
10.5526
 30
0.0
 40
0.1
  1
CSM/CPU
100
AcDbText
  0
LINE
  5
4E3
100
AcDbEntity
  8
0
100
AcDbLine
 10
0.86
 20
10.2826
 30
0.0
 11
0.86
 21
10.1326
 31
0.0
  0
LINE
  5
4E4
100
AcDbEntity
  8
0
100
AcDbLine
 10
0.71
 20
10.2826
 30
0.0
 11
0.86
 21
10.2826
 31
0.0
  0
LINE
  5
4E5
100
AcDbEntity
  8
0
100
AcDbLine
 10
0.71
 20
10.1326
 30
0.0
 11
0.86
 21
10.1326
 31
0.0
  0
LINE
  5
4E6
100
AcDbEntity
  8
0
100
AcDbLine
 10
0.71
 20
10.2826
 30
0.0
 11
0.71
 21
10.1326
 31
0.0
  0
TEXT
  5
4E7
100
AcDbEntity
  8
TEXT
100
AcDbText
 10
0.326667
 20
10.1576
 30
0.0
 40
0.1
  1
DIAG
 72
     2
 11
0.66
 21
10.1576
 31
0.0
100
AcDbText
  0
SOLID
  5
4E8
100
AcDbEntity
  8
0
100
AcDbTrace
 10
0.71
 20
10.2826
 30
0.0
 11
0.86
 21
10.2826
 31
0.0
 12
0.71
 22
10.1326
 32
0.0
 13
0.86
 23
10.1326
 33
0.0
  0
LINE
  5
4E9
100
AcDbEntity
  8
0
100
AcDbLine
 10
-0.45875
 20
11.85
 30
0.0
 11
0.45875
 21
11.85
 31
0.0
  0
LINE
  5
4EA
100
AcDbEntity
  8
0
100
AcDbLine
 10
-0.49
 20
11.5725
 30
0.0
 11
0.49
 21
11.5725
 31
0.0
  0
LINE
  5
4EB
100
AcDbEntity
  8
0
100
AcDbLine
 10
0.49
 20
11.81875
 30
0.0
 11
0.49
 21
10.9766
 31
0.0
  0
LINE
  5
4EC
100
AcDbEntity
  8
0
100
AcDbLine
 10
-0.49
 20
11.81875
 30
0.0
 11
-0.49
 21
10.9766
 31
0.0
  0
LINE
  5
4ED
100
AcDbEntity
  8
0
100
AcDbLine
 10
0.0625
 20
11.5725
 30
0.0
 11
0.0625
 21
11.48125
 31
0.0
  0
LINE
  5
4EE
100
AcDbEntity
  8
0
100
AcDbLine
 10
-0.0625
 20
11.5725
 30
0.0
 11
-0.0625
 21
11.48125
 31
0.0
  0
LINE
  5
4EF
100
AcDbEntity
  8
0
100
AcDbLine
 10
-0.03125
 20
11.45
 30
0.0
 11
0.03125
 21
11.45
 31
0.0
  0
ARC
  5
4F0
100
AcDbEntity
  8
0
100
AcDbCircle
 10
0.45875
 20
11.81875
 30
0.0
 40
0.03125
100
AcDbArc
 50
0.0
 51
90.0
  0
ARC
  5
4F1
100
AcDbEntity
  8
0
100
AcDbCircle
 10
-0.45875
 20
11.81875
 30
0.0
 40
0.03125
100
AcDbArc
 50
90.0
 51
180.0
  0
ARC
  5
4F2
100
AcDbEntity
  8
0
100
AcDbCircle
 10
-1.15875
 20
10.94535
 30
0.0
 40
0.03125
100
AcDbArc
 50
90.0
 51
180.0
  0
ARC
  5
4F3
100
AcDbEntity
  8
0
100
AcDbCircle
 10
1.15875
 20
10.94535
 30
0.0
 40
0.03125
100
AcDbArc
 50
0.0
 51
90.0
  0
ARC
  5
4F4
100
AcDbEntity
  8
0
100
AcDbCircle
 10
0.03125
 20
11.48125
 30
0.0
 40
0.03125
100
AcDbArc
 50
270.0
 51
360.0
  0
ARC
  5
4F5
100
AcDbEntity
  8
0
100
AcDbCircle
 10
-0.03125
 20
11.48125
 30
0.0
 40
0.03125
100
AcDbArc
 50
180.0
 51
270.0
  0
ARC
  5
4F6
100
AcDbEntity
  8
0
100
AcDbCircle
 10
-1.15875
 20
1.20785
 30
0.0
 40
0.03125
100
AcDbArc
 50
180.0
 51
270.0
  0
ARC
  5
4F7
100
AcDbEntity
  8
0
100
AcDbCircle
 10
1.15875
 20
1.20785
 30
0.0
 40
0.03125
100
AcDbArc
 50
270.0
 51
0.0
  0
ARC
  5
4F8
100
AcDbEntity
  8
0
100
AcDbCircle
 10
-0.27875
 20
1.33285
 30
0.0
 40
0.03125
100
AcDbArc
 50
180.0
 51
270.0
  0
LINE
  5
4F9
100
AcDbEntity
  8
0
100
AcDbLine
 10
-0.45875
 20
0.0
 30
0.0
 11
0.45875
 21
0.0
 31
0.0
  0
LINE
  5
4FA
100
AcDbEntity
  8
0
100
AcDbLine
 10
-0.0625
 20
1.1766
 30
0.0
 11
-0.0625
 21
0.6
 31
0.0
  0
LINE
  5
4FB
100
AcDbEntity
  8
0
100
AcDbLine
 10
0.0625
 20
1.1766
 30
0.0
 11
0.0625
 21
0.6
 31
0.0
  0
LINE
  5
4FC
100
AcDbEntity
  8
0
100
AcDbLine
 10
0.49
 20
1.1766
 30
0.0
 11
0.49
 21
0.03125
 31
0.0
  0
LINE
  5
4FD
100
AcDbEntity
  8
0
100
AcDbLine
 10
-0.49
 20
1.1766
 30
0.0
 11
-0.49
 21
0.03125
 31
0.0
  0
LINE
  5
4FE
100
AcDbEntity
  8
0
100
AcDbLine
 10
-0.49
 20
0.35
 30
0.0
 11
0.49
 21
0.35
 31
0.0
  0
ARC
  5
4FF
100
AcDbEntity
  8
0
100
AcDbCircle
 10
0.45875
 20
0.03125
 30
0.0
 40
0.03125
100
AcDbArc
 50
270.0
 51
0.0
  0
ARC
  5
500
100
AcDbEntity
  8
0
100
AcDbCircle
 10
-0.45875
 20
0.03125
 30
0.0
 40
0.03125
100
AcDbArc
 50
180.0
 51
270.0
  0
LINE
  5
501
100
AcDbEntity
  8
0
100
AcDbLine
 10
-0.0625
 20
0.6
 30
0.0
 11
0.0625
 21
0.6
 31
0.0
  0
TEXT
  5
502
100
AcDbEntity
  8
TEXT
100
AcDbText
 10
0.236667
 20
1.4516
 30
0.0
 40
0.05
  1
90CPU.DWG
 72
     2
 11
0.645
 21
1.4516
 31
0.0
100
AcDbText
  0
LINE
  5
503
100
AcDbEntity
  8
0
100
AcDbLine
 10
-1.1085
 20
10.8846
 30
0.0
 11
-1.1085
 21
7.2116
 31
0.0
  0
LINE
  5
504
100
AcDbEntity
  8
0
100
AcDbLine
 10
1.01
 20
10.3726
 30
0.0
 11
-1.1085
 21
10.3726
 31
0.0
  0
LINE
  5
505
100
AcDbEntity
  8
0
100
AcDbLine
 10
1.01
 20
10.3126
 30
0.0
 11
-1.1085
 21
10.3126
 31
0.0
  0
LINE
  5
506
100
AcDbEntity
  8
0
100
AcDbLine
 10
1.01
 20
10.3526
 30
0.0
 11
-1.1085
 21
10.3526
 31
0.0
  0
LINE
  5
507
100
AcDbEntity
  8
0
100
AcDbLine
 10
1.08
 20
10.7766
 30
0.0
 11
1.08
 21
7.5966
 31
0.0
  0
LINE
  5
508
100
AcDbEntity
  8
0
100
AcDbLine
 10
1.01
 20
10.7066
 30
0.0
 11
1.01
 21
7.6636
 31
0.0
  0
LINE
  5
509
100
AcDbEntity
  8
0
100
AcDbLine
 10
1.19
 20
10.912378
 30
0.0
 11
-1.1085
 21
10.8846
 31
0.0
  0
LINE
  5
50A
100
AcDbEntity
  8
0
100
AcDbLine
 10
-1.1085
 20
10.7766
 30
0.0
 11
1.08
 21
10.7766
 31
0.0
  0
LINE
  5
50B
100
AcDbEntity
  8
0
100
AcDbLine
 10
-1.1085
 20
10.7066
 30
0.0
 11
1.01
 21
10.7066
 31
0.0
  0
TEXT
  5
50C
100
AcDbEntity
  8
TEXT
100
AcDbText
 10
0.36
 20
9.9076
 30
0.0
 40
0.1
  1
PWR
 72
     2
 11
0.66
 21
9.9076
 31
0.0
100
AcDbText
  0
LINE
  5
50D
100
AcDbEntity
  8
0
100
AcDbLine
 10
0.71
 20
10.0326
 30
0.0
 11
0.86
 21
10.0326
 31
0.0
  0
LINE
  5
50E
100
AcDbEntity
  8
0
100
AcDbLine
 10
0.71
 20
9.8826
 30
0.0
 11
0.86
 21
9.8826
 31
0.0
  0
SOLID
  5
50F
100
AcDbEntity
  8
0
100
AcDbTrace
 10
0.71
 20
10.0326
 30
0.0
 11
0.86
 21
10.0326
 31
0.0
 12
0.71
 22
9.8826
 32
0.0
 13
0.86
 23
9.8826
 33
0.0
  0
LINE
  5
510
100
AcDbEntity
  8
0
100
AcDbLine
 10
0.71
 20
10.0326
 30
0.0
 11
0.71
 21
9.8826
 31
0.0
  0
LINE
  5
511
100
AcDbEntity
  8
0
100
AcDbLine
 10
0.86
 20
10.0326
 30
0.0
 11
0.86
 21
9.8826
 31
0.0
  0
TEXT
  5
512
100
AcDbEntity
  8
TEXT
100
AcDbText
 10
0.293333
 20
9.6576
 30
0.0
 40
0.1
  1
SCAN
 72
     2
 11
0.66
 21
9.6576
 31
0.0
100
AcDbText
  0
SOLID
  5
513
100
AcDbEntity
  8
0
100
AcDbTrace
 10
0.71
 20
9.7826
 30
0.0
 11
0.86
 21
9.7826
 31
0.0
 12
0.71
 22
9.6326
 32
0.0
 13
0.86
 23
9.6326
 33
0.0
  0
LINE
  5
514
100
AcDbEntity
  8
0
100
AcDbLine
 10
0.71
 20
9.6326
 30
0.0
 11
0.86
 21
9.6326
 31
0.0
  0
LINE
  5
515
100
AcDbEntity
  8
0
100
AcDbLine
 10
0.71
 20
9.7826
 30
0.0
 11
0.86
 21
9.7826
 31
0.0
  0
LINE
  5
516
100
AcDbEntity
  8
0
100
AcDbLine
 10
0.71
 20
9.7826
 30
0.0
 11
0.71
 21
9.6326
 31
0.0
  0
LINE
  5
517
100
AcDbEntity
  8
0
100
AcDbLine
 10
0.86
 20
9.7826
 30
0.0
 11
0.86
 21
9.6326
 31
0.0
  0
TEXT
  5
518
100
AcDbEntity
  8
TEXT
100
AcDbText
 10
0.293333
 20
9.4076
 30
0.0
 40
0.1
  1
BATT
 72
     2
 11
0.66
 21
9.4076
 31
0.0
100
AcDbText
  0
LINE
  5
519
100
AcDbEntity
  8
0
100
AcDbLine
 10
0.71
 20
9.5326
 30
0.0
 11
0.86
 21
9.5326
 31
0.0
  0
LINE
  5
51A
100
AcDbEntity
  8
0
100
AcDbLine
 10
0.71
 20
9.3826
 30
0.0
 11
0.86
 21
9.3826
 31
0.0
  0
SOLID
  5
51B
100
AcDbEntity
  8
0
100
AcDbTrace
 10
0.71
 20
9.5326
 30
0.0
 11
0.86
 21
9.5326
 31
0.0
 12
0.71
 22
9.3826
 32
0.0
 13
0.86
 23
9.3826
 33
0.0
  0
LINE
  5
51C
100
AcDbEntity
  8
0
100
AcDbLine
 10
0.71
 20
9.5326
 30
0.0
 11
0.71
 21
9.3826
 31
0.0
  0
LINE
  5
51D
100
AcDbEntity
  8
0
100
AcDbLine
 10
0.86
 20
9.5326
 30
0.0
 11
0.86
 21
9.3826
 31
0.0
  0
SOLID
  5
51E
100
AcDbEntity
  8
0
100
AcDbTrace
 10
1.01
 20
10.3526
 30
0.0
 11
-1.1085
 21
10.3526
 31
0.0
 12
1.01
 22
10.3126
 32
0.0
 13
-1.1085
 23
10.3126
 33
0.0
  0
SOLID
  5
51F
100
AcDbEntity
  8
0
100
AcDbTrace
 10
1.01
 20
10.5226
 30
0.0
 11
-1.1085
 21
10.5226
 31
0.0
 12
1.01
 22
10.3726
 32
0.0
 13
-1.1085
 23
10.3726
 33
0.0
  0
CIRCLE
  5
520
100
AcDbEntity
  8
0
100
AcDbCircle
 10
0.55
 20
8.6666
 30
0.0
 40
0.24
  0
TEXT
  5
521
100
AcDbEntity
  8
TEXT
100
AcDbText
 10
-0.03531
 20
8.6166
 30
0.0
 40
0.1
  1
Run
 72
     2
 11
0.231357
 21
8.6666
 31
0.0
100
AcDbText
 73
     2
  0
TEXT
  5
522
100
AcDbEntity
  8
TEXT
100
AcDbText
 10
0.367705
 20
8.211776
 30
0.0
 40
0.1
  1
Stop
 72
     2
 11
0.734372
 21
8.261776
 31
0.0
100
AcDbText
 73
     2
  0
TEXT
  5
523
100
AcDbEntity
  8
TEXT
100
AcDbText
 10
-1.0085
 20
7.7636
 30
0.0
 40
0.1
  1
Programmble Industrial Computer
 50
360.0
 41
0.669244
 72
     5
 11
0.91
 21
7.7636
 31
0.0
100
AcDbText
  0
TEXT
  5
524
100
AcDbEntity
  8
TEXT
100
AcDbText
 10
-1.0085
 20
8.0036
 30
0.0
 40
0.14
  1
G&L Motion Control
 50
360.0
 41
0.913571
 72
     5
 11
0.91
 21
8.0036
 31
0.0
100
AcDbText
  0
LINE
  5
525
100
AcDbEntity
  8
0
100
AcDbLine
 10
-0.31
 20
7.1016
 30
0.0
 11
-0.31
 21
1.33285
 31
0.0
  0
LINE
  5
526
100
AcDbEntity
  8
0
100
AcDbLine
 10
0.79
 20
1.2766
 30
0.0
 11
0.79
 21
1.1766
 31
0.0
  0
LINE
  5
527
100
AcDbEntity
  8
0
100
AcDbLine
 10
-1.19
 20
1.2766
 30
0.0
 11
1.19
 21
1.2766
 31
0.0
  0
LINE
  5
528
100
AcDbEntity
  8
0
100
AcDbLine
 10
-0.31
 20
7.1016
 30
0.0
 11
1.19
 21
7.1016
 31
0.0
  0
LINE
  5
529
100
AcDbEntity
  8
0
100
AcDbLine
 10
1.11
 20
7.1016
 30
0.0
 11
1.11
 21
1.3016
 31
0.0
  0
LINE
  5
52A
100
AcDbEntity
  8
0
100
AcDbLine
 10
1.07
 20
7.1016
 30
0.0
 11
1.07
 21
1.3016
 31
0.0
  0
LINE
  5
52B
100
AcDbEntity
  8
0
100
AcDbLine
 10
0.0605
 20
7.1016
 30
0.0
 11
0.0605
 21
1.3016
 31
0.0
  0
LINE
  5
52C
100
AcDbEntity
  8
HID
100
AcDbLine
 10
0.0625
 20
7.1316
 30
0.0
 11
0.0625
 21
7.0616
 31
0.0
  0
LINE
  5
52D
100
AcDbEntity
  8
HID
100
AcDbLine
 10
-0.0175
 20
7.1316
 30
0.0
 11
-0.0175
 21
7.0616
 31
0.0
  0
LINE
  5
52E
100
AcDbEntity
  8
HID
100
AcDbLine
 10
-0.0175
 20
7.0616
 30
0.0
 11
0.0625
 21
7.0616
 31
0.0
  0
LINE
  5
52F
100
AcDbEntity
  8
0
100
AcDbLine
 10
-1.1085
 20
7.0501
 30
0.0
 11
-1.1085
 21
1.4266
 31
0.0
  0
LINE
  5
530
100
AcDbEntity
  8
0
100
AcDbLine
 10
-1.19
 20
7.0501
 30
0.0
 11
-1.1085
 21
7.0501
 31
0.0
  0
LINE
  5
531
100
AcDbEntity
  8
0
100
AcDbLine
 10
-1.19
 20
1.4266
 30
0.0
 11
-1.1085
 21
1.4266
 31
0.0
  0
LINE
  5
532
100
AcDbEntity
  8
HID
100
AcDbLine
 10
0.51
 20
5.4891
 30
0.0
 11
0.94
 21
5.4891
 31
0.0
  0
LINE
  5
533
100
AcDbEntity
  8
HID
100
AcDbLine
 10
0.94
 20
6.1616
 30
0.0
 11
0.94
 21
5.4891
 31
0.0
  0
LINE
  5
534
100
AcDbEntity
  8
HID
100
AcDbLine
 10
0.51
 20
6.1816
 30
0.0
 11
0.94
 21
6.1816
 31
0.0
  0
LINE
  5
535
100
AcDbEntity
  8
HID
100
AcDbLine
 10
0.51
 20
6.1616
 30
0.0
 11
0.51
 21
5.4891
 31
0.0
  0
LINE
  5
536
100
AcDbEntity
  8
HID
100
AcDbLine
 10
0.51
 20
6.9316
 30
0.0
 11
0.94
 21
6.9316
 31
0.0
  0
LINE
  5
537
100
AcDbEntity
  8
HID
100
AcDbLine
 10
0.94
 20
6.9316
 30
0.0
 11
0.94
 21
6.1816
 31
0.0
  0
TEXT
  5
538
100
AcDbEntity
  8
TEXT
100
AcDbText
 10
0.06469
 20
6.796836
 30
0.0
 40
0.1
  1
ON
 72
     2
 11
0.231357
 21
6.846836
 31
0.0
100
AcDbText
 73
     2
  0
TEXT
  5
539
100
AcDbEntity
  8
TEXT
100
AcDbText
 10
-0.03531
 20
6.271064
 30
0.0
 40
0.1
  1
OFF
 72
     2
 11
0.231357
 21
6.321064
 31
0.0
100
AcDbText
 73
     2
  0
TEXT
  5
53A
100
AcDbEntity
  8
TEXT
100
AcDbText
 10
-0.368643
 20
6.063416
 30
0.0
 40
0.1
  1
L/LINE1
 72
     2
 11
0.231357
 21
6.113416
 31
0.0
100
AcDbText
 73
     2
  0
TEXT
  5
53B
100
AcDbEntity
  8
TEXT
100
AcDbText
 10
-0.33531
 20
5.485492
 30
0.0
 40
0.1
  1
E/GRND
 72
     2
 11
0.231357
 21
5.535492
 31
0.0
100
AcDbText
 73
     2
  0
TEXT
  5
53C
100
AcDbEntity
  8
TEXT
100
AcDbText
 10
-0.401976
 20
5.75758
 30
0.0
 40
0.1
  1
L/LINE2
 72
     2
 11
0.231357
 21
5.80758
 31
0.0
100
AcDbText
 73
     2
  0
INSERT
  5
53D
100
AcDbEntity
  8
HID
100
AcDbBlockReference
  2
PIC_PCON
 10
0.96975
 20
5.52635
 30
0.0
  0
LINE
  5
53E
100
AcDbEntity
  8
HID
100
AcDbLine
 10
0.9055
 20
6.8716
 30
0.0
 11
0.9055
 21
6.2416
 31
0.0
  0
LINE
  5
53F
100
AcDbEntity
  8
HID
100
AcDbLine
 10
0.5445
 20
6.8716
 30
0.0
 11
0.5445
 21
6.2416
 31
0.0
  0
LINE
  5
540
100
AcDbEntity
  8
HID
100
AcDbLine
 10
0.5445
 20
6.8716
 30
0.0
 11
0.9055
 21
6.8716
 31
0.0
  0
LINE
  5
541
100
AcDbEntity
  8
HID
100
AcDbLine
 10
0.5445
 20
6.2416
 30
0.0
 11
0.9055
 21
6.2416
 31
0.0
  0
LINE
  5
542
100
AcDbEntity
  8
HID
100
AcDbLine
 10
0.51
 20
6.9316
 30
0.0
 11
0.51
 21
6.1816
 31
0.0
  0
LINE
  5
543
100
AcDbEntity
  8
HID
100
AcDbLine
 10
0.9055
 20
6.5566
 30
0.0
 11
0.5445
 21
6.5566
 31
0.0
  0
TEXT
  5
544
100
AcDbEntity
  8
TEXT
100
AcDbText
 10
-1.0085
 20
8.308051
 30
0.0
 40
0.14
  1
PiC90        
 50
360.0
 41
1.126321
 72
     5
 11
0.91
 21
8.308051
 31
0.0
100
AcDbText
  0
LINE
  5
545
100
AcDbEntity
  8
HID
100
AcDbLine
 10
0.51
 20
6.1616
 30
0.0
 11
0.94
 21
6.1616
 31
0.0
  0
INSERT
  5
546
100
AcDbEntity
  8
0
100
AcDbBlockReference
  2
PCON_2
 10
0.96975
 20
3.8316
 30
0.0
  0
ENDBLK
  5
548
100
AcDbEntity
  8
0
100
AcDbBlockEnd
  0
ENDSEC
  0
SECTION
  2
ENTITIES
  0
LINE
  5
17C
100
AcDbEntity
  8
0
100
AcDbLine
 10
2.836253
 20
-5.0584
 30
0.0
 11
4.363753
 21
-5.0584
 31
0.0
  0
LINE
  5
17D
100
AcDbEntity
  8
0
100
AcDbLine
 10
2.836253
 20
4.7416
 30
0.0
 11
4.363753
 21
4.7416
 31
0.0
  0
LINE
  5
17E
100
AcDbEntity
  8
0
100
AcDbLine
 10
2.805003
 20
4.71035
 30
0.0
 11
2.805003
 21
-5.02715
 31
0.0
  0
LINE
  5
17F
100
AcDbEntity
  8
0
100
AcDbLine
 10
4.395003
 20
4.71035
 30
0.0
 11
4.395003
 21
-5.02715
 31
0.0
  0
LINE
  5
180
100
AcDbEntity
  8
0
100
AcDbLine
 10
4.026253
 20
-4.9384
 30
0.0
 11
4.395003
 21
-4.9384
 31
0.0
  0
LINE
  5
181
100
AcDbEntity
  8
0
100
AcDbLine
 10
3.995003
 20
-4.96965
 30
0.0
 11
3.995003
 21
-5.0584
 31
0.0
  0
LINE
  5
182
100
AcDbEntity
  8
0
100
AcDbLine
 10
2.913753
 20
-4.9334
 30
0.0
 11
4.395003
 21
-4.9334
 31
0.0
  0
LINE
  5
183
100
AcDbEntity
  8
0
100
AcDbLine
 10
2.913753
 20
0.8916
 30
0.0
 11
4.395003
 21
0.8916
 31
0.0
  0
LINE
  5
184
100
AcDbEntity
  8
0
100
AcDbLine
 10
2.882503
 20
0.86035
 30
0.0
 11
2.882503
 21
-4.90215
 31
0.0
  0
LINE
  5
185
100
AcDbEntity
  8
0
100
AcDbLine
 10
2.805003
 20
0.8966
 30
0.0
 11
4.395003
 21
0.8966
 31
0.0
  0
LINE
  5
186
100
AcDbEntity
  8
0
100
AcDbLine
 10
2.891003
 20
0.9766
 30
0.0
 11
4.395003
 21
0.9766
 31
0.0
  0
LINE
  5
187
100
AcDbEntity
  8
0
100
AcDbLine
 10
2.891003
 20
4.6496
 30
0.0
 11
2.891003
 21
0.9766
 31
0.0
  0
LINE
  5
188
100
AcDbEntity
  8
0
100
AcDbLine
 10
4.395003
 20
4.6716
 30
0.0
 11
2.891003
 21
4.6496
 31
0.0
  0
LINE
  5
189
100
AcDbEntity
  8
0
100
AcDbLine
 10
4.311503
 20
4.5376
 30
0.0
 11
4.311503
 21
1.2031
 31
0.0
  0
LINE
  5
18A
100
AcDbEntity
  8
0
100
AcDbLine
 10
4.244503
 20
4.4706
 30
0.0
 11
4.244503
 21
1.2701
 31
0.0
  0
LINE
  5
18B
100
AcDbEntity
  8
0
100
AcDbLine
 10
2.891003
 20
4.4706
 30
0.0
 11
4.244503
 21
4.4706
 31
0.0
  0
LINE
  5
18C
100
AcDbEntity
  8
0
100
AcDbLine
 10
2.891003
 20
4.5376
 30
0.0
 11
4.311503
 21
4.5376
 31
0.0
  0
LINE
  5
18D
100
AcDbEntity
  8
0
100
AcDbLine
 10
2.891003
 20
1.2031
 30
0.0
 11
4.311503
 21
1.2031
 31
0.0
  0
LINE
  5
18E
100
AcDbEntity
  8
0
100
AcDbLine
 10
2.891003
 20
1.2701
 30
0.0
 11
4.244503
 21
1.2701
 31
0.0
  0
TEXT
  5
18F
100
AcDbEntity
  8
TEXT
100
AcDbText
 10
3.350003
 20
0.3966
 30
0.0
 40
0.25
  1
PiC
 72
     1
 11
3.600003
 21
0.3966
 31
0.0
100
AcDbText
  0
LINE
  5
190
100
AcDbEntity
  8
0
100
AcDbLine
 10
2.891003
 20
4.2876
 30
0.0
 11
4.244503
 21
4.2876
 31
0.0
  0
LINE
  5
191
100
AcDbEntity
  8
0
100
AcDbLine
 10
2.891003
 20
4.1376
 30
0.0
 11
4.244503
 21
4.1376
 31
0.0
  0
LINE
  5
192
100
AcDbEntity
  8
0
100
AcDbLine
 10
2.891003
 20
4.0776
 30
0.0
 11
4.244503
 21
4.0776
 31
0.0
  0
LINE
  5
193
100
AcDbEntity
  8
0
100
AcDbLine
 10
2.891003
 20
4.1176
 30
0.0
 11
4.244503
 21
4.1176
 31
0.0
  0
SOLID
  5
194
100
AcDbEntity
  8
0
100
AcDbTrace
 10
2.891003
 20
4.2876
 30
0.0
 11
2.891003
 21
4.1376
 31
0.0
 12
4.244503
 22
4.2876
 32
0.0
 13
4.244503
 23
4.1376
 33
0.0
  0
SOLID
  5
195
100
AcDbEntity
  8
0
100
AcDbTrace
 10
2.891003
 20
4.1176
 30
0.0
 11
2.891003
 21
4.0776
 31
0.0
 12
4.244503
 22
4.1176
 32
0.0
 13
4.244503
 23
4.0776
 33
0.0
  0
TEXT
  5
196
100
AcDbEntity
  8
TEXT
100
AcDbText
 10
2.921003
 20
4.3176
 30
0.0
 40
0.1
  1
IN/OUT?
100
AcDbText
  0
TEXT
  5
197
100
AcDbEntity
  8
TEXT
100
AcDbText
 10
3.877003
 20
4.3176
 30
0.0
 40
0.075
  1
Type?
 72
     2
 11
4.214503
 21
4.3176
 31
0.0
100
AcDbText
  0
LINE
  5
198
100
AcDbEntity
  8
0
100
AcDbLine
 10
3.994503
 20
4.0476
 30
0.0
 11
3.994503
 21
3.8976
 31
0.0
  0
LINE
  5
199
100
AcDbEntity
  8
0
100
AcDbLine
 10
3.844503
 20
4.0476
 30
0.0
 11
3.994503
 21
4.0476
 31
0.0
  0
LINE
  5
19A
100
AcDbEntity
  8
0
100
AcDbLine
 10
3.844503
 20
3.8976
 30
0.0
 11
3.994503
 21
3.8976
 31
0.0
  0
LINE
  5
19B
100
AcDbEntity
  8
0
100
AcDbLine
 10
3.844503
 20
4.0476
 30
0.0
 11
3.844503
 21
3.8976
 31
0.0
  0
TEXT
  5
19C
100
AcDbEntity
  8
TEXT
100
AcDbText
 10
3.461169
 20
3.9226
 30
0.0
 40
0.1
  1
DIAG
 72
     2
 11
3.794503
 21
3.9226
 31
0.0
100
AcDbText
  0
SOLID
  5
19D
100
AcDbEntity
  8
0
100
AcDbTrace
 10
3.844503
 20
4.0476
 30
0.0
 11
3.994503
 21
4.0476
 31
0.0
 12
3.844503
 22
3.8976
 32
0.0
 13
3.994503
 23
3.8976
 33
0.0
  0
LINE
  5
19E
100
AcDbEntity
  8
0
100
AcDbLine
 10
3.141253
 20
5.615
 30
0.0
 11
4.058753
 21
5.615
 31
0.0
  0
LINE
  5
19F
100
AcDbEntity
  8
0
100
AcDbLine
 10
3.110003
 20
5.3375
 30
0.0
 11
4.090003
 21
5.3375
 31
0.0
  0
LINE
  5
1A0
100
AcDbEntity
  8
0
100
AcDbLine
 10
4.090003
 20
5.58375
 30
0.0
 11
4.090003
 21
4.7416
 31
0.0
  0
LINE
  5
1A1
100
AcDbEntity
  8
0
100
AcDbLine
 10
3.110003
 20
5.58375
 30
0.0
 11
3.110003
 21
4.7416
 31
0.0
  0
LINE
  5
1A2
100
AcDbEntity
  8
0
100
AcDbLine
 10
3.662503
 20
5.3375
 30
0.0
 11
3.662503
 21
5.24625
 31
0.0
  0
LINE
  5
1A3
100
AcDbEntity
  8
0
100
AcDbLine
 10
3.537503
 20
5.3375
 30
0.0
 11
3.537503
 21
5.24625
 31
0.0
  0
LINE
  5
1A4
100
AcDbEntity
  8
0
100
AcDbLine
 10
3.568753
 20
5.215
 30
0.0
 11
3.631253
 21
5.215
 31
0.0
  0
ARC
  5
1A5
100
AcDbEntity
  8
0
100
AcDbCircle
 10
4.058753
 20
5.58375
 30
0.0
 40
0.03125
100
AcDbArc
 50
0.0
 51
90.0
  0
ARC
  5
1A6
100
AcDbEntity
  8
0
100
AcDbCircle
 10
3.141253
 20
5.58375
 30
0.0
 40
0.03125
100
AcDbArc
 50
90.0
 51
180.0
  0
ARC
  5
1A7
100
AcDbEntity
  8
0
100
AcDbCircle
 10
2.836253
 20
4.71035
 30
0.0
 40
0.03125
100
AcDbArc
 50
90.0
 51
180.0
  0
ARC
  5
1A8
100
AcDbEntity
  8
0
100
AcDbCircle
 10
4.363753
 20
4.71035
 30
0.0
 40
0.03125
100
AcDbArc
 50
0.0
 51
90.0
  0
ARC
  5
1A9
100
AcDbEntity
  8
0
100
AcDbCircle
 10
3.631253
 20
5.24625
 30
0.0
 40
0.03125
100
AcDbArc
 50
270.0
 51
360.0
  0
ARC
  5
1AA
100
AcDbEntity
  8
0
100
AcDbCircle
 10
3.568753
 20
5.24625
 30
0.0
 40
0.03125
100
AcDbArc
 50
180.0
 51
270.0
  0
ARC
  5
1AB
100
AcDbEntity
  8
0
100
AcDbCircle
 10
2.836253
 20
-5.02715
 30
0.0
 40
0.03125
100
AcDbArc
 50
180.0
 51
270.0
  0
ARC
  5
1AC
100
AcDbEntity
  8
0
100
AcDbCircle
 10
4.363753
 20
-5.02715
 30
0.0
 40
0.03125
100
AcDbArc
 50
270.0
 51
0.0
  0
ARC
  5
1AD
100
AcDbEntity
  8
0
100
AcDbCircle
 10
2.913753
 20
-4.90215
 30
0.0
 40
0.03125
100
AcDbArc
 50
180.0
 51
270.0
  0
ARC
  5
1AE
100
AcDbEntity
  8
0
100
AcDbCircle
 10
4.026253
 20
-4.96965
 30
0.0
 40
0.03125
100
AcDbArc
 50
90.0
 51
180.0
  0
ARC
  5
1AF
100
AcDbEntity
  8
0
100
AcDbCircle
 10
2.913753
 20
0.86035
 30
0.0
 40
0.03125
100
AcDbArc
 50
90.0
 51
180.0
  0
TEXT
  5
1BA
100
AcDbEntity
  8
TEXT
100
AcDbText
 10
3.226086
 20
1.4201
 30
0.0
 40
0.1
  1
Part #:?
 72
     1
 11
3.567753
 21
1.4201
 31
0.0
100
AcDbText
  0
LINE
  5
1BB
100
AcDbEntity
  8
L1
  6
CONTINUOUS
 62
     7
100
AcDbLine
 10
3.1
 20
-6.985
 30
0.0
 11
3.837
 21
-6.985
 31
0.0
  0
LINE
  5
1BC
100
AcDbEntity
  8
L1
  6
CONTINUOUS
 62
     7
100
AcDbLine
 10
-3.9
 20
-6.485
 30
0.0
 11
-3.9
 21
-6.922
 31
0.0
  0
LINE
  5
1BD
100
AcDbEntity
  8
L1
  6
CONTINUOUS
 62
     7
100
AcDbLine
 10
3.9
 20
-6.484999
 30
0.0
 11
3.9
 21
-6.922
 31
0.0
  0
LINE
  5
1BE
100
AcDbEntity
  8
L1
  6
CONTINUOUS
 62
     7
100
AcDbLine
 10
-3.9
 20
6.921998
 30
0.0
 11
-3.9
 21
5.828998
 31
0.0
  0
LINE
  5
1BF
100
AcDbEntity
  8
L1
  6
CONTINUOUS
 62
     7
100
AcDbLine
 10
3.9
 20
6.921998
 30
0.0
 11
3.9
 21
5.828998
 31
0.0
  0
ARC
  5
1C0
100
AcDbEntity
  8
L1
  6
CONTINUOUS
 62
     7
100
AcDbCircle
 10
-3.0
 20
6.297998
 30
0.0
 40
0.225
100
AcDbArc
 50
116.3878
 51
0.0
  0
LINE
  5
1C1
100
AcDbEntity
  8
L1
  6
CONTINUOUS
 62
     7
100
AcDbLine
 10
-3.099999
 20
6.499548
 30
0.0
 11
-3.099999
 21
6.634998
 31
0.0
  0
LINE
  5
1C2
100
AcDbEntity
  8
L1
  6
CONTINUOUS
 62
     7
100
AcDbLine
 10
-2.9
 20
6.499548
 30
0.0
 11
-2.9
 21
6.634998
 31
0.0
  0
ARC
  5
1C3
100
AcDbEntity
  8
L1
  6
CONTINUOUS
 62
     7
100
AcDbCircle
 10
-3.0
 20
6.297998
 30
0.0
 40
0.225
100
AcDbArc
 50
0.0
 51
63.61214
  0
ARC
  5
1C4
100
AcDbEntity
  8
L1
  6
CONTINUOUS
 62
     7
100
AcDbCircle
 10
-3.0
 20
6.634998
 30
0.0
 40
0.1
100
AcDbArc
 50
0.0
 51
180.0
  0
ARC
  5
1C5
100
AcDbEntity
  8
L1
  6
CONTINUOUS
 62
     7
100
AcDbCircle
 10
3.0
 20
6.297998
 30
0.0
 40
0.225
100
AcDbArc
 50
180.0
 51
63.61218
  0
LINE
  5
1C6
100
AcDbEntity
  8
L1
  6
CONTINUOUS
 62
     7
100
AcDbLine
 10
3.1
 20
6.499548
 30
0.0
 11
3.1
 21
6.634998
 31
0.0
  0
LINE
  5
1C7
100
AcDbEntity
  8
L1
  6
CONTINUOUS
 62
     7
100
AcDbLine
 10
2.9
 20
6.499548
 30
0.0
 11
2.9
 21
6.634998
 31
0.0
  0
ARC
  5
1C8
100
AcDbEntity
  8
L1
  6
CONTINUOUS
 62
     7
100
AcDbCircle
 10
3.0
 20
6.297998
 30
0.0
 40
0.225
100
AcDbArc
 50
116.3879
 51
180.0
  0
ARC
  5
1C9
100
AcDbEntity
  8
L1
  6
CONTINUOUS
 62
     7
100
AcDbCircle
 10
3.0
 20
6.634998
 30
0.0
 40
0.1
100
AcDbArc
 50
0.000015
 51
180.0
  0
POINT
  5
1CA
100
AcDbEntity
  8
L1
 62
     6
100
AcDbPoint
 10
4.145
 20
-4.935
 30
0.0
  0
ARC
  5
1CB
100
AcDbEntity
  8
L1
  6
CONTINUOUS
 62
     7
100
AcDbCircle
 10
-3.837
 20
6.921998
 30
0.0
 40
0.063
100
AcDbArc
 50
90.0
 51
180.0
  0
ARC
  5
1CC
100
AcDbEntity
  8
L1
  6
CONTINUOUS
 62
     7
100
AcDbCircle
 10
-3.837
 20
-6.922
 30
0.0
 40
0.063
100
AcDbArc
 50
180.0
 51
270.0
  0
ARC
  5
1CD
100
AcDbEntity
  8
L1
  6
CONTINUOUS
 62
     7
100
AcDbCircle
 10
3.837
 20
-6.922
 30
0.0
 40
0.063
100
AcDbArc
 50
270.00001
 51
0.0
  0
ARC
  5
1CE
100
AcDbEntity
  8
L1
  6
CONTINUOUS
 62
     7
100
AcDbCircle
 10
3.837
 20
6.921998
 30
0.0
 40
0.063
100
AcDbArc
 50
0.0
 51
89.99999
  0
LINE
  5
1D3
100
AcDbEntity
  8
L1
  6
CONTINUOUS
 62
     7
100
AcDbLine
 10
-1.719999
 20
-5.235
 30
0.0
 11
-1.719999
 21
-6.235
 31
0.0
  0
LINE
  5
1D4
100
AcDbEntity
  8
L1
  6
CONTINUOUS
 62
     7
100
AcDbLine
 10
-0.679999
 20
-5.235
 30
0.0
 11
-0.679999
 21
-6.235
 31
0.0
  0
LINE
  5
1D5
100
AcDbEntity
  8
L1
  6
CONTINUOUS
 62
     7
100
AcDbLine
 10
-1.719999
 20
-5.235
 30
0.0
 11
-0.679999
 21
-5.235
 31
0.0
  0
LINE
  5
1D6
100
AcDbEntity
  8
L1
  6
CONTINUOUS
 62
     7
100
AcDbLine
 10
-1.719999
 20
-6.235
 30
0.0
 11
-0.679999
 21
-6.235
 31
0.0
  0
LINE
  5
1FA
100
AcDbEntity
  8
L1
  6
CONTINUOUS
 62
     7
100
AcDbLine
 10
3.1
 20
-6.735
 30
0.0
 11
3.1
 21
-6.985
 31
0.0
  0
LINE
  5
1FB
100
AcDbEntity
  8
L1
  6
CONTINUOUS
 62
     7
100
AcDbLine
 10
2.9
 20
-6.735
 30
0.0
 11
2.9
 21
-6.985
 31
0.0
  0
ARC
  5
1FC
100
AcDbEntity
  8
L1
  6
CONTINUOUS
 62
     7
100
AcDbCircle
 10
3.0
 20
-6.735
 30
0.0
 40
0.1
100
AcDbArc
 50
0.000027
 51
180.0
  0
LINE
  5
1FD
100
AcDbEntity
  8
L1
  6
CONTINUOUS
 62
     7
100
AcDbLine
 10
-2.899998
 20
-6.735
 30
0.0
 11
-2.899998
 21
-6.985
 31
0.0
  0
LINE
  5
1FE
100
AcDbEntity
  8
L1
  6
CONTINUOUS
 62
     7
100
AcDbLine
 10
-3.099999
 20
-6.735
 30
0.0
 11
-3.099999
 21
-6.985
 31
0.0
  0
ARC
  5
1FF
100
AcDbEntity
  8
L1
  6
CONTINUOUS
 62
     7
100
AcDbCircle
 10
-3.0
 20
-6.735
 30
0.0
 40
0.1
100
AcDbArc
 50
0.000027
 51
180.0
  0
LINE
  5
200
100
AcDbEntity
  8
L1
  6
CONTINUOUS
 62
     7
100
AcDbLine
 10
-3.837
 20
-6.985
 30
0.0
 11
-3.099999
 21
-6.985
 31
0.0
  0
LINE
  5
201
100
AcDbEntity
  8
L1
  6
CONTINUOUS
 62
     7
100
AcDbLine
 10
-3.9
 20
6.921998
 30
0.0
 11
-3.9
 21
5.847998
 31
0.0
  0
LINE
  5
202
100
AcDbEntity
  8
L1
  6
CONTINUOUS
 62
     7
100
AcDbLine
 10
3.9
 20
6.921998
 30
0.0
 11
3.9
 21
5.847998
 31
0.0
  0
ARC
  5
203
100
AcDbEntity
  8
L1
  6
CONTINUOUS
 62
     7
100
AcDbCircle
 10
-3.0
 20
6.297998
 30
0.0
 40
0.225
100
AcDbArc
 50
116.3878
 51
0.0
  0
LINE
  5
204
100
AcDbEntity
  8
L1
  6
CONTINUOUS
 62
     7
100
AcDbLine
 10
-3.099999
 20
6.499548
 30
0.0
 11
-3.099999
 21
6.634998
 31
0.0
  0
LINE
  5
205
100
AcDbEntity
  8
L1
  6
CONTINUOUS
 62
     7
100
AcDbLine
 10
-2.9
 20
6.499548
 30
0.0
 11
-2.9
 21
6.634998
 31
0.0
  0
ARC
  5
206
100
AcDbEntity
  8
L1
  6
CONTINUOUS
 62
     7
100
AcDbCircle
 10
-3.0
 20
6.297998
 30
0.0
 40
0.225
100
AcDbArc
 50
0.0
 51
63.61214
  0
ARC
  5
207
100
AcDbEntity
  8
L1
  6
CONTINUOUS
 62
     7
100
AcDbCircle
 10
-3.0
 20
6.634998
 30
0.0
 40
0.1
100
AcDbArc
 50
0.0
 51
180.0
  0
ARC
  5
208
100
AcDbEntity
  8
L1
  6
CONTINUOUS
 62
     7
100
AcDbCircle
 10
3.0
 20
6.297998
 30
0.0
 40
0.225
100
AcDbArc
 50
180.0
 51
63.61218
  0
LINE
  5
209
100
AcDbEntity
  8
L1
  6
CONTINUOUS
 62
     7
100
AcDbLine
 10
3.1
 20
6.499548
 30
0.0
 11
3.1
 21
6.634998
 31
0.0
  0
LINE
  5
20A
100
AcDbEntity
  8
L1
  6
CONTINUOUS
 62
     7
100
AcDbLine
 10
2.9
 20
6.499548
 30
0.0
 11
2.9
 21
6.634998
 31
0.0
  0
ARC
  5
20B
100
AcDbEntity
  8
L1
  6
CONTINUOUS
 62
     7
100
AcDbCircle
 10
3.0
 20
6.297998
 30
0.0
 40
0.225
100
AcDbArc
 50
116.3879
 51
180.0
  0
ARC
  5
20C
100
AcDbEntity
  8
L1
  6
CONTINUOUS
 62
     7
100
AcDbCircle
 10
3.0
 20
6.634998
 30
0.0
 40
0.1
100
AcDbArc
 50
0.000015
 51
180.0
  0
ARC
  5
20D
100
AcDbEntity
  8
L1
  6
CONTINUOUS
 62
     7
100
AcDbCircle
 10
-3.837
 20
6.921998
 30
0.0
 40
0.063
100
AcDbArc
 50
90.0
 51
180.0
  0
ARC
  5
20E
100
AcDbEntity
  8
L1
  6
CONTINUOUS
 62
     7
100
AcDbCircle
 10
3.837
 20
6.921998
 30
0.0
 40
0.063
100
AcDbArc
 50
0.0
 51
89.99999
  0
LINE
  5
20F
100
AcDbEntity
  8
L1
  6
CONTINUOUS
 62
     7
100
AcDbLine
 10
3.1
 20
-6.985
 30
0.0
 11
3.837
 21
-6.985
 31
0.0
  0
LINE
  5
210
100
AcDbEntity
  8
L1
  6
CONTINUOUS
 62
     7
100
AcDbLine
 10
-3.9
 20
-6.485
 30
0.0
 11
-3.9
 21
-6.922
 31
0.0
  0
ARC
  5
211
100
AcDbEntity
  8
L1
  6
CONTINUOUS
 62
     7
100
AcDbCircle
 10
-3.837
 20
-6.922
 30
0.0
 40
0.063
100
AcDbArc
 50
180.0
 51
270.0
  0
ARC
  5
212
100
AcDbEntity
  8
L1
  6
CONTINUOUS
 62
     7
100
AcDbCircle
 10
3.837
 20
-6.922
 30
0.0
 40
0.063
100
AcDbArc
 50
270.00001
 51
0.0
  0
LINE
  5
213
100
AcDbEntity
  8
L1
  6
CONTINUOUS
 62
     7
100
AcDbLine
 10
3.1
 20
-6.735
 30
0.0
 11
3.1
 21
-6.985
 31
0.0
  0
LINE
  5
214
100
AcDbEntity
  8
L1
  6
CONTINUOUS
 62
     7
100
AcDbLine
 10
2.9
 20
-6.735
 30
0.0
 11
2.9
 21
-6.985
 31
0.0
  0
ARC
  5
215
100
AcDbEntity
  8
L1
  6
CONTINUOUS
 62
     7
100
AcDbCircle
 10
3.0
 20
-6.735
 30
0.0
 40
0.1
100
AcDbArc
 50
0.000027
 51
180.0
  0
LINE
  5
216
100
AcDbEntity
  8
L1
  6
CONTINUOUS
 62
     7
100
AcDbLine
 10
-2.899998
 20
-6.735
 30
0.0
 11
-2.899998
 21
-6.985
 31
0.0
  0
LINE
  5
217
100
AcDbEntity
  8
L1
  6
CONTINUOUS
 62
     7
100
AcDbLine
 10
-3.099999
 20
-6.735
 30
0.0
 11
-3.099999
 21
-6.985
 31
0.0
  0
ARC
  5
218
100
AcDbEntity
  8
L1
  6
CONTINUOUS
 62
     7
100
AcDbCircle
 10
-3.0
 20
-6.735
 30
0.0
 40
0.1
100
AcDbArc
 50
0.000027
 51
180.0
  0
LINE
  5
219
100
AcDbEntity
  8
L1
  6
CONTINUOUS
 62
     7
100
AcDbLine
 10
-3.837
 20
-6.985
 30
0.0
 11
-3.099999
 21
-6.985
 31
0.0
  0
LINE
  5
21A
100
AcDbEntity
  8
L1
  6
CONTINUOUS
 62
     7
100
AcDbLine
 10
-4.4
 20
-6.422
 30
0.0
 11
-4.4
 21
5.721998
 31
0.0
  0
LINE
  5
21B
100
AcDbEntity
  8
L1
  6
CONTINUOUS
 62
     7
100
AcDbLine
 10
-3.9
 20
-6.485
 30
0.0
 11
-4.337
 21
-6.485
 31
0.0
  0
LINE
  5
21C
100
AcDbEntity
  8
L1
  6
CONTINUOUS
 62
     7
100
AcDbLine
 10
-4.4
 20
-6.422
 30
0.0
 11
-4.4
 21
5.765998
 31
0.0
  0
LINE
  5
21D
100
AcDbEntity
  8
L1
  6
DASHED
 62
     7
100
AcDbLine
 10
-4.336998
 20
-6.485
 30
0.0
 11
-4.336998
 21
5.828998
 31
0.0
  0
LINE
  5
21E
100
AcDbEntity
  8
L1
  6
DASHED
 62
     1
100
AcDbLine
 10
-3.0
 20
-6.735
 30
0.0
 11
-2.842332
 21
-6.735
 31
0.0
  0
LINE
  5
21F
100
AcDbEntity
  8
L1
  6
DASHED
 62
     1
100
AcDbLine
 10
-3.0
 20
-6.735
 30
0.0
 11
-3.14892
 21
-6.735
 31
0.0
  0
LINE
  5
220
100
AcDbEntity
  8
L1
  6
DASHED
 62
     1
100
AcDbLine
 10
-3.0
 20
-6.735
 30
0.0
 11
-3.0
 21
-6.589284
 31
0.0
  0
LINE
  5
221
100
AcDbEntity
  8
L1
  6
DASHED
 62
     1
100
AcDbLine
 10
-3.0
 20
-6.735
 30
0.0
 11
-3.0
 21
-6.881649
 31
0.0
  0
LINE
  5
222
100
AcDbEntity
  8
L1
  6
DASHED
 62
     1
100
AcDbLine
 10
3.0
 20
-6.735
 30
0.0
 11
3.15767
 21
-6.735
 31
0.0
  0
LINE
  5
223
100
AcDbEntity
  8
L1
  6
DASHED
 62
     1
100
AcDbLine
 10
3.0
 20
-6.735
 30
0.0
 11
2.85108
 21
-6.735
 31
0.0
  0
LINE
  5
224
100
AcDbEntity
  8
L1
  6
DASHED
 62
     1
100
AcDbLine
 10
3.0
 20
-6.735
 30
0.0
 11
3.0
 21
-6.589284
 31
0.0
  0
LINE
  5
225
100
AcDbEntity
  8
L1
  6
DASHED
 62
     1
100
AcDbLine
 10
3.0
 20
-6.735
 30
0.0
 11
3.0
 21
-6.881649
 31
0.0
  0
LINE
  5
226
100
AcDbEntity
  8
L1
  6
DASHED
 62
     1
100
AcDbLine
 10
-3.0
 20
6.634998
 30
0.0
 11
-2.842332
 21
6.634998
 31
0.0
  0
LINE
  5
227
100
AcDbEntity
  8
L1
  6
DASHED
 62
     1
100
AcDbLine
 10
-3.0
 20
6.634998
 30
0.0
 11
-3.14892
 21
6.634998
 31
0.0
  0
LINE
  5
228
100
AcDbEntity
  8
L1
  6
DASHED
 62
     1
100
AcDbLine
 10
-3.0
 20
6.634998
 30
0.0
 11
-3.0
 21
6.780718
 31
0.0
  0
LINE
  5
229
100
AcDbEntity
  8
L1
  6
DASHED
 62
     1
100
AcDbLine
 10
-3.0
 20
6.634998
 30
0.0
 11
-3.0
 21
6.488348
 31
0.0
  0
LINE
  5
22A
100
AcDbEntity
  8
L1
  6
DASHED
 62
     1
100
AcDbLine
 10
3.0
 20
6.634998
 30
0.0
 11
3.15767
 21
6.634998
 31
0.0
  0
LINE
  5
22B
100
AcDbEntity
  8
L1
  6
DASHED
 62
     1
100
AcDbLine
 10
3.0
 20
6.634998
 30
0.0
 11
2.85108
 21
6.634998
 31
0.0
  0
LINE
  5
22C
100
AcDbEntity
  8
L1
  6
DASHED
 62
     1
100
AcDbLine
 10
3.0
 20
6.634998
 30
0.0
 11
3.0
 21
6.780718
 31
0.0
  0
LINE
  5
22D
100
AcDbEntity
  8
L1
  6
DASHED
 62
     1
100
AcDbLine
 10
3.0
 20
6.634998
 30
0.0
 11
3.0
 21
6.488348
 31
0.0
  0
TEXT
  5
22E
100
AcDbEntity
  8
L1
  6
CONTINUOUS
 62
     1
100
AcDbText
 10
21.083334
 20
15.499691
 30
0.0
 40
0.1
  1
 
 41
0.838709
100
AcDbText
  0
LINE
  5
232
100
AcDbEntity
  8
L1
  6
CONTINUOUS
 62
     7
100
AcDbLine
 10
3.1
 20
-6.985
 30
0.0
 11
3.837
 21
-6.985
 31
0.0
  0
LINE
  5
233
100
AcDbEntity
  8
L1
  6
CONTINUOUS
 62
     7
100
AcDbLine
 10
-3.9
 20
-6.485
 30
0.0
 11
-3.9
 21
-6.922
 31
0.0
  0
LINE
  5
234
100
AcDbEntity
  8
L1
  6
CONTINUOUS
 62
     7
100
AcDbLine
 10
4.337
 20
-6.485001
 30
0.0
 11
-4.337002
 21
-6.485001
 31
0.0
  0
LINE
  5
235
100
AcDbEntity
  8
L1
  6
CONTINUOUS
 62
     7
100
AcDbLine
 10
-3.9
 20
6.921998
 30
0.0
 11
-3.9
 21
5.828998
 31
0.0
  0
LINE
  5
236
100
AcDbEntity
  8
L1
  6
CONTINUOUS
 62
     7
100
AcDbLine
 10
3.9
 20
6.921998
 30
0.0
 11
3.9
 21
5.828998
 31
0.0
  0
ARC
  5
237
100
AcDbEntity
  8
L1
  6
CONTINUOUS
 62
     7
100
AcDbCircle
 10
-3.0
 20
6.297998
 30
0.0
 40
0.225
100
AcDbArc
 50
116.3878
 51
0.0
  0
LINE
  5
238
100
AcDbEntity
  8
L1
  6
CONTINUOUS
 62
     7
100
AcDbLine
 10
-3.099999
 20
6.499548
 30
0.0
 11
-3.099999
 21
6.634998
 31
0.0
  0
LINE
  5
239
100
AcDbEntity
  8
L1
  6
CONTINUOUS
 62
     7
100
AcDbLine
 10
-2.9
 20
6.499548
 30
0.0
 11
-2.9
 21
6.634998
 31
0.0
  0
ARC
  5
23A
100
AcDbEntity
  8
L1
  6
CONTINUOUS
 62
     7
100
AcDbCircle
 10
-3.0
 20
6.297998
 30
0.0
 40
0.225
100
AcDbArc
 50
0.0
 51
63.61214
  0
ARC
  5
23B
100
AcDbEntity
  8
L1
  6
CONTINUOUS
 62
     7
100
AcDbCircle
 10
-3.0
 20
6.634998
 30
0.0
 40
0.1
100
AcDbArc
 50
0.0
 51
180.0
  0
ARC
  5
23C
100
AcDbEntity
  8
L1
  6
CONTINUOUS
 62
     7
100
AcDbCircle
 10
3.0
 20
6.297998
 30
0.0
 40
0.225
100
AcDbArc
 50
180.0
 51
63.61218
  0
LINE
  5
23D
100
AcDbEntity
  8
L1
  6
CONTINUOUS
 62
     7
100
AcDbLine
 10
3.1
 20
6.499548
 30
0.0
 11
3.1
 21
6.634998
 31
0.0
  0
LINE
  5
23E
100
AcDbEntity
  8
L1
  6
CONTINUOUS
 62
     7
100
AcDbLine
 10
2.9
 20
6.499548
 30
0.0
 11
2.9
 21
6.634998
 31
0.0
  0
ARC
  5
23F
100
AcDbEntity
  8
L1
  6
CONTINUOUS
 62
     7
100
AcDbCircle
 10
3.0
 20
6.297998
 30
0.0
 40
0.225
100
AcDbArc
 50
116.3879
 51
180.0
  0
ARC
  5
240
100
AcDbEntity
  8
L1
  6
CONTINUOUS
 62
     7
100
AcDbCircle
 10
3.0
 20
6.634998
 30
0.0
 40
0.1
100
AcDbArc
 50
0.000015
 51
180.0
  0
POINT
  5
241
100
AcDbEntity
  8
L1
 62
     6
100
AcDbPoint
 10
4.145
 20
-4.935
 30
0.0
  0
ARC
  5
242
100
AcDbEntity
  8
L1
  6
CONTINUOUS
 62
     7
100
AcDbCircle
 10
-3.837
 20
6.921998
 30
0.0
 40
0.063
100
AcDbArc
 50
90.0
 51
180.0
  0
ARC
  5
243
100
AcDbEntity
  8
L1
  6
CONTINUOUS
 62
     7
100
AcDbCircle
 10
-3.837
 20
-6.922
 30
0.0
 40
0.063
100
AcDbArc
 50
180.0
 51
270.0
  0
ARC
  5
244
100
AcDbEntity
  8
L1
  6
CONTINUOUS
 62
     7
100
AcDbCircle
 10
3.837
 20
-6.922
 30
0.0
 40
0.063
100
AcDbArc
 50
270.00001
 51
0.0
  0
ARC
  5
245
100
AcDbEntity
  8
L1
  6
CONTINUOUS
 62
     7
100
AcDbCircle
 10
3.837
 20
6.921998
 30
0.0
 40
0.063
100
AcDbArc
 50
0.0
 51
89.99999
  0
LINE
  5
24A
100
AcDbEntity
  8
L1
  6
CONTINUOUS
 62
     7
100
AcDbLine
 10
-1.719999
 20
-5.235
 30
0.0
 11
-1.719999
 21
-6.235
 31
0.0
  0
LINE
  5
24B
100
AcDbEntity
  8
L1
  6
CONTINUOUS
 62
     7
100
AcDbLine
 10
-0.679999
 20
-5.235
 30
0.0
 11
-0.679999
 21
-6.235
 31
0.0
  0
LINE
  5
24C
100
AcDbEntity
  8
L1
  6
CONTINUOUS
 62
     7
100
AcDbLine
 10
-1.719999
 20
-5.235
 30
0.0
 11
-0.679999
 21
-5.235
 31
0.0
  0
LINE
  5
24D
100
AcDbEntity
  8
L1
  6
CONTINUOUS
 62
     7
100
AcDbLine
 10
-1.719999
 20
-6.235
 30
0.0
 11
-0.679999
 21
-6.235
 31
0.0
  0
LINE
  5
271
100
AcDbEntity
  8
L1
  6
CONTINUOUS
 62
     7
100
AcDbLine
 10
3.1
 20
-6.735
 30
0.0
 11
3.1
 21
-6.985
 31
0.0
  0
LINE
  5
272
100
AcDbEntity
  8
L1
  6
CONTINUOUS
 62
     7
100
AcDbLine
 10
2.9
 20
-6.735
 30
0.0
 11
2.9
 21
-6.985
 31
0.0
  0
ARC
  5
273
100
AcDbEntity
  8
L1
  6
CONTINUOUS
 62
     7
100
AcDbCircle
 10
3.0
 20
-6.735
 30
0.0
 40
0.1
100
AcDbArc
 50
0.000027
 51
180.0
  0
LINE
  5
274
100
AcDbEntity
  8
L1
  6
CONTINUOUS
 62
     7
100
AcDbLine
 10
-2.899998
 20
-6.735
 30
0.0
 11
-2.899998
 21
-6.985
 31
0.0
  0
LINE
  5
275
100
AcDbEntity
  8
L1
  6
CONTINUOUS
 62
     7
100
AcDbLine
 10
-3.099999
 20
-6.735
 30
0.0
 11
-3.099999
 21
-6.985
 31
0.0
  0
ARC
  5
276
100
AcDbEntity
  8
L1
  6
CONTINUOUS
 62
     7
100
AcDbCircle
 10
-3.0
 20
-6.735
 30
0.0
 40
0.1
100
AcDbArc
 50
0.000027
 51
180.0
  0
LINE
  5
277
100
AcDbEntity
  8
L1
  6
CONTINUOUS
 62
     7
100
AcDbLine
 10
-3.837
 20
-6.985
 30
0.0
 11
-3.099999
 21
-6.985
 31
0.0
  0
LINE
  5
278
100
AcDbEntity
  8
L1
  6
CONTINUOUS
 62
     7
100
AcDbLine
 10
-3.837
 20
6.984998
 30
0.0
 11
3.837
 21
6.984998
 31
0.0
  0
LINE
  5
279
100
AcDbEntity
  8
L1
  6
CONTINUOUS
 62
     7
100
AcDbLine
 10
-3.9
 20
6.921998
 30
0.0
 11
-3.9
 21
5.847998
 31
0.0
  0
LINE
  5
27A
100
AcDbEntity
  8
L1
  6
CONTINUOUS
 62
     7
100
AcDbLine
 10
3.9
 20
6.921998
 30
0.0
 11
3.9
 21
5.828998
 31
0.0
  0
ARC
  5
27B
100
AcDbEntity
  8
L1
  6
CONTINUOUS
 62
     7
100
AcDbCircle
 10
-3.0
 20
6.297998
 30
0.0
 40
0.225
100
AcDbArc
 50
116.3878
 51
0.0
  0
LINE
  5
27C
100
AcDbEntity
  8
L1
  6
CONTINUOUS
 62
     7
100
AcDbLine
 10
-3.099999
 20
6.499548
 30
0.0
 11
-3.099999
 21
6.634998
 31
0.0
  0
LINE
  5
27D
100
AcDbEntity
  8
L1
  6
CONTINUOUS
 62
     7
100
AcDbLine
 10
-2.9
 20
6.499548
 30
0.0
 11
-2.9
 21
6.634998
 31
0.0
  0
ARC
  5
27E
100
AcDbEntity
  8
L1
  6
CONTINUOUS
 62
     7
100
AcDbCircle
 10
-3.0
 20
6.297998
 30
0.0
 40
0.225
100
AcDbArc
 50
0.0
 51
63.61214
  0
ARC
  5
27F
100
AcDbEntity
  8
L1
  6
CONTINUOUS
 62
     7
100
AcDbCircle
 10
-3.0
 20
6.634998
 30
0.0
 40
0.1
100
AcDbArc
 50
0.0
 51
180.0
  0
ARC
  5
280
100
AcDbEntity
  8
L1
  6
CONTINUOUS
 62
     7
100
AcDbCircle
 10
3.0
 20
6.297998
 30
0.0
 40
0.225
100
AcDbArc
 50
180.0
 51
63.61218
  0
LINE
  5
281
100
AcDbEntity
  8
L1
  6
CONTINUOUS
 62
     7
100
AcDbLine
 10
3.1
 20
6.499548
 30
0.0
 11
3.1
 21
6.634998
 31
0.0
  0
LINE
  5
282
100
AcDbEntity
  8
L1
  6
CONTINUOUS
 62
     7
100
AcDbLine
 10
2.9
 20
6.499548
 30
0.0
 11
2.9
 21
6.634998
 31
0.0
  0
ARC
  5
283
100
AcDbEntity
  8
L1
  6
CONTINUOUS
 62
     7
100
AcDbCircle
 10
3.0
 20
6.297998
 30
0.0
 40
0.225
100
AcDbArc
 50
116.3879
 51
180.0
  0
ARC
  5
284
100
AcDbEntity
  8
L1
  6
CONTINUOUS
 62
     7
100
AcDbCircle
 10
3.0
 20
6.634998
 30
0.0
 40
0.1
100
AcDbArc
 50
0.000015
 51
180.0
  0
ARC
  5
285
100
AcDbEntity
  8
L1
  6
CONTINUOUS
 62
     7
100
AcDbCircle
 10
-3.837
 20
6.921998
 30
0.0
 40
0.063
100
AcDbArc
 50
90.0
 51
180.0
  0
ARC
  5
286
100
AcDbEntity
  8
L1
  6
CONTINUOUS
 62
     7
100
AcDbCircle
 10
3.837
 20
6.921998
 30
0.0
 40
0.063
100
AcDbArc
 50
0.0
 51
89.99999
  0
LINE
  5
287
100
AcDbEntity
  8
L1
  6
CONTINUOUS
 62
     7
100
AcDbLine
 10
3.1
 20
-6.985
 30
0.0
 11
3.837
 21
-6.985
 31
0.0
  0
LINE
  5
288
100
AcDbEntity
  8
L1
  6
CONTINUOUS
 62
     7
100
AcDbLine
 10
-3.9
 20
-6.485
 30
0.0
 11
-3.9
 21
-6.922
 31
0.0
  0
ARC
  5
289
100
AcDbEntity
  8
L1
  6
CONTINUOUS
 62
     7
100
AcDbCircle
 10
-3.837
 20
-6.922
 30
0.0
 40
0.063
100
AcDbArc
 50
180.0
 51
270.0
  0
ARC
  5
28A
100
AcDbEntity
  8
L1
  6
CONTINUOUS
 62
     7
100
AcDbCircle
 10
3.837
 20
-6.922
 30
0.0
 40
0.063
100
AcDbArc
 50
270.00001
 51
0.0
  0
LINE
  5
28B
100
AcDbEntity
  8
L1
  6
CONTINUOUS
 62
     7
100
AcDbLine
 10
-2.899998
 20
-6.985
 30
0.0
 11
3.837
 21
-6.985
 31
0.0
  0
LINE
  5
28C
100
AcDbEntity
  8
L1
  6
CONTINUOUS
 62
     7
100
AcDbLine
 10
3.1
 20
-6.735
 30
0.0
 11
3.1
 21
-6.985
 31
0.0
  0
LINE
  5
28D
100
AcDbEntity
  8
L1
  6
CONTINUOUS
 62
     7
100
AcDbLine
 10
2.9
 20
-6.735
 30
0.0
 11
2.9
 21
-6.985
 31
0.0
  0
ARC
  5
28E
100
AcDbEntity
  8
L1
  6
CONTINUOUS
 62
     7
100
AcDbCircle
 10
3.0
 20
-6.735
 30
0.0
 40
0.1
100
AcDbArc
 50
0.000027
 51
180.0
  0
LINE
  5
28F
100
AcDbEntity
  8
L1
  6
CONTINUOUS
 62
     7
100
AcDbLine
 10
-2.899998
 20
-6.735
 30
0.0
 11
-2.899998
 21
-6.985
 31
0.0
  0
LINE
  5
290
100
AcDbEntity
  8
L1
  6
CONTINUOUS
 62
     7
100
AcDbLine
 10
-3.099999
 20
-6.735
 30
0.0
 11
-3.099999
 21
-6.985
 31
0.0
  0
ARC
  5
291
100
AcDbEntity
  8
L1
  6
CONTINUOUS
 62
     7
100
AcDbCircle
 10
-3.0
 20
-6.735
 30
0.0
 40
0.1
100
AcDbArc
 50
0.000027
 51
180.0
  0
LINE
  5
292
100
AcDbEntity
  8
L1
  6
CONTINUOUS
 62
     7
100
AcDbLine
 10
-3.837
 20
-6.985
 30
0.0
 11
-3.099999
 21
-6.985
 31
0.0
  0
LINE
  5
293
100
AcDbEntity
  8
L1
  6
CONTINUOUS
 62
     7
100
AcDbLine
 10
-4.4
 20
-6.422
 30
0.0
 11
-4.4
 21
5.721998
 31
0.0
  0
LINE
  5
294
100
AcDbEntity
  8
L1
  6
CONTINUOUS
 62
     7
100
AcDbLine
 10
-3.9
 20
-6.485
 30
0.0
 11
-4.337
 21
-6.485
 31
0.0
  0
LINE
  5
295
100
AcDbEntity
  8
L1
  6
DASHED
 62
     7
100
AcDbLine
 10
-4.4
 20
5.765998
 30
0.0
 11
4.4
 21
5.765998
 31
0.0
  0
LINE
  5
296
100
AcDbEntity
  8
L1
  6
CONTINUOUS
 62
     7
100
AcDbLine
 10
-4.4
 20
-6.422
 30
0.0
 11
-4.4
 21
5.765998
 31
0.0
  0
LINE
  5
297
100
AcDbEntity
  8
L1
  6
DASHED
 62
     7
100
AcDbLine
 10
-4.336998
 20
-6.485
 30
0.0
 11
-4.336998
 21
5.828998
 31
0.0
  0
LINE
  5
298
100
AcDbEntity
  8
L1
  6
DASHED
 62
     7
100
AcDbLine
 10
-4.4
 20
-6.422
 30
0.0
 11
4.4
 21
-6.422
 31
0.0
  0
LINE
  5
299
100
AcDbEntity
  8
L1
  6
DASHED
 62
     1
100
AcDbLine
 10
-3.0
 20
-6.735
 30
0.0
 11
-2.842332
 21
-6.735
 31
0.0
  0
LINE
  5
29A
100
AcDbEntity
  8
L1
  6
DASHED
 62
     1
100
AcDbLine
 10
-3.0
 20
-6.735
 30
0.0
 11
-3.14892
 21
-6.735
 31
0.0
  0
LINE
  5
29B
100
AcDbEntity
  8
L1
  6
DASHED
 62
     1
100
AcDbLine
 10
-3.0
 20
-6.735
 30
0.0
 11
-3.0
 21
-6.589284
 31
0.0
  0
LINE
  5
29C
100
AcDbEntity
  8
L1
  6
DASHED
 62
     1
100
AcDbLine
 10
-3.0
 20
-6.735
 30
0.0
 11
-3.0
 21
-6.881649
 31
0.0
  0
LINE
  5
29D
100
AcDbEntity
  8
L1
  6
DASHED
 62
     1
100
AcDbLine
 10
3.0
 20
-6.735
 30
0.0
 11
3.15767
 21
-6.735
 31
0.0
  0
LINE
  5
29E
100
AcDbEntity
  8
L1
  6
DASHED
 62
     1
100
AcDbLine
 10
3.0
 20
-6.735
 30
0.0
 11
2.85108
 21
-6.735
 31
0.0
  0
LINE
  5
29F
100
AcDbEntity
  8
L1
  6
DASHED
 62
     1
100
AcDbLine
 10
3.0
 20
-6.735
 30
0.0
 11
3.0
 21
-6.589284
 31
0.0
  0
LINE
  5
2A0
100
AcDbEntity
  8
L1
  6
DASHED
 62
     1
100
AcDbLine
 10
3.0
 20
-6.735
 30
0.0
 11
3.0
 21
-6.881649
 31
0.0
  0
LINE
  5
2A1
100
AcDbEntity
  8
L1
  6
DASHED
 62
     1
100
AcDbLine
 10
-3.0
 20
6.634998
 30
0.0
 11
-2.842332
 21
6.634998
 31
0.0
  0
LINE
  5
2A2
100
AcDbEntity
  8
L1
  6
DASHED
 62
     1
100
AcDbLine
 10
-3.0
 20
6.634998
 30
0.0
 11
-3.14892
 21
6.634998
 31
0.0
  0
LINE
  5
2A3
100
AcDbEntity
  8
L1
  6
DASHED
 62
     1
100
AcDbLine
 10
-3.0
 20
6.634998
 30
0.0
 11
-3.0
 21
6.780718
 31
0.0
  0
LINE
  5
2A4
100
AcDbEntity
  8
L1
  6
DASHED
 62
     1
100
AcDbLine
 10
3.0
 20
6.634998
 30
0.0
 11
3.15767
 21
6.634998
 31
0.0
  0
LINE
  5
2A5
100
AcDbEntity
  8
L1
  6
DASHED
 62
     1
100
AcDbLine
 10
3.0
 20
6.634998
 30
0.0
 11
2.85108
 21
6.634998
 31
0.0
  0
LINE
  5
2A6
100
AcDbEntity
  8
L1
  6
DASHED
 62
     1
100
AcDbLine
 10
3.0
 20
6.634998
 30
0.0
 11
3.0
 21
6.780718
 31
0.0
  0
LINE
  5
2A7
100
AcDbEntity
  8
L1
  6
DASHED
 62
     1
100
AcDbLine
 10
3.0
 20
6.634998
 30
0.0
 11
3.0
 21
6.488348
 31
0.0
  0
TEXT
  5
2A8
100
AcDbEntity
  8
L1
  6
CONTINUOUS
 62
     1
100
AcDbText
 10
21.083334
 20
15.499691
 30
0.0
 40
0.1
  1
 
 41
0.838709
100
AcDbText
  0
LINE
  5
2AC
100
AcDbEntity
  8
L1
  6
CONTINUOUS
 62
     7
100
AcDbLine
 10
-3.809999
 20
5.564998
 30
0.0
 11
-3.687498
 21
5.564998
 31
0.0
  0
LINE
  5
2AD
100
AcDbEntity
  8
L1
  6
CONTINUOUS
 62
     7
100
AcDbLine
 10
-2.707498
 20
5.064998
 30
0.0
 11
-1.689998
 21
5.064998
 31
0.0
  0
LINE
  5
2AE
100
AcDbEntity
  8
L1
  6
CONTINUOUS
 62
     7
100
AcDbLine
 10
-4.336998
 20
5.828998
 30
0.0
 11
4.337
 21
5.828998
 31
0.0
  0
LINE
  5
2AF
100
AcDbEntity
  8
L1
  6
CONTINUOUS
 62
     7
100
AcDbLine
 10
4.4
 20
-6.422
 30
0.0
 11
4.4
 21
5.765998
 31
0.0
  0
LINE
  5
2B0
100
AcDbEntity
  8
L1
  6
DASHED
 62
     7
100
AcDbLine
 10
4.337
 20
-6.485001
 30
0.0
 11
4.337
 21
5.828998
 31
0.0
  0
TEXT
  5
2B1
100
AcDbEntity
  8
TEXT
100
AcDbText
 10
-2.366667
 20
-6.790829
 30
0.0
 40
0.1
  1
G&L PiC-90 / 5 slot rack (loaded): C:\MS\90_FULL.DWG
 72
     1
 11
0.0
 21
-6.824163
 31
0.0
100
AcDbText
 73
     1
  0
LINE
  5
2B2
100
AcDbEntity
  8
0
100
AcDbLine
 10
1.236251
 20
-5.0584
 30
0.0
 11
2.763751
 21
-5.0584
 31
0.0
  0
LINE
  5
2B3
100
AcDbEntity
  8
0
100
AcDbLine
 10
1.236251
 20
4.7416
 30
0.0
 11
2.763751
 21
4.7416
 31
0.0
  0
LINE
  5
2B4
100
AcDbEntity
  8
0
100
AcDbLine
 10
1.205001
 20
4.71035
 30
0.0
 11
1.205001
 21
-5.02715
 31
0.0
  0
LINE
  5
2B5
100
AcDbEntity
  8
0
100
AcDbLine
 10
2.795001
 20
4.71035
 30
0.0
 11
2.795001
 21
-5.02715
 31
0.0
  0
LINE
  5
2B6
100
AcDbEntity
  8
0
100
AcDbLine
 10
2.426251
 20
-4.9384
 30
0.0
 11
2.795001
 21
-4.9384
 31
0.0
  0
LINE
  5
2B7
100
AcDbEntity
  8
0
100
AcDbLine
 10
2.395001
 20
-4.96965
 30
0.0
 11
2.395001
 21
-5.0584
 31
0.0
  0
LINE
  5
2B8
100
AcDbEntity
  8
0
100
AcDbLine
 10
1.313751
 20
-4.9334
 30
0.0
 11
2.795001
 21
-4.9334
 31
0.0
  0
LINE
  5
2B9
100
AcDbEntity
  8
0
100
AcDbLine
 10
1.313751
 20
0.8916
 30
0.0
 11
2.795001
 21
0.8916
 31
0.0
  0
LINE
  5
2BA
100
AcDbEntity
  8
0
100
AcDbLine
 10
1.282501
 20
0.86035
 30
0.0
 11
1.282501
 21
-4.90215
 31
0.0
  0
LINE
  5
2BB
100
AcDbEntity
  8
0
100
AcDbLine
 10
1.205001
 20
0.8966
 30
0.0
 11
2.795001
 21
0.8966
 31
0.0
  0
LINE
  5
2BC
100
AcDbEntity
  8
0
100
AcDbLine
 10
1.291001
 20
0.9766
 30
0.0
 11
2.795001
 21
0.9766
 31
0.0
  0
LINE
  5
2BD
100
AcDbEntity
  8
0
100
AcDbLine
 10
1.291001
 20
4.6496
 30
0.0
 11
1.291001
 21
0.9766
 31
0.0
  0
LINE
  5
2BE
100
AcDbEntity
  8
0
100
AcDbLine
 10
2.795001
 20
4.6716
 30
0.0
 11
1.291001
 21
4.6496
 31
0.0
  0
LINE
  5
2BF
100
AcDbEntity
  8
0
100
AcDbLine
 10
2.711501
 20
4.5376
 30
0.0
 11
2.711501
 21
1.2031
 31
0.0
  0
LINE
  5
2C0
100
AcDbEntity
  8
0
100
AcDbLine
 10
2.644501
 20
4.4706
 30
0.0
 11
2.644501
 21
1.2701
 31
0.0
  0
LINE
  5
2C1
100
AcDbEntity
  8
0
100
AcDbLine
 10
1.291001
 20
4.4706
 30
0.0
 11
2.644501
 21
4.4706
 31
0.0
  0
LINE
  5
2C2
100
AcDbEntity
  8
0
100
AcDbLine
 10
1.291001
 20
4.5376
 30
0.0
 11
2.711501
 21
4.5376
 31
0.0
  0
LINE
  5
2C3
100
AcDbEntity
  8
0
100
AcDbLine
 10
1.291001
 20
1.2031
 30
0.0
 11
2.711501
 21
1.2031
 31
0.0
  0
LINE
  5
2C4
100
AcDbEntity
  8
0
100
AcDbLine
 10
1.291001
 20
1.2701
 30
0.0
 11
2.644501
 21
1.2701
 31
0.0
  0
TEXT
  5
2C5
100
AcDbEntity
  8
TEXT
100
AcDbText
 10
1.750001
 20
0.3966
 30
0.0
 40
0.25
  1
PiC
 72
     1
 11
2.000001
 21
0.3966
 31
0.0
100
AcDbText
  0
LINE
  5
2C6
100
AcDbEntity
  8
0
100
AcDbLine
 10
1.291001
 20
4.2876
 30
0.0
 11
2.644501
 21
4.2876
 31
0.0
  0
LINE
  5
2C7
100
AcDbEntity
  8
0
100
AcDbLine
 10
1.291001
 20
4.1376
 30
0.0
 11
2.644501
 21
4.1376
 31
0.0
  0
LINE
  5
2C8
100
AcDbEntity
  8
0
100
AcDbLine
 10
1.291001
 20
4.0776
 30
0.0
 11
2.644501
 21
4.0776
 31
0.0
  0
LINE
  5
2C9
100
AcDbEntity
  8
0
100
AcDbLine
 10
1.291001
 20
4.1176
 30
0.0
 11
2.644501
 21
4.1176
 31
0.0
  0
SOLID
  5
2CA
100
AcDbEntity
  8
0
100
AcDbTrace
 10
1.291001
 20
4.2876
 30
0.0
 11
1.291001
 21
4.1376
 31
0.0
 12
2.644501
 22
4.2876
 32
0.0
 13
2.644501
 23
4.1376
 33
0.0
  0
SOLID
  5
2CB
100
AcDbEntity
  8
0
100
AcDbTrace
 10
1.291001
 20
4.1176
 30
0.0
 11
1.291001
 21
4.0776
 31
0.0
 12
2.644501
 22
4.1176
 32
0.0
 13
2.644501
 23
4.0776
 33
0.0
  0
TEXT
  5
2CC
100
AcDbEntity
  8
TEXT
100
AcDbText
 10
1.321001
 20
4.3176
 30
0.0
 40
0.1
  1
IN/OUT?
100
AcDbText
  0
TEXT
  5
2CD
100
AcDbEntity
  8
TEXT
100
AcDbText
 10
2.277001
 20
4.3176
 30
0.0
 40
0.075
  1
Type?
 72
     2
 11
2.614501
 21
4.3176
 31
0.0
100
AcDbText
  0
LINE
  5
2CE
100
AcDbEntity
  8
0
100
AcDbLine
 10
2.394501
 20
4.0476
 30
0.0
 11
2.394501
 21
3.8976
 31
0.0
  0
LINE
  5
2CF
100
AcDbEntity
  8
0
100
AcDbLine
 10
2.244501
 20
4.0476
 30
0.0
 11
2.394501
 21
4.0476
 31
0.0
  0
LINE
  5
2D0
100
AcDbEntity
  8
0
100
AcDbLine
 10
2.244501
 20
3.8976
 30
0.0
 11
2.394501
 21
3.8976
 31
0.0
  0
LINE
  5
2D1
100
AcDbEntity
  8
0
100
AcDbLine
 10
2.244501
 20
4.0476
 30
0.0
 11
2.244501
 21
3.8976
 31
0.0
  0
TEXT
  5
2D2
100
AcDbEntity
  8
TEXT
100
AcDbText
 10
1.861167
 20
3.9226
 30
0.0
 40
0.1
  1
DIAG
 72
     2
 11
2.194501
 21
3.9226
 31
0.0
100
AcDbText
  0
SOLID
  5
2D3
100
AcDbEntity
  8
0
100
AcDbTrace
 10
2.244501
 20
4.0476
 30
0.0
 11
2.394501
 21
4.0476
 31
0.0
 12
2.244501
 22
3.8976
 32
0.0
 13
2.394501
 23
3.8976
 33
0.0
  0
LINE
  5
2D4
100
AcDbEntity
  8
0
100
AcDbLine
 10
1.541251
 20
5.615
 30
0.0
 11
2.458751
 21
5.615
 31
0.0
  0
LINE
  5
2D5
100
AcDbEntity
  8
0
100
AcDbLine
 10
1.510001
 20
5.3375
 30
0.0
 11
2.490001
 21
5.3375
 31
0.0
  0
LINE
  5
2D6
100
AcDbEntity
  8
0
100
AcDbLine
 10
2.490001
 20
5.58375
 30
0.0
 11
2.490001
 21
4.7416
 31
0.0
  0
LINE
  5
2D7
100
AcDbEntity
  8
0
100
AcDbLine
 10
1.510001
 20
5.58375
 30
0.0
 11
1.510001
 21
4.7416
 31
0.0
  0
LINE
  5
2D8
100
AcDbEntity
  8
0
100
AcDbLine
 10
2.062501
 20
5.3375
 30
0.0
 11
2.062501
 21
5.24625
 31
0.0
  0
LINE
  5
2D9
100
AcDbEntity
  8
0
100
AcDbLine
 10
1.937501
 20
5.3375
 30
0.0
 11
1.937501
 21
5.24625
 31
0.0
  0
LINE
  5
2DA
100
AcDbEntity
  8
0
100
AcDbLine
 10
1.968751
 20
5.215
 30
0.0
 11
2.031251
 21
5.215
 31
0.0
  0
ARC
  5
2DB
100
AcDbEntity
  8
0
100
AcDbCircle
 10
2.458751
 20
5.58375
 30
0.0
 40
0.03125
100
AcDbArc
 50
0.0
 51
90.0
  0
ARC
  5
2DC
100
AcDbEntity
  8
0
100
AcDbCircle
 10
1.541251
 20
5.58375
 30
0.0
 40
0.03125
100
AcDbArc
 50
90.0
 51
180.0
  0
ARC
  5
2DD
100
AcDbEntity
  8
0
100
AcDbCircle
 10
1.236251
 20
4.71035
 30
0.0
 40
0.03125
100
AcDbArc
 50
90.0
 51
180.0
  0
ARC
  5
2DE
100
AcDbEntity
  8
0
100
AcDbCircle
 10
2.763751
 20
4.71035
 30
0.0
 40
0.03125
100
AcDbArc
 50
0.0
 51
90.0
  0
ARC
  5
2DF
100
AcDbEntity
  8
0
100
AcDbCircle
 10
2.031251
 20
5.24625
 30
0.0
 40
0.03125
100
AcDbArc
 50
270.0
 51
360.0
  0
ARC
  5
2E0
100
AcDbEntity
  8
0
100
AcDbCircle
 10
1.968751
 20
5.24625
 30
0.0
 40
0.03125
100
AcDbArc
 50
180.0
 51
270.0
  0
ARC
  5
2E1
100
AcDbEntity
  8
0
100
AcDbCircle
 10
1.236251
 20
-5.02715
 30
0.0
 40
0.03125
100
AcDbArc
 50
180.0
 51
270.0
  0
ARC
  5
2E2
100
AcDbEntity
  8
0
100
AcDbCircle
 10
2.763751
 20
-5.02715
 30
0.0
 40
0.03125
100
AcDbArc
 50
270.0
 51
0.0
  0
ARC
  5
2E3
100
AcDbEntity
  8
0
100
AcDbCircle
 10
1.313751
 20
-4.90215
 30
0.0
 40
0.03125
100
AcDbArc
 50
180.0
 51
270.0
  0
ARC
  5
2E4
100
AcDbEntity
  8
0
100
AcDbCircle
 10
2.426251
 20
-4.96965
 30
0.0
 40
0.03125
100
AcDbArc
 50
90.0
 51
180.0
  0
ARC
  5
2E5
100
AcDbEntity
  8
0
100
AcDbCircle
 10
1.313751
 20
0.86035
 30
0.0
 40
0.03125
100
AcDbArc
 50
90.0
 51
180.0
  0
TEXT
  5
2F0
100
AcDbEntity
  8
TEXT
100
AcDbText
 10
1.626084
 20
1.4201
 30
0.0
 40
0.1
  1
Part #:?
 72
     1
 11
1.967751
 21
1.4201
 31
0.0
100
AcDbText
  0
LINE
  5
2F1
100
AcDbEntity
  8
0
100
AcDbLine
 10
-0.363748
 20
-5.0584
 30
0.0
 11
1.163752
 21
-5.0584
 31
0.0
  0
LINE
  5
2F2
100
AcDbEntity
  8
0
100
AcDbLine
 10
-0.363748
 20
4.7416
 30
0.0
 11
1.163752
 21
4.7416
 31
0.0
  0
LINE
  5
2F3
100
AcDbEntity
  8
0
100
AcDbLine
 10
-0.394998
 20
4.71035
 30
0.0
 11
-0.394998
 21
-5.02715
 31
0.0
  0
LINE
  5
2F4
100
AcDbEntity
  8
0
100
AcDbLine
 10
1.195002
 20
4.71035
 30
0.0
 11
1.195002
 21
-5.02715
 31
0.0
  0
LINE
  5
2F5
100
AcDbEntity
  8
0
100
AcDbLine
 10
0.826252
 20
-4.9384
 30
0.0
 11
1.195002
 21
-4.9384
 31
0.0
  0
LINE
  5
2F6
100
AcDbEntity
  8
0
100
AcDbLine
 10
0.795002
 20
-4.96965
 30
0.0
 11
0.795002
 21
-5.0584
 31
0.0
  0
LINE
  5
2F7
100
AcDbEntity
  8
0
100
AcDbLine
 10
-0.286248
 20
-4.9334
 30
0.0
 11
1.195002
 21
-4.9334
 31
0.0
  0
LINE
  5
2F8
100
AcDbEntity
  8
0
100
AcDbLine
 10
-0.286248
 20
0.8916
 30
0.0
 11
1.195002
 21
0.8916
 31
0.0
  0
LINE
  5
2F9
100
AcDbEntity
  8
0
100
AcDbLine
 10
-0.317498
 20
0.86035
 30
0.0
 11
-0.317498
 21
-4.90215
 31
0.0
  0
LINE
  5
2FA
100
AcDbEntity
  8
0
100
AcDbLine
 10
-0.394998
 20
0.8966
 30
0.0
 11
1.195002
 21
0.8966
 31
0.0
  0
LINE
  5
2FB
100
AcDbEntity
  8
0
100
AcDbLine
 10
-0.308998
 20
0.9766
 30
0.0
 11
1.195002
 21
0.9766
 31
0.0
  0
LINE
  5
2FC
100
AcDbEntity
  8
0
100
AcDbLine
 10
-0.308998
 20
4.6496
 30
0.0
 11
-0.308998
 21
0.9766
 31
0.0
  0
LINE
  5
2FD
100
AcDbEntity
  8
0
100
AcDbLine
 10
1.195002
 20
4.6716
 30
0.0
 11
-0.308998
 21
4.6496
 31
0.0
  0
LINE
  5
2FE
100
AcDbEntity
  8
0
100
AcDbLine
 10
1.111502
 20
4.5376
 30
0.0
 11
1.111502
 21
1.2031
 31
0.0
  0
LINE
  5
2FF
100
AcDbEntity
  8
0
100
AcDbLine
 10
1.044502
 20
4.4706
 30
0.0
 11
1.044502
 21
1.2701
 31
0.0
  0
LINE
  5
300
100
AcDbEntity
  8
0
100
AcDbLine
 10
-0.308998
 20
4.4706
 30
0.0
 11
1.044502
 21
4.4706
 31
0.0
  0
LINE
  5
301
100
AcDbEntity
  8
0
100
AcDbLine
 10
-0.308998
 20
4.5376
 30
0.0
 11
1.111502
 21
4.5376
 31
0.0
  0
LINE
  5
302
100
AcDbEntity
  8
0
100
AcDbLine
 10
-0.308998
 20
1.2031
 30
0.0
 11
1.111502
 21
1.2031
 31
0.0
  0
LINE
  5
303
100
AcDbEntity
  8
0
100
AcDbLine
 10
-0.308998
 20
1.2701
 30
0.0
 11
1.044502
 21
1.2701
 31
0.0
  0
TEXT
  5
304
100
AcDbEntity
  8
TEXT
100
AcDbText
 10
0.150002
 20
0.3966
 30
0.0
 40
0.25
  1
PiC
 72
     1
 11
0.400002
 21
0.3966
 31
0.0
100
AcDbText
  0
LINE
  5
305
100
AcDbEntity
  8
0
100
AcDbLine
 10
-0.308998
 20
4.2876
 30
0.0
 11
1.044502
 21
4.2876
 31
0.0
  0
LINE
  5
306
100
AcDbEntity
  8
0
100
AcDbLine
 10
-0.308998
 20
4.1376
 30
0.0
 11
1.044502
 21
4.1376
 31
0.0
  0
LINE
  5
307
100
AcDbEntity
  8
0
100
AcDbLine
 10
-0.308998
 20
4.0776
 30
0.0
 11
1.044502
 21
4.0776
 31
0.0
  0
LINE
  5
308
100
AcDbEntity
  8
0
100
AcDbLine
 10
-0.308998
 20
4.1176
 30
0.0
 11
1.044502
 21
4.1176
 31
0.0
  0
SOLID
  5
309
100
AcDbEntity
  8
0
100
AcDbTrace
 10
-0.308998
 20
4.2876
 30
0.0
 11
-0.308998
 21
4.1376
 31
0.0
 12
1.044502
 22
4.2876
 32
0.0
 13
1.044502
 23
4.1376
 33
0.0
  0
SOLID
  5
30A
100
AcDbEntity
  8
0
100
AcDbTrace
 10
-0.308998
 20
4.1176
 30
0.0
 11
-0.308998
 21
4.0776
 31
0.0
 12
1.044502
 22
4.1176
 32
0.0
 13
1.044502
 23
4.0776
 33
0.0
  0
TEXT
  5
30B
100
AcDbEntity
  8
TEXT
100
AcDbText
 10
-0.278998
 20
4.3176
 30
0.0
 40
0.1
  1
IN/OUT?
100
AcDbText
  0
TEXT
  5
30C
100
AcDbEntity
  8
TEXT
100
AcDbText
 10
0.677002
 20
4.3176
 30
0.0
 40
0.075
  1
Type?
 72
     2
 11
1.014502
 21
4.3176
 31
0.0
100
AcDbText
  0
LINE
  5
30D
100
AcDbEntity
  8
0
100
AcDbLine
 10
0.794502
 20
4.0476
 30
0.0
 11
0.794502
 21
3.8976
 31
0.0
  0
LINE
  5
30E
100
AcDbEntity
  8
0
100
AcDbLine
 10
0.644502
 20
4.0476
 30
0.0
 11
0.794502
 21
4.0476
 31
0.0
  0
LINE
  5
30F
100
AcDbEntity
  8
0
100
AcDbLine
 10
0.644502
 20
3.8976
 30
0.0
 11
0.794502
 21
3.8976
 31
0.0
  0
LINE
  5
310
100
AcDbEntity
  8
0
100
AcDbLine
 10
0.644502
 20
4.0476
 30
0.0
 11
0.644502
 21
3.8976
 31
0.0
  0
TEXT
  5
311
100
AcDbEntity
  8
TEXT
100
AcDbText
 10
0.261168
 20
3.9226
 30
0.0
 40
0.1
  1
DIAG
 72
     2
 11
0.594502
 21
3.9226
 31
0.0
100
AcDbText
  0
SOLID
  5
312
100
AcDbEntity
  8
0
100
AcDbTrace
 10
0.644502
 20
4.0476
 30
0.0
 11
0.794502
 21
4.0476
 31
0.0
 12
0.644502
 22
3.8976
 32
0.0
 13
0.794502
 23
3.8976
 33
0.0
  0
LINE
  5
313
100
AcDbEntity
  8
0
100
AcDbLine
 10
-0.058748
 20
5.615
 30
0.0
 11
0.858752
 21
5.615
 31
0.0
  0
LINE
  5
314
100
AcDbEntity
  8
0
100
AcDbLine
 10
-0.089998
 20
5.3375
 30
0.0
 11
0.890002
 21
5.3375
 31
0.0
  0
LINE
  5
315
100
AcDbEntity
  8
0
100
AcDbLine
 10
0.890002
 20
5.58375
 30
0.0
 11
0.890002
 21
4.7416
 31
0.0
  0
LINE
  5
316
100
AcDbEntity
  8
0
100
AcDbLine
 10
-0.089998
 20
5.58375
 30
0.0
 11
-0.089998
 21
4.7416
 31
0.0
  0
LINE
  5
317
100
AcDbEntity
  8
0
100
AcDbLine
 10
0.462502
 20
5.3375
 30
0.0
 11
0.462502
 21
5.24625
 31
0.0
  0
LINE
  5
318
100
AcDbEntity
  8
0
100
AcDbLine
 10
0.337502
 20
5.3375
 30
0.0
 11
0.337502
 21
5.24625
 31
0.0
  0
LINE
  5
319
100
AcDbEntity
  8
0
100
AcDbLine
 10
0.368752
 20
5.215
 30
0.0
 11
0.431252
 21
5.215
 31
0.0
  0
ARC
  5
31A
100
AcDbEntity
  8
0
100
AcDbCircle
 10
0.858752
 20
5.58375
 30
0.0
 40
0.03125
100
AcDbArc
 50
0.0
 51
90.0
  0
ARC
  5
31B
100
AcDbEntity
  8
0
100
AcDbCircle
 10
-0.058748
 20
5.58375
 30
0.0
 40
0.03125
100
AcDbArc
 50
90.0
 51
180.0
  0
ARC
  5
31C
100
AcDbEntity
  8
0
100
AcDbCircle
 10
-0.363748
 20
4.71035
 30
0.0
 40
0.03125
100
AcDbArc
 50
90.0
 51
180.0
  0
ARC
  5
31D
100
AcDbEntity
  8
0
100
AcDbCircle
 10
1.163752
 20
4.71035
 30
0.0
 40
0.03125
100
AcDbArc
 50
0.0
 51
90.0
  0
ARC
  5
31E
100
AcDbEntity
  8
0
100
AcDbCircle
 10
0.431252
 20
5.24625
 30
0.0
 40
0.03125
100
AcDbArc
 50
270.0
 51
360.0
  0
ARC
  5
31F
100
AcDbEntity
  8
0
100
AcDbCircle
 10
0.368752
 20
5.24625
 30
0.0
 40
0.03125
100
AcDbArc
 50
180.0
 51
270.0
  0
ARC
  5
320
100
AcDbEntity
  8
0
100
AcDbCircle
 10
-0.363748
 20
-5.02715
 30
0.0
 40
0.03125
100
AcDbArc
 50
180.0
 51
270.0
  0
ARC
  5
321
100
AcDbEntity
  8
0
100
AcDbCircle
 10
1.163752
 20
-5.02715
 30
0.0
 40
0.03125
100
AcDbArc
 50
270.0
 51
0.0
  0
ARC
  5
322
100
AcDbEntity
  8
0
100
AcDbCircle
 10
-0.286248
 20
-4.90215
 30
0.0
 40
0.03125
100
AcDbArc
 50
180.0
 51
270.0
  0
ARC
  5
323
100
AcDbEntity
  8
0
100
AcDbCircle
 10
0.826252
 20
-4.96965
 30
0.0
 40
0.03125
100
AcDbArc
 50
90.0
 51
180.0
  0
ARC
  5
324
100
AcDbEntity
  8
0
100
AcDbCircle
 10
-0.286248
 20
0.86035
 30
0.0
 40
0.03125
100
AcDbArc
 50
90.0
 51
180.0
  0
TEXT
  5
32F
100
AcDbEntity
  8
TEXT
100
AcDbText
 10
0.026085
 20
1.4201
 30
0.0
 40
0.1
  1
Part #:?
 72
     1
 11
0.367752
 21
1.4201
 31
0.0
100
AcDbText
  0
LINE
  5
330
100
AcDbEntity
  8
0
100
AcDbLine
 10
-1.963748
 20
-5.0584
 30
0.0
 11
-0.436248
 21
-5.0584
 31
0.0
  0
LINE
  5
331
100
AcDbEntity
  8
0
100
AcDbLine
 10
-1.963748
 20
4.7416
 30
0.0
 11
-0.436248
 21
4.7416
 31
0.0
  0
LINE
  5
333
100
AcDbEntity
  8
0
100
AcDbLine
 10
-0.404998
 20
4.71035
 30
0.0
 11
-0.404998
 21
-5.02715
 31
0.0
  0
LINE
  5
334
100
AcDbEntity
  8
0
100
AcDbLine
 10
-0.773748
 20
-4.9384
 30
0.0
 11
-0.404998
 21
-4.9384
 31
0.0
  0
LINE
  5
335
100
AcDbEntity
  8
0
100
AcDbLine
 10
-0.804998
 20
-4.96965
 30
0.0
 11
-0.804998
 21
-5.0584
 31
0.0
  0
LINE
  5
336
100
AcDbEntity
  8
0
100
AcDbLine
 10
-1.886248
 20
-4.9334
 30
0.0
 11
-0.404998
 21
-4.9334
 31
0.0
  0
LINE
  5
337
100
AcDbEntity
  8
0
100
AcDbLine
 10
-1.886248
 20
0.8916
 30
0.0
 11
-0.404998
 21
0.8916
 31
0.0
  0
LINE
  5
338
100
AcDbEntity
  8
0
100
AcDbLine
 10
-1.917498
 20
0.86035
 30
0.0
 11
-1.917498
 21
-4.90215
 31
0.0
  0
LINE
  5
339
100
AcDbEntity
  8
0
100
AcDbLine
 10
-1.994998
 20
0.8966
 30
0.0
 11
-0.404998
 21
0.8966
 31
0.0
  0
LINE
  5
33A
100
AcDbEntity
  8
0
100
AcDbLine
 10
-1.908998
 20
0.9766
 30
0.0
 11
-0.404998
 21
0.9766
 31
0.0
  0
LINE
  5
33B
100
AcDbEntity
  8
0
100
AcDbLine
 10
-1.908998
 20
4.6496
 30
0.0
 11
-1.908998
 21
0.9766
 31
0.0
  0
LINE
  5
33C
100
AcDbEntity
  8
0
100
AcDbLine
 10
-0.404998
 20
4.6716
 30
0.0
 11
-1.908998
 21
4.6496
 31
0.0
  0
LINE
  5
33D
100
AcDbEntity
  8
0
100
AcDbLine
 10
-0.488498
 20
4.5376
 30
0.0
 11
-0.488498
 21
1.2031
 31
0.0
  0
LINE
  5
33E
100
AcDbEntity
  8
0
100
AcDbLine
 10
-0.555498
 20
4.4706
 30
0.0
 11
-0.555498
 21
1.2701
 31
0.0
  0
LINE
  5
33F
100
AcDbEntity
  8
0
100
AcDbLine
 10
-1.908998
 20
4.4706
 30
0.0
 11
-0.555498
 21
4.4706
 31
0.0
  0
LINE
  5
340
100
AcDbEntity
  8
0
100
AcDbLine
 10
-1.908998
 20
4.5376
 30
0.0
 11
-0.488498
 21
4.5376
 31
0.0
  0
LINE
  5
341
100
AcDbEntity
  8
0
100
AcDbLine
 10
-1.908998
 20
1.2031
 30
0.0
 11
-0.488498
 21
1.2031
 31
0.0
  0
LINE
  5
342
100
AcDbEntity
  8
0
100
AcDbLine
 10
-1.908998
 20
1.2701
 30
0.0
 11
-0.555498
 21
1.2701
 31
0.0
  0
TEXT
  5
343
100
AcDbEntity
  8
TEXT
100
AcDbText
 10
-1.449998
 20
0.3966
 30
0.0
 40
0.25
  1
PiC
 72
     1
 11
-1.199998
 21
0.3966
 31
0.0
100
AcDbText
  0
LINE
  5
344
100
AcDbEntity
  8
0
100
AcDbLine
 10
-1.908998
 20
4.2876
 30
0.0
 11
-0.555498
 21
4.2876
 31
0.0
  0
LINE
  5
345
100
AcDbEntity
  8
0
100
AcDbLine
 10
-1.908998
 20
4.1376
 30
0.0
 11
-0.555498
 21
4.1376
 31
0.0
  0
LINE
  5
346
100
AcDbEntity
  8
0
100
AcDbLine
 10
-1.908998
 20
4.0776
 30
0.0
 11
-0.555498
 21
4.0776
 31
0.0
  0
LINE
  5
347
100
AcDbEntity
  8
0
100
AcDbLine
 10
-1.908998
 20
4.1176
 30
0.0
 11
-0.555498
 21
4.1176
 31
0.0
  0
SOLID
  5
348
100
AcDbEntity
  8
0
100
AcDbTrace
 10
-1.908998
 20
4.2876
 30
0.0
 11
-1.908998
 21
4.1376
 31
0.0
 12
-0.555498
 22
4.2876
 32
0.0
 13
-0.555498
 23
4.1376
 33
0.0
  0
SOLID
  5
349
100
AcDbEntity
  8
0
100
AcDbTrace
 10
-1.908998
 20
4.1176
 30
0.0
 11
-1.908998
 21
4.0776
 31
0.0
 12
-0.555498
 22
4.1176
 32
0.0
 13
-0.555498
 23
4.0776
 33
0.0
  0
TEXT
  5
34A
100
AcDbEntity
  8
TEXT
100
AcDbText
 10
-1.878998
 20
4.3176
 30
0.0
 40
0.1
  1
IN/OUT?
100
AcDbText
  0
TEXT
  5
34B
100
AcDbEntity
  8
TEXT
100
AcDbText
 10
-0.922998
 20
4.3176
 30
0.0
 40
0.075
  1
Type?
 72
     2
 11
-0.585498
 21
4.3176
 31
0.0
100
AcDbText
  0
LINE
  5
34C
100
AcDbEntity
  8
0
100
AcDbLine
 10
-0.805498
 20
4.0476
 30
0.0
 11
-0.805498
 21
3.8976
 31
0.0
  0
LINE
  5
34D
100
AcDbEntity
  8
0
100
AcDbLine
 10
-0.955498
 20
4.0476
 30
0.0
 11
-0.805498
 21
4.0476
 31
0.0
  0
LINE
  5
34E
100
AcDbEntity
  8
0
100
AcDbLine
 10
-0.955498
 20
3.8976
 30
0.0
 11
-0.805498
 21
3.8976
 31
0.0
  0
LINE
  5
34F
100
AcDbEntity
  8
0
100
AcDbLine
 10
-0.955498
 20
4.0476
 30
0.0
 11
-0.955498
 21
3.8976
 31
0.0
  0
TEXT
  5
350
100
AcDbEntity
  8
TEXT
100
AcDbText
 10
-1.338832
 20
3.9226
 30
0.0
 40
0.1
  1
DIAG
 72
     2
 11
-1.005498
 21
3.9226
 31
0.0
100
AcDbText
  0
SOLID
  5
351
100
AcDbEntity
  8
0
100
AcDbTrace
 10
-0.955498
 20
4.0476
 30
0.0
 11
-0.805498
 21
4.0476
 31
0.0
 12
-0.955498
 22
3.8976
 32
0.0
 13
-0.805498
 23
3.8976
 33
0.0
  0
LINE
  5
352
100
AcDbEntity
  8
0
100
AcDbLine
 10
-1.658748
 20
5.615
 30
0.0
 11
-0.741248
 21
5.615
 31
0.0
  0
LINE
  5
353
100
AcDbEntity
  8
0
100
AcDbLine
 10
-1.689998
 20
5.3375
 30
0.0
 11
-0.709998
 21
5.3375
 31
0.0
  0
LINE
  5
354
100
AcDbEntity
  8
0
100
AcDbLine
 10
-0.709998
 20
5.58375
 30
0.0
 11
-0.709998
 21
4.7416
 31
0.0
  0
LINE
  5
355
100
AcDbEntity
  8
0
100
AcDbLine
 10
-1.689998
 20
5.58375
 30
0.0
 11
-1.689998
 21
4.7416
 31
0.0
  0
LINE
  5
356
100
AcDbEntity
  8
0
100
AcDbLine
 10
-1.137498
 20
5.3375
 30
0.0
 11
-1.137498
 21
5.24625
 31
0.0
  0
LINE
  5
357
100
AcDbEntity
  8
0
100
AcDbLine
 10
-1.262498
 20
5.3375
 30
0.0
 11
-1.262498
 21
5.24625
 31
0.0
  0
LINE
  5
358
100
AcDbEntity
  8
0
100
AcDbLine
 10
-1.231248
 20
5.215
 30
0.0
 11
-1.168748
 21
5.215
 31
0.0
  0
ARC
  5
359
100
AcDbEntity
  8
0
100
AcDbCircle
 10
-0.741248
 20
5.58375
 30
0.0
 40
0.03125
100
AcDbArc
 50
0.0
 51
90.0
  0
ARC
  5
35A
100
AcDbEntity
  8
0
100
AcDbCircle
 10
-1.658748
 20
5.58375
 30
0.0
 40
0.03125
100
AcDbArc
 50
90.0
 51
180.0
  0
ARC
  5
35C
100
AcDbEntity
  8
0
100
AcDbCircle
 10
-0.436248
 20
4.71035
 30
0.0
 40
0.03125
100
AcDbArc
 50
0.0
 51
90.0
  0
ARC
  5
35D
100
AcDbEntity
  8
0
100
AcDbCircle
 10
-1.168748
 20
5.24625
 30
0.0
 40
0.03125
100
AcDbArc
 50
270.0
 51
360.0
  0
ARC
  5
35E
100
AcDbEntity
  8
0
100
AcDbCircle
 10
-1.231248
 20
5.24625
 30
0.0
 40
0.03125
100
AcDbArc
 50
180.0
 51
270.0
  0
ARC
  5
360
100
AcDbEntity
  8
0
100
AcDbCircle
 10
-0.436248
 20
-5.02715
 30
0.0
 40
0.03125
100
AcDbArc
 50
270.0
 51
0.0
  0
ARC
  5
361
100
AcDbEntity
  8
0
100
AcDbCircle
 10
-1.886248
 20
-4.90215
 30
0.0
 40
0.03125
100
AcDbArc
 50
180.0
 51
270.0
  0
ARC
  5
362
100
AcDbEntity
  8
0
100
AcDbCircle
 10
-0.773748
 20
-4.96965
 30
0.0
 40
0.03125
100
AcDbArc
 50
90.0
 51
180.0
  0
ARC
  5
363
100
AcDbEntity
  8
0
100
AcDbCircle
 10
-1.886248
 20
0.86035
 30
0.0
 40
0.03125
100
AcDbArc
 50
90.0
 51
180.0
  0
LINE
  5
365
100
AcDbEntity
  8
0
100
AcDbLine
 10
-1.262498
 20
-5.0584
 30
0.0
 11
-1.262498
 21
-5.235
 31
0.0
  0
LINE
  5
366
100
AcDbEntity
  8
0
100
AcDbLine
 10
-1.137498
 20
-5.0584
 30
0.0
 11
-1.137498
 21
-5.235
 31
0.0
  0
LINE
  5
367
100
AcDbEntity
  8
0
100
AcDbLine
 10
-0.709998
 20
-5.0584
 30
0.0
 11
-0.709998
 21
-5.235
 31
0.0
  0
LINE
  5
368
100
AcDbEntity
  8
0
100
AcDbLine
 10
-1.689998
 20
-5.0584
 30
0.0
 11
-1.689998
 21
-5.235
 31
0.0
  0
LINE
  5
369
100
AcDbEntity
  8
0
100
AcDbLine
 10
-1.689998
 20
-5.885
 30
0.0
 11
-0.709998
 21
-5.885
 31
0.0
  0
TEXT
  5
36E
100
AcDbEntity
  8
TEXT
100
AcDbText
 10
-1.573915
 20
1.4201
 30
0.0
 40
0.1
  1
Part #:?
 72
     1
 11
-1.232248
 21
1.4201
 31
0.0
100
AcDbText
  0
LINE
  5
3DB
100
AcDbEntity
  8
0
100
AcDbLine
 10
-0.089998
 20
-5.885
 30
0.0
 11
0.890002
 21
-5.885
 31
0.0
  0
LINE
  5
3DC
100
AcDbEntity
  8
L1
  6
CONTINUOUS
 62
     7
100
AcDbLine
 10
-0.119999
 20
-6.235
 30
0.0
 11
0.920001
 21
-6.235
 31
0.0
  0
LINE
  5
3DD
100
AcDbEntity
  8
L1
  6
CONTINUOUS
 62
     7
100
AcDbLine
 10
-0.119999
 20
-5.235
 30
0.0
 11
0.920001
 21
-5.235
 31
0.0
  0
LINE
  5
3DE
100
AcDbEntity
  8
L1
  6
CONTINUOUS
 62
     7
100
AcDbLine
 10
-0.119999
 20
-6.235
 30
0.0
 11
0.920001
 21
-6.235
 31
0.0
  0
LINE
  5
3DF
100
AcDbEntity
  8
L1
  6
CONTINUOUS
 62
     7
100
AcDbLine
 10
-0.119999
 20
-5.235
 30
0.0
 11
0.920001
 21
-5.235
 31
0.0
  0
LINE
  5
3E0
100
AcDbEntity
  8
L1
  6
CONTINUOUS
 62
     7
100
AcDbLine
 10
-0.119999
 20
-5.235
 30
0.0
 11
-0.119999
 21
-6.235
 31
0.0
  0
LINE
  5
3E1
100
AcDbEntity
  8
L1
  6
CONTINUOUS
 62
     7
100
AcDbLine
 10
-0.119999
 20
-5.235
 30
0.0
 11
-0.119999
 21
-6.235
 31
0.0
  0
LINE
  5
3E2
100
AcDbEntity
  8
0
100
AcDbLine
 10
-0.089998
 20
-5.0584
 30
0.0
 11
-0.089998
 21
-5.235
 31
0.0
  0
LINE
  5
3E3
100
AcDbEntity
  8
L1
  6
CONTINUOUS
 62
     7
100
AcDbLine
 10
0.920001
 20
-5.235
 30
0.0
 11
0.920001
 21
-6.235
 31
0.0
  0
LINE
  5
3E4
100
AcDbEntity
  8
L1
  6
CONTINUOUS
 62
     7
100
AcDbLine
 10
0.920001
 20
-5.235
 30
0.0
 11
0.920001
 21
-6.235
 31
0.0
  0
LINE
  5
3E5
100
AcDbEntity
  8
0
100
AcDbLine
 10
0.337502
 20
-5.0584
 30
0.0
 11
0.337502
 21
-5.235
 31
0.0
  0
LINE
  5
3E6
100
AcDbEntity
  8
0
100
AcDbLine
 10
0.462502
 20
-5.0584
 30
0.0
 11
0.462502
 21
-5.235
 31
0.0
  0
LINE
  5
3E7
100
AcDbEntity
  8
0
100
AcDbLine
 10
0.890002
 20
-5.0584
 30
0.0
 11
0.890002
 21
-5.235
 31
0.0
  0
LINE
  5
3E8
100
AcDbEntity
  8
0
100
AcDbLine
 10
1.510001
 20
-5.885
 30
0.0
 11
2.490001
 21
-5.885
 31
0.0
  0
LINE
  5
3E9
100
AcDbEntity
  8
L1
  6
CONTINUOUS
 62
     7
100
AcDbLine
 10
1.48
 20
-6.235
 30
0.0
 11
2.52
 21
-6.235
 31
0.0
  0
LINE
  5
3EA
100
AcDbEntity
  8
L1
  6
CONTINUOUS
 62
     7
100
AcDbLine
 10
1.48
 20
-5.235
 30
0.0
 11
2.52
 21
-5.235
 31
0.0
  0
LINE
  5
3EB
100
AcDbEntity
  8
L1
  6
CONTINUOUS
 62
     7
100
AcDbLine
 10
1.48
 20
-6.235
 30
0.0
 11
2.52
 21
-6.235
 31
0.0
  0
LINE
  5
3EC
100
AcDbEntity
  8
L1
  6
CONTINUOUS
 62
     7
100
AcDbLine
 10
1.48
 20
-5.235
 30
0.0
 11
2.52
 21
-5.235
 31
0.0
  0
LINE
  5
3ED
100
AcDbEntity
  8
L1
  6
CONTINUOUS
 62
     7
100
AcDbLine
 10
1.48
 20
-5.235
 30
0.0
 11
1.48
 21
-6.235
 31
0.0
  0
LINE
  5
3EE
100
AcDbEntity
  8
L1
  6
CONTINUOUS
 62
     7
100
AcDbLine
 10
1.48
 20
-5.235
 30
0.0
 11
1.48
 21
-6.235
 31
0.0
  0
LINE
  5
3EF
100
AcDbEntity
  8
0
100
AcDbLine
 10
1.510001
 20
-5.0584
 30
0.0
 11
1.510001
 21
-5.235
 31
0.0
  0
LINE
  5
3F0
100
AcDbEntity
  8
L1
  6
CONTINUOUS
 62
     7
100
AcDbLine
 10
2.52
 20
-5.235
 30
0.0
 11
2.52
 21
-6.235
 31
0.0
  0
LINE
  5
3F1
100
AcDbEntity
  8
L1
  6
CONTINUOUS
 62
     7
100
AcDbLine
 10
2.52
 20
-5.235
 30
0.0
 11
2.52
 21
-6.235
 31
0.0
  0
LINE
  5
3F2
100
AcDbEntity
  8
0
100
AcDbLine
 10
1.937501
 20
-5.0584
 30
0.0
 11
1.937501
 21
-5.235
 31
0.0
  0
LINE
  5
3F3
100
AcDbEntity
  8
0
100
AcDbLine
 10
2.062501
 20
-5.0584
 30
0.0
 11
2.062501
 21
-5.235
 31
0.0
  0
LINE
  5
3F4
100
AcDbEntity
  8
0
100
AcDbLine
 10
2.490001
 20
-5.0584
 30
0.0
 11
2.490001
 21
-5.235
 31
0.0
  0
LINE
  5
3F5
100
AcDbEntity
  8
0
100
AcDbLine
 10
3.110003
 20
-5.885
 30
0.0
 11
4.090003
 21
-5.885
 31
0.0
  0
LINE
  5
3F6
100
AcDbEntity
  8
L1
  6
CONTINUOUS
 62
     7
100
AcDbLine
 10
3.080002
 20
-6.235
 30
0.0
 11
4.120002
 21
-6.235
 31
0.0
  0
LINE
  5
3F7
100
AcDbEntity
  8
L1
  6
CONTINUOUS
 62
     7
100
AcDbLine
 10
3.080002
 20
-5.235
 30
0.0
 11
4.120002
 21
-5.235
 31
0.0
  0
LINE
  5
3F8
100
AcDbEntity
  8
L1
  6
CONTINUOUS
 62
     7
100
AcDbLine
 10
3.080002
 20
-6.235
 30
0.0
 11
4.120002
 21
-6.235
 31
0.0
  0
LINE
  5
3F9
100
AcDbEntity
  8
L1
  6
CONTINUOUS
 62
     7
100
AcDbLine
 10
3.080002
 20
-5.235
 30
0.0
 11
4.120002
 21
-5.235
 31
0.0
  0
LINE
  5
3FA
100
AcDbEntity
  8
L1
  6
CONTINUOUS
 62
     7
100
AcDbLine
 10
3.080002
 20
-5.235
 30
0.0
 11
3.080002
 21
-6.235
 31
0.0
  0
LINE
  5
3FB
100
AcDbEntity
  8
L1
  6
CONTINUOUS
 62
     7
100
AcDbLine
 10
3.080002
 20
-5.235
 30
0.0
 11
3.080002
 21
-6.235
 31
0.0
  0
LINE
  5
3FC
100
AcDbEntity
  8
0
100
AcDbLine
 10
3.110003
 20
-5.0584
 30
0.0
 11
3.110003
 21
-5.235
 31
0.0
  0
LINE
  5
3FD
100
AcDbEntity
  8
L1
  6
CONTINUOUS
 62
     7
100
AcDbLine
 10
4.120002
 20
-5.235
 30
0.0
 11
4.120002
 21
-6.235
 31
0.0
  0
LINE
  5
3FE
100
AcDbEntity
  8
L1
  6
CONTINUOUS
 62
     7
100
AcDbLine
 10
4.120002
 20
-5.235
 30
0.0
 11
4.120002
 21
-6.235
 31
0.0
  0
LINE
  5
3FF
100
AcDbEntity
  8
0
100
AcDbLine
 10
3.537503
 20
-5.0584
 30
0.0
 11
3.537503
 21
-5.235
 31
0.0
  0
LINE
  5
400
100
AcDbEntity
  8
0
100
AcDbLine
 10
3.662503
 20
-5.0584
 30
0.0
 11
3.662503
 21
-5.235
 31
0.0
  0
LINE
  5
401
100
AcDbEntity
  8
0
100
AcDbLine
 10
4.090003
 20
-5.0584
 30
0.0
 11
4.090003
 21
-5.235
 31
0.0
  0
LINE
  5
40A
100
AcDbEntity
  8
L1
  6
CONTINUOUS
 62
     7
100
AcDbLine
 10
2.490001
 20
5.064998
 30
0.0
 11
3.110003
 21
5.064998
 31
0.0
  0
LINE
  5
40B
100
AcDbEntity
  8
L1
  6
CONTINUOUS
 62
     7
100
AcDbLine
 10
2.490001
 20
5.564998
 30
0.0
 11
3.110003
 21
5.564998
 31
0.0
  0
LINE
  5
40C
100
AcDbEntity
  8
L1
  6
CONTINUOUS
 62
     7
100
AcDbLine
 10
-0.709998
 20
5.564998
 30
0.0
 11
-0.089998
 21
5.564998
 31
0.0
  0
LINE
  5
40D
100
AcDbEntity
  8
L1
  6
CONTINUOUS
 62
     7
100
AcDbLine
 10
-0.709998
 20
5.064998
 30
0.0
 11
-0.089998
 21
5.064998
 31
0.0
  0
LINE
  5
40E
100
AcDbEntity
  8
L1
  6
CONTINUOUS
 62
     7
100
AcDbLine
 10
0.890002
 20
5.064998
 30
0.0
 11
1.510001
 21
5.064998
 31
0.0
  0
LINE
  5
40F
100
AcDbEntity
  8
L1
  6
CONTINUOUS
 62
     7
100
AcDbLine
 10
0.890002
 20
5.564998
 30
0.0
 11
1.510001
 21
5.564998
 31
0.0
  0
LINE
  5
41D
100
AcDbEntity
  8
L1
  6
CONTINUOUS
 62
     7
100
AcDbLine
 10
-2.707498
 20
5.564998
 30
0.0
 11
-1.689998
 21
5.564998
 31
0.0
  0
LINE
  5
41E
100
AcDbEntity
  8
0
100
AcDbLine
 10
-3.809999
 20
5.564998
 30
0.0
 11
-3.809999
 21
4.7416
 31
0.0
  0
INSERT
  5
549
100
AcDbEntity
  8
0
100
AcDbBlockReference
  2
90_CPU
 10
-3.197498
 20
-6.235
 30
0.0
  0
ENDSEC
  0
SECTION
  2
OBJECTS
  0
DICTIONARY
  5
C
100
AcDbDictionary
  3
ACAD_GROUP
350
D
  3
ACAD_MLINESTYLE
350
E
  0
DICTIONARY
  5
D
102
{ACAD_REACTORS
330
C
102
}
100
AcDbDictionary
  0
DICTIONARY
  5
E
102
{ACAD_REACTORS
330
C
102
}
100
AcDbDictionary
  3
STANDARD
350
13
  0
MLINESTYLE
  5
13
102
{ACAD_REACTORS
330
E
102
}
100
AcDbMlineStyle
  2
STANDARD
 70
     0
  3

 62
     0
 51
90.0
 52
90.0
 71
     2
 49
0.5
 62
   256
  6
BYLAYER
 49
-0.5
 62
   256
  6
BYLAYER
  0
ENDSEC
  0
EOF
