  0
SECTION
  2
HEADER
  9
$ACADVER
  1
AC1012
  9
$DWGCODEPAGE
  3
ANSI_1252
  9
$INSBASE
 10
0.359375
 20
0.0625
 30
0.0
  9
$EXTMIN
 10
1.126155
 20
1.90625
 30
0.0
  9
$EXTMAX
 10
8.51503
 20
14.907738
 30
0.0
  9
$LIMMIN
 10
0.0
 20
0.0
  9
$LIMMAX
 10
17.0
 20
11.0
  9
$ORTHOMODE
 70
     1
  9
$REGENMODE
 70
     1
  9
$FILLMODE
 70
     1
  9
$QTEXTMODE
 70
     0
  9
$MIRRTEXT
 70
     0
  9
$DRAGMODE
 70
     2
  9
$LTSCALE
 40
0.25
  9
$OSMODE
 70
     0
  9
$ATTMODE
 70
     1
  9
$TEXTSIZE
 40
0.125
  9
$TRACEWID
 40
0.05
  9
$TEXTSTYLE
  7
ROMANS
  9
$CLAYER
  8
0
  9
$CELTYPE
  6
BYLAYER
  9
$CECOLOR
 62
   256
  9
$CELTSCALE
 40
1.0
  9
$DELOBJ
 70
     1
  9
$DISPSILH
 70
     0
  9
$DIMSCALE
 40
1.0
  9
$DIMASZ
 40
0.18
  9
$DIMEXO
 40
0.0625
  9
$DIMDLI
 40
0.38
  9
$DIMRND
 40
0.0
  9
$DIMDLE
 40
0.0
  9
$DIMEXE
 40
0.18
  9
$DIMTP
 40
0.0
  9
$DIMTM
 40
0.0
  9
$DIMTXT
 40
0.18
  9
$DIMCEN
 40
0.09
  9
$DIMTSZ
 40
0.0
  9
$DIMTOL
 70
     0
  9
$DIMLIM
 70
     0
  9
$DIMTIH
 70
     1
  9
$DIMTOH
 70
     1
  9
$DIMSE1
 70
     0
  9
$DIMSE2
 70
     0
  9
$DIMTAD
 70
     0
  9
$DIMZIN
 70
     0
  9
$DIMBLK
  1

  9
$DIMASO
 70
     1
  9
$DIMSHO
 70
     0
  9
$DIMPOST
  1

  9
$DIMAPOST
  1

  9
$DIMALT
 70
     0
  9
$DIMALTD
 70
     2
  9
$DIMALTF
 40
25.4
  9
$DIMLFAC
 40
1.0
  9
$DIMTOFL
 70
     0
  9
$DIMTVP
 40
0.0
  9
$DIMTIX
 70
     0
  9
$DIMSOXD
 70
     0
  9
$DIMSAH
 70
     0
  9
$DIMBLK1
  1

  9
$DIMBLK2
  1

  9
$DIMSTYLE
  2
STANDARD
  9
$DIMCLRD
 70
     0
  9
$DIMCLRE
 70
     0
  9
$DIMCLRT
 70
     0
  9
$DIMTFAC
 40
1.0
  9
$DIMGAP
 40
0.09
  9
$DIMJUST
 70
     0
  9
$DIMSD1
 70
     0
  9
$DIMSD2
 70
     0
  9
$DIMTOLJ
 70
     1
  9
$DIMTZIN
 70
     0
  9
$DIMALTZ
 70
     0
  9
$DIMALTTZ
 70
     0
  9
$DIMFIT
 70
     3
  9
$DIMUPT
 70
     0
  9
$DIMUNIT
 70
     2
  9
$DIMDEC
 70
     4
  9
$DIMTDEC
 70
     4
  9
$DIMALTU
 70
     2
  9
$DIMALTTD
 70
     2
  9
$DIMTXSTY
  7
STANDARD
  9
$DIMAUNIT
 70
     0
  9
$LUNITS
 70
     2
  9
$LUPREC
 70
     4
  9
$SKETCHINC
 40
0.1
  9
$FILLETRAD
 40
0.0
  9
$AUNITS
 70
     0
  9
$AUPREC
 70
     0
  9
$MENU
  1
ACAD
  9
$ELEVATION
 40
0.0
  9
$PELEVATION
 40
0.0
  9
$THICKNESS
 40
0.0
  9
$LIMCHECK
 70
     0
  9
$BLIPMODE
 70
     0
  9
$CHAMFERA
 40
0.0
  9
$CHAMFERB
 40
0.0
  9
$CHAMFERC
 40
0.0
  9
$CHAMFERD
 40
0.0
  9
$SKPOLY
 70
     0
  9
$TDCREATE
 40
2450212.582112268
  9
$TDUPDATE
 40
2451092.537282523
  9
$TDINDWG
 40
0.7936461806
  9
$TDUSRTIMER
 40
0.7936461806
  9
$USRTIMER
 70
     1
  9
$ANGBASE
 50
0.0
  9
$ANGDIR
 70
     0
  9
$PDMODE
 70
     3
  9
$PDSIZE
 40
0.1
  9
$PLINEWID
 40
0.01
  9
$COORDS
 70
     2
  9
$SPLFRAME
 70
     0
  9
$SPLINETYPE
 70
     6
  9
$SPLINESEGS
 70
     8
  9
$ATTDIA
 70
     0
  9
$ATTREQ
 70
     1
  9
$HANDLING
 70
     1
  9
$HANDSEED
  5
71C
  9
$SURFTAB1
 70
     6
  9
$SURFTAB2
 70
     6
  9
$SURFTYPE
 70
     6
  9
$SURFU
 70
     6
  9
$SURFV
 70
     6
  9
$UCSNAME
  2

  9
$UCSORG
 10
0.0
 20
0.0
 30
0.0
  9
$UCSXDIR
 10
1.0
 20
0.0
 30
0.0
  9
$UCSYDIR
 10
0.0
 20
1.0
 30
0.0
  9
$PUCSNAME
  2

  9
$PUCSORG
 10
0.0
 20
0.0
 30
0.0
  9
$PUCSXDIR
 10
1.0
 20
0.0
 30
0.0
  9
$PUCSYDIR
 10
0.0
 20
1.0
 30
0.0
  9
$USERI1
 70
     0
  9
$USERI2
 70
     0
  9
$USERI3
 70
     0
  9
$USERI4
 70
     0
  9
$USERI5
 70
     0
  9
$USERR1
 40
0.0
  9
$USERR2
 40
0.0
  9
$USERR3
 40
0.0
  9
$USERR4
 40
0.0
  9
$USERR5
 40
0.0
  9
$WORLDVIEW
 70
     1
  9
$SHADEDGE
 70
     3
  9
$SHADEDIF
 70
    70
  9
$TILEMODE
 70
     1
  9
$MAXACTVP
 70
    16
  9
$PINSBASE
 10
0.0
 20
0.0
 30
0.0
  9
$PLIMCHECK
 70
     0
  9
$PEXTMIN
 10
1.000000E+20
 20
1.000000E+20
 30
1.000000E+20
  9
$PEXTMAX
 10
-1.000000E+20
 20
-1.000000E+20
 30
-1.000000E+20
  9
$PLIMMIN
 10
0.0
 20
0.0
  9
$PLIMMAX
 10
12.0
 20
9.0
  9
$UNITMODE
 70
     0
  9
$VISRETAIN
 70
     0
  9
$PLINEGEN
 70
     0
  9
$PSLTSCALE
 70
     0
  9
$TREEDEPTH
 70
  3020
  9
$PICKSTYLE
 70
     1
  9
$CMLSTYLE
  2
STANDARD
  9
$CMLJUST
 70
     0
  9
$CMLSCALE
 40
1.0
  9
$SAVEIMAGES
 70
     1
  0
ENDSEC
  0
SECTION
  2
CLASSES
  0
CLASS
  1
LWPOLYLINE
  2
AcDbPolyline
  3
"AutoCAD"
 90
    32768
280
     0
281
     1
  0
ENDSEC
  0
SECTION
  2
TABLES
  0
TABLE
  2
VPORT
  5
8
100
AcDbSymbolTable
 70
     2
  0
VPORT
  5
71B
100
AcDbSymbolTableRecord
100
AcDbViewportTableRecord
  2
*ACTIVE
 70
     0
 10
0.0
 20
0.0
 11
1.0
 21
1.0
 12
14.202342
 22
7.844063
 13
0.0
 23
0.0
 14
0.001
 24
0.001
 15
1.0
 25
1.0
 16
0.0
 26
0.0
 36
1.0
 17
0.0
 27
0.0
 37
0.0
 40
15.688125
 41
1.810585
 42
50.0
 43
0.0
 44
0.0
 50
0.0
 51
0.0
 71
     0
 72
   100
 73
     1
 74
     0
 75
     1
 76
     0
 77
     0
 78
     0
  0
ENDTAB
  0
TABLE
  2
LTYPE
  5
5
100
AcDbSymbolTable
 70
     1
  0
LTYPE
  5
12
100
AcDbSymbolTableRecord
100
AcDbLinetypeTableRecord
  2
BYBLOCK
 70
     0
  3

 72
    65
 73
     0
 40
0.0
  0
LTYPE
  5
13
100
AcDbSymbolTableRecord
100
AcDbLinetypeTableRecord
  2
BYLAYER
 70
     0
  3

 72
    65
 73
     0
 40
0.0
  0
LTYPE
  5
14
100
AcDbSymbolTableRecord
100
AcDbLinetypeTableRecord
  2
CONTINUOUS
 70
     0
  3
Solid line
 72
    65
 73
     0
 40
0.0
  0
ENDTAB
  0
TABLE
  2
LAYER
  5
2
100
AcDbSymbolTable
 70
     2
  0
LAYER
  5
F
100
AcDbSymbolTableRecord
100
AcDbLayerTableRecord
  2
0
 70
     0
 62
     7
  6
CONTINUOUS
  0
LAYER
  5
24
100
AcDbSymbolTableRecord
100
AcDbLayerTableRecord
  2
TEXT
 70
     0
 62
     2
  6
CONTINUOUS
  0
ENDTAB
  0
TABLE
  2
STYLE
  5
3
100
AcDbSymbolTable
 70
     2
  0
STYLE
  5
10
100
AcDbSymbolTableRecord
100
AcDbTextStyleTableRecord
  2
STANDARD
 70
     0
 40
0.0
 41
1.0
 50
0.0
 71
     0
 42
0.2
  3
txt
  4

  0
STYLE
  5
1E
100
AcDbSymbolTableRecord
100
AcDbTextStyleTableRecord
  2
ROMANS
 70
     0
 40
0.0
 41
0.8
 50
0.0
 71
     0
 42
0.125
  3
ROMANS
  4

  0
ENDTAB
  0
TABLE
  2
VIEW
  5
6
100
AcDbSymbolTable
 70
     0
  0
ENDTAB
  0
TABLE
  2
UCS
  5
7
100
AcDbSymbolTable
 70
     0
  0
ENDTAB
  0
TABLE
  2
APPID
  5
9
100
AcDbSymbolTable
 70
     1
  0
APPID
  5
11
100
AcDbSymbolTableRecord
100
AcDbRegAppTableRecord
  2
ACAD
 70
     0
  0
ENDTAB
  0
TABLE
  2
DIMSTYLE
  5
A
100
AcDbSymbolTable
 70
     1
  0
DIMSTYLE
105
328
100
AcDbSymbolTableRecord
100
AcDbDimStyleTableRecord
  2
STANDARD
 70
     0
  3

  4

  5

  6

  7

 40
1.0
 41
0.18
 42
0.0625
 43
0.38
 44
0.18
 45
0.0
 46
0.0
 47
0.0
 48
0.0
140
0.18
141
0.09
142
0.0
143
25.4
144
1.0
145
0.0
146
1.0
147
0.09
 71
     0
 72
     0
 73
     1
 74
     1
 75
     0
 76
     0
 77
     0
 78
     0
170
     0
171
     2
172
     0
173
     0
174
     0
175
     0
176
     0
177
     0
178
     0
270
     2
271
     4
272
     4
273
     2
274
     2
340
10
275
     0
280
     0
281
     0
282
     0
283
     1
284
     0
285
     0
286
     0
287
     3
288
     0
  0
ENDTAB
  0
TABLE
  2
BLOCK_RECORD
  5
1
100
AcDbSymbolTable
 70
     1
  0
BLOCK_RECORD
  5
18
100
AcDbSymbolTableRecord
100
AcDbBlockTableRecord
  2
*MODEL_SPACE
  0
BLOCK_RECORD
  5
15
100
AcDbSymbolTableRecord
100
AcDbBlockTableRecord
  2
*PAPER_SPACE
  0
BLOCK_RECORD
  5
1C
100
AcDbSymbolTableRecord
100
AcDbBlockTableRecord
  2
TEMP5
  0
ENDTAB
  0
ENDSEC
  0
SECTION
  2
BLOCKS
  0
BLOCK
  5
27
100
AcDbEntity
  8
0
100
AcDbBlockBegin
  2
*MODEL_SPACE
 70
     0
 10
0.0
 20
0.0
 30
0.0
  3
*MODEL_SPACE
  1

  0
ENDBLK
  5
28
100
AcDbEntity
  8
0
100
AcDbBlockEnd
  0
BLOCK
  5
25
100
AcDbEntity
 67
     1
  8
0
100
AcDbBlockBegin
  2
*PAPER_SPACE
 70
     0
 10
0.0
 20
0.0
 30
0.0
  3
*PAPER_SPACE
  1

  0
ENDBLK
  5
26
100
AcDbEntity
 67
     1
  8
0
100
AcDbBlockEnd
  0
BLOCK
  5
29
100
AcDbEntity
  8
0
100
AcDbBlockBegin
  2
TEMP5
 70
     0
 10
0.0
 20
0.0
 30
0.0
  3
TEMP5
  1

  0
TEXT
  5
2A
100
AcDbEntity
  8
0
100
AcDbText
 10
-1.467738
 20
-0.190625
 30
0.0
 40
0.1
  1
INTERNAL ADDRESSES
 41
0.8
  7
ROMANS
 72
     4
 11
-0.8125
 21
-0.140625
 31
0.0
100
AcDbText
  0
TEXT
  5
2B
100
AcDbEntity
  8
0
100
AcDbText
 10
-1.281071
 20
-0.35253
 30
0.0
 40
0.1
  1
LISTED BELOW 
 41
0.8
  7
ROMANS
 72
     4
 11
-0.8125
 21
-0.30253
 31
0.0
100
AcDbText
  0
ENDBLK
  5
2C
100
AcDbEntity
  8
0
100
AcDbBlockEnd
  0
ENDSEC
  0
SECTION
  2
ENTITIES
  0
LINE
  5
34
100
AcDbEntity
  8
0
100
AcDbLine
 10
6.53125
 20
13.65625
 30
0.0
 11
6.30775
 21
13.65625
 31
0.0
  0
LINE
  5
35
100
AcDbEntity
  8
0
100
AcDbLine
 10
8.328125
 20
14.3125
 30
0.0
 11
6.78125
 21
14.3125
 31
0.0
  0
LINE
  5
36
100
AcDbEntity
  8
0
100
AcDbLine
 10
8.328125
 20
1.90625
 30
0.0
 11
8.328125
 21
14.3125
 31
0.0
  0
LINE
  5
37
100
AcDbEntity
  8
0
100
AcDbLine
 10
6.78125
 20
1.90625
 30
0.0
 11
8.328125
 21
1.90625
 31
0.0
  0
LINE
  5
38
100
AcDbEntity
  8
0
100
AcDbLine
 10
6.78125
 20
14.3125
 30
0.0
 11
6.78125
 21
1.90625
 31
0.0
  0
LINE
  5
39
100
AcDbEntity
  8
0
100
AcDbLine
 10
6.53125
 20
13.78125
 30
0.0
 11
6.53125
 21
13.53125
 31
0.0
  0
LINE
  5
3A
100
AcDbEntity
  8
0
100
AcDbLine
 10
6.78125
 20
13.78125
 30
0.0
 11
6.53125
 21
13.78125
 31
0.0
  0
LINE
  5
3B
100
AcDbEntity
  8
0
100
AcDbLine
 10
6.78125
 20
13.53125
 30
0.0
 11
6.53125
 21
13.53125
 31
0.0
  0
LINE
  5
3C
100
AcDbEntity
  8
0
100
AcDbLine
 10
6.78125
 20
13.03125
 30
0.0
 11
6.53125
 21
13.03125
 31
0.0
  0
LINE
  5
3D
100
AcDbEntity
  8
0
100
AcDbLine
 10
6.78125
 20
13.28125
 30
0.0
 11
6.53125
 21
13.28125
 31
0.0
  0
LINE
  5
3E
100
AcDbEntity
  8
0
100
AcDbLine
 10
6.53125
 20
13.28125
 30
0.0
 11
6.53125
 21
13.03125
 31
0.0
  0
LINE
  5
3F
100
AcDbEntity
  8
0
100
AcDbLine
 10
6.78125
 20
12.53125
 30
0.0
 11
6.53125
 21
12.53125
 31
0.0
  0
LINE
  5
40
100
AcDbEntity
  8
0
100
AcDbLine
 10
6.78125
 20
12.78125
 30
0.0
 11
6.53125
 21
12.78125
 31
0.0
  0
LINE
  5
41
100
AcDbEntity
  8
0
100
AcDbLine
 10
6.53125
 20
12.78125
 30
0.0
 11
6.53125
 21
12.53125
 31
0.0
  0
LINE
  5
42
100
AcDbEntity
  8
0
100
AcDbLine
 10
6.78125
 20
12.03125
 30
0.0
 11
6.53125
 21
12.03125
 31
0.0
  0
LINE
  5
43
100
AcDbEntity
  8
0
100
AcDbLine
 10
6.78125
 20
12.28125
 30
0.0
 11
6.53125
 21
12.28125
 31
0.0
  0
LINE
  5
44
100
AcDbEntity
  8
0
100
AcDbLine
 10
6.53125
 20
12.28125
 30
0.0
 11
6.53125
 21
12.03125
 31
0.0
  0
LINE
  5
45
100
AcDbEntity
  8
0
100
AcDbLine
 10
6.78125
 20
11.53125
 30
0.0
 11
6.53125
 21
11.53125
 31
0.0
  0
LINE
  5
46
100
AcDbEntity
  8
0
100
AcDbLine
 10
6.78125
 20
11.78125
 30
0.0
 11
6.53125
 21
11.78125
 31
0.0
  0
LINE
  5
47
100
AcDbEntity
  8
0
100
AcDbLine
 10
6.53125
 20
11.78125
 30
0.0
 11
6.53125
 21
11.53125
 31
0.0
  0
LINE
  5
48
100
AcDbEntity
  8
0
100
AcDbLine
 10
6.78125
 20
11.03125
 30
0.0
 11
6.53125
 21
11.03125
 31
0.0
  0
LINE
  5
49
100
AcDbEntity
  8
0
100
AcDbLine
 10
6.78125
 20
11.28125
 30
0.0
 11
6.53125
 21
11.28125
 31
0.0
  0
LINE
  5
4A
100
AcDbEntity
  8
0
100
AcDbLine
 10
6.53125
 20
11.28125
 30
0.0
 11
6.53125
 21
11.03125
 31
0.0
  0
LINE
  5
4B
100
AcDbEntity
  8
0
100
AcDbLine
 10
6.78125
 20
10.53125
 30
0.0
 11
6.53125
 21
10.53125
 31
0.0
  0
LINE
  5
4C
100
AcDbEntity
  8
0
100
AcDbLine
 10
6.78125
 20
10.78125
 30
0.0
 11
6.53125
 21
10.78125
 31
0.0
  0
LINE
  5
4D
100
AcDbEntity
  8
0
100
AcDbLine
 10
6.53125
 20
10.78125
 30
0.0
 11
6.53125
 21
10.53125
 31
0.0
  0
LINE
  5
4E
100
AcDbEntity
  8
0
100
AcDbLine
 10
6.78125
 20
10.03125
 30
0.0
 11
6.53125
 21
10.03125
 31
0.0
  0
LINE
  5
4F
100
AcDbEntity
  8
0
100
AcDbLine
 10
6.78125
 20
10.28125
 30
0.0
 11
6.53125
 21
10.28125
 31
0.0
  0
LINE
  5
50
100
AcDbEntity
  8
0
100
AcDbLine
 10
6.53125
 20
10.28125
 30
0.0
 11
6.53125
 21
10.03125
 31
0.0
  0
LINE
  5
51
100
AcDbEntity
  8
0
100
AcDbLine
 10
6.78125
 20
9.53125
 30
0.0
 11
6.53125
 21
9.53125
 31
0.0
  0
LINE
  5
52
100
AcDbEntity
  8
0
100
AcDbLine
 10
6.78125
 20
9.78125
 30
0.0
 11
6.53125
 21
9.78125
 31
0.0
  0
LINE
  5
53
100
AcDbEntity
  8
0
100
AcDbLine
 10
6.53125
 20
9.78125
 30
0.0
 11
6.53125
 21
9.53125
 31
0.0
  0
LINE
  5
54
100
AcDbEntity
  8
0
100
AcDbLine
 10
6.78125
 20
9.03125
 30
0.0
 11
6.53125
 21
9.03125
 31
0.0
  0
LINE
  5
55
100
AcDbEntity
  8
0
100
AcDbLine
 10
6.78125
 20
9.28125
 30
0.0
 11
6.53125
 21
9.28125
 31
0.0
  0
LINE
  5
56
100
AcDbEntity
  8
0
100
AcDbLine
 10
6.53125
 20
9.28125
 30
0.0
 11
6.53125
 21
9.03125
 31
0.0
  0
LINE
  5
57
100
AcDbEntity
  8
0
100
AcDbLine
 10
6.78125
 20
8.53125
 30
0.0
 11
6.53125
 21
8.53125
 31
0.0
  0
LINE
  5
58
100
AcDbEntity
  8
0
100
AcDbLine
 10
6.78125
 20
8.78125
 30
0.0
 11
6.53125
 21
8.78125
 31
0.0
  0
LINE
  5
59
100
AcDbEntity
  8
0
100
AcDbLine
 10
6.53125
 20
8.78125
 30
0.0
 11
6.53125
 21
8.53125
 31
0.0
  0
LINE
  5
5A
100
AcDbEntity
  8
0
100
AcDbLine
 10
6.78125
 20
8.03125
 30
0.0
 11
6.53125
 21
8.03125
 31
0.0
  0
LINE
  5
5B
100
AcDbEntity
  8
0
100
AcDbLine
 10
6.78125
 20
8.28125
 30
0.0
 11
6.53125
 21
8.28125
 31
0.0
  0
LINE
  5
5C
100
AcDbEntity
  8
0
100
AcDbLine
 10
6.53125
 20
8.28125
 30
0.0
 11
6.53125
 21
8.03125
 31
0.0
  0
LINE
  5
5D
100
AcDbEntity
  8
0
100
AcDbLine
 10
6.78125
 20
7.53125
 30
0.0
 11
6.53125
 21
7.53125
 31
0.0
  0
LINE
  5
5E
100
AcDbEntity
  8
0
100
AcDbLine
 10
6.78125
 20
7.78125
 30
0.0
 11
6.53125
 21
7.78125
 31
0.0
  0
LINE
  5
5F
100
AcDbEntity
  8
0
100
AcDbLine
 10
6.53125
 20
7.78125
 30
0.0
 11
6.53125
 21
7.53125
 31
0.0
  0
LINE
  5
60
100
AcDbEntity
  8
0
100
AcDbLine
 10
6.78125
 20
7.03125
 30
0.0
 11
6.53125
 21
7.03125
 31
0.0
  0
LINE
  5
61
100
AcDbEntity
  8
0
100
AcDbLine
 10
6.78125
 20
7.28125
 30
0.0
 11
6.53125
 21
7.28125
 31
0.0
  0
LINE
  5
62
100
AcDbEntity
  8
0
100
AcDbLine
 10
6.53125
 20
7.28125
 30
0.0
 11
6.53125
 21
7.03125
 31
0.0
  0
LINE
  5
63
100
AcDbEntity
  8
0
100
AcDbLine
 10
6.78125
 20
6.53125
 30
0.0
 11
6.53125
 21
6.53125
 31
0.0
  0
LINE
  5
64
100
AcDbEntity
  8
0
100
AcDbLine
 10
6.78125
 20
6.78125
 30
0.0
 11
6.53125
 21
6.78125
 31
0.0
  0
LINE
  5
65
100
AcDbEntity
  8
0
100
AcDbLine
 10
6.53125
 20
6.78125
 30
0.0
 11
6.53125
 21
6.53125
 31
0.0
  0
LINE
  5
66
100
AcDbEntity
  8
0
100
AcDbLine
 10
6.78125
 20
6.03125
 30
0.0
 11
6.53125
 21
6.03125
 31
0.0
  0
LINE
  5
67
100
AcDbEntity
  8
0
100
AcDbLine
 10
6.78125
 20
6.28125
 30
0.0
 11
6.53125
 21
6.28125
 31
0.0
  0
LINE
  5
68
100
AcDbEntity
  8
0
100
AcDbLine
 10
6.53125
 20
6.28125
 30
0.0
 11
6.53125
 21
6.03125
 31
0.0
  0
LINE
  5
69
100
AcDbEntity
  8
0
100
AcDbLine
 10
6.78125
 20
5.53125
 30
0.0
 11
6.53125
 21
5.53125
 31
0.0
  0
LINE
  5
6A
100
AcDbEntity
  8
0
100
AcDbLine
 10
6.78125
 20
5.78125
 30
0.0
 11
6.53125
 21
5.78125
 31
0.0
  0
LINE
  5
6B
100
AcDbEntity
  8
0
100
AcDbLine
 10
6.53125
 20
5.78125
 30
0.0
 11
6.53125
 21
5.53125
 31
0.0
  0
LINE
  5
6C
100
AcDbEntity
  8
0
100
AcDbLine
 10
6.78125
 20
5.03125
 30
0.0
 11
6.53125
 21
5.03125
 31
0.0
  0
LINE
  5
6D
100
AcDbEntity
  8
0
100
AcDbLine
 10
6.78125
 20
5.28125
 30
0.0
 11
6.53125
 21
5.28125
 31
0.0
  0
LINE
  5
6E
100
AcDbEntity
  8
0
100
AcDbLine
 10
6.53125
 20
5.28125
 30
0.0
 11
6.53125
 21
5.03125
 31
0.0
  0
LINE
  5
6F
100
AcDbEntity
  8
0
100
AcDbLine
 10
6.78125
 20
4.53125
 30
0.0
 11
6.53125
 21
4.53125
 31
0.0
  0
LINE
  5
70
100
AcDbEntity
  8
0
100
AcDbLine
 10
6.78125
 20
4.78125
 30
0.0
 11
6.53125
 21
4.78125
 31
0.0
  0
LINE
  5
71
100
AcDbEntity
  8
0
100
AcDbLine
 10
6.53125
 20
4.78125
 30
0.0
 11
6.53125
 21
4.53125
 31
0.0
  0
LINE
  5
72
100
AcDbEntity
  8
0
100
AcDbLine
 10
6.78125
 20
4.03125
 30
0.0
 11
6.53125
 21
4.03125
 31
0.0
  0
LINE
  5
73
100
AcDbEntity
  8
0
100
AcDbLine
 10
6.78125
 20
4.28125
 30
0.0
 11
6.53125
 21
4.28125
 31
0.0
  0
LINE
  5
74
100
AcDbEntity
  8
0
100
AcDbLine
 10
6.53125
 20
4.28125
 30
0.0
 11
6.53125
 21
4.03125
 31
0.0
  0
LINE
  5
75
100
AcDbEntity
  8
0
100
AcDbLine
 10
6.78125
 20
3.53125
 30
0.0
 11
6.53125
 21
3.53125
 31
0.0
  0
LINE
  5
76
100
AcDbEntity
  8
0
100
AcDbLine
 10
6.78125
 20
3.78125
 30
0.0
 11
6.53125
 21
3.78125
 31
0.0
  0
LINE
  5
77
100
AcDbEntity
  8
0
100
AcDbLine
 10
6.53125
 20
3.78125
 30
0.0
 11
6.53125
 21
3.53125
 31
0.0
  0
LINE
  5
78
100
AcDbEntity
  8
0
100
AcDbLine
 10
6.78125
 20
3.03125
 30
0.0
 11
6.53125
 21
3.03125
 31
0.0
  0
LINE
  5
79
100
AcDbEntity
  8
0
100
AcDbLine
 10
6.78125
 20
3.28125
 30
0.0
 11
6.53125
 21
3.28125
 31
0.0
  0
LINE
  5
7A
100
AcDbEntity
  8
0
100
AcDbLine
 10
6.53125
 20
3.28125
 30
0.0
 11
6.53125
 21
3.03125
 31
0.0
  0
LINE
  5
7B
100
AcDbEntity
  8
0
100
AcDbLine
 10
6.78125
 20
2.53125
 30
0.0
 11
6.53125
 21
2.53125
 31
0.0
  0
LINE
  5
7C
100
AcDbEntity
  8
0
100
AcDbLine
 10
6.78125
 20
2.78125
 30
0.0
 11
6.53125
 21
2.78125
 31
0.0
  0
LINE
  5
7D
100
AcDbEntity
  8
0
100
AcDbLine
 10
6.53125
 20
2.78125
 30
0.0
 11
6.53125
 21
2.53125
 31
0.0
  0
LINE
  5
7E
100
AcDbEntity
  8
0
100
AcDbLine
 10
6.78125
 20
2.03125
 30
0.0
 11
6.53125
 21
2.03125
 31
0.0
  0
LINE
  5
7F
100
AcDbEntity
  8
0
100
AcDbLine
 10
6.78125
 20
2.28125
 30
0.0
 11
6.53125
 21
2.28125
 31
0.0
  0
LINE
  5
80
100
AcDbEntity
  8
0
100
AcDbLine
 10
6.53125
 20
2.28125
 30
0.0
 11
6.53125
 21
2.03125
 31
0.0
  0
TEXT
  5
99
100
AcDbEntity
  8
TEXT
100
AcDbText
 10
6.84375
 20
13.59375
 30
0.0
 40
0.125
  1
AC SOURCE-G1
 41
0.8
 51
10.0
  7
ROMANS
100
AcDbText
  0
TEXT
  5
9A
100
AcDbEntity
  8
TEXT
100
AcDbText
 10
6.84375
 20
12.59375
 30
0.0
 40
0.125
  1
IN-1
 41
0.8
 51
10.0
  7
ROMANS
100
AcDbText
  0
TEXT
  5
9B
100
AcDbEntity
  8
TEXT
100
AcDbText
 10
6.84375
 20
12.09375
 30
0.0
 40
0.125
  1
IN-2
 41
0.8
 51
10.0
  7
ROMANS
100
AcDbText
  0
TEXT
  5
9C
100
AcDbEntity
  8
TEXT
100
AcDbText
 10
6.84375
 20
11.59375
 30
0.0
 40
0.125
  1
IN-3
 41
0.8
 51
10.0
  7
ROMANS
100
AcDbText
  0
TEXT
  5
9D
100
AcDbEntity
  8
TEXT
100
AcDbText
 10
6.84375
 20
11.09375
 30
0.0
 40
0.125
  1
IN-4
 41
0.8
 51
10.0
  7
ROMANS
100
AcDbText
  0
TEXT
  5
9E
100
AcDbEntity
  8
TEXT
100
AcDbText
 10
6.84375
 20
10.59375
 30
0.0
 40
0.125
  1
AC SOURCE-G2
 41
0.8
 51
10.0
  7
ROMANS
100
AcDbText
  0
LINE
  5
9F
100
AcDbEntity
  8
0
100
AcDbLine
 10
6.53125
 20
4.65625
 30
0.0
 11
6.30775
 21
4.65625
 31
0.0
  0
TEXT
  5
A0
100
AcDbEntity
  8
TEXT
100
AcDbText
 10
6.84375
 20
9.59375
 30
0.0
 40
0.125
  1
IN-5
 41
0.8
 51
10.0
  7
ROMANS
100
AcDbText
  0
TEXT
  5
A1
100
AcDbEntity
  8
TEXT
100
AcDbText
 10
6.84375
 20
9.09375
 30
0.0
 40
0.125
  1
IN-6
 41
0.8
 51
10.0
  7
ROMANS
100
AcDbText
  0
TEXT
  5
A2
100
AcDbEntity
  8
TEXT
100
AcDbText
 10
6.84375
 20
8.59375
 30
0.0
 40
0.125
  1
IN-7
 41
0.8
 51
10.0
  7
ROMANS
100
AcDbText
  0
TEXT
  5
A3
100
AcDbEntity
  8
TEXT
100
AcDbText
 10
6.84375
 20
8.09375
 30
0.0
 40
0.125
  1
IN-8
 41
0.8
 51
10.0
  7
ROMANS
100
AcDbText
  0
TEXT
  5
A4
100
AcDbEntity
  8
TEXT
100
AcDbText
 10
6.84375
 20
7.59375
 30
0.0
 40
0.125
  1
AC SOURCE-G3
 41
0.8
 51
10.0
  7
ROMANS
100
AcDbText
  0
TEXT
  5
A5
100
AcDbEntity
  8
TEXT
100
AcDbText
 10
6.84375
 20
6.59375
 30
0.0
 40
0.125
  1
IN-9
 41
0.8
 51
10.0
  7
ROMANS
100
AcDbText
  0
TEXT
  5
A6
100
AcDbEntity
  8
TEXT
100
AcDbText
 10
6.84375
 20
6.09375
 30
0.0
 40
0.125
  1
IN-10
 41
0.8
 51
10.0
  7
ROMANS
100
AcDbText
  0
TEXT
  5
A7
100
AcDbEntity
  8
TEXT
100
AcDbText
 10
6.84375
 20
5.59375
 30
0.0
 40
0.125
  1
IN-11
 41
0.8
 51
10.0
  7
ROMANS
100
AcDbText
  0
TEXT
  5
A8
100
AcDbEntity
  8
TEXT
100
AcDbText
 10
6.84375
 20
5.09375
 30
0.0
 40
0.125
  1
IN-12
 41
0.8
 51
10.0
  7
ROMANS
100
AcDbText
  0
TEXT
  5
A9
100
AcDbEntity
  8
TEXT
100
AcDbText
 10
6.84375
 20
4.59375
 30
0.0
 40
0.125
  1
AC SOURCE-G4
 41
0.8
 51
10.0
  7
ROMANS
100
AcDbText
  0
TEXT
  5
AA
100
AcDbEntity
  8
TEXT
100
AcDbText
 10
6.84375
 20
3.59375
 30
0.0
 40
0.125
  1
IN-13
 41
0.8
 51
10.0
  7
ROMANS
100
AcDbText
  0
TEXT
  5
AB
100
AcDbEntity
  8
TEXT
100
AcDbText
 10
6.84375
 20
3.09375
 30
0.0
 40
0.125
  1
IN-14
 41
0.8
 51
10.0
  7
ROMANS
100
AcDbText
  0
TEXT
  5
AC
100
AcDbEntity
  8
TEXT
100
AcDbText
 10
6.84375
 20
2.59375
 30
0.0
 40
0.125
  1
IN-15
 41
0.8
 51
10.0
  7
ROMANS
100
AcDbText
  0
TEXT
  5
AD
100
AcDbEntity
  8
TEXT
100
AcDbText
 10
6.84375
 20
2.09375
 30
0.0
 40
0.125
  1
IN-16
 41
0.8
 51
10.0
  7
ROMANS
100
AcDbText
  0
TEXT
  5
AE
100
AcDbEntity
  8
TEXT
100
AcDbText
 10
7.116964
 20
14.758929
 30
0.0
 40
0.125
  1
CARD #--
 41
0.8
  7
ROMANS
 72
     4
 11
7.53125
 21
14.8125
 31
0.0
100
AcDbText
  0
TEXT
  5
AF
100
AcDbEntity
  8
TEXT
100
AcDbText
 10
6.978869
 20
14.547619
 30
0.0
 40
0.125
  1
115VAC INPUT
 41
0.8
  7
ROMANS
 72
     4
 11
7.53125
 21
14.610119
 31
0.0
100
AcDbText
  0
TEXT
  5
B0
100
AcDbEntity
  8
TEXT
100
AcDbText
 10
6.93125
 20
14.345238
 30
0.0
 40
0.125
  1
502-03550-00
 41
0.8
  7
ROMANS
 72
     4
 11
7.53125
 21
14.407738
 31
0.0
100
AcDbText
  0
INSERT
  5
FC
100
AcDbEntity
  8
TEXT
100
AcDbBlockReference
  2
TEMP5
 10
8.34375
 20
14.3125
 30
0.0
  0
TEXT
  5
FE
100
AcDbEntity
  8
TEXT
100
AcDbText
 10
6.84375
 20
13.4
 30
0.0
 40
0.125
  1
COMMON
 41
0.8
 51
10.0
  7
ROMANS
100
AcDbText
  0
TEXT
  5
FF
100
AcDbEntity
  8
TEXT
100
AcDbText
 10
6.84375
 20
10.4
 30
0.0
 40
0.125
  1
COMMON
 41
0.8
 51
10.0
  7
ROMANS
100
AcDbText
  0
TEXT
  5
100
100
AcDbEntity
  8
TEXT
100
AcDbText
 10
6.84375
 20
7.4
 30
0.0
 40
0.125
  1
COMMON
 41
0.8
 51
10.0
  7
ROMANS
100
AcDbText
  0
TEXT
  5
101
100
AcDbEntity
  8
TEXT
100
AcDbText
 10
6.84375
 20
4.4
 30
0.0
 40
0.125
  1
COMMON
 41
0.8
 51
10.0
  7
ROMANS
100
AcDbText
  0
LINE
  5
108
100
AcDbEntity
  8
0
100
AcDbLine
 10
6.30775
 20
13.75
 30
0.0
 11
6.30775
 21
13.5625
 31
0.0
  0
LINE
  5
109
100
AcDbEntity
  8
0
100
AcDbLine
 10
5.93275
 20
13.75
 30
0.0
 11
5.93275
 21
13.5625
 31
0.0
  0
LINE
  5
10A
100
AcDbEntity
  8
0
100
AcDbLine
 10
6.30775
 20
13.5625
 30
0.0
 11
5.93275
 21
13.5625
 31
0.0
  0
TEXT
  5
10B
100
AcDbEntity
  8
TEXT
100
AcDbText
 10
5.971679
 20
13.6125
 30
0.0
 40
0.1
  1
---
 41
0.8
 51
10.0
  7
ROMANS
 72
     1
 11
6.12025
 21
13.6125
 31
0.0
100
AcDbText
  0
LINE
  5
10C
100
AcDbEntity
  8
0
100
AcDbLine
 10
5.93275
 20
13.75
 30
0.0
 11
6.30775
 21
13.75
 31
0.0
  0
LINE
  5
116
100
AcDbEntity
  8
0
100
AcDbLine
 10
5.93275
 20
10.74995
 30
0.0
 11
6.30775
 21
10.74995
 31
0.0
  0
LINE
  5
117
100
AcDbEntity
  8
0
100
AcDbLine
 10
6.30775
 20
10.56245
 30
0.0
 11
5.93275
 21
10.56245
 31
0.0
  0
LINE
  5
118
100
AcDbEntity
  8
0
100
AcDbLine
 10
5.93275
 20
10.74995
 30
0.0
 11
5.93275
 21
10.56245
 31
0.0
  0
TEXT
  5
119
100
AcDbEntity
  8
TEXT
100
AcDbText
 10
5.971679
 20
10.61245
 30
0.0
 40
0.1
  1
---
 41
0.8
 51
10.0
  7
ROMANS
 72
     1
 11
6.12025
 21
10.61245
 31
0.0
100
AcDbText
  0
LINE
  5
11A
100
AcDbEntity
  8
0
100
AcDbLine
 10
6.30775
 20
10.74995
 30
0.0
 11
6.30775
 21
10.56245
 31
0.0
  0
LINE
  5
11B
100
AcDbEntity
  8
0
100
AcDbLine
 10
6.30775
 20
7.56245
 30
0.0
 11
5.93275
 21
7.56245
 31
0.0
  0
LINE
  5
11C
100
AcDbEntity
  8
0
100
AcDbLine
 10
5.93275
 20
7.74995
 30
0.0
 11
6.30775
 21
7.74995
 31
0.0
  0
LINE
  5
11D
100
AcDbEntity
  8
0
100
AcDbLine
 10
5.93275
 20
7.74995
 30
0.0
 11
5.93275
 21
7.56245
 31
0.0
  0
TEXT
  5
11E
100
AcDbEntity
  8
TEXT
100
AcDbText
 10
5.971679
 20
7.61245
 30
0.0
 40
0.1
  1
---
 41
0.8
 51
10.0
  7
ROMANS
 72
     1
 11
6.12025
 21
7.61245
 31
0.0
100
AcDbText
  0
LINE
  5
11F
100
AcDbEntity
  8
0
100
AcDbLine
 10
6.30775
 20
7.74995
 30
0.0
 11
6.30775
 21
7.56245
 31
0.0
  0
TEXT
  5
123
100
AcDbEntity
  8
TEXT
100
AcDbText
 10
1.114726
 20
12.6312
 30
0.0
 40
0.1
  1
*
 41
0.8
  7
ROMANS
 72
     2
 11
1.16425
 21
12.6312
 31
0.0
100
AcDbText
  0
TEXT
  5
126
100
AcDbEntity
  8
TEXT
100
AcDbText
 10
1.114726
 20
12.1312
 30
0.0
 40
0.1
  1
*
 41
0.8
  7
ROMANS
 72
     2
 11
1.16425
 21
12.1312
 31
0.0
100
AcDbText
  0
TEXT
  5
128
100
AcDbEntity
  8
TEXT
100
AcDbText
 10
1.114726
 20
11.6312
 30
0.0
 40
0.1
  1
*
 41
0.8
  7
ROMANS
 72
     2
 11
1.16425
 21
11.6312
 31
0.0
100
AcDbText
  0
TEXT
  5
12D
100
AcDbEntity
  8
TEXT
100
AcDbText
 10
1.114726
 20
9.13125
 30
0.0
 40
0.1
  1
*
 41
0.8
  7
ROMANS
 72
     2
 11
1.16425
 21
9.13125
 31
0.0
100
AcDbText
  0
LINE
  5
131
100
AcDbEntity
  8
0
100
AcDbLine
 10
6.30775
 20
4.75
 30
0.0
 11
6.30775
 21
4.5625
 31
0.0
  0
LINE
  5
132
100
AcDbEntity
  8
0
100
AcDbLine
 10
5.93275
 20
4.75
 30
0.0
 11
5.93275
 21
4.5625
 31
0.0
  0
LINE
  5
133
100
AcDbEntity
  8
0
100
AcDbLine
 10
6.30775
 20
4.5625
 30
0.0
 11
5.93275
 21
4.5625
 31
0.0
  0
LINE
  5
134
100
AcDbEntity
  8
0
100
AcDbLine
 10
5.93275
 20
4.75
 30
0.0
 11
6.30775
 21
4.75
 31
0.0
  0
TEXT
  5
135
100
AcDbEntity
  8
TEXT
100
AcDbText
 10
5.971679
 20
4.6125
 30
0.0
 40
0.1
  1
---
 41
0.8
 51
10.0
  7
ROMANS
 72
     1
 11
6.12025
 21
4.6125
 31
0.0
100
AcDbText
  0
TEXT
  5
13C
100
AcDbEntity
  8
0
100
AcDbText
 10
8.4375
 20
3.09375
 30
0.0
 40
0.125
  1

 41
0.8
 51
10.0
  7
ROMANS
100
AcDbText
  0
TEXT
  5
13D
100
AcDbEntity
  8
TEXT
100
AcDbText
 10
7.640625
 20
12.59375
 30
0.0
 40
0.125
  1
I-.-.1
 41
0.8
 51
10.0
  7
ROMANS
100
AcDbText
  0
TEXT
  5
13E
100
AcDbEntity
  8
TEXT
100
AcDbText
 10
7.640625
 20
12.09375
 30
0.0
 40
0.125
  1
I-.-.2
 41
0.8
 51
10.0
  7
ROMANS
100
AcDbText
  0
TEXT
  5
13F
100
AcDbEntity
  8
TEXT
100
AcDbText
 10
7.640625
 20
11.59375
 30
0.0
 40
0.125
  1
I-.-.3
 41
0.8
 51
10.0
  7
ROMANS
100
AcDbText
  0
TEXT
  5
140
100
AcDbEntity
  8
TEXT
100
AcDbText
 10
7.640625
 20
11.09375
 30
0.0
 40
0.125
  1
I-.-.4
 41
0.8
 51
10.0
  7
ROMANS
100
AcDbText
  0
TEXT
  5
141
100
AcDbEntity
  8
TEXT
100
AcDbText
 10
7.640625
 20
9.59375
 30
0.0
 40
0.125
  1
I-.-.5
 41
0.8
 51
10.0
  7
ROMANS
100
AcDbText
  0
TEXT
  5
142
100
AcDbEntity
  8
TEXT
100
AcDbText
 10
7.640625
 20
9.09375
 30
0.0
 40
0.125
  1
I-.-.6
 41
0.8
 51
10.0
  7
ROMANS
100
AcDbText
  0
TEXT
  5
143
100
AcDbEntity
  8
TEXT
100
AcDbText
 10
7.640625
 20
8.59375
 30
0.0
 40
0.125
  1
I-.-.7
 41
0.8
 51
10.0
  7
ROMANS
100
AcDbText
  0
TEXT
  5
144
100
AcDbEntity
  8
TEXT
100
AcDbText
 10
7.640625
 20
8.09375
 30
0.0
 40
0.125
  1
I-.-.8
 41
0.8
 51
10.0
  7
ROMANS
100
AcDbText
  0
TEXT
  5
145
100
AcDbEntity
  8
TEXT
100
AcDbText
 10
7.640625
 20
2.09375
 30
0.0
 40
0.125
  1
I-.-.16
 41
0.8
 51
10.0
  7
ROMANS
100
AcDbText
  0
TEXT
  5
146
100
AcDbEntity
  8
TEXT
100
AcDbText
 10
7.640625
 20
2.59375
 30
0.0
 40
0.125
  1
I-.-.15
 41
0.8
 51
10.0
  7
ROMANS
100
AcDbText
  0
TEXT
  5
147
100
AcDbEntity
  8
TEXT
100
AcDbText
 10
7.640625
 20
3.59375
 30
0.0
 40
0.125
  1
I-.-.13
 41
0.8
 51
10.0
  7
ROMANS
100
AcDbText
  0
TEXT
  5
148
100
AcDbEntity
  8
TEXT
100
AcDbText
 10
7.640625
 20
3.09375
 30
0.0
 40
0.125
  1
I-.-.14
 41
0.8
 51
10.0
  7
ROMANS
100
AcDbText
  0
TEXT
  5
149
100
AcDbEntity
  8
TEXT
100
AcDbText
 10
7.640625
 20
5.09375
 30
0.0
 40
0.125
  1
I-.-.12
 41
0.8
 51
10.0
  7
ROMANS
100
AcDbText
  0
TEXT
  5
14A
100
AcDbEntity
  8
TEXT
100
AcDbText
 10
7.640625
 20
5.59375
 30
0.0
 40
0.125
  1
I-.-.11
 41
0.8
 51
10.0
  7
ROMANS
100
AcDbText
  0
TEXT
  5
14B
100
AcDbEntity
  8
TEXT
100
AcDbText
 10
7.640625
 20
6.09375
 30
0.0
 40
0.125
  1
I-.-.10
 41
0.8
 51
10.0
  7
ROMANS
100
AcDbText
  0
TEXT
  5
14C
100
AcDbEntity
  8
TEXT
100
AcDbText
 10
7.640625
 20
6.59375
 30
0.0
 40
0.125
  1
I-.-.9
 41
0.8
 51
10.0
  7
ROMANS
100
AcDbText
  0
LINE
  5
14D
100
AcDbEntity
  8
0
100
AcDbLine
 10
5.93275
 20
11.24995
 30
0.0
 11
6.30775
 21
11.24995
 31
0.0
  0
LINE
  5
14E
100
AcDbEntity
  8
0
100
AcDbLine
 10
6.30775
 20
11.06245
 30
0.0
 11
5.93275
 21
11.06245
 31
0.0
  0
LINE
  5
14F
100
AcDbEntity
  8
0
100
AcDbLine
 10
5.93275
 20
11.74995
 30
0.0
 11
6.30775
 21
11.74995
 31
0.0
  0
LINE
  5
150
100
AcDbEntity
  8
0
100
AcDbLine
 10
6.30775
 20
11.56245
 30
0.0
 11
5.93275
 21
11.56245
 31
0.0
  0
LINE
  5
151
100
AcDbEntity
  8
0
100
AcDbLine
 10
5.93275
 20
11.06245
 30
0.0
 11
5.93275
 21
11.24995
 31
0.0
  0
LINE
  5
152
100
AcDbEntity
  8
0
100
AcDbLine
 10
5.93275
 20
11.56245
 30
0.0
 11
5.93275
 21
11.74995
 31
0.0
  0
LINE
  5
153
100
AcDbEntity
  8
0
100
AcDbLine
 10
6.30775
 20
11.24995
 30
0.0
 11
6.30775
 21
11.06245
 31
0.0
  0
TEXT
  5
154
100
AcDbEntity
  8
TEXT
100
AcDbText
 10
5.971679
 20
11.11245
 30
0.0
 40
0.1
  1
---
 41
0.8
 51
10.0
  7
ROMANS
 72
     1
 11
6.12025
 21
11.11245
 31
0.0
100
AcDbText
  0
TEXT
  5
155
100
AcDbEntity
  8
TEXT
100
AcDbText
 10
5.971679
 20
11.61245
 30
0.0
 40
0.1
  1
---
 41
0.8
 51
10.0
  7
ROMANS
 72
     1
 11
6.12025
 21
11.61245
 31
0.0
100
AcDbText
  0
LINE
  5
156
100
AcDbEntity
  8
0
100
AcDbLine
 10
6.30775
 20
11.74995
 30
0.0
 11
6.30775
 21
11.56245
 31
0.0
  0
LINE
  5
157
100
AcDbEntity
  8
0
100
AcDbLine
 10
5.93275
 20
12.24995
 30
0.0
 11
6.30775
 21
12.24995
 31
0.0
  0
LINE
  5
158
100
AcDbEntity
  8
0
100
AcDbLine
 10
6.30775
 20
12.06245
 30
0.0
 11
5.93275
 21
12.06245
 31
0.0
  0
LINE
  5
159
100
AcDbEntity
  8
0
100
AcDbLine
 10
6.30775
 20
12.56245
 30
0.0
 11
5.93275
 21
12.56245
 31
0.0
  0
LINE
  5
15A
100
AcDbEntity
  8
0
100
AcDbLine
 10
5.93275
 20
12.74995
 30
0.0
 11
6.30775
 21
12.74995
 31
0.0
  0
LINE
  5
15B
100
AcDbEntity
  8
0
100
AcDbLine
 10
5.93275
 20
12.06245
 30
0.0
 11
5.93275
 21
12.24995
 31
0.0
  0
LINE
  5
15C
100
AcDbEntity
  8
0
100
AcDbLine
 10
5.93275
 20
12.56245
 30
0.0
 11
5.93275
 21
12.74995
 31
0.0
  0
TEXT
  5
15D
100
AcDbEntity
  8
TEXT
100
AcDbText
 10
5.971679
 20
12.11245
 30
0.0
 40
0.1
  1
---
 41
0.8
 51
10.0
  7
ROMANS
 72
     1
 11
6.12025
 21
12.11245
 31
0.0
100
AcDbText
  0
LINE
  5
15E
100
AcDbEntity
  8
0
100
AcDbLine
 10
6.30775
 20
12.24995
 30
0.0
 11
6.30775
 21
12.06245
 31
0.0
  0
TEXT
  5
15F
100
AcDbEntity
  8
TEXT
100
AcDbText
 10
5.971679
 20
12.61245
 30
0.0
 40
0.1
  1
---
 41
0.8
 51
10.0
  7
ROMANS
 72
     1
 11
6.12025
 21
12.61245
 31
0.0
100
AcDbText
  0
LINE
  5
160
100
AcDbEntity
  8
0
100
AcDbLine
 10
6.30775
 20
12.74995
 30
0.0
 11
6.30775
 21
12.56245
 31
0.0
  0
LINE
  5
161
100
AcDbEntity
  8
0
100
AcDbLine
 10
5.93275
 20
8.24995
 30
0.0
 11
6.30775
 21
8.24995
 31
0.0
  0
LINE
  5
162
100
AcDbEntity
  8
0
100
AcDbLine
 10
6.30775
 20
8.06245
 30
0.0
 11
5.93275
 21
8.06245
 31
0.0
  0
LINE
  5
163
100
AcDbEntity
  8
0
100
AcDbLine
 10
5.93275
 20
8.74995
 30
0.0
 11
6.30775
 21
8.74995
 31
0.0
  0
LINE
  5
164
100
AcDbEntity
  8
0
100
AcDbLine
 10
6.30775
 20
8.56245
 30
0.0
 11
5.93275
 21
8.56245
 31
0.0
  0
LINE
  5
165
100
AcDbEntity
  8
0
100
AcDbLine
 10
5.93275
 20
8.06245
 30
0.0
 11
5.93275
 21
8.24995
 31
0.0
  0
LINE
  5
166
100
AcDbEntity
  8
0
100
AcDbLine
 10
5.93275
 20
8.56245
 30
0.0
 11
5.93275
 21
8.74995
 31
0.0
  0
TEXT
  5
167
100
AcDbEntity
  8
TEXT
100
AcDbText
 10
5.971679
 20
8.11245
 30
0.0
 40
0.1
  1
---
 41
0.8
 51
10.0
  7
ROMANS
 72
     1
 11
6.12025
 21
8.11245
 31
0.0
100
AcDbText
  0
LINE
  5
168
100
AcDbEntity
  8
0
100
AcDbLine
 10
6.30775
 20
8.24995
 30
0.0
 11
6.30775
 21
8.06245
 31
0.0
  0
TEXT
  5
169
100
AcDbEntity
  8
TEXT
100
AcDbText
 10
5.971679
 20
8.61245
 30
0.0
 40
0.1
  1
---
 41
0.8
 51
10.0
  7
ROMANS
 72
     1
 11
6.12025
 21
8.61245
 31
0.0
100
AcDbText
  0
LINE
  5
16A
100
AcDbEntity
  8
0
100
AcDbLine
 10
6.30775
 20
8.74995
 30
0.0
 11
6.30775
 21
8.56245
 31
0.0
  0
LINE
  5
16B
100
AcDbEntity
  8
0
100
AcDbLine
 10
5.93275
 20
9.24995
 30
0.0
 11
6.30775
 21
9.24995
 31
0.0
  0
LINE
  5
16C
100
AcDbEntity
  8
0
100
AcDbLine
 10
6.30775
 20
9.06245
 30
0.0
 11
5.93275
 21
9.06245
 31
0.0
  0
LINE
  5
16D
100
AcDbEntity
  8
0
100
AcDbLine
 10
5.93275
 20
9.74995
 30
0.0
 11
6.30775
 21
9.74995
 31
0.0
  0
LINE
  5
16E
100
AcDbEntity
  8
0
100
AcDbLine
 10
6.30775
 20
9.56245
 30
0.0
 11
5.93275
 21
9.56245
 31
0.0
  0
LINE
  5
16F
100
AcDbEntity
  8
0
100
AcDbLine
 10
5.93275
 20
9.56245
 30
0.0
 11
5.93275
 21
9.74995
 31
0.0
  0
LINE
  5
170
100
AcDbEntity
  8
0
100
AcDbLine
 10
5.93275
 20
9.06245
 30
0.0
 11
5.93275
 21
9.24995
 31
0.0
  0
TEXT
  5
171
100
AcDbEntity
  8
TEXT
100
AcDbText
 10
5.971679
 20
9.61245
 30
0.0
 40
0.1
  1
---
 41
0.8
 51
10.0
  7
ROMANS
 72
     1
 11
6.12025
 21
9.61245
 31
0.0
100
AcDbText
  0
LINE
  5
172
100
AcDbEntity
  8
0
100
AcDbLine
 10
6.30775
 20
9.74995
 30
0.0
 11
6.30775
 21
9.56245
 31
0.0
  0
TEXT
  5
173
100
AcDbEntity
  8
TEXT
100
AcDbText
 10
5.971679
 20
9.11245
 30
0.0
 40
0.1
  1
---
 41
0.8
 51
10.0
  7
ROMANS
 72
     1
 11
6.12025
 21
9.11245
 31
0.0
100
AcDbText
  0
LINE
  5
174
100
AcDbEntity
  8
0
100
AcDbLine
 10
6.30775
 20
9.24995
 30
0.0
 11
6.30775
 21
9.06245
 31
0.0
  0
TEXT
  5
175
100
AcDbEntity
  8
TEXT
100
AcDbText
 10
5.971679
 20
6.1124
 30
0.0
 40
0.1
  1
---
 41
0.8
 51
10.0
  7
ROMANS
 72
     1
 11
6.12025
 21
6.1124
 31
0.0
100
AcDbText
  0
LINE
  5
176
100
AcDbEntity
  8
0
100
AcDbLine
 10
6.30775
 20
6.2499
 30
0.0
 11
6.30775
 21
6.0624
 31
0.0
  0
LINE
  5
177
100
AcDbEntity
  8
0
100
AcDbLine
 10
5.93275
 20
6.0624
 30
0.0
 11
5.93275
 21
6.2499
 31
0.0
  0
LINE
  5
178
100
AcDbEntity
  8
0
100
AcDbLine
 10
6.30775
 20
5.06245
 30
0.0
 11
5.93275
 21
5.06245
 31
0.0
  0
LINE
  5
179
100
AcDbEntity
  8
0
100
AcDbLine
 10
5.93275
 20
5.24995
 30
0.0
 11
6.30775
 21
5.24995
 31
0.0
  0
LINE
  5
17A
100
AcDbEntity
  8
0
100
AcDbLine
 10
5.93275
 20
5.74995
 30
0.0
 11
6.30775
 21
5.74995
 31
0.0
  0
LINE
  5
17B
100
AcDbEntity
  8
0
100
AcDbLine
 10
6.30775
 20
5.56245
 30
0.0
 11
5.93275
 21
5.56245
 31
0.0
  0
LINE
  5
17C
100
AcDbEntity
  8
0
100
AcDbLine
 10
6.30775
 20
6.0624
 30
0.0
 11
5.93275
 21
6.0624
 31
0.0
  0
LINE
  5
17D
100
AcDbEntity
  8
0
100
AcDbLine
 10
5.93275
 20
5.06245
 30
0.0
 11
5.93275
 21
5.24995
 31
0.0
  0
LINE
  5
17E
100
AcDbEntity
  8
0
100
AcDbLine
 10
5.93275
 20
5.56245
 30
0.0
 11
5.93275
 21
5.74995
 31
0.0
  0
TEXT
  5
17F
100
AcDbEntity
  8
TEXT
100
AcDbText
 10
5.971679
 20
5.11245
 30
0.0
 40
0.1
  1
---
 41
0.8
 51
10.0
  7
ROMANS
 72
     1
 11
6.12025
 21
5.11245
 31
0.0
100
AcDbText
  0
LINE
  5
180
100
AcDbEntity
  8
0
100
AcDbLine
 10
6.30775
 20
5.24995
 30
0.0
 11
6.30775
 21
5.06245
 31
0.0
  0
TEXT
  5
181
100
AcDbEntity
  8
TEXT
100
AcDbText
 10
5.971679
 20
5.61245
 30
0.0
 40
0.1
  1
---
 41
0.8
 51
10.0
  7
ROMANS
 72
     1
 11
6.12025
 21
5.61245
 31
0.0
100
AcDbText
  0
LINE
  5
182
100
AcDbEntity
  8
0
100
AcDbLine
 10
6.30775
 20
5.74995
 30
0.0
 11
6.30775
 21
5.56245
 31
0.0
  0
LINE
  5
183
100
AcDbEntity
  8
0
100
AcDbLine
 10
6.30775
 20
6.5624
 30
0.0
 11
5.93275
 21
6.5624
 31
0.0
  0
LINE
  5
184
100
AcDbEntity
  8
0
100
AcDbLine
 10
5.93275
 20
6.7499
 30
0.0
 11
6.30775
 21
6.7499
 31
0.0
  0
LINE
  5
185
100
AcDbEntity
  8
0
100
AcDbLine
 10
5.93275
 20
6.2499
 30
0.0
 11
6.30775
 21
6.2499
 31
0.0
  0
LINE
  5
186
100
AcDbEntity
  8
0
100
AcDbLine
 10
5.93275
 20
6.5624
 30
0.0
 11
5.93275
 21
6.7499
 31
0.0
  0
TEXT
  5
187
100
AcDbEntity
  8
TEXT
100
AcDbText
 10
5.971679
 20
6.6124
 30
0.0
 40
0.1
  1
---
 41
0.8
 51
10.0
  7
ROMANS
 72
     1
 11
6.12025
 21
6.6124
 31
0.0
100
AcDbText
  0
LINE
  5
188
100
AcDbEntity
  8
0
100
AcDbLine
 10
6.30775
 20
6.7499
 30
0.0
 11
6.30775
 21
6.5624
 31
0.0
  0
LINE
  5
189
100
AcDbEntity
  8
0
100
AcDbLine
 10
6.30775
 20
2.06245
 30
0.0
 11
5.93275
 21
2.06245
 31
0.0
  0
LINE
  5
18A
100
AcDbEntity
  8
0
100
AcDbLine
 10
5.93275
 20
2.24995
 30
0.0
 11
6.30775
 21
2.24995
 31
0.0
  0
LINE
  5
18B
100
AcDbEntity
  8
0
100
AcDbLine
 10
6.30775
 20
2.56245
 30
0.0
 11
5.93275
 21
2.56245
 31
0.0
  0
LINE
  5
18C
100
AcDbEntity
  8
0
100
AcDbLine
 10
5.93275
 20
2.74995
 30
0.0
 11
6.30775
 21
2.74995
 31
0.0
  0
LINE
  5
18D
100
AcDbEntity
  8
0
100
AcDbLine
 10
6.30775
 20
3.06245
 30
0.0
 11
5.93275
 21
3.06245
 31
0.0
  0
LINE
  5
18E
100
AcDbEntity
  8
0
100
AcDbLine
 10
5.93275
 20
3.24995
 30
0.0
 11
6.30775
 21
3.24995
 31
0.0
  0
LINE
  5
18F
100
AcDbEntity
  8
0
100
AcDbLine
 10
5.93275
 20
2.56245
 30
0.0
 11
5.93275
 21
2.74995
 31
0.0
  0
LINE
  5
190
100
AcDbEntity
  8
0
100
AcDbLine
 10
5.93275
 20
2.06245
 30
0.0
 11
5.93275
 21
2.24995
 31
0.0
  0
LINE
  5
191
100
AcDbEntity
  8
0
100
AcDbLine
 10
5.93275
 20
3.06245
 30
0.0
 11
5.93275
 21
3.24995
 31
0.0
  0
TEXT
  5
192
100
AcDbEntity
  8
TEXT
100
AcDbText
 10
5.971679
 20
2.61245
 30
0.0
 40
0.1
  1
---
 41
0.8
 51
10.0
  7
ROMANS
 72
     1
 11
6.12025
 21
2.61245
 31
0.0
100
AcDbText
  0
LINE
  5
193
100
AcDbEntity
  8
0
100
AcDbLine
 10
6.30775
 20
2.74995
 30
0.0
 11
6.30775
 21
2.56245
 31
0.0
  0
TEXT
  5
194
100
AcDbEntity
  8
TEXT
100
AcDbText
 10
5.971679
 20
2.11245
 30
0.0
 40
0.1
  1
---
 41
0.8
 51
10.0
  7
ROMANS
 72
     1
 11
6.12025
 21
2.11245
 31
0.0
100
AcDbText
  0
LINE
  5
195
100
AcDbEntity
  8
0
100
AcDbLine
 10
6.30775
 20
2.24995
 30
0.0
 11
6.30775
 21
2.06245
 31
0.0
  0
TEXT
  5
196
100
AcDbEntity
  8
TEXT
100
AcDbText
 10
5.971679
 20
3.11245
 30
0.0
 40
0.1
  1
---
 41
0.8
 51
10.0
  7
ROMANS
 72
     1
 11
6.12025
 21
3.11245
 31
0.0
100
AcDbText
  0
LINE
  5
197
100
AcDbEntity
  8
0
100
AcDbLine
 10
6.30775
 20
3.24995
 30
0.0
 11
6.30775
 21
3.06245
 31
0.0
  0
LINE
  5
198
100
AcDbEntity
  8
0
100
AcDbLine
 10
6.30775
 20
3.56245
 30
0.0
 11
5.93275
 21
3.56245
 31
0.0
  0
LINE
  5
199
100
AcDbEntity
  8
0
100
AcDbLine
 10
5.93275
 20
3.74995
 30
0.0
 11
6.30775
 21
3.74995
 31
0.0
  0
LINE
  5
19A
100
AcDbEntity
  8
0
100
AcDbLine
 10
5.93275
 20
3.56245
 30
0.0
 11
5.93275
 21
3.74995
 31
0.0
  0
LINE
  5
19B
100
AcDbEntity
  8
0
100
AcDbLine
 10
6.30775
 20
3.74995
 30
0.0
 11
6.30775
 21
3.56245
 31
0.0
  0
TEXT
  5
19C
100
AcDbEntity
  8
TEXT
100
AcDbText
 10
5.971679
 20
3.61245
 30
0.0
 40
0.1
  1
---
 41
0.8
 51
10.0
  7
ROMANS
 72
     1
 11
6.12025
 21
3.61245
 31
0.0
100
AcDbText
  0
LINE
  5
19D
100
AcDbEntity
  8
0
100
AcDbLine
 10
6.30775
 20
3.1562
 30
0.0
 11
6.53125
 21
3.1562
 31
0.0
  0
LINE
  5
19E
100
AcDbEntity
  8
0
100
AcDbLine
 10
6.30775
 20
2.6562
 30
0.0
 11
6.53125
 21
2.6562
 31
0.0
  0
LINE
  5
19F
100
AcDbEntity
  8
0
100
AcDbLine
 10
6.30775
 20
2.1562
 30
0.0
 11
6.53125
 21
2.1562
 31
0.0
  0
LINE
  5
1A0
100
AcDbEntity
  8
0
100
AcDbLine
 10
6.30775
 20
3.6562
 30
0.0
 11
6.53125
 21
3.6562
 31
0.0
  0
LINE
  5
1A2
100
AcDbEntity
  8
0
100
AcDbLine
 10
6.30775
 20
5.1562
 30
0.0
 11
6.53125
 21
5.1562
 31
0.0
  0
LINE
  5
1A3
100
AcDbEntity
  8
0
100
AcDbLine
 10
6.30775
 20
5.6562
 30
0.0
 11
6.53125
 21
5.6562
 31
0.0
  0
LINE
  5
1A4
100
AcDbEntity
  8
0
100
AcDbLine
 10
6.30775
 20
6.1562
 30
0.0
 11
6.53125
 21
6.1562
 31
0.0
  0
LINE
  5
1A5
100
AcDbEntity
  8
0
100
AcDbLine
 10
6.30775
 20
6.6562
 30
0.0
 11
6.53125
 21
6.6562
 31
0.0
  0
LINE
  5
1A6
100
AcDbEntity
  8
0
100
AcDbLine
 10
6.30775
 20
7.6562
 30
0.0
 11
6.53125
 21
7.6562
 31
0.0
  0
LINE
  5
1A7
100
AcDbEntity
  8
0
100
AcDbLine
 10
6.30775
 20
8.1562
 30
0.0
 11
6.53125
 21
8.1562
 31
0.0
  0
LINE
  5
1A8
100
AcDbEntity
  8
0
100
AcDbLine
 10
6.30775
 20
8.6562
 30
0.0
 11
6.53125
 21
8.6562
 31
0.0
  0
LINE
  5
1A9
100
AcDbEntity
  8
0
100
AcDbLine
 10
6.30775
 20
9.1562
 30
0.0
 11
6.53125
 21
9.1562
 31
0.0
  0
LINE
  5
1AA
100
AcDbEntity
  8
0
100
AcDbLine
 10
6.30775
 20
9.6562
 30
0.0
 11
6.53125
 21
9.6562
 31
0.0
  0
LINE
  5
1AB
100
AcDbEntity
  8
0
100
AcDbLine
 10
6.30775
 20
10.6562
 30
0.0
 11
6.53125
 21
10.6562
 31
0.0
  0
LINE
  5
1AC
100
AcDbEntity
  8
0
100
AcDbLine
 10
6.30775
 20
11.1562
 30
0.0
 11
6.53125
 21
11.1562
 31
0.0
  0
LINE
  5
1AD
100
AcDbEntity
  8
0
100
AcDbLine
 10
6.30775
 20
11.6562
 30
0.0
 11
6.53125
 21
11.6562
 31
0.0
  0
LINE
  5
1AE
100
AcDbEntity
  8
0
100
AcDbLine
 10
6.30775
 20
12.1562
 30
0.0
 11
6.53125
 21
12.1562
 31
0.0
  0
LINE
  5
1AF
100
AcDbEntity
  8
0
100
AcDbLine
 10
6.30775
 20
12.6562
 30
0.0
 11
6.53125
 21
12.6562
 31
0.0
  0
LINE
  5
212
100
AcDbEntity
  8
0
100
AcDbLine
 10
1.7855
 20
13.56245
 30
0.0
 11
1.4105
 21
13.56245
 31
0.0
  0
LINE
  5
213
100
AcDbEntity
  8
0
100
AcDbLine
 10
1.4105
 20
13.74995
 30
0.0
 11
1.7855
 21
13.74995
 31
0.0
  0
TEXT
  5
214
100
AcDbEntity
  8
TEXT
100
AcDbText
 10
1.471714
 20
13.61245
 30
0.0
 40
0.085
  1
---
 41
0.8
 51
10.0
  7
ROMANS
 72
     1
 11
1.598
 21
13.61245
 31
0.0
100
AcDbText
  0
LINE
  5
215
100
AcDbEntity
  8
0
100
AcDbLine
 10
1.4105
 20
13.56245
 30
0.0
 11
1.4105
 21
13.74995
 31
0.0
  0
LINE
  5
216
100
AcDbEntity
  8
0
100
AcDbLine
 10
1.7855
 20
13.56245
 30
0.0
 11
1.7855
 21
13.74995
 31
0.0
  0
TEXT
  5
251
100
AcDbEntity
  8
TEXT
100
AcDbText
 10
11.76715
 20
4.36815
 30
0.0
 40
0.1
  1
 
100
AcDbText
  0
TEXT
  5
261
100
AcDbEntity
  8
TEXT
100
AcDbText
 10
2.844144
 20
2.795
 30
0.0
 40
0.1
  1
 
 72
     4
 11
2.894144
 21
2.795
 31
0.0
100
AcDbText
  0
LINE
  5
30A
100
AcDbEntity
  8
0
100
AcDbLine
 10
1.598
 20
13.56245
 30
0.0
 11
1.598
 21
2.1562
 31
0.0
  0
TEXT
  5
318
100
AcDbEntity
  8
TEXT
100
AcDbText
 10
8.453125
 20
2.0937
 30
0.0
 40
0.125
  1
*
 41
0.8
  7
ROMANS
 11
8.453125
 21
2.1562
 31
0.0
100
AcDbText
 73
     2
  0
TEXT
  5
319
100
AcDbEntity
  8
TEXT
100
AcDbText
 10
8.453125
 20
2.5937
 30
0.0
 40
0.125
  1
*
 41
0.8
  7
ROMANS
 11
8.453125
 21
2.6562
 31
0.0
100
AcDbText
 73
     2
  0
TEXT
  5
31A
100
AcDbEntity
  8
TEXT
100
AcDbText
 10
8.453125
 20
3.0937
 30
0.0
 40
0.125
  1
*
 41
0.8
  7
ROMANS
 11
8.453125
 21
3.1562
 31
0.0
100
AcDbText
 73
     2
  0
TEXT
  5
31B
100
AcDbEntity
  8
TEXT
100
AcDbText
 10
8.453125
 20
3.5937
 30
0.0
 40
0.125
  1
 
 41
14.2
  7
ROMANS
 72
     5
 11
10.228125
 21
3.5937
 31
0.0
100
AcDbText
  0
TEXT
  5
31C
100
AcDbEntity
  8
TEXT
100
AcDbText
 10
8.453125
 20
5.0937
 30
0.0
 40
0.125
  1
 
 41
14.2
  7
ROMANS
 72
     5
 11
10.228125
 21
5.0937
 31
0.0
100
AcDbText
  0
TEXT
  5
31D
100
AcDbEntity
  8
TEXT
100
AcDbText
 10
8.453125
 20
5.5937
 30
0.0
 40
0.125
  1
 
 41
14.2
  7
ROMANS
 72
     5
 11
10.228125
 21
5.5937
 31
0.0
100
AcDbText
  0
TEXT
  5
31E
100
AcDbEntity
  8
TEXT
100
AcDbText
 10
8.453125
 20
6.0937
 30
0.0
 40
0.125
  1
 
 41
14.2
  7
ROMANS
 72
     5
 11
10.228125
 21
6.0937
 31
0.0
100
AcDbText
  0
TEXT
  5
31F
100
AcDbEntity
  8
TEXT
100
AcDbText
 10
8.453125
 20
6.0937
 30
0.0
 40
0.125
  1
*
 41
0.8
  7
ROMANS
 11
8.453125
 21
6.1562
 31
0.0
100
AcDbText
 73
     2
  0
TEXT
  5
324
100
AcDbEntity
  8
TEXT
100
AcDbText
 10
8.453125
 20
11.5937
 30
0.0
 40
0.125
  1
*
 41
0.8
  7
ROMANS
 11
8.453125
 21
11.6562
 31
0.0
100
AcDbText
 73
     2
  0
TEXT
  5
325
100
AcDbEntity
  8
TEXT
100
AcDbText
 10
8.453125
 20
12.0937
 30
0.0
 40
0.125
  1
*
 41
0.8
  7
ROMANS
 11
8.453125
 21
12.1562
 31
0.0
100
AcDbText
 73
     2
  0
TEXT
  5
327
100
AcDbEntity
  8
TEXT
100
AcDbText
 10
8.453125
 20
12.5937
 30
0.0
 40
0.125
  1
*
 41
0.8
  7
ROMANS
 11
8.453125
 21
12.6562
 31
0.0
100
AcDbText
 73
     2
  0
TEXT
  5
343
100
AcDbEntity
  8
TEXT
100
AcDbText
 10
1.114726
 20
3.13125
 30
0.0
 40
0.1
  1
*
 41
0.8
  7
ROMANS
 72
     2
 11
1.16425
 21
3.13125
 31
0.0
100
AcDbText
  0
TEXT
  5
34A
100
AcDbEntity
  8
TEXT
100
AcDbText
 10
1.114726
 20
2.63125
 30
0.0
 40
0.1
  1
*
 41
0.8
  7
ROMANS
 72
     2
 11
1.16425
 21
2.63125
 31
0.0
100
AcDbText
  0
TEXT
  5
351
100
AcDbEntity
  8
TEXT
100
AcDbText
 10
1.114726
 20
2.13125
 30
0.0
 40
0.1
  1
*
 41
0.8
  7
ROMANS
 72
     2
 11
1.16425
 21
2.13125
 31
0.0
100
AcDbText
  0
TEXT
  5
35D
100
AcDbEntity
  8
TEXT
100
AcDbText
 10
8.453125
 20
5.5937
 30
0.0
 40
0.125
  1
*
 41
0.8
  7
ROMANS
 11
8.453125
 21
5.6562
 31
0.0
100
AcDbText
 73
     2
  0
TEXT
  5
3AF
100
AcDbEntity
  8
TEXT
100
AcDbText
 10
4.04085
 20
11.7062
 30
0.0
 40
0.075
  1
 
100
AcDbText
  0
TEXT
  5
3B2
100
AcDbEntity
  8
TEXT
100
AcDbText
 10
3.76585
 20
11.7062
 30
0.0
 40
0.075
  1
 
 72
     2
 11
3.84085
 21
11.7062
 31
0.0
100
AcDbText
  0
TEXT
  5
4BB
100
AcDbEntity
  8
TEXT
100
AcDbText
 10
8.453125
 20
5.0937
 30
0.0
 40
0.125
  1
*
 41
0.8
  7
ROMANS
 11
8.453125
 21
5.1562
 31
0.0
100
AcDbText
 73
     2
  0
TEXT
  5
53A
100
AcDbEntity
  8
TEXT
100
AcDbText
 10
2.51425
 20
12.7687
 30
0.0
 40
0.075
  1
 
 41
0.8
  7
ROMANS
 72
     4
 11
2.54425
 21
12.7687
 31
0.0
100
AcDbText
  0
TEXT
  5
55C
100
AcDbEntity
  8
TEXT
100
AcDbText
 10
8.453125
 20
11.0937
 30
0.0
 40
0.125
  1
*
 41
0.8
  7
ROMANS
 11
8.453125
 21
11.1562
 31
0.0
100
AcDbText
 73
     2
  0
TEXT
  5
55D
100
AcDbEntity
  8
TEXT
100
AcDbText
 10
1.114726
 20
11.1312
 30
0.0
 40
0.1
  1
*
 41
0.8
  7
ROMANS
 72
     2
 11
1.16425
 21
11.1312
 31
0.0
100
AcDbText
  0
TEXT
  5
561
100
AcDbEntity
  8
TEXT
100
AcDbText
 10
1.114726
 20
9.63125
 30
0.0
 40
0.1
  1
*
 41
0.8
  7
ROMANS
 72
     2
 11
1.16425
 21
9.63125
 31
0.0
100
AcDbText
  0
TEXT
  5
562
100
AcDbEntity
  8
TEXT
100
AcDbText
 10
8.453125
 20
9.5937
 30
0.0
 40
0.125
  1
*
 41
0.8
  7
ROMANS
 11
8.453125
 21
9.6562
 31
0.0
100
AcDbText
 73
     2
  0
TEXT
  5
57A
100
AcDbEntity
  8
TEXT
100
AcDbText
 10
1.114726
 20
8.63125
 30
0.0
 40
0.1
  1
*
 41
0.8
  7
ROMANS
 72
     2
 11
1.16425
 21
8.63125
 31
0.0
100
AcDbText
  0
TEXT
  5
59B
100
AcDbEntity
  8
TEXT
100
AcDbText
 10
1.114726
 20
8.13125
 30
0.0
 40
0.1
  1
*
 41
0.8
  7
ROMANS
 72
     2
 11
1.16425
 21
8.13125
 31
0.0
100
AcDbText
  0
TEXT
  5
5B9
100
AcDbEntity
  8
TEXT
100
AcDbText
 10
1.114726
 20
6.63125
 30
0.0
 40
0.1
  1
*
 41
0.8
  7
ROMANS
 72
     2
 11
1.16425
 21
6.63125
 31
0.0
100
AcDbText
  0
TEXT
  5
5D5
100
AcDbEntity
  8
TEXT
100
AcDbText
 10
1.114726
 20
6.1312
 30
0.0
 40
0.1
  1
*
 41
0.8
  7
ROMANS
 72
     2
 11
1.16425
 21
6.1312
 31
0.0
100
AcDbText
  0
TEXT
  5
5D6
100
AcDbEntity
  8
TEXT
100
AcDbText
 10
1.114726
 20
5.6312
 30
0.0
 40
0.1
  1
*
 41
0.8
  7
ROMANS
 72
     2
 11
1.16425
 21
5.6312
 31
0.0
100
AcDbText
  0
TEXT
  5
5D7
100
AcDbEntity
  8
TEXT
100
AcDbText
 10
1.114726
 20
5.1312
 30
0.0
 40
0.1
  1
*
 41
0.8
  7
ROMANS
 72
     2
 11
1.16425
 21
5.1312
 31
0.0
100
AcDbText
  0
TEXT
  5
5E2
100
AcDbEntity
  8
TEXT
100
AcDbText
 10
1.114726
 20
3.6312
 30
0.0
 40
0.1
  1
*
 41
0.8
  7
ROMANS
 72
     2
 11
1.16425
 21
3.6312
 31
0.0
100
AcDbText
  0
TEXT
  5
5F2
100
AcDbEntity
  8
TEXT
100
AcDbText
 10
8.453125
 20
3.5937
 30
0.0
 40
0.125
  1
*
 41
0.8
  7
ROMANS
 11
8.453125
 21
3.6562
 31
0.0
100
AcDbText
 73
     2
  0
TEXT
  5
673
100
AcDbEntity
  8
TEXT
100
AcDbText
 10
8.453125
 20
8.0937
 30
0.0
 40
0.125
  1
 
 41
14.2
  7
ROMANS
 72
     5
 11
10.228125
 21
8.0937
 31
0.0
100
AcDbText
  0
TEXT
  5
6E1
100
AcDbEntity
  8
TEXT
100
AcDbText
 10
8.453125
 20
9.0937
 30
0.0
 40
0.125
  1
*
 41
0.8
  7
ROMANS
 11
8.453125
 21
9.1562
 31
0.0
100
AcDbText
 73
     2
  0
TEXT
  5
6E2
100
AcDbEntity
  8
TEXT
100
AcDbText
 10
8.453125
 20
8.5937
 30
0.0
 40
0.125
  1
*
 41
0.8
  7
ROMANS
 11
8.453125
 21
8.6562
 31
0.0
100
AcDbText
 73
     2
  0
TEXT
  5
6EE
100
AcDbEntity
  8
TEXT
100
AcDbText
 10
6.558631
 20
2.09375
 30
0.0
 40
0.125
  1
24
 41
0.8
  7
ROMANS
 72
     1
 11
6.65625
 21
2.15625
 31
0.0
100
AcDbText
 73
     2
  0
TEXT
  5
6EF
100
AcDbEntity
  8
TEXT
100
AcDbText
 10
6.561012
 20
2.59375
 30
0.0
 40
0.125
  1
23
 41
0.8
  7
ROMANS
 72
     4
 11
6.65625
 21
2.65625
 31
0.0
100
AcDbText
  0
TEXT
  5
6F0
100
AcDbEntity
  8
TEXT
100
AcDbText
 10
6.561012
 20
3.09375
 30
0.0
 40
0.125
  1
22
 41
0.8
  7
ROMANS
 72
     4
 11
6.65625
 21
3.15625
 31
0.0
100
AcDbText
  0
TEXT
  5
6F1
100
AcDbEntity
  8
TEXT
100
AcDbText
 10
6.575298
 20
3.59375
 30
0.0
 40
0.125
  1
21
 41
0.8
  7
ROMANS
 72
     4
 11
6.65625
 21
3.65625
 31
0.0
100
AcDbText
  0
TEXT
  5
6F2
100
AcDbEntity
  8
TEXT
100
AcDbText
 10
6.561012
 20
4.09375
 30
0.0
 40
0.125
  1
20
 41
0.8
  7
ROMANS
 72
     4
 11
6.65625
 21
4.15625
 31
0.0
100
AcDbText
  0
TEXT
  5
6F3
100
AcDbEntity
  8
TEXT
100
AcDbText
 10
6.55625
 20
4.59375
 30
0.0
 40
0.125
  1
19
 41
0.8
  7
ROMANS
 72
     4
 11
6.65625
 21
4.65625
 31
0.0
100
AcDbText
  0
TEXT
  5
6F4
100
AcDbEntity
  8
TEXT
100
AcDbText
 10
6.553869
 20
5.09375
 30
0.0
 40
0.125
  1
18
 41
0.8
  7
ROMANS
 72
     4
 11
6.65625
 21
5.15625
 31
0.0
100
AcDbText
  0
TEXT
  5
6F5
100
AcDbEntity
  8
TEXT
100
AcDbText
 10
6.553869
 20
5.59375
 30
0.0
 40
0.125
  1
17
 41
0.8
  7
ROMANS
 72
     4
 11
6.65625
 21
5.65625
 31
0.0
100
AcDbText
  0
TEXT
  5
6F6
100
AcDbEntity
  8
TEXT
100
AcDbText
 10
6.553869
 20
6.09375
 30
0.0
 40
0.125
  1
16
 41
0.8
  7
ROMANS
 72
     4
 11
6.65625
 21
6.15625
 31
0.0
100
AcDbText
  0
TEXT
  5
6F7
100
AcDbEntity
  8
TEXT
100
AcDbText
 10
6.553869
 20
6.59375
 30
0.0
 40
0.125
  1
15
 41
0.8
  7
ROMANS
 72
     4
 11
6.65625
 21
6.65625
 31
0.0
100
AcDbText
  0
TEXT
  5
6F8
100
AcDbEntity
  8
TEXT
100
AcDbText
 10
6.551488
 20
7.09375
 30
0.0
 40
0.125
  1
14
 41
0.8
  7
ROMANS
 72
     4
 11
6.65625
 21
7.15625
 31
0.0
100
AcDbText
  0
TEXT
  5
6F9
100
AcDbEntity
  8
TEXT
100
AcDbText
 10
6.553869
 20
7.59375
 30
0.0
 40
0.125
  1
13
 41
0.8
  7
ROMANS
 72
     4
 11
6.65625
 21
7.65625
 31
0.0
100
AcDbText
  0
TEXT
  5
6FA
100
AcDbEntity
  8
TEXT
100
AcDbText
 10
6.553869
 20
8.09375
 30
0.0
 40
0.125
  1
12
 41
0.8
  7
ROMANS
 72
     4
 11
6.65625
 21
8.15625
 31
0.0
100
AcDbText
  0
TEXT
  5
6FB
100
AcDbEntity
  8
TEXT
100
AcDbText
 10
6.568155
 20
8.59375
 30
0.0
 40
0.125
  1
11
 41
0.8
  7
ROMANS
 72
     4
 11
6.65625
 21
8.65625
 31
0.0
100
AcDbText
  0
TEXT
  5
6FC
100
AcDbEntity
  8
TEXT
100
AcDbText
 10
6.553869
 20
9.09375
 30
0.0
 40
0.125
  1
10
 41
0.8
  7
ROMANS
 72
     4
 11
6.65625
 21
9.15625
 31
0.0
100
AcDbText
  0
TEXT
  5
6FD
100
AcDbEntity
  8
TEXT
100
AcDbText
 10
6.611012
 20
9.59375
 30
0.0
 40
0.125
  1
9
 41
0.8
  7
ROMANS
 72
     4
 11
6.65625
 21
9.65625
 31
0.0
100
AcDbText
  0
TEXT
  5
6FE
100
AcDbEntity
  8
TEXT
100
AcDbText
 10
6.608631
 20
10.09375
 30
0.0
 40
0.125
  1
8
 41
0.8
  7
ROMANS
 72
     4
 11
6.65625
 21
10.15625
 31
0.0
100
AcDbText
  0
TEXT
  5
6FF
100
AcDbEntity
  8
TEXT
100
AcDbText
 10
6.608631
 20
10.59375
 30
0.0
 40
0.125
  1
7
 41
0.8
  7
ROMANS
 72
     4
 11
6.65625
 21
10.65625
 31
0.0
100
AcDbText
  0
TEXT
  5
700
100
AcDbEntity
  8
TEXT
100
AcDbText
 10
6.60625
 20
11.09375
 30
0.0
 40
0.125
  1
6
 41
0.8
  7
ROMANS
 72
     4
 11
6.65625
 21
11.15625
 31
0.0
100
AcDbText
  0
TEXT
  5
701
100
AcDbEntity
  8
TEXT
100
AcDbText
 10
6.608631
 20
11.59375
 30
0.0
 40
0.125
  1
5
 41
0.8
  7
ROMANS
 72
     4
 11
6.65625
 21
11.65625
 31
0.0
100
AcDbText
  0
TEXT
  5
702
100
AcDbEntity
  8
TEXT
100
AcDbText
 10
6.60625
 20
12.09375
 30
0.0
 40
0.125
  1
4
 41
0.8
  7
ROMANS
 72
     4
 11
6.65625
 21
12.15625
 31
0.0
100
AcDbText
  0
TEXT
  5
703
100
AcDbEntity
  8
TEXT
100
AcDbText
 10
6.608631
 20
12.59375
 30
0.0
 40
0.125
  1
3
 41
0.8
  7
ROMANS
 72
     4
 11
6.65625
 21
12.65625
 31
0.0
100
AcDbText
  0
TEXT
  5
704
100
AcDbEntity
  8
TEXT
100
AcDbText
 10
6.608631
 20
13.09375
 30
0.0
 40
0.125
  1
2
 41
0.8
  7
ROMANS
 72
     4
 11
6.65625
 21
13.15625
 31
0.0
100
AcDbText
  0
TEXT
  5
705
100
AcDbEntity
  8
TEXT
100
AcDbText
 10
6.615774
 20
13.59375
 30
0.0
 40
0.125
  1
1
 41
0.8
  7
ROMANS
 72
     4
 11
6.65625
 21
13.65625
 31
0.0
100
AcDbText
  0
TEXT
  5
70D
100
AcDbEntity
  8
TEXT
100
AcDbText
 10
8.453125
 20
8.0937
 30
0.0
 40
0.125
  1
*
 41
0.8
  7
ROMANS
 11
8.453125
 21
8.1562
 31
0.0
100
AcDbText
 73
     2
  0
TEXT
  5
70E
100
AcDbEntity
  8
TEXT
100
AcDbText
 10
8.453125
 20
6.5937
 30
0.0
 40
0.125
  1
*
 41
0.8
  7
ROMANS
 11
8.453125
 21
6.6562
 31
0.0
100
AcDbText
 73
     2
  0
ENDSEC
  0
SECTION
  2
OBJECTS
  0
DICTIONARY
  5
C
100
AcDbDictionary
  3
ACAD_GROUP
350
D
  3
ACAD_MLINESTYLE
350
E
  0
DICTIONARY
  5
D
102
{ACAD_REACTORS
330
C
102
}
100
AcDbDictionary
  0
DICTIONARY
  5
E
102
{ACAD_REACTORS
330
C
102
}
100
AcDbDictionary
  3
STANDARD
350
1B
  0
MLINESTYLE
  5
1B
102
{ACAD_REACTORS
330
E
102
}
100
AcDbMlineStyle
  2
STANDARD
 70
     0
  3

 62
     0
 51
90.0
 52
90.0
 71
     2
 49
0.5
 62
   256
  6
BYLAYER
 49
-0.5
 62
   256
  6
BYLAYER
  0
ENDSEC
  0
EOF
