  0
SECTION
  2
HEADER
  9
$ACADVER
  1
AC1012
  9
$DWGCODEPAGE
  3
ANSI_1252
  9
$INSBASE
 10
0.359375
 20
0.0625
 30
0.0
  9
$EXTMIN
 10
0.659525
 20
1.65625
 30
0.0
  9
$EXTMAX
 10
10.242125
 20
14.96131
 30
0.0
  9
$LIMMIN
 10
0.0
 20
0.0
  9
$LIMMAX
 10
10.456
 20
15.752
  9
$ORTHOMODE
 70
     1
  9
$REGENMODE
 70
     1
  9
$FILLMODE
 70
     1
  9
$QTEXTMODE
 70
     0
  9
$MIRRTEXT
 70
     0
  9
$DRAGMODE
 70
     2
  9
$LTSCALE
 40
0.25
  9
$OSMODE
 70
     0
  9
$ATTMODE
 70
     1
  9
$TEXTSIZE
 40
0.125
  9
$TRACEWID
 40
0.05
  9
$TEXTSTYLE
  7
ROMANS
  9
$CLAYER
  8
0
  9
$CELTYPE
  6
BYLAYER
  9
$CECOLOR
 62
   256
  9
$CELTSCALE
 40
1.0
  9
$DELOBJ
 70
     1
  9
$DISPSILH
 70
     0
  9
$DIMSCALE
 40
1.0
  9
$DIMASZ
 40
0.18
  9
$DIMEXO
 40
0.0625
  9
$DIMDLI
 40
0.38
  9
$DIMRND
 40
0.0
  9
$DIMDLE
 40
0.0
  9
$DIMEXE
 40
0.18
  9
$DIMTP
 40
0.0
  9
$DIMTM
 40
0.0
  9
$DIMTXT
 40
0.18
  9
$DIMCEN
 40
0.09
  9
$DIMTSZ
 40
0.0
  9
$DIMTOL
 70
     0
  9
$DIMLIM
 70
     0
  9
$DIMTIH
 70
     1
  9
$DIMTOH
 70
     1
  9
$DIMSE1
 70
     0
  9
$DIMSE2
 70
     0
  9
$DIMTAD
 70
     0
  9
$DIMZIN
 70
     0
  9
$DIMBLK
  1

  9
$DIMASO
 70
     1
  9
$DIMSHO
 70
     0
  9
$DIMPOST
  1

  9
$DIMAPOST
  1

  9
$DIMALT
 70
     0
  9
$DIMALTD
 70
     2
  9
$DIMALTF
 40
25.4
  9
$DIMLFAC
 40
1.0
  9
$DIMTOFL
 70
     0
  9
$DIMTVP
 40
0.0
  9
$DIMTIX
 70
     0
  9
$DIMSOXD
 70
     0
  9
$DIMSAH
 70
     0
  9
$DIMBLK1
  1

  9
$DIMBLK2
  1

  9
$DIMSTYLE
  2
STANDARD
  9
$DIMCLRD
 70
     0
  9
$DIMCLRE
 70
     0
  9
$DIMCLRT
 70
     0
  9
$DIMTFAC
 40
1.0
  9
$DIMGAP
 40
0.09
  9
$DIMJUST
 70
     0
  9
$DIMSD1
 70
     0
  9
$DIMSD2
 70
     0
  9
$DIMTOLJ
 70
     1
  9
$DIMTZIN
 70
     0
  9
$DIMALTZ
 70
     0
  9
$DIMALTTZ
 70
     0
  9
$DIMFIT
 70
     3
  9
$DIMUPT
 70
     0
  9
$DIMUNIT
 70
     2
  9
$DIMDEC
 70
     4
  9
$DIMTDEC
 70
     4
  9
$DIMALTU
 70
     2
  9
$DIMALTTD
 70
     2
  9
$DIMTXSTY
  7
STANDARD
  9
$DIMAUNIT
 70
     0
  9
$LUNITS
 70
     2
  9
$LUPREC
 70
     4
  9
$SKETCHINC
 40
0.1
  9
$FILLETRAD
 40
0.0
  9
$AUNITS
 70
     0
  9
$AUPREC
 70
     0
  9
$MENU
  1
acad
  9
$ELEVATION
 40
0.0
  9
$PELEVATION
 40
0.0
  9
$THICKNESS
 40
0.0
  9
$LIMCHECK
 70
     0
  9
$BLIPMODE
 70
     0
  9
$CHAMFERA
 40
0.0
  9
$CHAMFERB
 40
0.0
  9
$CHAMFERC
 40
0.0
  9
$CHAMFERD
 40
0.0
  9
$SKPOLY
 70
     0
  9
$TDCREATE
 40
2449374.297056597
  9
$TDUPDATE
 40
2451087.615100579
  9
$TDINDWG
 40
0.3615096065
  9
$TDUSRTIMER
 40
0.3615096065
  9
$USRTIMER
 70
     1
  9
$ANGBASE
 50
0.0
  9
$ANGDIR
 70
     0
  9
$PDMODE
 70
     3
  9
$PDSIZE
 40
0.1
  9
$PLINEWID
 40
0.01
  9
$COORDS
 70
     2
  9
$SPLFRAME
 70
     0
  9
$SPLINETYPE
 70
     6
  9
$SPLINESEGS
 70
     8
  9
$ATTDIA
 70
     0
  9
$ATTREQ
 70
     1
  9
$HANDLING
 70
     1
  9
$HANDSEED
  5
1818
  9
$SURFTAB1
 70
     6
  9
$SURFTAB2
 70
     6
  9
$SURFTYPE
 70
     6
  9
$SURFU
 70
     6
  9
$SURFV
 70
     6
  9
$UCSNAME
  2

  9
$UCSORG
 10
0.0
 20
0.0
 30
0.0
  9
$UCSXDIR
 10
1.0
 20
0.0
 30
0.0
  9
$UCSYDIR
 10
0.0
 20
1.0
 30
0.0
  9
$PUCSNAME
  2

  9
$PUCSORG
 10
0.0
 20
0.0
 30
0.0
  9
$PUCSXDIR
 10
1.0
 20
0.0
 30
0.0
  9
$PUCSYDIR
 10
0.0
 20
1.0
 30
0.0
  9
$USERI1
 70
     0
  9
$USERI2
 70
     0
  9
$USERI3
 70
     0
  9
$USERI4
 70
     0
  9
$USERI5
 70
     0
  9
$USERR1
 40
0.0
  9
$USERR2
 40
0.0
  9
$USERR3
 40
0.0
  9
$USERR4
 40
0.0
  9
$USERR5
 40
0.0
  9
$WORLDVIEW
 70
     1
  9
$SHADEDGE
 70
     3
  9
$SHADEDIF
 70
    70
  9
$TILEMODE
 70
     1
  9
$MAXACTVP
 70
    16
  9
$PINSBASE
 10
0.0
 20
0.0
 30
0.0
  9
$PLIMCHECK
 70
     0
  9
$PEXTMIN
 10
1.000000E+20
 20
1.000000E+20
 30
1.000000E+20
  9
$PEXTMAX
 10
-1.000000E+20
 20
-1.000000E+20
 30
-1.000000E+20
  9
$PLIMMIN
 10
0.0
 20
0.0
  9
$PLIMMAX
 10
12.0
 20
9.0
  9
$UNITMODE
 70
     0
  9
$VISRETAIN
 70
     0
  9
$PLINEGEN
 70
     0
  9
$PSLTSCALE
 70
     0
  9
$TREEDEPTH
 70
  3020
  9
$PICKSTYLE
 70
     1
  9
$CMLSTYLE
  2
STANDARD
  9
$CMLJUST
 70
     0
  9
$CMLSCALE
 40
1.0
  9
$SAVEIMAGES
 70
     1
  0
ENDSEC
  0
SECTION
  2
CLASSES
  0
CLASS
  1
LWPOLYLINE
  2
AcDbPolyline
  3
"AutoCAD"
 90
    32768
280
     0
281
     1
  0
ENDSEC
  0
SECTION
  2
TABLES
  0
TABLE
  2
VPORT
  5
8
100
AcDbSymbolTable
 70
     2
  0
VPORT
  5
1817
100
AcDbSymbolTableRecord
100
AcDbViewportTableRecord
  2
*ACTIVE
 70
     0
 10
0.0
 20
0.0
 11
1.0
 21
1.0
 12
14.260167
 22
7.876
 13
0.0
 23
0.0
 14
0.001
 24
0.001
 15
1.0
 25
1.0
 16
0.0
 26
0.0
 36
1.0
 17
0.0
 27
0.0
 37
0.0
 40
15.752
 41
1.810585
 42
50.0
 43
0.0
 44
0.0
 50
0.0
 51
0.0
 71
     0
 72
   100
 73
     1
 74
     0
 75
     1
 76
     0
 77
     0
 78
     0
  0
ENDTAB
  0
TABLE
  2
LTYPE
  5
5
100
AcDbSymbolTable
 70
     2
  0
LTYPE
  5
12
100
AcDbSymbolTableRecord
100
AcDbLinetypeTableRecord
  2
BYBLOCK
 70
     0
  3

 72
    65
 73
     0
 40
0.0
  0
LTYPE
  5
13
100
AcDbSymbolTableRecord
100
AcDbLinetypeTableRecord
  2
BYLAYER
 70
     0
  3

 72
    65
 73
     0
 40
0.0
  0
LTYPE
  5
14
100
AcDbSymbolTableRecord
100
AcDbLinetypeTableRecord
  2
CONTINUOUS
 70
     0
  3
Solid line
 72
    65
 73
     0
 40
0.0
  0
LTYPE
  5
1E
100
AcDbSymbolTableRecord
100
AcDbLinetypeTableRecord
  2
DASHED
 70
     0
  3
__ __ __ __ __ __ __ __ __ __ __ __ __ __ __ __
 72
    65
 73
     2
 40
0.75
 49
0.5
 74
     0
 49
-0.25
 74
     0
  0
ENDTAB
  0
TABLE
  2
LAYER
  5
2
100
AcDbSymbolTable
 70
     3
  0
LAYER
  5
F
100
AcDbSymbolTableRecord
100
AcDbLayerTableRecord
  2
0
 70
     0
 62
     7
  6
CONTINUOUS
  0
LAYER
  5
21
100
AcDbSymbolTableRecord
100
AcDbLayerTableRecord
  2
DASH
 70
     0
 62
     2
  6
DASHED
  0
LAYER
  5
33A
100
AcDbSymbolTableRecord
100
AcDbLayerTableRecord
  2
TEXT
 70
     0
 62
     2
  6
CONTINUOUS
  0
ENDTAB
  0
TABLE
  2
STYLE
  5
3
100
AcDbSymbolTable
 70
     2
  0
STYLE
  5
10
100
AcDbSymbolTableRecord
100
AcDbTextStyleTableRecord
  2
STANDARD
 70
     0
 40
0.0
 41
1.0
 50
0.0
 71
     0
 42
0.2
  3
txt
  4

  0
STYLE
  5
1C
100
AcDbSymbolTableRecord
100
AcDbTextStyleTableRecord
  2
ROMANS
 70
     0
 40
0.0
 41
0.8
 50
10.0
 71
     0
 42
0.125
  3
romans
  4

  0
ENDTAB
  0
TABLE
  2
VIEW
  5
6
100
AcDbSymbolTable
 70
     0
  0
ENDTAB
  0
TABLE
  2
UCS
  5
7
100
AcDbSymbolTable
 70
     0
  0
ENDTAB
  0
TABLE
  2
APPID
  5
9
100
AcDbSymbolTable
 70
     1
  0
APPID
  5
11
100
AcDbSymbolTableRecord
100
AcDbRegAppTableRecord
  2
ACAD
 70
     0
  0
ENDTAB
  0
TABLE
  2
DIMSTYLE
  5
A
100
AcDbSymbolTable
 70
     1
  0
DIMSTYLE
105
325
100
AcDbSymbolTableRecord
100
AcDbDimStyleTableRecord
  2
STANDARD
 70
     0
  3

  4

  5

  6

  7

 40
1.0
 41
0.18
 42
0.0625
 43
0.38
 44
0.18
 45
0.0
 46
0.0
 47
0.0
 48
0.0
140
0.18
141
0.09
142
0.0
143
25.4
144
1.0
145
0.0
146
1.0
147
0.09
 71
     0
 72
     0
 73
     1
 74
     1
 75
     0
 76
     0
 77
     0
 78
     0
170
     0
171
     2
172
     0
173
     0
174
     0
175
     0
176
     0
177
     0
178
     0
270
     2
271
     4
272
     4
273
     2
274
     2
340
10
275
     0
280
     0
281
     0
282
     0
283
     1
284
     0
285
     0
286
     0
287
     3
288
     0
  0
ENDTAB
  0
TABLE
  2
BLOCK_RECORD
  5
1
100
AcDbSymbolTable
 70
     0
  0
BLOCK_RECORD
  5
18
100
AcDbSymbolTableRecord
100
AcDbBlockTableRecord
  2
*MODEL_SPACE
  0
BLOCK_RECORD
  5
15
100
AcDbSymbolTableRecord
100
AcDbBlockTableRecord
  2
*PAPER_SPACE
  0
ENDTAB
  0
ENDSEC
  0
SECTION
  2
BLOCKS
  0
BLOCK
  5
24
100
AcDbEntity
  8
0
100
AcDbBlockBegin
  2
*MODEL_SPACE
 70
     0
 10
0.0
 20
0.0
 30
0.0
  3
*MODEL_SPACE
  1

  0
ENDBLK
  5
25
100
AcDbEntity
  8
0
100
AcDbBlockEnd
  0
BLOCK
  5
22
100
AcDbEntity
 67
     1
  8
0
100
AcDbBlockBegin
  2
*PAPER_SPACE
 70
     0
 10
0.0
 20
0.0
 30
0.0
  3
*PAPER_SPACE
  1

  0
ENDBLK
  5
23
100
AcDbEntity
 67
     1
  8
0
100
AcDbBlockEnd
  0
ENDSEC
  0
SECTION
  2
ENTITIES
  0
LINE
  5
29
100
AcDbEntity
  8
0
100
AcDbLine
 10
2.4844
 20
14.3125
 30
0.0
 11
2.4844
 21
1.90625
 31
0.0
  0
LINE
  5
77
100
AcDbEntity
  8
0
100
AcDbLine
 10
4.031275
 20
14.3125
 30
0.0
 11
4.031275
 21
1.90625
 31
0.0
  0
LINE
  5
79
100
AcDbEntity
  8
0
100
AcDbLine
 10
4.031275
 20
6.03125
 30
0.0
 11
4.281275
 21
6.03125
 31
0.0
  0
LINE
  5
7A
100
AcDbEntity
  8
0
100
AcDbLine
 10
4.031275
 20
5.53125
 30
0.0
 11
4.281275
 21
5.53125
 31
0.0
  0
LINE
  5
7B
100
AcDbEntity
  8
0
100
AcDbLine
 10
4.031275
 20
5.78125
 30
0.0
 11
4.281275
 21
5.78125
 31
0.0
  0
LINE
  5
7C
100
AcDbEntity
  8
0
100
AcDbLine
 10
4.031275
 20
5.03125
 30
0.0
 11
4.281275
 21
5.03125
 31
0.0
  0
LINE
  5
7D
100
AcDbEntity
  8
0
100
AcDbLine
 10
4.031275
 20
5.28125
 30
0.0
 11
4.281275
 21
5.28125
 31
0.0
  0
LINE
  5
7E
100
AcDbEntity
  8
0
100
AcDbLine
 10
4.031275
 20
4.53125
 30
0.0
 11
4.281275
 21
4.53125
 31
0.0
  0
LINE
  5
7F
100
AcDbEntity
  8
0
100
AcDbLine
 10
4.031275
 20
4.78125
 30
0.0
 11
4.281275
 21
4.78125
 31
0.0
  0
LINE
  5
80
100
AcDbEntity
  8
0
100
AcDbLine
 10
4.031275
 20
4.03125
 30
0.0
 11
4.281275
 21
4.03125
 31
0.0
  0
LINE
  5
81
100
AcDbEntity
  8
0
100
AcDbLine
 10
4.031275
 20
4.28125
 30
0.0
 11
4.281275
 21
4.28125
 31
0.0
  0
LINE
  5
86
100
AcDbEntity
  8
0
100
AcDbLine
 10
4.031275
 20
8.53125
 30
0.0
 11
4.281275
 21
8.53125
 31
0.0
  0
LINE
  5
87
100
AcDbEntity
  8
0
100
AcDbLine
 10
4.031275
 20
8.78125
 30
0.0
 11
4.281275
 21
8.78125
 31
0.0
  0
LINE
  5
88
100
AcDbEntity
  8
0
100
AcDbLine
 10
4.031275
 20
8.03125
 30
0.0
 11
4.281275
 21
8.03125
 31
0.0
  0
LINE
  5
89
100
AcDbEntity
  8
0
100
AcDbLine
 10
4.031275
 20
8.28125
 30
0.0
 11
4.281275
 21
8.28125
 31
0.0
  0
LINE
  5
8A
100
AcDbEntity
  8
0
100
AcDbLine
 10
4.031275
 20
7.53125
 30
0.0
 11
4.281275
 21
7.53125
 31
0.0
  0
LINE
  5
8B
100
AcDbEntity
  8
0
100
AcDbLine
 10
4.031275
 20
7.78125
 30
0.0
 11
4.281275
 21
7.78125
 31
0.0
  0
LINE
  5
8C
100
AcDbEntity
  8
0
100
AcDbLine
 10
4.031275
 20
7.03125
 30
0.0
 11
4.281275
 21
7.03125
 31
0.0
  0
LINE
  5
8D
100
AcDbEntity
  8
0
100
AcDbLine
 10
4.031275
 20
7.28125
 30
0.0
 11
4.281275
 21
7.28125
 31
0.0
  0
LINE
  5
8E
100
AcDbEntity
  8
0
100
AcDbLine
 10
4.031275
 20
6.53125
 30
0.0
 11
4.281275
 21
6.53125
 31
0.0
  0
LINE
  5
8F
100
AcDbEntity
  8
0
100
AcDbLine
 10
4.031275
 20
6.78125
 30
0.0
 11
4.281275
 21
6.78125
 31
0.0
  0
LINE
  5
90
100
AcDbEntity
  8
0
100
AcDbLine
 10
4.031275
 20
6.28125
 30
0.0
 11
4.281275
 21
6.28125
 31
0.0
  0
LINE
  5
95
100
AcDbEntity
  8
0
100
AcDbLine
 10
4.281275
 20
8.15625
 30
0.0
 11
5.031275
 21
8.15625
 31
0.0
  0
LINE
  5
96
100
AcDbEntity
  8
0
100
AcDbLine
 10
4.281275
 20
8.28125
 30
0.0
 11
4.281275
 21
8.03125
 31
0.0
  0
LINE
  5
97
100
AcDbEntity
  8
0
100
AcDbLine
 10
4.281275
 20
8.65625
 30
0.0
 11
5.031275
 21
8.65625
 31
0.0
  0
LINE
  5
98
100
AcDbEntity
  8
0
100
AcDbLine
 10
4.281275
 20
8.78125
 30
0.0
 11
4.281275
 21
8.53125
 31
0.0
  0
LINE
  5
9A
100
AcDbEntity
  8
0
100
AcDbLine
 10
4.031275
 20
11.53125
 30
0.0
 11
4.281275
 21
11.53125
 31
0.0
  0
LINE
  5
9B
100
AcDbEntity
  8
0
100
AcDbLine
 10
4.031275
 20
11.78125
 30
0.0
 11
4.281275
 21
11.78125
 31
0.0
  0
LINE
  5
9C
100
AcDbEntity
  8
0
100
AcDbLine
 10
4.031275
 20
11.03125
 30
0.0
 11
4.281275
 21
11.03125
 31
0.0
  0
LINE
  5
9D
100
AcDbEntity
  8
0
100
AcDbLine
 10
4.031275
 20
11.28125
 30
0.0
 11
4.281275
 21
11.28125
 31
0.0
  0
LINE
  5
9E
100
AcDbEntity
  8
0
100
AcDbLine
 10
4.031275
 20
9.53125
 30
0.0
 11
4.281275
 21
9.53125
 31
0.0
  0
LINE
  5
9F
100
AcDbEntity
  8
0
100
AcDbLine
 10
4.031275
 20
9.78125
 30
0.0
 11
4.281275
 21
9.78125
 31
0.0
  0
LINE
  5
A0
100
AcDbEntity
  8
0
100
AcDbLine
 10
4.031275
 20
9.28125
 30
0.0
 11
4.281275
 21
9.28125
 31
0.0
  0
LINE
  5
A2
100
AcDbEntity
  8
0
100
AcDbLine
 10
4.031275
 20
10.03125
 30
0.0
 11
4.281275
 21
10.03125
 31
0.0
  0
LINE
  5
A3
100
AcDbEntity
  8
0
100
AcDbLine
 10
4.031275
 20
10.28125
 30
0.0
 11
4.281275
 21
10.28125
 31
0.0
  0
LINE
  5
A4
100
AcDbEntity
  8
0
100
AcDbLine
 10
4.031275
 20
10.78125
 30
0.0
 11
4.281275
 21
10.78125
 31
0.0
  0
LINE
  5
A5
100
AcDbEntity
  8
0
100
AcDbLine
 10
4.031275
 20
10.53125
 30
0.0
 11
4.281275
 21
10.53125
 31
0.0
  0
LINE
  5
A6
100
AcDbEntity
  8
0
100
AcDbLine
 10
4.031275
 20
9.03125
 30
0.0
 11
4.281275
 21
9.03125
 31
0.0
  0
LINE
  5
A7
100
AcDbEntity
  8
0
100
AcDbLine
 10
4.281275
 20
9.78125
 30
0.0
 11
4.281275
 21
9.53125
 31
0.0
  0
LINE
  5
A8
100
AcDbEntity
  8
0
100
AcDbLine
 10
4.281275
 20
9.28125
 30
0.0
 11
4.281275
 21
9.03125
 31
0.0
  0
LINE
  5
A9
100
AcDbEntity
  8
0
100
AcDbLine
 10
4.281275
 20
10.28125
 30
0.0
 11
4.281275
 21
10.03125
 31
0.0
  0
LINE
  5
AA
100
AcDbEntity
  8
0
100
AcDbLine
 10
4.281275
 20
11.28125
 30
0.0
 11
4.281275
 21
11.03125
 31
0.0
  0
LINE
  5
AB
100
AcDbEntity
  8
0
100
AcDbLine
 10
4.281275
 20
10.78125
 30
0.0
 11
4.281275
 21
10.53125
 31
0.0
  0
LINE
  5
AC
100
AcDbEntity
  8
0
100
AcDbLine
 10
4.281275
 20
11.78125
 30
0.0
 11
4.281275
 21
11.53125
 31
0.0
  0
LINE
  5
B2
100
AcDbEntity
  8
0
100
AcDbLine
 10
4.031275
 20
13.78125
 30
0.0
 11
4.281275
 21
13.78125
 31
0.0
  0
LINE
  5
B3
100
AcDbEntity
  8
0
100
AcDbLine
 10
4.031275
 20
13.53125
 30
0.0
 11
4.281275
 21
13.53125
 31
0.0
  0
LINE
  5
B4
100
AcDbEntity
  8
0
100
AcDbLine
 10
4.031275
 20
13.03125
 30
0.0
 11
4.281275
 21
13.03125
 31
0.0
  0
LINE
  5
B5
100
AcDbEntity
  8
0
100
AcDbLine
 10
4.031275
 20
13.28125
 30
0.0
 11
4.281275
 21
13.28125
 31
0.0
  0
LINE
  5
B6
100
AcDbEntity
  8
0
100
AcDbLine
 10
4.031275
 20
12.53125
 30
0.0
 11
4.281275
 21
12.53125
 31
0.0
  0
LINE
  5
B7
100
AcDbEntity
  8
0
100
AcDbLine
 10
4.031275
 20
12.78125
 30
0.0
 11
4.281275
 21
12.78125
 31
0.0
  0
LINE
  5
B8
100
AcDbEntity
  8
0
100
AcDbLine
 10
4.031275
 20
12.03125
 30
0.0
 11
4.281275
 21
12.03125
 31
0.0
  0
LINE
  5
B9
100
AcDbEntity
  8
0
100
AcDbLine
 10
4.031275
 20
12.28125
 30
0.0
 11
4.281275
 21
12.28125
 31
0.0
  0
LINE
  5
BA
100
AcDbEntity
  8
0
100
AcDbLine
 10
4.281275
 20
13.28125
 30
0.0
 11
4.281275
 21
13.03125
 31
0.0
  0
LINE
  5
BB
100
AcDbEntity
  8
0
100
AcDbLine
 10
4.281275
 20
12.28125
 30
0.0
 11
4.281275
 21
12.03125
 31
0.0
  0
LINE
  5
BC
100
AcDbEntity
  8
0
100
AcDbLine
 10
4.281275
 20
13.15625
 30
0.0
 11
5.031275
 21
13.15625
 31
0.0
  0
LINE
  5
BD
100
AcDbEntity
  8
0
100
AcDbLine
 10
4.281275
 20
12.78125
 30
0.0
 11
4.281275
 21
12.53125
 31
0.0
  0
LINE
  5
BE
100
AcDbEntity
  8
0
100
AcDbLine
 10
4.281275
 20
13.78125
 30
0.0
 11
4.281275
 21
13.53125
 31
0.0
  0
TEXT
  5
BF
100
AcDbEntity
  8
TEXT
100
AcDbText
 10
3.265204
 20
13.09375
 30
0.0
 40
0.125
  1
ACCOM1
 41
0.8
 51
10.0
  7
ROMANS
100
AcDbText
  0
LINE
  5
C3
100
AcDbEntity
  8
0
100
AcDbLine
 10
2.4844
 20
14.3125
 30
0.0
 11
4.031275
 21
14.3125
 31
0.0
  0
TEXT
  5
C9
100
AcDbEntity
  8
TEXT
100
AcDbText
 10
2.576215
 20
14.610119
 30
0.0
 40
0.125
  1
115 VAC OUTPUT
 41
0.8
 51
10.0
  7
ROMANS
 72
     1
 11
3.250025
 21
14.610119
 31
0.0
100
AcDbText
  0
TEXT
  5
CA
100
AcDbEntity
  8
TEXT
100
AcDbText
 10
2.650025
 20
14.407738
 30
0.0
 40
0.125
  1
502-03641-02
 41
0.8
 51
10.0
  7
ROMANS
 72
     1
 11
3.250025
 21
14.407738
 31
0.0
100
AcDbText
  0
LINE
  5
CB
100
AcDbEntity
  8
0
100
AcDbLine
 10
2.4844
 20
14.3125
 30
0.0
 11
4.031275
 21
14.3125
 31
0.0
  0
TEXT
  5
CC
100
AcDbEntity
  8
TEXT
100
AcDbText
 10
2.563537
 20
14.121875
 30
0.0
 40
0.1
  1
INTERNAL ADDRESSES
 41
0.8
  7
ROMANS
 72
     4
 11
3.218775
 21
14.171875
 31
0.0
100
AcDbText
  0
TEXT
  5
CD
100
AcDbEntity
  8
TEXT
100
AcDbText
 10
2.750204
 20
13.95997
 30
0.0
 40
0.1
  1
LISTED BELOW 
 41
0.8
  7
ROMANS
 72
     4
 11
3.218775
 21
14.00997
 31
0.0
100
AcDbText
  0
TEXT
  5
CE
100
AcDbEntity
  8
TEXT
100
AcDbText
 10
2.785739
 20
14.8125
 30
0.0
 40
0.125
  1
CARD #--A
 41
0.8
 51
10.0
  7
ROMANS
 72
     1
 11
3.250025
 21
14.8125
 31
0.0
100
AcDbText
  0
LINE
  5
CF
100
AcDbEntity
  8
DASH
100
AcDbLine
 10
2.4844
 20
1.90625
 30
0.0
 11
4.031275
 21
1.90625
 31
0.0
  0
TEXT
  5
D0
100
AcDbEntity
  8
TEXT
100
AcDbText
 10
3.265204
 20
13.59375
 30
0.0
 40
0.125
  1
ACL1
 41
0.8
 51
10.0
  7
ROMANS
100
AcDbText
  0
TEXT
  5
D1
100
AcDbEntity
  8
TEXT
100
AcDbText
 10
3.265204
 20
12.59375
 30
0.0
 40
0.125
  1
ACOUT1
 41
0.8
 51
10.0
  7
ROMANS
100
AcDbText
  0
TEXT
  5
D2
100
AcDbEntity
  8
TEXT
100
AcDbText
 10
3.265204
 20
12.09375
 30
0.0
 40
0.125
  1
ACOUT2
 41
0.8
 51
10.0
  7
ROMANS
100
AcDbText
  0
TEXT
  5
D3
100
AcDbEntity
  8
TEXT
100
AcDbText
 10
3.265204
 20
11.59375
 30
0.0
 40
0.125
  1
ACOUT3
 41
0.8
 51
10.0
  7
ROMANS
100
AcDbText
  0
TEXT
  5
D4
100
AcDbEntity
  8
TEXT
100
AcDbText
 10
3.265204
 20
10.59375
 30
0.0
 40
0.125
  1
ACOUT5
 41
0.8
 51
10.0
  7
ROMANS
100
AcDbText
  0
TEXT
  5
D5
100
AcDbEntity
  8
TEXT
100
AcDbText
 10
3.265204
 20
10.09375
 30
0.0
 40
0.125
  1
ACOUT6
 41
0.8
 51
10.0
  7
ROMANS
100
AcDbText
  0
TEXT
  5
D6
100
AcDbEntity
  8
TEXT
100
AcDbText
 10
3.265204
 20
11.09375
 30
0.0
 40
0.125
  1
ACOUT4
 41
0.8
 51
10.0
  7
ROMANS
100
AcDbText
  0
TEXT
  5
D7
100
AcDbEntity
  8
TEXT
100
AcDbText
 10
3.265204
 20
9.59375
 30
0.0
 40
0.125
  1
ACOUT7
 41
0.8
 51
10.0
  7
ROMANS
100
AcDbText
  0
TEXT
  5
D8
100
AcDbEntity
  8
TEXT
100
AcDbText
 10
3.265204
 20
9.09375
 30
0.0
 40
0.125
  1
ACOUT8
 41
0.8
 51
10.0
  7
ROMANS
100
AcDbText
  0
TEXT
  5
D9
100
AcDbEntity
  8
TEXT
100
AcDbText
 10
3.265204
 20
8.59375
 30
0.0
 40
0.125
  1
ACL2
 41
0.8
 51
10.0
  7
ROMANS
100
AcDbText
  0
TEXT
  5
DA
100
AcDbEntity
  8
TEXT
100
AcDbText
 10
3.265204
 20
8.09375
 30
0.0
 40
0.125
  1
ACCOM2
 41
0.8
 51
10.0
  7
ROMANS
100
AcDbText
  0
TEXT
  5
DB
100
AcDbEntity
  8
TEXT
100
AcDbText
 10
3.265204
 20
7.59375
 30
0.0
 40
0.125
  1
ACOUT9
 41
0.8
 51
10.0
  7
ROMANS
100
AcDbText
  0
TEXT
  5
DC
100
AcDbEntity
  8
TEXT
100
AcDbText
 10
3.265204
 20
7.09375
 30
0.0
 40
0.125
  1
ACOUT10
 41
0.8
 51
10.0
  7
ROMANS
100
AcDbText
  0
TEXT
  5
DD
100
AcDbEntity
  8
TEXT
100
AcDbText
 10
3.265204
 20
6.59375
 30
0.0
 40
0.125
  1
ACOUT11
 41
0.8
 51
10.0
  7
ROMANS
100
AcDbText
  0
TEXT
  5
DE
100
AcDbEntity
  8
TEXT
100
AcDbText
 10
3.265204
 20
6.09375
 30
0.0
 40
0.125
  1
ACOUT12
 41
0.8
 51
10.0
  7
ROMANS
100
AcDbText
  0
TEXT
  5
DF
100
AcDbEntity
  8
TEXT
100
AcDbText
 10
3.265204
 20
5.59375
 30
0.0
 40
0.125
  1
ACOUT13
 41
0.8
 51
10.0
  7
ROMANS
100
AcDbText
  0
TEXT
  5
E0
100
AcDbEntity
  8
TEXT
100
AcDbText
 10
3.265204
 20
4.59375
 30
0.0
 40
0.125
  1
ACOUT15
 41
0.8
 51
10.0
  7
ROMANS
100
AcDbText
  0
TEXT
  5
E1
100
AcDbEntity
  8
TEXT
100
AcDbText
 10
3.265204
 20
4.09375
 30
0.0
 40
0.125
  1
ACOUT16
 41
0.8
 51
10.0
  7
ROMANS
100
AcDbText
  0
TEXT
  5
E2
100
AcDbEntity
  8
TEXT
100
AcDbText
 10
3.265204
 20
5.09375
 30
0.0
 40
0.125
  1
ACOUT14
 41
0.8
 51
10.0
  7
ROMANS
100
AcDbText
  0
LINE
  5
E3
100
AcDbEntity
  8
0
100
AcDbLine
 10
5.031275
 20
13.65625
 30
0.0
 11
4.281275
 21
13.65625
 31
0.0
  0
LINE
  5
F8
100
AcDbEntity
  8
0
100
AcDbLine
 10
8.89065
 20
4.0
 30
0.0
 11
8.8594
 21
3.921875
 31
0.0
  0
LINE
  5
F9
100
AcDbEntity
  8
0
100
AcDbLine
 10
8.968775
 20
4.0
 30
0.0
 11
8.937525
 21
3.921875
 31
0.0
  0
LINE
  5
FA
100
AcDbEntity
  8
0
100
AcDbLine
 10
9.0469
 20
4.0
 30
0.0
 11
9.01565
 21
3.921875
 31
0.0
  0
LINE
  5
FB
100
AcDbEntity
  8
0
100
AcDbLine
 10
8.968775
 20
4.0
 30
0.0
 11
9.0469
 21
4.0
 31
0.0
  0
LINE
  5
FC
100
AcDbEntity
  8
0
100
AcDbLine
 10
8.968775
 20
4.0
 30
0.0
 11
8.89065
 21
4.0
 31
0.0
  0
LINE
  5
FD
100
AcDbEntity
  8
0
100
AcDbLine
 10
8.968775
 20
4.0625
 30
0.0
 11
8.968775
 21
4.0
 31
0.0
  0
TEXT
  5
FE
100
AcDbEntity
  8
TEXT
100
AcDbText
 10
2.515204
 20
12.59375
 30
0.0
 40
0.125
  1
O-.-.01
 41
0.8
 51
10.0
  7
ROMANS
100
AcDbText
  0
TEXT
  5
FF
100
AcDbEntity
  8
TEXT
100
AcDbText
 10
2.515204
 20
12.09375
 30
0.0
 40
0.125
  1
O-.-.02
 41
0.8
 51
10.0
  7
ROMANS
100
AcDbText
  0
TEXT
  5
100
100
AcDbEntity
  8
TEXT
100
AcDbText
 10
2.515204
 20
11.59375
 30
0.0
 40
0.125
  1
O-.-.03
 41
0.8
 51
10.0
  7
ROMANS
100
AcDbText
  0
TEXT
  5
101
100
AcDbEntity
  8
TEXT
100
AcDbText
 10
2.515204
 20
11.09375
 30
0.0
 40
0.125
  1
O-.-.04
 41
0.8
 51
10.0
  7
ROMANS
100
AcDbText
  0
TEXT
  5
102
100
AcDbEntity
  8
TEXT
100
AcDbText
 10
2.515204
 20
10.59375
 30
0.0
 40
0.125
  1
O-.-.05
 41
0.8
 51
10.0
  7
ROMANS
100
AcDbText
  0
TEXT
  5
103
100
AcDbEntity
  8
TEXT
100
AcDbText
 10
2.515204
 20
10.09375
 30
0.0
 40
0.125
  1
O-.-.06
 41
0.8
 51
10.0
  7
ROMANS
100
AcDbText
  0
TEXT
  5
104
100
AcDbEntity
  8
TEXT
100
AcDbText
 10
2.515204
 20
9.09375
 30
0.0
 40
0.125
  1
O-.-.08
 41
0.8
 51
10.0
  7
ROMANS
100
AcDbText
  0
TEXT
  5
105
100
AcDbEntity
  8
TEXT
100
AcDbText
 10
2.515204
 20
9.59375
 30
0.0
 40
0.125
  1
O-.-.07
 41
0.8
 51
10.0
  7
ROMANS
100
AcDbText
  0
TEXT
  5
106
100
AcDbEntity
  8
TEXT
100
AcDbText
 10
2.515204
 20
5.09375
 30
0.0
 40
0.125
  1
O-.-.14
 41
0.8
 51
10.0
  7
ROMANS
100
AcDbText
  0
TEXT
  5
107
100
AcDbEntity
  8
TEXT
100
AcDbText
 10
2.515204
 20
5.59375
 30
0.0
 40
0.125
  1
O-.-.13
 41
0.8
 51
10.0
  7
ROMANS
100
AcDbText
  0
TEXT
  5
108
100
AcDbEntity
  8
TEXT
100
AcDbText
 10
2.515204
 20
6.09375
 30
0.0
 40
0.125
  1
O-.-.12
 41
0.8
 51
10.0
  7
ROMANS
100
AcDbText
  0
TEXT
  5
109
100
AcDbEntity
  8
TEXT
100
AcDbText
 10
2.515204
 20
6.59375
 30
0.0
 40
0.125
  1
O-.-.11
 41
0.8
 51
10.0
  7
ROMANS
100
AcDbText
  0
TEXT
  5
10A
100
AcDbEntity
  8
TEXT
100
AcDbText
 10
2.515204
 20
7.09375
 30
0.0
 40
0.125
  1
O-.-.10
 41
0.8
 51
10.0
  7
ROMANS
100
AcDbText
  0
TEXT
  5
10B
100
AcDbEntity
  8
TEXT
100
AcDbText
 10
2.515204
 20
7.59375
 30
0.0
 40
0.125
  1
O-.-.09
 41
0.8
 51
10.0
  7
ROMANS
100
AcDbText
  0
TEXT
  5
10C
100
AcDbEntity
  8
TEXT
100
AcDbText
 10
2.515204
 20
4.09375
 30
0.0
 40
0.125
  1
O-.-.16
 41
0.8
 51
10.0
  7
ROMANS
100
AcDbText
  0
TEXT
  5
10D
100
AcDbEntity
  8
TEXT
100
AcDbText
 10
2.515204
 20
4.59375
 30
0.0
 40
0.125
  1
O-.-.15
 41
0.8
 51
10.0
  7
ROMANS
100
AcDbText
  0
LINE
  5
114
100
AcDbEntity
  8
0
100
AcDbLine
 10
8.968775
 20
13.5625
 30
0.0
 11
8.968775
 21
4.25
 31
0.0
  0
LINE
  5
115
100
AcDbEntity
  8
0
100
AcDbLine
 10
9.531275
 20
13.65625
 30
0.0
 11
9.156275
 21
13.65625
 31
0.0
  0
LINE
  5
116
100
AcDbEntity
  8
0
100
AcDbLine
 10
9.45315
 20
13.59375
 30
0.0
 11
9.4219
 21
13.515625
 31
0.0
  0
LINE
  5
117
100
AcDbEntity
  8
0
100
AcDbLine
 10
9.531275
 20
13.59375
 30
0.0
 11
9.500025
 21
13.515625
 31
0.0
  0
LINE
  5
118
100
AcDbEntity
  8
0
100
AcDbLine
 10
9.6094
 20
13.59375
 30
0.0
 11
9.57815
 21
13.515625
 31
0.0
  0
LINE
  5
119
100
AcDbEntity
  8
0
100
AcDbLine
 10
9.531275
 20
13.59375
 30
0.0
 11
9.6094
 21
13.59375
 31
0.0
  0
LINE
  5
11A
100
AcDbEntity
  8
0
100
AcDbLine
 10
9.531275
 20
13.59375
 30
0.0
 11
9.45315
 21
13.59375
 31
0.0
  0
LINE
  5
11B
100
AcDbEntity
  8
0
100
AcDbLine
 10
9.531275
 20
13.65625
 30
0.0
 11
9.531275
 21
13.59375
 31
0.0
  0
TEXT
  5
127
100
AcDbEntity
  8
TEXT
100
AcDbText
 10
9.528125
 20
13.9545
 30
0.0
 40
0.05
  1
115 VAC Neutral
100
AcDbText
  0
LINE
  5
128
100
AcDbEntity
  8
0
100
AcDbLine
 10
9.492125
 20
14.0875
 30
0.0
 11
10.242125
 21
14.0875
 31
0.0
  0
LINE
  5
129
100
AcDbEntity
  8
0
100
AcDbLine
 10
9.492125
 20
13.8625
 30
0.0
 11
10.242125
 21
13.8625
 31
0.0
  0
LINE
  5
12A
100
AcDbEntity
  8
0
100
AcDbLine
 10
9.154625
 20
13.75
 30
0.0
 11
9.203071
 21
13.834066
 31
0.0
  0
LINE
  5
12B
100
AcDbEntity
  8
0
100
AcDbLine
 10
9.238497
 20
13.798781
 30
0.0
 11
9.154625
 21
13.75
 31
0.0
  0
LINE
  5
12C
100
AcDbEntity
  8
0
100
AcDbLine
 10
9.379625
 20
13.975
 30
0.0
 11
9.220916
 21
13.816291
 31
0.0
  0
LINE
  5
12D
100
AcDbEntity
  8
0
100
AcDbLine
 10
9.492125
 20
14.0875
 30
0.0
 11
9.492125
 21
13.8625
 31
0.0
  0
LINE
  5
12E
100
AcDbEntity
  8
0
100
AcDbLine
 10
9.203071
 20
13.834066
 30
0.0
 11
9.238497
 21
13.798781
 31
0.0
  0
LINE
  5
12F
100
AcDbEntity
  8
0
100
AcDbLine
 10
9.492125
 20
13.975
 30
0.0
 11
9.379625
 21
13.975
 31
0.0
  0
LINE
  5
130
100
AcDbEntity
  8
0
100
AcDbLine
 10
10.242125
 20
14.0875
 30
0.0
 11
10.242125
 21
13.8625
 31
0.0
  0
TEXT
  5
131
100
AcDbEntity
  8
TEXT
100
AcDbText
 10
2.196176
 20
12.622348
 30
0.0
 40
0.1
  1
*
 41
0.8
  7
ROMANS
 72
     2
 11
2.2457
 21
12.622348
 31
0.0
100
AcDbText
  0
TEXT
  5
132
100
AcDbEntity
  8
TEXT
100
AcDbText
 10
1.1257
 20
13.122348
 30
0.0
 40
0.1
  1
115 VAC (Neutral)
 41
0.8
  7
ROMANS
 72
     2
 11
2.2457
 21
13.122348
 31
0.0
100
AcDbText
  0
TEXT
  5
133
100
AcDbEntity
  8
TEXT
100
AcDbText
 10
1.346652
 20
13.622348
 30
0.0
 40
0.1
  1
115 VAC (Hot)
 41
0.8
  7
ROMANS
 72
     2
 11
2.2457
 21
13.622348
 31
0.0
100
AcDbText
  0
TEXT
  5
138
100
AcDbEntity
  8
TEXT
100
AcDbText
 10
1.1257
 20
8.122348
 30
0.0
 40
0.1
  1
115 VAC (Neutral)
 41
0.8
  7
ROMANS
 72
     2
 11
2.2457
 21
8.122348
 31
0.0
100
AcDbText
  0
TEXT
  5
13B
100
AcDbEntity
  8
TEXT
100
AcDbText
 10
1.346652
 20
8.622348
 30
0.0
 40
0.1
  1
115 VAC (Hot)
 41
0.8
  7
ROMANS
 72
     2
 11
2.2457
 21
8.622348
 31
0.0
100
AcDbText
  0
LINE
  5
30A
100
AcDbEntity
  8
0
100
AcDbLine
 10
4.281275
 20
12.65625
 30
0.0
 11
5.031275
 21
12.65625
 31
0.0
  0
LINE
  5
30D
100
AcDbEntity
  8
0
100
AcDbLine
 10
4.281275
 20
6.28125
 30
0.0
 11
4.281275
 21
6.03125
 31
0.0
  0
LINE
  5
30E
100
AcDbEntity
  8
0
100
AcDbLine
 10
4.281275
 20
6.78125
 30
0.0
 11
4.281275
 21
6.53125
 31
0.0
  0
LINE
  5
30F
100
AcDbEntity
  8
0
100
AcDbLine
 10
4.281275
 20
7.78125
 30
0.0
 11
4.281275
 21
7.53125
 31
0.0
  0
LINE
  5
310
100
AcDbEntity
  8
0
100
AcDbLine
 10
4.281275
 20
7.28125
 30
0.0
 11
4.281275
 21
7.03125
 31
0.0
  0
LINE
  5
311
100
AcDbEntity
  8
0
100
AcDbLine
 10
4.281275
 20
4.28125
 30
0.0
 11
4.281275
 21
4.03125
 31
0.0
  0
LINE
  5
312
100
AcDbEntity
  8
0
100
AcDbLine
 10
4.281275
 20
5.78125
 30
0.0
 11
4.281275
 21
5.53125
 31
0.0
  0
LINE
  5
313
100
AcDbEntity
  8
0
100
AcDbLine
 10
4.281275
 20
4.78125
 30
0.0
 11
4.281275
 21
4.53125
 31
0.0
  0
LINE
  5
314
100
AcDbEntity
  8
0
100
AcDbLine
 10
4.281275
 20
5.28125
 30
0.0
 11
4.281275
 21
5.03125
 31
0.0
  0
TEXT
  5
891
100
AcDbEntity
  8
0
100
AcDbText
 10
25.074667
 20
13.62774
 30
0.0
 40
0.075
  1

 72
     1
 11
25.074667
 21
13.62774
 31
0.0
100
AcDbText
  0
TEXT
  5
892
100
AcDbEntity
  8
0
100
AcDbText
 10
25.074667
 20
13.12774
 30
0.0
 40
0.075
  1

 72
     1
 11
25.074667
 21
13.12774
 31
0.0
100
AcDbText
  0
TEXT
  5
893
100
AcDbEntity
  8
0
100
AcDbText
 10
25.074667
 20
12.62774
 30
0.0
 40
0.1
  1

 72
     1
 11
25.074667
 21
12.62774
 31
0.0
100
AcDbText
  0
TEXT
  5
894
100
AcDbEntity
  8
0
100
AcDbText
 10
24.887167
 20
6.62774
 30
0.0
 40
0.1
  1

100
AcDbText
  0
TEXT
  5
895
100
AcDbEntity
  8
0
100
AcDbText
 10
24.887167
 20
12.12774
 30
0.0
 40
0.1
  1

100
AcDbText
  0
TEXT
  5
899
100
AcDbEntity
  8
0
100
AcDbText
 10
23.451205
 20
13.62774
 30
0.0
 40
0.075
  1

 72
     1
 11
23.451205
 21
13.62774
 31
0.0
100
AcDbText
  0
TEXT
  5
89A
100
AcDbEntity
  8
0
100
AcDbText
 10
23.451205
 20
13.12774
 30
0.0
 40
0.075
  1

 72
     1
 11
23.451205
 21
13.12774
 31
0.0
100
AcDbText
  0
TEXT
  5
89B
100
AcDbEntity
  8
0
100
AcDbText
 10
23.451205
 20
12.62774
 30
0.0
 40
0.1
  1

 72
     1
 11
23.451205
 21
12.62774
 31
0.0
100
AcDbText
  0
TEXT
  5
89C
100
AcDbEntity
  8
0
100
AcDbText
 10
23.263705
 20
6.62774
 30
0.0
 40
0.1
  1

100
AcDbText
  0
TEXT
  5
89D
100
AcDbEntity
  8
0
100
AcDbText
 10
23.263705
 20
12.12774
 30
0.0
 40
0.1
  1

100
AcDbText
  0
TEXT
  5
89E
100
AcDbEntity
  8
0
100
AcDbText
 10
23.588705
 20
8.62774
 30
0.0
 40
0.1
  1

 72
     1
 11
23.588705
 21
8.62774
 31
0.0
100
AcDbText
  0
TEXT
  5
8E7
100
AcDbEntity
  8
0
100
AcDbText
 10
14.98625
 20
26.472125
 30
0.0
 40
0.075
  1

 72
     1
 11
14.98625
 21
26.472125
 31
0.0
100
AcDbText
  0
TEXT
  5
8E8
100
AcDbEntity
  8
0
100
AcDbText
 10
14.98625
 20
25.972125
 30
0.0
 40
0.075
  1

 72
     1
 11
14.98625
 21
25.972125
 31
0.0
100
AcDbText
  0
TEXT
  5
8ED
100
AcDbEntity
  8
0
100
AcDbText
 10
14.98625
 20
25.472125
 30
0.0
 40
0.1
  1

 72
     1
 11
14.98625
 21
25.472125
 31
0.0
100
AcDbText
  0
TEXT
  5
8EE
100
AcDbEntity
  8
0
100
AcDbText
 10
14.79875
 20
19.472125
 30
0.0
 40
0.1
  1

100
AcDbText
  0
TEXT
  5
8EF
100
AcDbEntity
  8
0
100
AcDbText
 10
14.79875
 20
24.972125
 30
0.0
 40
0.1
  1

100
AcDbText
  0
TEXT
  5
8F0
100
AcDbEntity
  8
0
100
AcDbText
 10
15.12375
 20
21.472125
 30
0.0
 40
0.1
  1

 72
     1
 11
15.12375
 21
21.472125
 31
0.0
100
AcDbText
  0
TEXT
  5
931
100
AcDbEntity
  8
0
100
AcDbText
 10
24.626911
 20
13.618875
 30
0.0
 40
0.075
  1

 72
     1
 11
24.626911
 21
13.618875
 31
0.0
100
AcDbText
  0
TEXT
  5
932
100
AcDbEntity
  8
0
100
AcDbText
 10
24.626911
 20
13.118875
 30
0.0
 40
0.075
  1

 72
     1
 11
24.626911
 21
13.118875
 31
0.0
100
AcDbText
  0
TEXT
  5
933
100
AcDbEntity
  8
0
100
AcDbText
 10
24.626911
 20
12.618875
 30
0.0
 40
0.1
  1

 72
     1
 11
24.626911
 21
12.618875
 31
0.0
100
AcDbText
  0
TEXT
  5
934
100
AcDbEntity
  8
0
100
AcDbText
 10
24.439411
 20
6.618875
 30
0.0
 40
0.1
  1

100
AcDbText
  0
TEXT
  5
935
100
AcDbEntity
  8
0
100
AcDbText
 10
24.439411
 20
12.118875
 30
0.0
 40
0.1
  1

100
AcDbText
  0
TEXT
  5
936
100
AcDbEntity
  8
0
100
AcDbText
 10
24.764411
 20
8.618875
 30
0.0
 40
0.1
  1

 72
     1
 11
24.764411
 21
8.618875
 31
0.0
100
AcDbText
  0
TEXT
  5
B57
100
AcDbEntity
  8
TEXT
100
AcDbText
 10
0.653151
 20
12.631375
 30
0.0
 40
0.1
  1
*
 41
0.8
  7
ROMANS
100
AcDbText
  0
TEXT
  5
B58
100
AcDbEntity
  8
TEXT
100
AcDbText
 10
0.653151
 20
13.881375
 30
0.0
 40
0.1
  1
SOFTWARE:
 41
0.8
  7
ROMANS
100
AcDbText
  0
LINE
  5
B59
100
AcDbEntity
  8
0
100
AcDbLine
 10
0.659525
 20
13.818967
 30
0.0
 11
1.280259
 21
13.818967
 31
0.0
  0
TEXT
  5
B5B
100
AcDbEntity
  8
TEXT
100
AcDbText
 10
1.653151
 20
13.881375
 30
0.0
 40
0.1
  1
NEMONIC:
 41
0.8
  7
ROMANS
100
AcDbText
  0
LINE
  5
B5C
100
AcDbEntity
  8
0
100
AcDbLine
 10
1.624623
 20
13.818967
 30
0.0
 11
2.245357
 21
13.818967
 31
0.0
  0
LINE
  5
B8A
100
AcDbEntity
  8
0
100
AcDbLine
 10
5.031275
 20
12.75
 30
0.0
 11
5.406275
 21
12.75
 31
0.0
  0
LINE
  5
B8B
100
AcDbEntity
  8
0
100
AcDbLine
 10
5.031275
 20
12.5625
 30
0.0
 11
5.406275
 21
12.5625
 31
0.0
  0
LINE
  5
B8C
100
AcDbEntity
  8
0
100
AcDbLine
 10
5.031275
 20
12.75
 30
0.0
 11
5.031275
 21
12.5625
 31
0.0
  0
LINE
  5
B8E
100
AcDbEntity
  8
0
100
AcDbLine
 10
5.406275
 20
12.75
 30
0.0
 11
5.406275
 21
12.5625
 31
0.0
  0
TEXT
  5
B90
100
AcDbEntity
  8
TEXT
100
AcDbText
 10
5.085442
 20
12.60625
 30
0.0
 40
0.1
  1
---
 72
     1
 11
5.218775
 21
12.60625
 31
0.0
100
AcDbText
  0
TEXT
  5
B94
100
AcDbEntity
  8
TEXT
100
AcDbText
 10
5.085442
 20
13.10625
 30
0.0
 40
0.1
  1
---
 72
     1
 11
5.218775
 21
13.10625
 31
0.0
100
AcDbText
  0
LINE
  5
B95
100
AcDbEntity
  8
0
100
AcDbLine
 10
5.031275
 20
13.0625
 30
0.0
 11
5.406275
 21
13.0625
 31
0.0
  0
LINE
  5
B96
100
AcDbEntity
  8
0
100
AcDbLine
 10
5.031275
 20
13.25
 30
0.0
 11
5.406275
 21
13.25
 31
0.0
  0
LINE
  5
B97
100
AcDbEntity
  8
0
100
AcDbLine
 10
5.031275
 20
13.25
 30
0.0
 11
5.031275
 21
13.0625
 31
0.0
  0
LINE
  5
B98
100
AcDbEntity
  8
0
100
AcDbLine
 10
5.406275
 20
13.25
 30
0.0
 11
5.406275
 21
13.0625
 31
0.0
  0
TEXT
  5
B99
100
AcDbEntity
  8
TEXT
100
AcDbText
 10
5.085442
 20
13.60625
 30
0.0
 40
0.1
  1
---
 72
     1
 11
5.218775
 21
13.60625
 31
0.0
100
AcDbText
  0
LINE
  5
B9A
100
AcDbEntity
  8
0
100
AcDbLine
 10
5.031275
 20
13.5625
 30
0.0
 11
5.406275
 21
13.5625
 31
0.0
  0
LINE
  5
B9B
100
AcDbEntity
  8
0
100
AcDbLine
 10
5.031275
 20
13.75
 30
0.0
 11
5.406275
 21
13.75
 31
0.0
  0
LINE
  5
B9C
100
AcDbEntity
  8
0
100
AcDbLine
 10
5.031275
 20
13.75
 30
0.0
 11
5.031275
 21
13.5625
 31
0.0
  0
LINE
  5
B9D
100
AcDbEntity
  8
0
100
AcDbLine
 10
5.406275
 20
13.75
 30
0.0
 11
5.406275
 21
13.5625
 31
0.0
  0
TEXT
  5
BAD
100
AcDbEntity
  8
TEXT
100
AcDbText
 10
5.085442
 20
11.10625
 30
0.0
 40
0.1
  1
---
 72
     1
 11
5.218775
 21
11.10625
 31
0.0
100
AcDbText
  0
LINE
  5
BAE
100
AcDbEntity
  8
0
100
AcDbLine
 10
5.031275
 20
11.0625
 30
0.0
 11
5.406275
 21
11.0625
 31
0.0
  0
LINE
  5
BAF
100
AcDbEntity
  8
0
100
AcDbLine
 10
5.031275
 20
11.25
 30
0.0
 11
5.406275
 21
11.25
 31
0.0
  0
LINE
  5
BB0
100
AcDbEntity
  8
0
100
AcDbLine
 10
5.031275
 20
11.25
 30
0.0
 11
5.031275
 21
11.0625
 31
0.0
  0
LINE
  5
BB1
100
AcDbEntity
  8
0
100
AcDbLine
 10
5.406275
 20
11.25
 30
0.0
 11
5.406275
 21
11.0625
 31
0.0
  0
LINE
  5
BB2
100
AcDbEntity
  8
0
100
AcDbLine
 10
5.031275
 20
11.75
 30
0.0
 11
5.406275
 21
11.75
 31
0.0
  0
LINE
  5
BB3
100
AcDbEntity
  8
0
100
AcDbLine
 10
5.031275
 20
11.5625
 30
0.0
 11
5.406275
 21
11.5625
 31
0.0
  0
TEXT
  5
BB4
100
AcDbEntity
  8
TEXT
100
AcDbText
 10
5.085442
 20
11.60625
 30
0.0
 40
0.1
  1
---
 72
     1
 11
5.218775
 21
11.60625
 31
0.0
100
AcDbText
  0
LINE
  5
BB5
100
AcDbEntity
  8
0
100
AcDbLine
 10
5.031275
 20
11.75
 30
0.0
 11
5.031275
 21
11.5625
 31
0.0
  0
LINE
  5
BB6
100
AcDbEntity
  8
0
100
AcDbLine
 10
5.406275
 20
11.75
 30
0.0
 11
5.406275
 21
11.5625
 31
0.0
  0
LINE
  5
BB7
100
AcDbEntity
  8
0
100
AcDbLine
 10
5.031275
 20
12.25
 30
0.0
 11
5.406275
 21
12.25
 31
0.0
  0
LINE
  5
BB8
100
AcDbEntity
  8
0
100
AcDbLine
 10
5.031275
 20
12.0625
 30
0.0
 11
5.406275
 21
12.0625
 31
0.0
  0
TEXT
  5
BB9
100
AcDbEntity
  8
TEXT
100
AcDbText
 10
5.085442
 20
12.10625
 30
0.0
 40
0.1
  1
---
 72
     1
 11
5.218775
 21
12.10625
 31
0.0
100
AcDbText
  0
LINE
  5
BBA
100
AcDbEntity
  8
0
100
AcDbLine
 10
5.031275
 20
12.25
 30
0.0
 11
5.031275
 21
12.0625
 31
0.0
  0
LINE
  5
BBB
100
AcDbEntity
  8
0
100
AcDbLine
 10
5.406275
 20
12.25
 30
0.0
 11
5.406275
 21
12.0625
 31
0.0
  0
TEXT
  5
BBC
100
AcDbEntity
  8
TEXT
100
AcDbText
 10
5.085442
 20
9.60625
 30
0.0
 40
0.1
  1
---
 72
     1
 11
5.218775
 21
9.60625
 31
0.0
100
AcDbText
  0
LINE
  5
BBD
100
AcDbEntity
  8
0
100
AcDbLine
 10
5.031275
 20
9.5625
 30
0.0
 11
5.406275
 21
9.5625
 31
0.0
  0
LINE
  5
BBE
100
AcDbEntity
  8
0
100
AcDbLine
 10
5.031275
 20
9.75
 30
0.0
 11
5.406275
 21
9.75
 31
0.0
  0
LINE
  5
BBF
100
AcDbEntity
  8
0
100
AcDbLine
 10
5.031275
 20
9.75
 30
0.0
 11
5.031275
 21
9.5625
 31
0.0
  0
LINE
  5
BC0
100
AcDbEntity
  8
0
100
AcDbLine
 10
5.406275
 20
9.75
 30
0.0
 11
5.406275
 21
9.5625
 31
0.0
  0
LINE
  5
BC1
100
AcDbEntity
  8
0
100
AcDbLine
 10
5.031275
 20
10.25
 30
0.0
 11
5.406275
 21
10.25
 31
0.0
  0
LINE
  5
BC2
100
AcDbEntity
  8
0
100
AcDbLine
 10
5.031275
 20
10.0625
 30
0.0
 11
5.406275
 21
10.0625
 31
0.0
  0
TEXT
  5
BC3
100
AcDbEntity
  8
TEXT
100
AcDbText
 10
5.085442
 20
10.10625
 30
0.0
 40
0.1
  1
---
 72
     1
 11
5.218775
 21
10.10625
 31
0.0
100
AcDbText
  0
LINE
  5
BC4
100
AcDbEntity
  8
0
100
AcDbLine
 10
5.031275
 20
10.25
 30
0.0
 11
5.031275
 21
10.0625
 31
0.0
  0
LINE
  5
BC5
100
AcDbEntity
  8
0
100
AcDbLine
 10
5.406275
 20
10.25
 30
0.0
 11
5.406275
 21
10.0625
 31
0.0
  0
LINE
  5
BC6
100
AcDbEntity
  8
0
100
AcDbLine
 10
5.031275
 20
10.75
 30
0.0
 11
5.406275
 21
10.75
 31
0.0
  0
LINE
  5
BC7
100
AcDbEntity
  8
0
100
AcDbLine
 10
5.031275
 20
10.5625
 30
0.0
 11
5.406275
 21
10.5625
 31
0.0
  0
TEXT
  5
BC8
100
AcDbEntity
  8
TEXT
100
AcDbText
 10
5.085442
 20
10.60625
 30
0.0
 40
0.1
  1
---
 72
     1
 11
5.218775
 21
10.60625
 31
0.0
100
AcDbText
  0
LINE
  5
BC9
100
AcDbEntity
  8
0
100
AcDbLine
 10
5.031275
 20
10.75
 30
0.0
 11
5.031275
 21
10.5625
 31
0.0
  0
LINE
  5
BCA
100
AcDbEntity
  8
0
100
AcDbLine
 10
5.406275
 20
10.75
 30
0.0
 11
5.406275
 21
10.5625
 31
0.0
  0
LINE
  5
BCB
100
AcDbEntity
  8
0
100
AcDbLine
 10
5.406275
 20
5.25
 30
0.0
 11
5.406275
 21
5.0625
 31
0.0
  0
LINE
  5
BCC
100
AcDbEntity
  8
0
100
AcDbLine
 10
5.031275
 20
5.25
 30
0.0
 11
5.031275
 21
5.0625
 31
0.0
  0
LINE
  5
BCD
100
AcDbEntity
  8
0
100
AcDbLine
 10
5.031275
 20
5.0625
 30
0.0
 11
5.406275
 21
5.0625
 31
0.0
  0
TEXT
  5
BCE
100
AcDbEntity
  8
TEXT
100
AcDbText
 10
5.085442
 20
5.10625
 30
0.0
 40
0.1
  1
---
 72
     1
 11
5.218775
 21
5.10625
 31
0.0
100
AcDbText
  0
TEXT
  5
BCF
100
AcDbEntity
  8
TEXT
100
AcDbText
 10
5.085442
 20
5.60625
 30
0.0
 40
0.1
  1
---
 72
     1
 11
5.218775
 21
5.60625
 31
0.0
100
AcDbText
  0
LINE
  5
BD0
100
AcDbEntity
  8
0
100
AcDbLine
 10
5.031275
 20
5.5625
 30
0.0
 11
5.406275
 21
5.5625
 31
0.0
  0
LINE
  5
BD1
100
AcDbEntity
  8
0
100
AcDbLine
 10
5.031275
 20
5.75
 30
0.0
 11
5.406275
 21
5.75
 31
0.0
  0
LINE
  5
BD2
100
AcDbEntity
  8
0
100
AcDbLine
 10
5.031275
 20
5.25
 30
0.0
 11
5.406275
 21
5.25
 31
0.0
  0
LINE
  5
BD3
100
AcDbEntity
  8
0
100
AcDbLine
 10
5.031275
 20
5.75
 30
0.0
 11
5.031275
 21
5.5625
 31
0.0
  0
LINE
  5
BD4
100
AcDbEntity
  8
0
100
AcDbLine
 10
5.406275
 20
5.75
 30
0.0
 11
5.406275
 21
5.5625
 31
0.0
  0
LINE
  5
BD5
100
AcDbEntity
  8
0
100
AcDbLine
 10
5.406275
 20
7.25
 30
0.0
 11
5.406275
 21
7.0625
 31
0.0
  0
LINE
  5
BD6
100
AcDbEntity
  8
0
100
AcDbLine
 10
5.031275
 20
7.25
 30
0.0
 11
5.031275
 21
7.0625
 31
0.0
  0
TEXT
  5
BD7
100
AcDbEntity
  8
TEXT
100
AcDbText
 10
5.085442
 20
6.10625
 30
0.0
 40
0.1
  1
---
 72
     1
 11
5.218775
 21
6.10625
 31
0.0
100
AcDbText
  0
LINE
  5
BD8
100
AcDbEntity
  8
0
100
AcDbLine
 10
5.031275
 20
6.0625
 30
0.0
 11
5.406275
 21
6.0625
 31
0.0
  0
LINE
  5
BD9
100
AcDbEntity
  8
0
100
AcDbLine
 10
5.031275
 20
6.25
 30
0.0
 11
5.406275
 21
6.25
 31
0.0
  0
LINE
  5
BDA
100
AcDbEntity
  8
0
100
AcDbLine
 10
5.031275
 20
6.25
 30
0.0
 11
5.031275
 21
6.0625
 31
0.0
  0
LINE
  5
BDB
100
AcDbEntity
  8
0
100
AcDbLine
 10
5.406275
 20
6.25
 30
0.0
 11
5.406275
 21
6.0625
 31
0.0
  0
TEXT
  5
BDC
100
AcDbEntity
  8
TEXT
100
AcDbText
 10
5.085442
 20
7.10625
 30
0.0
 40
0.1
  1
---
 72
     1
 11
5.218775
 21
7.10625
 31
0.0
100
AcDbText
  0
LINE
  5
BDD
100
AcDbEntity
  8
0
100
AcDbLine
 10
5.031275
 20
7.0625
 30
0.0
 11
5.406275
 21
7.0625
 31
0.0
  0
LINE
  5
BDE
100
AcDbEntity
  8
0
100
AcDbLine
 10
5.031275
 20
6.75
 30
0.0
 11
5.406275
 21
6.75
 31
0.0
  0
LINE
  5
BDF
100
AcDbEntity
  8
0
100
AcDbLine
 10
5.031275
 20
6.5625
 30
0.0
 11
5.406275
 21
6.5625
 31
0.0
  0
TEXT
  5
BE0
100
AcDbEntity
  8
TEXT
100
AcDbText
 10
5.085442
 20
6.60625
 30
0.0
 40
0.1
  1
---
 72
     1
 11
5.218775
 21
6.60625
 31
0.0
100
AcDbText
  0
LINE
  5
BE1
100
AcDbEntity
  8
0
100
AcDbLine
 10
5.031275
 20
6.75
 30
0.0
 11
5.031275
 21
6.5625
 31
0.0
  0
LINE
  5
BE2
100
AcDbEntity
  8
0
100
AcDbLine
 10
5.406275
 20
6.75
 30
0.0
 11
5.406275
 21
6.5625
 31
0.0
  0
LINE
  5
BE3
100
AcDbEntity
  8
0
100
AcDbLine
 10
5.406275
 20
7.75
 30
0.0
 11
5.406275
 21
7.5625
 31
0.0
  0
LINE
  5
BE4
100
AcDbEntity
  8
0
100
AcDbLine
 10
5.031275
 20
7.75
 30
0.0
 11
5.031275
 21
7.5625
 31
0.0
  0
TEXT
  5
BE5
100
AcDbEntity
  8
TEXT
100
AcDbText
 10
5.085442
 20
7.60625
 30
0.0
 40
0.1
  1
---
 72
     1
 11
5.218775
 21
7.60625
 31
0.0
100
AcDbText
  0
LINE
  5
BE6
100
AcDbEntity
  8
0
100
AcDbLine
 10
5.031275
 20
7.5625
 30
0.0
 11
5.406275
 21
7.5625
 31
0.0
  0
LINE
  5
BE7
100
AcDbEntity
  8
0
100
AcDbLine
 10
5.031275
 20
7.25
 30
0.0
 11
5.406275
 21
7.25
 31
0.0
  0
LINE
  5
BE8
100
AcDbEntity
  8
0
100
AcDbLine
 10
5.031275
 20
7.75
 30
0.0
 11
5.406275
 21
7.75
 31
0.0
  0
TEXT
  5
BE9
100
AcDbEntity
  8
TEXT
100
AcDbText
 10
5.085442
 20
8.10625
 30
0.0
 40
0.1
  1
---
 72
     1
 11
5.218775
 21
8.10625
 31
0.0
100
AcDbText
  0
LINE
  5
BEA
100
AcDbEntity
  8
0
100
AcDbLine
 10
5.031275
 20
8.0625
 30
0.0
 11
5.406275
 21
8.0625
 31
0.0
  0
LINE
  5
BEB
100
AcDbEntity
  8
0
100
AcDbLine
 10
5.031275
 20
8.25
 30
0.0
 11
5.406275
 21
8.25
 31
0.0
  0
LINE
  5
BEC
100
AcDbEntity
  8
0
100
AcDbLine
 10
5.031275
 20
8.25
 30
0.0
 11
5.031275
 21
8.0625
 31
0.0
  0
LINE
  5
BED
100
AcDbEntity
  8
0
100
AcDbLine
 10
5.406275
 20
8.25
 30
0.0
 11
5.406275
 21
8.0625
 31
0.0
  0
LINE
  5
BEE
100
AcDbEntity
  8
0
100
AcDbLine
 10
5.031275
 20
8.75
 30
0.0
 11
5.406275
 21
8.75
 31
0.0
  0
LINE
  5
BEF
100
AcDbEntity
  8
0
100
AcDbLine
 10
5.031275
 20
8.5625
 30
0.0
 11
5.406275
 21
8.5625
 31
0.0
  0
TEXT
  5
BF0
100
AcDbEntity
  8
TEXT
100
AcDbText
 10
5.085442
 20
8.60625
 30
0.0
 40
0.1
  1
---
 72
     1
 11
5.218775
 21
8.60625
 31
0.0
100
AcDbText
  0
LINE
  5
BF1
100
AcDbEntity
  8
0
100
AcDbLine
 10
5.031275
 20
8.75
 30
0.0
 11
5.031275
 21
8.5625
 31
0.0
  0
LINE
  5
BF2
100
AcDbEntity
  8
0
100
AcDbLine
 10
5.406275
 20
8.75
 30
0.0
 11
5.406275
 21
8.5625
 31
0.0
  0
LINE
  5
BF3
100
AcDbEntity
  8
0
100
AcDbLine
 10
5.031275
 20
9.25
 30
0.0
 11
5.406275
 21
9.25
 31
0.0
  0
LINE
  5
BF4
100
AcDbEntity
  8
0
100
AcDbLine
 10
5.031275
 20
9.0625
 30
0.0
 11
5.406275
 21
9.0625
 31
0.0
  0
TEXT
  5
BF5
100
AcDbEntity
  8
TEXT
100
AcDbText
 10
5.085442
 20
9.10625
 30
0.0
 40
0.1
  1
---
 72
     1
 11
5.218775
 21
9.10625
 31
0.0
100
AcDbText
  0
LINE
  5
BF6
100
AcDbEntity
  8
0
100
AcDbLine
 10
5.031275
 20
9.25
 30
0.0
 11
5.031275
 21
9.0625
 31
0.0
  0
LINE
  5
BF7
100
AcDbEntity
  8
0
100
AcDbLine
 10
5.406275
 20
9.25
 30
0.0
 11
5.406275
 21
9.0625
 31
0.0
  0
LINE
  5
BF8
100
AcDbEntity
  8
0
100
AcDbLine
 10
5.031275
 20
4.25
 30
0.0
 11
5.406275
 21
4.25
 31
0.0
  0
TEXT
  5
BF9
100
AcDbEntity
  8
TEXT
100
AcDbText
 10
5.085442
 20
4.10625
 30
0.0
 40
0.1
  1
---
 72
     1
 11
5.218775
 21
4.10625
 31
0.0
100
AcDbText
  0
LINE
  5
BFA
100
AcDbEntity
  8
0
100
AcDbLine
 10
5.031275
 20
4.0625
 30
0.0
 11
5.406275
 21
4.0625
 31
0.0
  0
LINE
  5
BFB
100
AcDbEntity
  8
0
100
AcDbLine
 10
5.031275
 20
4.25
 30
0.0
 11
5.031275
 21
4.0625
 31
0.0
  0
LINE
  5
BFC
100
AcDbEntity
  8
0
100
AcDbLine
 10
5.406275
 20
4.25
 30
0.0
 11
5.406275
 21
4.0625
 31
0.0
  0
LINE
  5
BFD
100
AcDbEntity
  8
0
100
AcDbLine
 10
5.031275
 20
4.75
 30
0.0
 11
5.406275
 21
4.75
 31
0.0
  0
LINE
  5
BFE
100
AcDbEntity
  8
0
100
AcDbLine
 10
5.031275
 20
4.5625
 30
0.0
 11
5.406275
 21
4.5625
 31
0.0
  0
TEXT
  5
BFF
100
AcDbEntity
  8
TEXT
100
AcDbText
 10
5.085442
 20
4.60625
 30
0.0
 40
0.1
  1
---
 72
     1
 11
5.218775
 21
4.60625
 31
0.0
100
AcDbText
  0
LINE
  5
C00
100
AcDbEntity
  8
0
100
AcDbLine
 10
5.031275
 20
4.75
 30
0.0
 11
5.031275
 21
4.5625
 31
0.0
  0
LINE
  5
C01
100
AcDbEntity
  8
0
100
AcDbLine
 10
5.406275
 20
4.75
 30
0.0
 11
5.406275
 21
4.5625
 31
0.0
  0
LINE
  5
C02
100
AcDbEntity
  8
0
100
AcDbLine
 10
4.281275
 20
11.15625
 30
0.0
 11
5.031275
 21
11.15625
 31
0.0
  0
LINE
  5
C03
100
AcDbEntity
  8
0
100
AcDbLine
 10
4.281275
 20
11.65625
 30
0.0
 11
5.031275
 21
11.65625
 31
0.0
  0
LINE
  5
C04
100
AcDbEntity
  8
0
100
AcDbLine
 10
5.031275
 20
12.15625
 30
0.0
 11
4.281275
 21
12.15625
 31
0.0
  0
LINE
  5
C05
100
AcDbEntity
  8
0
100
AcDbLine
 10
4.281275
 20
9.65625
 30
0.0
 11
5.031275
 21
9.65625
 31
0.0
  0
LINE
  5
C06
100
AcDbEntity
  8
0
100
AcDbLine
 10
4.281275
 20
10.15625
 30
0.0
 11
5.031275
 21
10.15625
 31
0.0
  0
LINE
  5
C07
100
AcDbEntity
  8
0
100
AcDbLine
 10
5.031275
 20
10.65625
 30
0.0
 11
4.281275
 21
10.65625
 31
0.0
  0
LINE
  5
C08
100
AcDbEntity
  8
0
100
AcDbLine
 10
4.281275
 20
8.15625
 30
0.0
 11
5.031275
 21
8.15625
 31
0.0
  0
LINE
  5
C09
100
AcDbEntity
  8
0
100
AcDbLine
 10
4.281275
 20
8.65625
 30
0.0
 11
5.031275
 21
8.65625
 31
0.0
  0
LINE
  5
C0B
100
AcDbEntity
  8
0
100
AcDbLine
 10
4.281275
 20
6.65625
 30
0.0
 11
5.031275
 21
6.65625
 31
0.0
  0
LINE
  5
C0C
100
AcDbEntity
  8
0
100
AcDbLine
 10
4.281275
 20
7.15625
 30
0.0
 11
5.031275
 21
7.15625
 31
0.0
  0
LINE
  5
C0D
100
AcDbEntity
  8
0
100
AcDbLine
 10
5.031275
 20
7.65625
 30
0.0
 11
4.281275
 21
7.65625
 31
0.0
  0
LINE
  5
C0E
100
AcDbEntity
  8
0
100
AcDbLine
 10
4.281275
 20
5.15625
 30
0.0
 11
5.031275
 21
5.15625
 31
0.0
  0
LINE
  5
C0F
100
AcDbEntity
  8
0
100
AcDbLine
 10
4.281275
 20
5.65625
 30
0.0
 11
5.031275
 21
5.65625
 31
0.0
  0
LINE
  5
C10
100
AcDbEntity
  8
0
100
AcDbLine
 10
5.031275
 20
6.15625
 30
0.0
 11
4.281275
 21
6.15625
 31
0.0
  0
LINE
  5
C12
100
AcDbEntity
  8
0
100
AcDbLine
 10
4.281275
 20
4.15625
 30
0.0
 11
5.031275
 21
4.15625
 31
0.0
  0
LINE
  5
C13
100
AcDbEntity
  8
0
100
AcDbLine
 10
5.031275
 20
4.65625
 30
0.0
 11
4.281275
 21
4.65625
 31
0.0
  0
LINE
  5
C15
100
AcDbEntity
  8
0
100
AcDbLine
 10
8.781275
 20
13.75
 30
0.0
 11
9.156275
 21
13.75
 31
0.0
  0
LINE
  5
C16
100
AcDbEntity
  8
0
100
AcDbLine
 10
8.781275
 20
13.5625
 30
0.0
 11
9.156275
 21
13.5625
 31
0.0
  0
LINE
  5
C17
100
AcDbEntity
  8
0
100
AcDbLine
 10
8.781275
 20
13.75
 30
0.0
 11
8.781275
 21
13.5625
 31
0.0
  0
LINE
  5
C19
100
AcDbEntity
  8
0
100
AcDbLine
 10
9.156275
 20
13.75
 30
0.0
 11
9.156275
 21
13.5625
 31
0.0
  0
TEXT
  5
C1B
100
AcDbEntity
  8
TEXT
100
AcDbText
 10
8.835442
 20
13.60625
 30
0.0
 40
0.1
  1
---
 72
     1
 11
8.968775
 21
13.60625
 31
0.0
100
AcDbText
  0
TEXT
  5
C20
100
AcDbEntity
  8
TEXT
100
AcDbText
 10
2.196176
 20
12.122348
 30
0.0
 40
0.1
  1
*
 41
0.8
  7
ROMANS
 72
     2
 11
2.2457
 21
12.122348
 31
0.0
100
AcDbText
  0
TEXT
  5
C21
100
AcDbEntity
  8
TEXT
100
AcDbText
 10
0.653151
 20
12.131375
 30
0.0
 40
0.1
  1
*
 41
0.8
  7
ROMANS
100
AcDbText
  0
TEXT
  5
C24
100
AcDbEntity
  8
TEXT
100
AcDbText
 10
2.196176
 20
11.622348
 30
0.0
 40
0.1
  1
*
 41
0.8
  7
ROMANS
 72
     2
 11
2.2457
 21
11.622348
 31
0.0
100
AcDbText
  0
TEXT
  5
C25
100
AcDbEntity
  8
TEXT
100
AcDbText
 10
0.653151
 20
11.631375
 30
0.0
 40
0.1
  1
*
 41
0.8
  7
ROMANS
100
AcDbText
  0
TEXT
  5
C28
100
AcDbEntity
  8
TEXT
100
AcDbText
 10
2.196176
 20
11.122348
 30
0.0
 40
0.1
  1
*
 41
0.8
  7
ROMANS
 72
     2
 11
2.2457
 21
11.122348
 31
0.0
100
AcDbText
  0
TEXT
  5
C29
100
AcDbEntity
  8
TEXT
100
AcDbText
 10
0.653151
 20
11.131375
 30
0.0
 40
0.1
  1
*
 41
0.8
  7
ROMANS
100
AcDbText
  0
TEXT
  5
C2C
100
AcDbEntity
  8
TEXT
100
AcDbText
 10
2.196176
 20
10.622348
 30
0.0
 40
0.1
  1
*
 41
0.8
  7
ROMANS
 72
     2
 11
2.2457
 21
10.622348
 31
0.0
100
AcDbText
  0
TEXT
  5
C2D
100
AcDbEntity
  8
TEXT
100
AcDbText
 10
0.653151
 20
10.631375
 30
0.0
 40
0.1
  1
*
 41
0.8
  7
ROMANS
100
AcDbText
  0
TEXT
  5
C30
100
AcDbEntity
  8
TEXT
100
AcDbText
 10
2.196176
 20
10.122348
 30
0.0
 40
0.1
  1
*
 41
0.8
  7
ROMANS
 72
     2
 11
2.2457
 21
10.122348
 31
0.0
100
AcDbText
  0
TEXT
  5
C31
100
AcDbEntity
  8
TEXT
100
AcDbText
 10
0.653151
 20
10.131375
 30
0.0
 40
0.1
  1
*
 41
0.8
  7
ROMANS
100
AcDbText
  0
TEXT
  5
C34
100
AcDbEntity
  8
TEXT
100
AcDbText
 10
2.196176
 20
9.622348
 30
0.0
 40
0.1
  1
*
 41
0.8
  7
ROMANS
 72
     2
 11
2.2457
 21
9.622348
 31
0.0
100
AcDbText
  0
TEXT
  5
C35
100
AcDbEntity
  8
TEXT
100
AcDbText
 10
0.653151
 20
9.631375
 30
0.0
 40
0.1
  1
*
 41
0.8
  7
ROMANS
100
AcDbText
  0
LINE
  5
C88
100
AcDbEntity
  8
0
100
AcDbLine
 10
8.781275
 20
4.25
 30
0.0
 11
9.156275
 21
4.25
 31
0.0
  0
LINE
  5
C89
100
AcDbEntity
  8
0
100
AcDbLine
 10
8.781275
 20
4.0625
 30
0.0
 11
9.156275
 21
4.0625
 31
0.0
  0
LINE
  5
C8A
100
AcDbEntity
  8
0
100
AcDbLine
 10
8.781275
 20
4.25
 30
0.0
 11
8.781275
 21
4.0625
 31
0.0
  0
LINE
  5
C8C
100
AcDbEntity
  8
0
100
AcDbLine
 10
9.156275
 20
4.25
 30
0.0
 11
9.156275
 21
4.0625
 31
0.0
  0
TEXT
  5
C8E
100
AcDbEntity
  8
TEXT
100
AcDbText
 10
8.835442
 20
4.10625
 30
0.0
 40
0.1
  1
---
 72
     1
 11
8.968775
 21
4.10625
 31
0.0
100
AcDbText
  0
TEXT
  5
CA2
100
AcDbEntity
  8
TEXT
100
AcDbText
 10
2.391171
 20
1.689583
 30
0.0
 40
0.1
  1
(Continued On SHEET #--)
 41
0.8
 51
10.0
  7
ROMANS
 72
     1
 11
3.257838
 21
1.65625
 31
0.0
100
AcDbText
 73
     1
  0
TEXT
  5
D68
100
AcDbEntity
  8
0
100
AcDbText
 10
16.4328
 20
24.991625
 30
0.0
 40
0.075
  1

 41
0.8
 51
10.0
  7
ROMANS
100
AcDbText
  0
TEXT
  5
D69
100
AcDbEntity
  8
0
100
AcDbText
 10
18.13755
 20
25.1125
 30
0.0
 40
0.1
  1

 41
0.8
 51
10.0
  7
ROMANS
100
AcDbText
  0
TEXT
  5
D6A
100
AcDbEntity
  8
0
100
AcDbText
 10
18.13755
 20
14.6125
 30
0.0
 40
0.1
  1

 41
0.8
 51
10.0
  7
ROMANS
100
AcDbText
  0
TEXT
  5
D6B
100
AcDbEntity
  8
0
100
AcDbText
 10
18.13755
 20
23.4765
 30
0.0
 40
0.1
  1

 41
0.8
 51
10.0
  7
ROMANS
100
AcDbText
  0
TEXT
  5
D6C
100
AcDbEntity
  8
0
100
AcDbText
 10
18.13755
 20
22.7625
 30
0.0
 40
0.1
  1

 41
0.8
 51
10.0
  7
ROMANS
100
AcDbText
  0
TEXT
  5
D6D
100
AcDbEntity
  8
0
100
AcDbText
 10
18.13755
 20
23.2625
 30
0.0
 40
0.1
  1

 41
0.8
 51
10.0
  7
ROMANS
100
AcDbText
  0
TEXT
  5
D6E
100
AcDbEntity
  8
0
100
AcDbText
 10
16.562557
 20
21.4625
 30
0.0
 40
0.1
  1

100
AcDbText
  0
TEXT
  5
D6F
100
AcDbEntity
  8
0
100
AcDbText
 10
16.4328
 20
17.991625
 30
0.0
 40
0.075
  1

 41
0.8
 51
10.0
  7
ROMANS
100
AcDbText
  0
TEXT
  5
1306
100
AcDbEntity
  8
0
100
AcDbText
 10
18.20865
 20
13.133875
 30
0.0
 40
0.075
  1

 41
0.8
 51
10.0
  7
ROMANS
100
AcDbText
  0
TEXT
  5
1323
100
AcDbEntity
  8
0
100
AcDbText
 10
19.9134
 20
13.25475
 30
0.0
 40
0.1
  1

 41
0.8
 51
10.0
  7
ROMANS
100
AcDbText
  0
TEXT
  5
1324
100
AcDbEntity
  8
0
100
AcDbText
 10
19.9134
 20
2.75475
 30
0.0
 40
0.1
  1

 41
0.8
 51
10.0
  7
ROMANS
100
AcDbText
  0
TEXT
  5
1325
100
AcDbEntity
  8
0
100
AcDbText
 10
19.9134
 20
11.61875
 30
0.0
 40
0.1
  1

 41
0.8
 51
10.0
  7
ROMANS
100
AcDbText
  0
TEXT
  5
1333
100
AcDbEntity
  8
0
100
AcDbText
 10
19.9134
 20
10.90475
 30
0.0
 40
0.1
  1

 41
0.8
 51
10.0
  7
ROMANS
100
AcDbText
  0
TEXT
  5
1334
100
AcDbEntity
  8
0
100
AcDbText
 10
19.9134
 20
11.40475
 30
0.0
 40
0.1
  1

 41
0.8
 51
10.0
  7
ROMANS
100
AcDbText
  0
TEXT
  5
1338
100
AcDbEntity
  8
0
100
AcDbText
 10
18.338407
 20
9.60475
 30
0.0
 40
0.1
  1

100
AcDbText
  0
TEXT
  5
1357
100
AcDbEntity
  8
0
100
AcDbText
 10
18.20865
 20
6.133875
 30
0.0
 40
0.075
  1

 41
0.8
 51
10.0
  7
ROMANS
100
AcDbText
  0
TEXT
  5
14F4
100
AcDbEntity
  8
TEXT
100
AcDbText
 10
2.196176
 20
9.122348
 30
0.0
 40
0.1
  1
*
 41
0.8
  7
ROMANS
 72
     2
 11
2.2457
 21
9.122348
 31
0.0
100
AcDbText
  0
TEXT
  5
14F8
100
AcDbEntity
  8
TEXT
100
AcDbText
 10
0.653151
 20
9.131375
 30
0.0
 40
0.1
  1
*
 41
0.8
  7
ROMANS
100
AcDbText
  0
TEXT
  5
15A8
100
AcDbEntity
  8
TEXT
100
AcDbText
 10
9.168775
 20
9.60625
 30
0.0
 40
0.1
  1
*
 41
0.8
 51
10.0
  7
ROMANS
100
AcDbText
  0
TEXT
  5
15A9
100
AcDbEntity
  8
TEXT
100
AcDbText
 10
9.168775
 20
10.10625
 30
0.0
 40
0.1
  1
*
 41
0.8
 51
10.0
  7
ROMANS
100
AcDbText
  0
TEXT
  5
15AA
100
AcDbEntity
  8
TEXT
100
AcDbText
 10
9.168775
 20
10.60625
 30
0.0
 40
0.1
  1
*
 41
0.8
 51
10.0
  7
ROMANS
100
AcDbText
  0
TEXT
  5
15AB
100
AcDbEntity
  8
TEXT
100
AcDbText
 10
9.168775
 20
11.10625
 30
0.0
 40
0.1
  1
*
 41
0.8
 51
10.0
  7
ROMANS
100
AcDbText
  0
TEXT
  5
15AC
100
AcDbEntity
  8
TEXT
100
AcDbText
 10
9.168775
 20
11.60625
 30
0.0
 40
0.1
  1
*
 41
0.8
 51
10.0
  7
ROMANS
100
AcDbText
  0
TEXT
  5
15AD
100
AcDbEntity
  8
TEXT
100
AcDbText
 10
9.168775
 20
12.10625
 30
0.0
 40
0.1
  1
*
 41
0.8
 51
10.0
  7
ROMANS
100
AcDbText
  0
TEXT
  5
15AE
100
AcDbEntity
  8
TEXT
100
AcDbText
 10
9.168775
 20
12.60625
 30
0.0
 40
0.1
  1
*
 41
0.8
 51
10.0
  7
ROMANS
100
AcDbText
  0
LINE
  5
15B2
100
AcDbEntity
  8
0
100
AcDbLine
 10
5.031275
 20
9.15625
 30
0.0
 11
4.281275
 21
9.15625
 31
0.0
  0
TEXT
  5
15B6
100
AcDbEntity
  8
TEXT
100
AcDbText
 10
0.653151
 20
7.131375
 30
0.0
 40
0.1
  1
*
 41
0.8
  7
ROMANS
100
AcDbText
  0
TEXT
  5
15B7
100
AcDbEntity
  8
TEXT
100
AcDbText
 10
0.653151
 20
7.631375
 30
0.0
 40
0.1
  1
*
 41
0.8
  7
ROMANS
100
AcDbText
  0
TEXT
  5
15B8
100
AcDbEntity
  8
TEXT
100
AcDbText
 10
2.196176
 20
7.122348
 30
0.0
 40
0.1
  1
*
 41
0.8
  7
ROMANS
 72
     2
 11
2.2457
 21
7.122348
 31
0.0
100
AcDbText
  0
TEXT
  5
15B9
100
AcDbEntity
  8
TEXT
100
AcDbText
 10
2.196176
 20
7.622348
 30
0.0
 40
0.1
  1
*
 41
0.8
  7
ROMANS
 72
     2
 11
2.2457
 21
7.622348
 31
0.0
100
AcDbText
  0
TEXT
  5
15BA
100
AcDbEntity
  8
TEXT
100
AcDbText
 10
0.653151
 20
6.131375
 30
0.0
 40
0.1
  1
*
 41
0.8
  7
ROMANS
100
AcDbText
  0
TEXT
  5
15BB
100
AcDbEntity
  8
TEXT
100
AcDbText
 10
0.653151
 20
6.631375
 30
0.0
 40
0.1
  1
*
 41
0.8
  7
ROMANS
100
AcDbText
  0
TEXT
  5
15BC
100
AcDbEntity
  8
TEXT
100
AcDbText
 10
2.196176
 20
6.122348
 30
0.0
 40
0.1
  1
*
 41
0.8
  7
ROMANS
 72
     2
 11
2.2457
 21
6.122348
 31
0.0
100
AcDbText
  0
TEXT
  5
15BD
100
AcDbEntity
  8
TEXT
100
AcDbText
 10
2.196176
 20
6.622348
 30
0.0
 40
0.1
  1
*
 41
0.8
  7
ROMANS
 72
     2
 11
2.2457
 21
6.622348
 31
0.0
100
AcDbText
  0
TEXT
  5
15BE
100
AcDbEntity
  8
TEXT
100
AcDbText
 10
0.653151
 20
5.131375
 30
0.0
 40
0.1
  1
*
 41
0.8
  7
ROMANS
100
AcDbText
  0
TEXT
  5
15BF
100
AcDbEntity
  8
TEXT
100
AcDbText
 10
0.653151
 20
5.631375
 30
0.0
 40
0.1
  1
*
 41
0.8
  7
ROMANS
100
AcDbText
  0
TEXT
  5
15C0
100
AcDbEntity
  8
TEXT
100
AcDbText
 10
2.196176
 20
5.122348
 30
0.0
 40
0.1
  1
*
 41
0.8
  7
ROMANS
 72
     2
 11
2.2457
 21
5.122348
 31
0.0
100
AcDbText
  0
TEXT
  5
15C1
100
AcDbEntity
  8
TEXT
100
AcDbText
 10
2.196176
 20
5.622348
 30
0.0
 40
0.1
  1
*
 41
0.8
  7
ROMANS
 72
     2
 11
2.2457
 21
5.622348
 31
0.0
100
AcDbText
  0
TEXT
  5
15C2
100
AcDbEntity
  8
TEXT
100
AcDbText
 10
9.168775
 20
7.60625
 30
0.0
 40
0.1
  1
*
 41
0.8
 51
10.0
  7
ROMANS
100
AcDbText
  0
TEXT
  5
15C3
100
AcDbEntity
  8
TEXT
100
AcDbText
 10
9.168775
 20
7.10625
 30
0.0
 40
0.1
  1
*
 41
0.8
 51
10.0
  7
ROMANS
100
AcDbText
  0
TEXT
  5
15C4
100
AcDbEntity
  8
TEXT
100
AcDbText
 10
9.168775
 20
6.60625
 30
0.0
 40
0.1
  1
*
 41
0.8
 51
10.0
  7
ROMANS
100
AcDbText
  0
TEXT
  5
15C5
100
AcDbEntity
  8
TEXT
100
AcDbText
 10
9.168775
 20
6.10625
 30
0.0
 40
0.1
  1
*
 41
0.8
 51
10.0
  7
ROMANS
100
AcDbText
  0
TEXT
  5
15C6
100
AcDbEntity
  8
TEXT
100
AcDbText
 10
9.168775
 20
5.60625
 30
0.0
 40
0.1
  1
*
 41
0.8
 51
10.0
  7
ROMANS
100
AcDbText
  0
TEXT
  5
15C7
100
AcDbEntity
  8
TEXT
100
AcDbText
 10
9.168775
 20
5.10625
 30
0.0
 40
0.1
  1
*
 41
0.8
 51
10.0
  7
ROMANS
100
AcDbText
  0
TEXT
  5
1733
100
AcDbEntity
  8
0
100
AcDbText
 10
9.984375
 20
8.1875
 30
0.0
 40
0.1
  1

 72
     1
 11
9.984375
 21
8.1875
 31
0.0
100
AcDbText
  0
TEXT
  5
1734
100
AcDbEntity
  8
0
100
AcDbText
 10
16.133413
 20
5.047875
 30
0.0
 40
0.075
  1

100
AcDbText
  0
TEXT
  5
1735
100
AcDbEntity
  8
0
100
AcDbText
 10
15.785706
 20
5.047875
 30
0.0
 40
0.075
  1

100
AcDbText
  0
TEXT
  5
1736
100
AcDbEntity
  8
0
100
AcDbText
 10
15.69458
 20
14.57881
 30
0.0
 40
0.1
  1

 72
     1
 11
15.69458
 21
14.57881
 31
0.0
100
AcDbText
  0
TEXT
  5
1737
100
AcDbEntity
  8
0
100
AcDbText
 10
21.843618
 20
11.439185
 30
0.0
 40
0.075
  1

100
AcDbText
  0
TEXT
  5
1738
100
AcDbEntity
  8
0
100
AcDbText
 10
21.495911
 20
11.439185
 30
0.0
 40
0.075
  1

100
AcDbText
  0
TEXT
  5
1739
100
AcDbEntity
  8
0
100
AcDbText
 10
21.572875
 20
8.220875
 30
0.0
 40
0.1
  1

 72
     1
 11
21.572875
 21
8.220875
 31
0.0
100
AcDbText
  0
TEXT
  5
173A
100
AcDbEntity
  8
0
100
AcDbText
 10
27.721913
 20
5.08125
 30
0.0
 40
0.075
  1

100
AcDbText
  0
TEXT
  5
173B
100
AcDbEntity
  8
0
100
AcDbText
 10
27.374206
 20
5.08125
 30
0.0
 40
0.075
  1

100
AcDbText
  0
TEXT
  5
173C
100
AcDbEntity
  8
0
100
AcDbText
 10
27.28308
 20
14.612185
 30
0.0
 40
0.1
  1

 72
     1
 11
27.28308
 21
14.612185
 31
0.0
100
AcDbText
  0
TEXT
  5
173D
100
AcDbEntity
  8
0
100
AcDbText
 10
33.432118
 20
11.47256
 30
0.0
 40
0.075
  1

100
AcDbText
  0
TEXT
  5
173E
100
AcDbEntity
  8
0
100
AcDbText
 10
33.084411
 20
11.47256
 30
0.0
 40
0.075
  1

100
AcDbText
  0
TEXT
  5
17A9
100
AcDbEntity
  8
TEXT
100
AcDbText
 10
9.168775
 20
9.10625
 30
0.0
 40
0.1
  1
*
 41
0.8
 51
10.0
  7
ROMANS
100
AcDbText
  0
TEXT
  5
17AA
100
AcDbEntity
  8
TEXT
100
AcDbText
 10
9.168775
 20
8.95225
 30
0.0
 40
0.1
  1
 
 41
0.8
 51
10.0
  7
ROMANS
100
AcDbText
  0
TEXT
  5
17CF
100
AcDbEntity
  8
TEXT
100
AcDbText
 10
2.196176
 20
4.122348
 30
0.0
 40
0.1
  1
*
 41
0.8
  7
ROMANS
 72
     2
 11
2.2457
 21
4.122348
 31
0.0
100
AcDbText
  0
TEXT
  5
17D0
100
AcDbEntity
  8
TEXT
100
AcDbText
 10
2.196176
 20
4.622348
 30
0.0
 40
0.1
  1
*
 41
0.8
  7
ROMANS
 72
     2
 11
2.2457
 21
4.622348
 31
0.0
100
AcDbText
  0
TEXT
  5
17D1
100
AcDbEntity
  8
TEXT
100
AcDbText
 10
0.653151
 20
4.131375
 30
0.0
 40
0.1
  1
*
 41
0.8
  7
ROMANS
100
AcDbText
  0
TEXT
  5
17D2
100
AcDbEntity
  8
TEXT
100
AcDbText
 10
0.653151
 20
4.631375
 30
0.0
 40
0.1
  1
*
 41
0.8
  7
ROMANS
100
AcDbText
  0
TEXT
  5
17D3
100
AcDbEntity
  8
TEXT
100
AcDbText
 10
9.168775
 20
4.10625
 30
0.0
 40
0.1
  1
*
 41
0.8
 51
10.0
  7
ROMANS
100
AcDbText
  0
TEXT
  5
17D4
100
AcDbEntity
  8
TEXT
100
AcDbText
 10
9.168775
 20
4.60625
 30
0.0
 40
0.1
  1
*
 41
0.8
 51
10.0
  7
ROMANS
100
AcDbText
  0
TEXT
  5
17F9
100
AcDbEntity
  8
TEXT
100
AcDbText
 10
4.061037
 20
4.09375
 30
0.0
 40
0.125
  1
20
 41
0.8
 51
10.0
  7
ROMANS
 72
     1
 11
4.156275
 21
4.15625
 31
0.0
100
AcDbText
 73
     2
  0
TEXT
  5
17FA
100
AcDbEntity
  8
TEXT
100
AcDbText
 10
4.056275
 20
4.59375
 30
0.0
 40
0.125
  1
19
 41
0.8
 51
10.0
  7
ROMANS
 72
     1
 11
4.156275
 21
4.65625
 31
0.0
100
AcDbText
 73
     2
  0
TEXT
  5
17FB
100
AcDbEntity
  8
TEXT
100
AcDbText
 10
4.053894
 20
5.09375
 30
0.0
 40
0.125
  1
18
 41
0.8
 51
10.0
  7
ROMANS
 72
     1
 11
4.156275
 21
5.15625
 31
0.0
100
AcDbText
 73
     2
  0
TEXT
  5
17FC
100
AcDbEntity
  8
TEXT
100
AcDbText
 10
4.053894
 20
5.59375
 30
0.0
 40
0.125
  1
17
 41
0.8
 51
10.0
  7
ROMANS
 72
     1
 11
4.156275
 21
5.65625
 31
0.0
100
AcDbText
 73
     2
  0
TEXT
  5
17FD
100
AcDbEntity
  8
TEXT
100
AcDbText
 10
4.053894
 20
6.09375
 30
0.0
 40
0.125
  1
16
 41
0.8
 51
10.0
  7
ROMANS
 72
     1
 11
4.156275
 21
6.15625
 31
0.0
100
AcDbText
 73
     2
  0
TEXT
  5
17FE
100
AcDbEntity
  8
TEXT
100
AcDbText
 10
4.053894
 20
6.59375
 30
0.0
 40
0.125
  1
15
 41
0.8
 51
10.0
  7
ROMANS
 72
     1
 11
4.156275
 21
6.65625
 31
0.0
100
AcDbText
 73
     2
  0
TEXT
  5
17FF
100
AcDbEntity
  8
TEXT
100
AcDbText
 10
4.051513
 20
7.09375
 30
0.0
 40
0.125
  1
14
 41
0.8
 51
10.0
  7
ROMANS
 72
     1
 11
4.156275
 21
7.15625
 31
0.0
100
AcDbText
 73
     2
  0
TEXT
  5
1800
100
AcDbEntity
  8
TEXT
100
AcDbText
 10
4.053894
 20
7.59375
 30
0.0
 40
0.125
  1
13
 41
0.8
 51
10.0
  7
ROMANS
 72
     1
 11
4.156275
 21
7.65625
 31
0.0
100
AcDbText
 73
     2
  0
TEXT
  5
1801
100
AcDbEntity
  8
TEXT
100
AcDbText
 10
4.053894
 20
8.09375
 30
0.0
 40
0.125
  1
12
 41
0.8
 51
10.0
  7
ROMANS
 72
     1
 11
4.156275
 21
8.15625
 31
0.0
100
AcDbText
 73
     2
  0
TEXT
  5
1802
100
AcDbEntity
  8
TEXT
100
AcDbText
 10
4.06818
 20
8.59375
 30
0.0
 40
0.125
  1
11
 41
0.8
 51
10.0
  7
ROMANS
 72
     1
 11
4.156275
 21
8.65625
 31
0.0
100
AcDbText
 73
     2
  0
TEXT
  5
1803
100
AcDbEntity
  8
TEXT
100
AcDbText
 10
4.053894
 20
9.09375
 30
0.0
 40
0.125
  1
10
 41
0.8
 51
10.0
  7
ROMANS
 72
     1
 11
4.156275
 21
9.15625
 31
0.0
100
AcDbText
 73
     2
  0
TEXT
  5
1804
100
AcDbEntity
  8
TEXT
100
AcDbText
 10
4.111037
 20
9.59375
 30
0.0
 40
0.125
  1
9
 41
0.8
 51
10.0
  7
ROMANS
 72
     1
 11
4.156275
 21
9.65625
 31
0.0
100
AcDbText
 73
     2
  0
TEXT
  5
1805
100
AcDbEntity
  8
TEXT
100
AcDbText
 10
4.108656
 20
10.09375
 30
0.0
 40
0.125
  1
8
 41
0.8
 51
10.0
  7
ROMANS
 72
     1
 11
4.156275
 21
10.15625
 31
0.0
100
AcDbText
 73
     2
  0
TEXT
  5
1806
100
AcDbEntity
  8
TEXT
100
AcDbText
 10
4.108656
 20
10.59375
 30
0.0
 40
0.125
  1
7
 41
0.8
 51
10.0
  7
ROMANS
 72
     1
 11
4.156275
 21
10.65625
 31
0.0
100
AcDbText
 73
     2
  0
TEXT
  5
1807
100
AcDbEntity
  8
TEXT
100
AcDbText
 10
4.106275
 20
11.09375
 30
0.0
 40
0.125
  1
6
 41
0.8
 51
10.0
  7
ROMANS
 72
     1
 11
4.156275
 21
11.15625
 31
0.0
100
AcDbText
 73
     2
  0
TEXT
  5
1808
100
AcDbEntity
  8
TEXT
100
AcDbText
 10
4.108656
 20
11.59375
 30
0.0
 40
0.125
  1
5
 41
0.8
 51
10.0
  7
ROMANS
 72
     1
 11
4.156275
 21
11.65625
 31
0.0
100
AcDbText
 73
     2
  0
TEXT
  5
1809
100
AcDbEntity
  8
TEXT
100
AcDbText
 10
4.106275
 20
12.09375
 30
0.0
 40
0.125
  1
4
 41
0.8
 51
10.0
  7
ROMANS
 72
     1
 11
4.156275
 21
12.15625
 31
0.0
100
AcDbText
 73
     2
  0
TEXT
  5
180A
100
AcDbEntity
  8
TEXT
100
AcDbText
 10
4.108656
 20
12.59375
 30
0.0
 40
0.125
  1
3
 41
0.8
 51
10.0
  7
ROMANS
 72
     1
 11
4.156275
 21
12.65625
 31
0.0
100
AcDbText
 73
     2
  0
TEXT
  5
180B
100
AcDbEntity
  8
TEXT
100
AcDbText
 10
4.108656
 20
13.09375
 30
0.0
 40
0.125
  1
2
 41
0.8
 51
10.0
  7
ROMANS
 72
     1
 11
4.156275
 21
13.15625
 31
0.0
100
AcDbText
 73
     2
  0
TEXT
  5
180C
100
AcDbEntity
  8
TEXT
100
AcDbText
 10
4.115799
 20
13.59375
 30
0.0
 40
0.125
  1
1
 41
0.8
 51
10.0
  7
ROMANS
 72
     1
 11
4.156275
 21
13.65625
 31
0.0
100
AcDbText
 73
     2
  0
ENDSEC
  0
SECTION
  2
OBJECTS
  0
DICTIONARY
  5
C
100
AcDbDictionary
  3
ACAD_GROUP
350
D
  3
ACAD_MLINESTYLE
350
E
  0
DICTIONARY
  5
D
102
{ACAD_REACTORS
330
C
102
}
100
AcDbDictionary
  0
DICTIONARY
  5
E
102
{ACAD_REACTORS
330
C
102
}
100
AcDbDictionary
  3
STANDARD
350
1B
  0
MLINESTYLE
  5
1B
102
{ACAD_REACTORS
330
E
102
}
100
AcDbMlineStyle
  2
STANDARD
 70
     0
  3

 62
     0
 51
90.0
 52
90.0
 71
     2
 49
0.5
 62
   256
  6
BYLAYER
 49
-0.5
 62
   256
  6
BYLAYER
  0
ENDSEC
  0
EOF
