  0
SECTION
  2
HEADER
  9
$ACADVER
  1
AC1012
  9
$DWGCODEPAGE
  3
ANSI_1252
  9
$INSBASE
 10
0.359375
 20
0.0625
 30
0.0
  9
$EXTMIN
 10
0.659525
 20
1.90625
 30
0.0
  9
$EXTMAX
 10
10.242125
 20
14.96131
 30
0.0
  9
$LIMMIN
 10
0.0
 20
0.0
  9
$LIMMAX
 10
10.512
 20
15.804
  9
$ORTHOMODE
 70
     1
  9
$REGENMODE
 70
     1
  9
$FILLMODE
 70
     1
  9
$QTEXTMODE
 70
     0
  9
$MIRRTEXT
 70
     0
  9
$DRAGMODE
 70
     2
  9
$LTSCALE
 40
0.25
  9
$OSMODE
 70
     0
  9
$ATTMODE
 70
     1
  9
$TEXTSIZE
 40
0.1
  9
$TRACEWID
 40
0.05
  9
$TEXTSTYLE
  7
ROMANS
  9
$CLAYER
  8
0
  9
$CELTYPE
  6
BYLAYER
  9
$CECOLOR
 62
   256
  9
$CELTSCALE
 40
1.0
  9
$DELOBJ
 70
     1
  9
$DISPSILH
 70
     0
  9
$DIMSCALE
 40
1.0
  9
$DIMASZ
 40
0.18
  9
$DIMEXO
 40
0.0625
  9
$DIMDLI
 40
0.38
  9
$DIMRND
 40
0.0
  9
$DIMDLE
 40
0.0
  9
$DIMEXE
 40
0.18
  9
$DIMTP
 40
0.0
  9
$DIMTM
 40
0.0
  9
$DIMTXT
 40
0.18
  9
$DIMCEN
 40
0.09
  9
$DIMTSZ
 40
0.0
  9
$DIMTOL
 70
     0
  9
$DIMLIM
 70
     0
  9
$DIMTIH
 70
     1
  9
$DIMTOH
 70
     1
  9
$DIMSE1
 70
     0
  9
$DIMSE2
 70
     0
  9
$DIMTAD
 70
     0
  9
$DIMZIN
 70
     0
  9
$DIMBLK
  1

  9
$DIMASO
 70
     1
  9
$DIMSHO
 70
     0
  9
$DIMPOST
  1

  9
$DIMAPOST
  1

  9
$DIMALT
 70
     0
  9
$DIMALTD
 70
     2
  9
$DIMALTF
 40
25.4
  9
$DIMLFAC
 40
1.0
  9
$DIMTOFL
 70
     0
  9
$DIMTVP
 40
0.0
  9
$DIMTIX
 70
     0
  9
$DIMSOXD
 70
     0
  9
$DIMSAH
 70
     0
  9
$DIMBLK1
  1

  9
$DIMBLK2
  1

  9
$DIMSTYLE
  2
STANDARD
  9
$DIMCLRD
 70
     0
  9
$DIMCLRE
 70
     0
  9
$DIMCLRT
 70
     0
  9
$DIMTFAC
 40
1.0
  9
$DIMGAP
 40
0.09
  9
$DIMJUST
 70
     0
  9
$DIMSD1
 70
     0
  9
$DIMSD2
 70
     0
  9
$DIMTOLJ
 70
     1
  9
$DIMTZIN
 70
     0
  9
$DIMALTZ
 70
     0
  9
$DIMALTTZ
 70
     0
  9
$DIMFIT
 70
     3
  9
$DIMUPT
 70
     0
  9
$DIMUNIT
 70
     2
  9
$DIMDEC
 70
     4
  9
$DIMTDEC
 70
     4
  9
$DIMALTU
 70
     2
  9
$DIMALTTD
 70
     2
  9
$DIMTXSTY
  7
STANDARD
  9
$DIMAUNIT
 70
     0
  9
$LUNITS
 70
     2
  9
$LUPREC
 70
     4
  9
$SKETCHINC
 40
0.1
  9
$FILLETRAD
 40
0.0
  9
$AUNITS
 70
     0
  9
$AUPREC
 70
     0
  9
$MENU
  1
acad
  9
$ELEVATION
 40
0.0
  9
$PELEVATION
 40
0.0
  9
$THICKNESS
 40
0.0
  9
$LIMCHECK
 70
     0
  9
$BLIPMODE
 70
     0
  9
$CHAMFERA
 40
0.0
  9
$CHAMFERB
 40
0.0
  9
$CHAMFERC
 40
0.0
  9
$CHAMFERD
 40
0.0
  9
$SKPOLY
 70
     0
  9
$TDCREATE
 40
2449374.296157060
  9
$TDUPDATE
 40
2451087.673661806
  9
$TDINDWG
 40
0.2782853009
  9
$TDUSRTIMER
 40
0.2782853009
  9
$USRTIMER
 70
     1
  9
$ANGBASE
 50
0.0
  9
$ANGDIR
 70
     0
  9
$PDMODE
 70
     3
  9
$PDSIZE
 40
0.1
  9
$PLINEWID
 40
0.01
  9
$COORDS
 70
     2
  9
$SPLFRAME
 70
     0
  9
$SPLINETYPE
 70
     6
  9
$SPLINESEGS
 70
     8
  9
$ATTDIA
 70
     0
  9
$ATTREQ
 70
     1
  9
$HANDLING
 70
     1
  9
$HANDSEED
  5
13F4
  9
$SURFTAB1
 70
     6
  9
$SURFTAB2
 70
     6
  9
$SURFTYPE
 70
     6
  9
$SURFU
 70
     6
  9
$SURFV
 70
     6
  9
$UCSNAME
  2

  9
$UCSORG
 10
0.0
 20
0.0
 30
0.0
  9
$UCSXDIR
 10
1.0
 20
0.0
 30
0.0
  9
$UCSYDIR
 10
0.0
 20
1.0
 30
0.0
  9
$PUCSNAME
  2

  9
$PUCSORG
 10
0.0
 20
0.0
 30
0.0
  9
$PUCSXDIR
 10
1.0
 20
0.0
 30
0.0
  9
$PUCSYDIR
 10
0.0
 20
1.0
 30
0.0
  9
$USERI1
 70
     0
  9
$USERI2
 70
     0
  9
$USERI3
 70
     0
  9
$USERI4
 70
     0
  9
$USERI5
 70
     0
  9
$USERR1
 40
0.0
  9
$USERR2
 40
0.0
  9
$USERR3
 40
0.0
  9
$USERR4
 40
0.0
  9
$USERR5
 40
0.0
  9
$WORLDVIEW
 70
     1
  9
$SHADEDGE
 70
     3
  9
$SHADEDIF
 70
    70
  9
$TILEMODE
 70
     1
  9
$MAXACTVP
 70
    16
  9
$PINSBASE
 10
0.0
 20
0.0
 30
0.0
  9
$PLIMCHECK
 70
     0
  9
$PEXTMIN
 10
1.000000E+20
 20
1.000000E+20
 30
1.000000E+20
  9
$PEXTMAX
 10
-1.000000E+20
 20
-1.000000E+20
 30
-1.000000E+20
  9
$PLIMMIN
 10
0.0
 20
0.0
  9
$PLIMMAX
 10
12.0
 20
9.0
  9
$UNITMODE
 70
     0
  9
$VISRETAIN
 70
     0
  9
$PLINEGEN
 70
     0
  9
$PSLTSCALE
 70
     0
  9
$TREEDEPTH
 70
  3020
  9
$PICKSTYLE
 70
     1
  9
$CMLSTYLE
  2
STANDARD
  9
$CMLJUST
 70
     0
  9
$CMLSCALE
 40
1.0
  9
$SAVEIMAGES
 70
     1
  0
ENDSEC
  0
SECTION
  2
CLASSES
  0
CLASS
  1
LWPOLYLINE
  2
AcDbPolyline
  3
"AutoCAD"
 90
    32768
280
     0
281
     1
  0
ENDSEC
  0
SECTION
  2
TABLES
  0
TABLE
  2
VPORT
  5
8
100
AcDbSymbolTable
 70
     2
  0
VPORT
  5
13F3
100
AcDbSymbolTableRecord
100
AcDbViewportTableRecord
  2
*ACTIVE
 70
     0
 10
0.0
 20
0.0
 11
1.0
 21
1.0
 12
14.307242
 22
7.902
 13
0.0
 23
0.0
 14
0.001
 24
0.001
 15
1.0
 25
1.0
 16
0.0
 26
0.0
 36
1.0
 17
0.0
 27
0.0
 37
0.0
 40
15.804
 41
1.810585
 42
50.0
 43
0.0
 44
0.0
 50
0.0
 51
0.0
 71
     0
 72
   100
 73
     1
 74
     0
 75
     1
 76
     0
 77
     0
 78
     0
  0
ENDTAB
  0
TABLE
  2
LTYPE
  5
5
100
AcDbSymbolTable
 70
     2
  0
LTYPE
  5
12
100
AcDbSymbolTableRecord
100
AcDbLinetypeTableRecord
  2
BYBLOCK
 70
     0
  3

 72
    65
 73
     0
 40
0.0
  0
LTYPE
  5
13
100
AcDbSymbolTableRecord
100
AcDbLinetypeTableRecord
  2
BYLAYER
 70
     0
  3

 72
    65
 73
     0
 40
0.0
  0
LTYPE
  5
14
100
AcDbSymbolTableRecord
100
AcDbLinetypeTableRecord
  2
CONTINUOUS
 70
     0
  3
Solid line
 72
    65
 73
     0
 40
0.0
  0
LTYPE
  5
1E
100
AcDbSymbolTableRecord
100
AcDbLinetypeTableRecord
  2
DASHED
 70
     0
  3
__ __ __ __ __ __ __ __ __ __ __ __ __ __ __ __
 72
    65
 73
     2
 40
0.75
 49
0.5
 74
     0
 49
-0.25
 74
     0
  0
ENDTAB
  0
TABLE
  2
LAYER
  5
2
100
AcDbSymbolTable
 70
     3
  0
LAYER
  5
F
100
AcDbSymbolTableRecord
100
AcDbLayerTableRecord
  2
0
 70
     0
 62
     7
  6
CONTINUOUS
  0
LAYER
  5
21
100
AcDbSymbolTableRecord
100
AcDbLayerTableRecord
  2
DASH
 70
     0
 62
     7
  6
DASHED
  0
LAYER
  5
25B
100
AcDbSymbolTableRecord
100
AcDbLayerTableRecord
  2
TEXT
 70
     0
 62
     2
  6
CONTINUOUS
  0
ENDTAB
  0
TABLE
  2
STYLE
  5
3
100
AcDbSymbolTable
 70
     2
  0
STYLE
  5
10
100
AcDbSymbolTableRecord
100
AcDbTextStyleTableRecord
  2
STANDARD
 70
     0
 40
0.0
 41
1.0
 50
0.0
 71
     0
 42
0.2
  3
txt
  4

  0
STYLE
  5
1C
100
AcDbSymbolTableRecord
100
AcDbTextStyleTableRecord
  2
ROMANS
 70
     0
 40
0.0
 41
0.8
 50
10.0
 71
     0
 42
0.1
  3
romans
  4

  0
ENDTAB
  0
TABLE
  2
VIEW
  5
6
100
AcDbSymbolTable
 70
     0
  0
ENDTAB
  0
TABLE
  2
UCS
  5
7
100
AcDbSymbolTable
 70
     0
  0
ENDTAB
  0
TABLE
  2
APPID
  5
9
100
AcDbSymbolTable
 70
     1
  0
APPID
  5
11
100
AcDbSymbolTableRecord
100
AcDbRegAppTableRecord
  2
ACAD
 70
     0
  0
ENDTAB
  0
TABLE
  2
DIMSTYLE
  5
A
100
AcDbSymbolTable
 70
     1
  0
DIMSTYLE
105
252
100
AcDbSymbolTableRecord
100
AcDbDimStyleTableRecord
  2
STANDARD
 70
     0
  3

  4

  5

  6

  7

 40
1.0
 41
0.18
 42
0.0625
 43
0.38
 44
0.18
 45
0.0
 46
0.0
 47
0.0
 48
0.0
140
0.18
141
0.09
142
0.0
143
25.4
144
1.0
145
0.0
146
1.0
147
0.09
 71
     0
 72
     0
 73
     1
 74
     1
 75
     0
 76
     0
 77
     0
 78
     0
170
     0
171
     2
172
     0
173
     0
174
     0
175
     0
176
     0
177
     0
178
     0
270
     2
271
     4
272
     4
273
     2
274
     2
340
10
275
     0
280
     0
281
     0
282
     0
283
     1
284
     0
285
     0
286
     0
287
     3
288
     0
  0
ENDTAB
  0
TABLE
  2
BLOCK_RECORD
  5
1
100
AcDbSymbolTable
 70
     0
  0
BLOCK_RECORD
  5
18
100
AcDbSymbolTableRecord
100
AcDbBlockTableRecord
  2
*MODEL_SPACE
  0
BLOCK_RECORD
  5
15
100
AcDbSymbolTableRecord
100
AcDbBlockTableRecord
  2
*PAPER_SPACE
  0
ENDTAB
  0
ENDSEC
  0
SECTION
  2
BLOCKS
  0
BLOCK
  5
24
100
AcDbEntity
  8
0
100
AcDbBlockBegin
  2
*MODEL_SPACE
 70
     0
 10
0.0
 20
0.0
 30
0.0
  3
*MODEL_SPACE
  1

  0
ENDBLK
  5
25
100
AcDbEntity
  8
0
100
AcDbBlockEnd
  0
BLOCK
  5
22
100
AcDbEntity
 67
     1
  8
0
100
AcDbBlockBegin
  2
*PAPER_SPACE
 70
     0
 10
0.0
 20
0.0
 30
0.0
  3
*PAPER_SPACE
  1

  0
ENDBLK
  5
23
100
AcDbEntity
 67
     1
  8
0
100
AcDbBlockEnd
  0
ENDSEC
  0
SECTION
  2
ENTITIES
  0
LINE
  5
29
100
AcDbEntity
  8
0
100
AcDbLine
 10
2.4844
 20
14.3125
 30
0.0
 11
2.4844
 21
1.90625
 31
0.0
  0
LINE
  5
78
100
AcDbEntity
  8
0
100
AcDbLine
 10
4.031275
 20
14.3125
 30
0.0
 11
4.031275
 21
1.90625
 31
0.0
  0
TEXT
  5
79
100
AcDbEntity
  8
TEXT
100
AcDbText
 10
4.055037
 20
6.09375
 30
0.0
 40
0.125
  1
36
 41
0.8
 51
10.0
  7
ROMANS
 72
     1
 11
4.150275
 21
6.09375
 31
0.0
100
AcDbText
  0
LINE
  5
7A
100
AcDbEntity
  8
0
100
AcDbLine
 10
4.031275
 20
6.03125
 30
0.0
 11
4.281275
 21
6.03125
 31
0.0
  0
LINE
  5
7B
100
AcDbEntity
  8
0
100
AcDbLine
 10
4.031275
 20
5.53125
 30
0.0
 11
4.281275
 21
5.53125
 31
0.0
  0
LINE
  5
7C
100
AcDbEntity
  8
0
100
AcDbLine
 10
4.031275
 20
5.78125
 30
0.0
 11
4.281275
 21
5.78125
 31
0.0
  0
LINE
  5
7D
100
AcDbEntity
  8
0
100
AcDbLine
 10
4.031275
 20
5.03125
 30
0.0
 11
4.281275
 21
5.03125
 31
0.0
  0
LINE
  5
7E
100
AcDbEntity
  8
0
100
AcDbLine
 10
4.031275
 20
5.28125
 30
0.0
 11
4.281275
 21
5.28125
 31
0.0
  0
LINE
  5
7F
100
AcDbEntity
  8
0
100
AcDbLine
 10
4.031275
 20
4.53125
 30
0.0
 11
4.281275
 21
4.53125
 31
0.0
  0
LINE
  5
80
100
AcDbEntity
  8
0
100
AcDbLine
 10
4.031275
 20
4.78125
 30
0.0
 11
4.281275
 21
4.78125
 31
0.0
  0
LINE
  5
81
100
AcDbEntity
  8
0
100
AcDbLine
 10
4.031275
 20
4.03125
 30
0.0
 11
4.281275
 21
4.03125
 31
0.0
  0
LINE
  5
82
100
AcDbEntity
  8
0
100
AcDbLine
 10
4.031275
 20
4.28125
 30
0.0
 11
4.281275
 21
4.28125
 31
0.0
  0
TEXT
  5
83
100
AcDbEntity
  8
TEXT
100
AcDbText
 10
4.055037
 20
5.59375
 30
0.0
 40
0.125
  1
37
 41
0.8
 51
10.0
  7
ROMANS
 72
     1
 11
4.150275
 21
5.59375
 31
0.0
100
AcDbText
  0
TEXT
  5
84
100
AcDbEntity
  8
TEXT
100
AcDbText
 10
4.055037
 20
5.09375
 30
0.0
 40
0.125
  1
38
 41
0.8
 51
10.0
  7
ROMANS
 72
     1
 11
4.150275
 21
5.09375
 31
0.0
100
AcDbText
  0
TEXT
  5
85
100
AcDbEntity
  8
TEXT
100
AcDbText
 10
4.057418
 20
4.59375
 30
0.0
 40
0.125
  1
39
 41
0.8
 51
10.0
  7
ROMANS
 72
     1
 11
4.150275
 21
4.59375
 31
0.0
100
AcDbText
  0
TEXT
  5
86
100
AcDbEntity
  8
TEXT
100
AcDbText
 10
4.055037
 20
4.09375
 30
0.0
 40
0.125
  1
40
 41
0.8
 51
10.0
  7
ROMANS
 72
     1
 11
4.150275
 21
4.09375
 31
0.0
100
AcDbText
  0
LINE
  5
87
100
AcDbEntity
  8
0
100
AcDbLine
 10
4.281275
 20
4.28125
 30
0.0
 11
4.281275
 21
4.03125
 31
0.0
  0
LINE
  5
88
100
AcDbEntity
  8
0
100
AcDbLine
 10
4.281275
 20
4.78125
 30
0.0
 11
4.281275
 21
4.53125
 31
0.0
  0
LINE
  5
89
100
AcDbEntity
  8
0
100
AcDbLine
 10
4.281275
 20
5.28125
 30
0.0
 11
4.281275
 21
5.03125
 31
0.0
  0
LINE
  5
8A
100
AcDbEntity
  8
0
100
AcDbLine
 10
4.281275
 20
5.78125
 30
0.0
 11
4.281275
 21
5.53125
 31
0.0
  0
LINE
  5
8B
100
AcDbEntity
  8
0
100
AcDbLine
 10
4.031275
 20
8.53125
 30
0.0
 11
4.281275
 21
8.53125
 31
0.0
  0
LINE
  5
8C
100
AcDbEntity
  8
0
100
AcDbLine
 10
4.031275
 20
8.78125
 30
0.0
 11
4.281275
 21
8.78125
 31
0.0
  0
LINE
  5
8D
100
AcDbEntity
  8
0
100
AcDbLine
 10
4.031275
 20
8.03125
 30
0.0
 11
4.281275
 21
8.03125
 31
0.0
  0
LINE
  5
8E
100
AcDbEntity
  8
0
100
AcDbLine
 10
4.031275
 20
8.28125
 30
0.0
 11
4.281275
 21
8.28125
 31
0.0
  0
LINE
  5
8F
100
AcDbEntity
  8
0
100
AcDbLine
 10
4.031275
 20
7.53125
 30
0.0
 11
4.281275
 21
7.53125
 31
0.0
  0
LINE
  5
90
100
AcDbEntity
  8
0
100
AcDbLine
 10
4.031275
 20
7.78125
 30
0.0
 11
4.281275
 21
7.78125
 31
0.0
  0
LINE
  5
91
100
AcDbEntity
  8
0
100
AcDbLine
 10
4.031275
 20
7.03125
 30
0.0
 11
4.281275
 21
7.03125
 31
0.0
  0
LINE
  5
92
100
AcDbEntity
  8
0
100
AcDbLine
 10
4.031275
 20
7.28125
 30
0.0
 11
4.281275
 21
7.28125
 31
0.0
  0
LINE
  5
93
100
AcDbEntity
  8
0
100
AcDbLine
 10
4.031275
 20
6.53125
 30
0.0
 11
4.281275
 21
6.53125
 31
0.0
  0
LINE
  5
94
100
AcDbEntity
  8
0
100
AcDbLine
 10
4.031275
 20
6.78125
 30
0.0
 11
4.281275
 21
6.78125
 31
0.0
  0
LINE
  5
95
100
AcDbEntity
  8
0
100
AcDbLine
 10
4.031275
 20
6.28125
 30
0.0
 11
4.281275
 21
6.28125
 31
0.0
  0
TEXT
  5
96
100
AcDbEntity
  8
TEXT
100
AcDbText
 10
4.055037
 20
8.09375
 30
0.0
 40
0.125
  1
32
 41
0.8
 51
10.0
  7
ROMANS
 72
     1
 11
4.150275
 21
8.09375
 31
0.0
100
AcDbText
  0
TEXT
  5
97
100
AcDbEntity
  8
TEXT
100
AcDbText
 10
4.055037
 20
7.59375
 30
0.0
 40
0.125
  1
33
 41
0.8
 51
10.0
  7
ROMANS
 72
     1
 11
4.150275
 21
7.59375
 31
0.0
100
AcDbText
  0
TEXT
  5
98
100
AcDbEntity
  8
TEXT
100
AcDbText
 10
4.052656
 20
7.09375
 30
0.0
 40
0.125
  1
34
 41
0.8
 51
10.0
  7
ROMANS
 72
     1
 11
4.150275
 21
7.09375
 31
0.0
100
AcDbText
  0
TEXT
  5
99
100
AcDbEntity
  8
TEXT
100
AcDbText
 10
4.055037
 20
6.59375
 30
0.0
 40
0.125
  1
35
 41
0.8
 51
10.0
  7
ROMANS
 72
     1
 11
4.150275
 21
6.59375
 31
0.0
100
AcDbText
  0
LINE
  5
9A
100
AcDbEntity
  8
0
100
AcDbLine
 10
4.281275
 20
7.78125
 30
0.0
 11
4.281275
 21
7.53125
 31
0.0
  0
LINE
  5
9B
100
AcDbEntity
  8
0
100
AcDbLine
 10
4.281275
 20
6.78125
 30
0.0
 11
4.281275
 21
6.53125
 31
0.0
  0
LINE
  5
9C
100
AcDbEntity
  8
0
100
AcDbLine
 10
4.281275
 20
7.28125
 30
0.0
 11
4.281275
 21
7.03125
 31
0.0
  0
LINE
  5
9D
100
AcDbEntity
  8
0
100
AcDbLine
 10
4.281275
 20
8.15625
 30
0.0
 11
5.031275
 21
8.15625
 31
0.0
  0
LINE
  5
9E
100
AcDbEntity
  8
0
100
AcDbLine
 10
4.281275
 20
8.28125
 30
0.0
 11
4.281275
 21
8.03125
 31
0.0
  0
LINE
  5
9F
100
AcDbEntity
  8
0
100
AcDbLine
 10
4.281275
 20
8.65625
 30
0.0
 11
5.031275
 21
8.65625
 31
0.0
  0
LINE
  5
A0
100
AcDbEntity
  8
0
100
AcDbLine
 10
4.281275
 20
8.78125
 30
0.0
 11
4.281275
 21
8.53125
 31
0.0
  0
TEXT
  5
A1
100
AcDbEntity
  8
TEXT
100
AcDbText
 10
4.025323
 20
8.59375
 30
0.0
 40
0.125
  1
31
 41
0.8
 51
10.0
  7
ROMANS
 72
     1
 11
4.106275
 21
8.59375
 31
0.0
100
AcDbText
  0
LINE
  5
A2
100
AcDbEntity
  8
0
100
AcDbLine
 10
4.031275
 20
11.53125
 30
0.0
 11
4.281275
 21
11.53125
 31
0.0
  0
LINE
  5
A3
100
AcDbEntity
  8
0
100
AcDbLine
 10
4.031275
 20
11.78125
 30
0.0
 11
4.281275
 21
11.78125
 31
0.0
  0
LINE
  5
A4
100
AcDbEntity
  8
0
100
AcDbLine
 10
4.031275
 20
11.03125
 30
0.0
 11
4.281275
 21
11.03125
 31
0.0
  0
LINE
  5
A5
100
AcDbEntity
  8
0
100
AcDbLine
 10
4.031275
 20
11.28125
 30
0.0
 11
4.281275
 21
11.28125
 31
0.0
  0
LINE
  5
A6
100
AcDbEntity
  8
0
100
AcDbLine
 10
4.031275
 20
9.53125
 30
0.0
 11
4.281275
 21
9.53125
 31
0.0
  0
LINE
  5
A7
100
AcDbEntity
  8
0
100
AcDbLine
 10
4.031275
 20
9.78125
 30
0.0
 11
4.281275
 21
9.78125
 31
0.0
  0
LINE
  5
A8
100
AcDbEntity
  8
0
100
AcDbLine
 10
4.031275
 20
9.28125
 30
0.0
 11
4.281275
 21
9.28125
 31
0.0
  0
TEXT
  5
A9
100
AcDbEntity
  8
TEXT
100
AcDbText
 10
4.011037
 20
9.09375
 30
0.0
 40
0.125
  1
30
 41
0.8
 51
10.0
  7
ROMANS
 72
     1
 11
4.106275
 21
9.09375
 31
0.0
100
AcDbText
  0
LINE
  5
AA
100
AcDbEntity
  8
0
100
AcDbLine
 10
4.031275
 20
10.03125
 30
0.0
 11
4.281275
 21
10.03125
 31
0.0
  0
LINE
  5
AB
100
AcDbEntity
  8
0
100
AcDbLine
 10
4.031275
 20
10.28125
 30
0.0
 11
4.281275
 21
10.28125
 31
0.0
  0
LINE
  5
AC
100
AcDbEntity
  8
0
100
AcDbLine
 10
4.031275
 20
10.78125
 30
0.0
 11
4.281275
 21
10.78125
 31
0.0
  0
LINE
  5
AD
100
AcDbEntity
  8
0
100
AcDbLine
 10
4.031275
 20
10.53125
 30
0.0
 11
4.281275
 21
10.53125
 31
0.0
  0
LINE
  5
AE
100
AcDbEntity
  8
0
100
AcDbLine
 10
4.031275
 20
9.03125
 30
0.0
 11
4.281275
 21
9.03125
 31
0.0
  0
LINE
  5
AF
100
AcDbEntity
  8
0
100
AcDbLine
 10
4.281275
 20
9.78125
 30
0.0
 11
4.281275
 21
9.53125
 31
0.0
  0
LINE
  5
B0
100
AcDbEntity
  8
0
100
AcDbLine
 10
4.281275
 20
9.28125
 30
0.0
 11
4.281275
 21
9.03125
 31
0.0
  0
LINE
  5
B1
100
AcDbEntity
  8
0
100
AcDbLine
 10
4.281275
 20
10.28125
 30
0.0
 11
4.281275
 21
10.03125
 31
0.0
  0
LINE
  5
B2
100
AcDbEntity
  8
0
100
AcDbLine
 10
4.281275
 20
11.28125
 30
0.0
 11
4.281275
 21
11.03125
 31
0.0
  0
LINE
  5
B3
100
AcDbEntity
  8
0
100
AcDbLine
 10
4.281275
 20
10.78125
 30
0.0
 11
4.281275
 21
10.53125
 31
0.0
  0
LINE
  5
B4
100
AcDbEntity
  8
0
100
AcDbLine
 10
4.281275
 20
11.78125
 30
0.0
 11
4.281275
 21
11.53125
 31
0.0
  0
TEXT
  5
B5
100
AcDbEntity
  8
TEXT
100
AcDbText
 10
4.038418
 20
9.59375
 30
0.0
 40
0.125
  1
29
 41
0.8
 51
10.0
  7
ROMANS
 72
     1
 11
4.131275
 21
9.59375
 31
0.0
100
AcDbText
  0
TEXT
  5
B6
100
AcDbEntity
  8
TEXT
100
AcDbText
 10
4.036037
 20
10.09375
 30
0.0
 40
0.125
  1
28
 41
0.8
 51
10.0
  7
ROMANS
 72
     1
 11
4.131275
 21
10.09375
 31
0.0
100
AcDbText
  0
TEXT
  5
B7
100
AcDbEntity
  8
TEXT
100
AcDbText
 10
4.036037
 20
11.09375
 30
0.0
 40
0.125
  1
26
 41
0.8
 51
10.0
  7
ROMANS
 72
     1
 11
4.131275
 21
11.09375
 31
0.0
100
AcDbText
  0
TEXT
  5
B8
100
AcDbEntity
  8
TEXT
100
AcDbText
 10
4.036037
 20
10.59375
 30
0.0
 40
0.125
  1
27
 41
0.8
 51
10.0
  7
ROMANS
 72
     1
 11
4.131275
 21
10.59375
 31
0.0
100
AcDbText
  0
TEXT
  5
B9
100
AcDbEntity
  8
TEXT
100
AcDbText
 10
4.036037
 20
11.59375
 30
0.0
 40
0.125
  1
25
 41
0.8
 51
10.0
  7
ROMANS
 72
     1
 11
4.131275
 21
11.59375
 31
0.0
100
AcDbText
  0
LINE
  5
BA
100
AcDbEntity
  8
0
100
AcDbLine
 10
4.031275
 20
13.78125
 30
0.0
 11
4.281275
 21
13.78125
 31
0.0
  0
LINE
  5
BB
100
AcDbEntity
  8
0
100
AcDbLine
 10
4.031275
 20
13.53125
 30
0.0
 11
4.281275
 21
13.53125
 31
0.0
  0
LINE
  5
BC
100
AcDbEntity
  8
0
100
AcDbLine
 10
4.031275
 20
13.03125
 30
0.0
 11
4.281275
 21
13.03125
 31
0.0
  0
LINE
  5
BD
100
AcDbEntity
  8
0
100
AcDbLine
 10
4.031275
 20
13.28125
 30
0.0
 11
4.281275
 21
13.28125
 31
0.0
  0
LINE
  5
BE
100
AcDbEntity
  8
0
100
AcDbLine
 10
4.031275
 20
12.53125
 30
0.0
 11
4.281275
 21
12.53125
 31
0.0
  0
LINE
  5
BF
100
AcDbEntity
  8
0
100
AcDbLine
 10
4.031275
 20
12.78125
 30
0.0
 11
4.281275
 21
12.78125
 31
0.0
  0
LINE
  5
C0
100
AcDbEntity
  8
0
100
AcDbLine
 10
4.031275
 20
12.03125
 30
0.0
 11
4.281275
 21
12.03125
 31
0.0
  0
LINE
  5
C1
100
AcDbEntity
  8
0
100
AcDbLine
 10
4.031275
 20
12.28125
 30
0.0
 11
4.281275
 21
12.28125
 31
0.0
  0
LINE
  5
C2
100
AcDbEntity
  8
0
100
AcDbLine
 10
4.281275
 20
13.28125
 30
0.0
 11
4.281275
 21
13.03125
 31
0.0
  0
LINE
  5
C3
100
AcDbEntity
  8
0
100
AcDbLine
 10
4.281275
 20
12.28125
 30
0.0
 11
4.281275
 21
12.03125
 31
0.0
  0
LINE
  5
C4
100
AcDbEntity
  8
0
100
AcDbLine
 10
4.281275
 20
13.15625
 30
0.0
 11
5.031275
 21
13.15625
 31
0.0
  0
LINE
  5
C5
100
AcDbEntity
  8
0
100
AcDbLine
 10
4.281275
 20
12.78125
 30
0.0
 11
4.281275
 21
12.53125
 31
0.0
  0
LINE
  5
C6
100
AcDbEntity
  8
0
100
AcDbLine
 10
4.281275
 20
13.78125
 30
0.0
 11
4.281275
 21
13.53125
 31
0.0
  0
TEXT
  5
C7
100
AcDbEntity
  8
TEXT
100
AcDbText
 10
3.265204
 20
13.09375
 30
0.0
 40
0.125
  1
ACCOM3
 41
0.8
 51
10.0
  7
ROMANS
100
AcDbText
  0
TEXT
  5
C8
100
AcDbEntity
  8
TEXT
100
AcDbText
 10
4.033656
 20
12.09375
 30
0.0
 40
0.125
  1
24
 41
0.8
 51
10.0
  7
ROMANS
 72
     1
 11
4.131275
 21
12.09375
 31
0.0
100
AcDbText
  0
TEXT
  5
C9
100
AcDbEntity
  8
TEXT
100
AcDbText
 10
4.036037
 20
12.59375
 30
0.0
 40
0.125
  1
23
 41
0.8
 51
10.0
  7
ROMANS
 72
     1
 11
4.131275
 21
12.59375
 31
0.0
100
AcDbText
  0
TEXT
  5
CA
100
AcDbEntity
  8
TEXT
100
AcDbText
 10
4.036037
 20
13.09375
 30
0.0
 40
0.125
  1
22
 41
0.8
 51
10.0
  7
ROMANS
 72
     1
 11
4.131275
 21
13.09375
 31
0.0
100
AcDbText
  0
LINE
  5
CB
100
AcDbEntity
  8
DASH
100
AcDbLine
 10
2.4844
 20
14.3125
 30
0.0
 11
4.031275
 21
14.3125
 31
0.0
  0
TEXT
  5
CC
100
AcDbEntity
  8
TEXT
100
AcDbText
 10
4.025323
 20
13.59375
 30
0.0
 40
0.125
  1
21
 41
0.8
 51
10.0
  7
ROMANS
 72
     1
 11
4.106275
 21
13.59375
 31
0.0
100
AcDbText
  0
TEXT
  5
CD
100
AcDbEntity
  8
TEXT
100
AcDbText
 10
2.576215
 20
14.610119
 30
0.0
 40
0.125
  1
115 VAC OUTPUT
 41
0.8
 51
10.0
  7
ROMANS
 72
     1
 11
3.250025
 21
14.610119
 31
0.0
100
AcDbText
  0
TEXT
  5
CE
100
AcDbEntity
  8
TEXT
100
AcDbText
 10
2.650025
 20
14.407738
 30
0.0
 40
0.125
  1
502-03641-02
 41
0.8
 51
10.0
  7
ROMANS
 72
     1
 11
3.250025
 21
14.407738
 31
0.0
100
AcDbText
  0
TEXT
  5
CF
100
AcDbEntity
  8
TEXT
100
AcDbText
 10
2.563537
 20
14.121875
 30
0.0
 40
0.1
  1
INTERNAL ADDRESSES
 41
0.8
  7
ROMANS
 72
     4
 11
3.218775
 21
14.171875
 31
0.0
100
AcDbText
  0
TEXT
  5
D0
100
AcDbEntity
  8
TEXT
100
AcDbText
 10
2.750204
 20
13.95997
 30
0.0
 40
0.1
  1
LISTED BELOW 
 41
0.8
  7
ROMANS
 72
     4
 11
3.218775
 21
14.00997
 31
0.0
100
AcDbText
  0
TEXT
  5
D1
100
AcDbEntity
  8
TEXT
100
AcDbText
 10
2.783358
 20
14.8125
 30
0.0
 40
0.125
  1
CARD #--B
 41
0.8
 51
10.0
  7
ROMANS
 72
     1
 11
3.250025
 21
14.8125
 31
0.0
100
AcDbText
  0
LINE
  5
D2
100
AcDbEntity
  8
0
100
AcDbLine
 10
2.4844
 20
1.90625
 30
0.0
 11
4.031275
 21
1.90625
 31
0.0
  0
TEXT
  5
D3
100
AcDbEntity
  8
TEXT
100
AcDbText
 10
3.265204
 20
13.59375
 30
0.0
 40
0.125
  1
ACL3
 41
0.8
 51
10.0
  7
ROMANS
100
AcDbText
  0
TEXT
  5
D4
100
AcDbEntity
  8
TEXT
100
AcDbText
 10
3.265204
 20
12.59375
 30
0.0
 40
0.125
  1
ACOUT17
 41
0.8
 51
10.0
  7
ROMANS
100
AcDbText
  0
TEXT
  5
D5
100
AcDbEntity
  8
TEXT
100
AcDbText
 10
3.265204
 20
12.09375
 30
0.0
 40
0.125
  1
ACOUT18
 41
0.8
 51
10.0
  7
ROMANS
100
AcDbText
  0
TEXT
  5
D6
100
AcDbEntity
  8
TEXT
100
AcDbText
 10
3.265204
 20
11.59375
 30
0.0
 40
0.125
  1
ACOUT19
 41
0.8
 51
10.0
  7
ROMANS
100
AcDbText
  0
TEXT
  5
D7
100
AcDbEntity
  8
TEXT
100
AcDbText
 10
3.265204
 20
10.59375
 30
0.0
 40
0.125
  1
ACOUT21
 41
0.8
 51
10.0
  7
ROMANS
100
AcDbText
  0
TEXT
  5
D8
100
AcDbEntity
  8
TEXT
100
AcDbText
 10
3.265204
 20
10.09375
 30
0.0
 40
0.125
  1
ACOUT22
 41
0.8
 51
10.0
  7
ROMANS
100
AcDbText
  0
TEXT
  5
D9
100
AcDbEntity
  8
TEXT
100
AcDbText
 10
3.265204
 20
11.09375
 30
0.0
 40
0.125
  1
ACOUT20
 41
0.8
 51
10.0
  7
ROMANS
100
AcDbText
  0
TEXT
  5
DA
100
AcDbEntity
  8
TEXT
100
AcDbText
 10
3.265204
 20
9.59375
 30
0.0
 40
0.125
  1
ACOUT23
 41
0.8
 51
10.0
  7
ROMANS
100
AcDbText
  0
TEXT
  5
DB
100
AcDbEntity
  8
TEXT
100
AcDbText
 10
3.265204
 20
9.09375
 30
0.0
 40
0.125
  1
ACOUT24
 41
0.8
 51
10.0
  7
ROMANS
100
AcDbText
  0
TEXT
  5
DC
100
AcDbEntity
  8
TEXT
100
AcDbText
 10
3.265204
 20
8.59375
 30
0.0
 40
0.125
  1
ACL4
 41
0.8
 51
10.0
  7
ROMANS
100
AcDbText
  0
TEXT
  5
DD
100
AcDbEntity
  8
TEXT
100
AcDbText
 10
3.265204
 20
8.09375
 30
0.0
 40
0.125
  1
ACCOM4
 41
0.8
 51
10.0
  7
ROMANS
100
AcDbText
  0
TEXT
  5
DE
100
AcDbEntity
  8
TEXT
100
AcDbText
 10
3.265204
 20
7.59375
 30
0.0
 40
0.125
  1
ACOUT25
 41
0.8
 51
10.0
  7
ROMANS
100
AcDbText
  0
TEXT
  5
DF
100
AcDbEntity
  8
TEXT
100
AcDbText
 10
3.265204
 20
7.09375
 30
0.0
 40
0.125
  1
ACOUT26
 41
0.8
 51
10.0
  7
ROMANS
100
AcDbText
  0
TEXT
  5
E0
100
AcDbEntity
  8
TEXT
100
AcDbText
 10
3.265204
 20
6.59375
 30
0.0
 40
0.125
  1
ACOUT27
 41
0.8
 51
10.0
  7
ROMANS
100
AcDbText
  0
TEXT
  5
E1
100
AcDbEntity
  8
TEXT
100
AcDbText
 10
3.265204
 20
6.09375
 30
0.0
 40
0.125
  1
ACOUT28
 41
0.8
 51
10.0
  7
ROMANS
100
AcDbText
  0
TEXT
  5
E2
100
AcDbEntity
  8
TEXT
100
AcDbText
 10
3.265204
 20
5.59375
 30
0.0
 40
0.125
  1
ACOUT29
 41
0.8
 51
10.0
  7
ROMANS
100
AcDbText
  0
TEXT
  5
E3
100
AcDbEntity
  8
TEXT
100
AcDbText
 10
3.265204
 20
4.59375
 30
0.0
 40
0.125
  1
ACOUT31
 41
0.8
 51
10.0
  7
ROMANS
100
AcDbText
  0
TEXT
  5
E4
100
AcDbEntity
  8
TEXT
100
AcDbText
 10
3.265204
 20
4.09375
 30
0.0
 40
0.125
  1
ACOUT32
 41
0.8
 51
10.0
  7
ROMANS
100
AcDbText
  0
TEXT
  5
E5
100
AcDbEntity
  8
TEXT
100
AcDbText
 10
3.265204
 20
5.09375
 30
0.0
 40
0.125
  1
ACOUT30
 41
0.8
 51
10.0
  7
ROMANS
100
AcDbText
  0
LINE
  5
E6
100
AcDbEntity
  8
0
100
AcDbLine
 10
5.031275
 20
13.65625
 30
0.0
 11
4.281275
 21
13.65625
 31
0.0
  0
TEXT
  5
E7
100
AcDbEntity
  8
TEXT
100
AcDbText
 10
2.515204
 20
12.59375
 30
0.0
 40
0.125
  1
O-.-.17
 41
0.8
 51
10.0
  7
ROMANS
100
AcDbText
  0
TEXT
  5
E8
100
AcDbEntity
  8
TEXT
100
AcDbText
 10
2.515204
 20
12.09375
 30
0.0
 40
0.125
  1
O-.-.18
 41
0.8
 51
10.0
  7
ROMANS
100
AcDbText
  0
TEXT
  5
E9
100
AcDbEntity
  8
TEXT
100
AcDbText
 10
2.515204
 20
11.59375
 30
0.0
 40
0.125
  1
O-.-.19
 41
0.8
 51
10.0
  7
ROMANS
100
AcDbText
  0
TEXT
  5
EA
100
AcDbEntity
  8
TEXT
100
AcDbText
 10
2.515204
 20
11.09375
 30
0.0
 40
0.125
  1
O-.-.20
 41
0.8
 51
10.0
  7
ROMANS
100
AcDbText
  0
TEXT
  5
EB
100
AcDbEntity
  8
TEXT
100
AcDbText
 10
2.515204
 20
10.59375
 30
0.0
 40
0.125
  1
O-.-.21
 41
0.8
 51
10.0
  7
ROMANS
100
AcDbText
  0
TEXT
  5
EC
100
AcDbEntity
  8
TEXT
100
AcDbText
 10
2.515204
 20
10.09375
 30
0.0
 40
0.125
  1
O-.-.22
 41
0.8
 51
10.0
  7
ROMANS
100
AcDbText
  0
TEXT
  5
ED
100
AcDbEntity
  8
TEXT
100
AcDbText
 10
2.515204
 20
9.09375
 30
0.0
 40
0.125
  1
O-.-.24
 41
0.8
 51
10.0
  7
ROMANS
100
AcDbText
  0
TEXT
  5
EE
100
AcDbEntity
  8
TEXT
100
AcDbText
 10
2.515204
 20
9.59375
 30
0.0
 40
0.125
  1
O-.-.23
 41
0.8
 51
10.0
  7
ROMANS
100
AcDbText
  0
TEXT
  5
EF
100
AcDbEntity
  8
TEXT
100
AcDbText
 10
2.515204
 20
5.09375
 30
0.0
 40
0.125
  1
O-.-.30
 41
0.8
 51
10.0
  7
ROMANS
100
AcDbText
  0
TEXT
  5
F0
100
AcDbEntity
  8
TEXT
100
AcDbText
 10
2.515204
 20
5.59375
 30
0.0
 40
0.125
  1
O-.-.29
 41
0.8
 51
10.0
  7
ROMANS
100
AcDbText
  0
TEXT
  5
F1
100
AcDbEntity
  8
TEXT
100
AcDbText
 10
2.515204
 20
6.09375
 30
0.0
 40
0.125
  1
O-.-.28
 41
0.8
 51
10.0
  7
ROMANS
100
AcDbText
  0
TEXT
  5
F2
100
AcDbEntity
  8
TEXT
100
AcDbText
 10
2.515204
 20
6.59375
 30
0.0
 40
0.125
  1
O-.-.27
 41
0.8
 51
10.0
  7
ROMANS
100
AcDbText
  0
TEXT
  5
F3
100
AcDbEntity
  8
TEXT
100
AcDbText
 10
2.515204
 20
7.09375
 30
0.0
 40
0.125
  1
O-.-.26
 41
0.8
 51
10.0
  7
ROMANS
100
AcDbText
  0
TEXT
  5
F4
100
AcDbEntity
  8
TEXT
100
AcDbText
 10
2.515204
 20
7.59375
 30
0.0
 40
0.125
  1
O-.-.25
 41
0.8
 51
10.0
  7
ROMANS
100
AcDbText
  0
TEXT
  5
F5
100
AcDbEntity
  8
TEXT
100
AcDbText
 10
2.515204
 20
4.09375
 30
0.0
 40
0.125
  1
O-.-.32
 41
0.8
 51
10.0
  7
ROMANS
100
AcDbText
  0
TEXT
  5
F6
100
AcDbEntity
  8
TEXT
100
AcDbText
 10
2.515204
 20
4.59375
 30
0.0
 40
0.125
  1
O-.-.31
 41
0.8
 51
10.0
  7
ROMANS
100
AcDbText
  0
LINE
  5
115
100
AcDbEntity
  8
0
100
AcDbLine
 10
8.968775
 20
13.5625
 30
0.0
 11
8.968775
 21
4.25
 31
0.0
  0
LINE
  5
243
100
AcDbEntity
  8
0
100
AcDbLine
 10
4.281275
 20
6.28125
 30
0.0
 11
4.281275
 21
6.03125
 31
0.0
  0
LINE
  5
4FF
100
AcDbEntity
  8
0
100
AcDbLine
 10
5.406275
 20
13.15625
 30
0.0
 11
8.968775
 21
13.15625
 31
0.0
  0
LINE
  5
500
100
AcDbEntity
  8
0
100
AcDbLine
 10
5.406275
 20
8.15625
 30
0.0
 11
8.968775
 21
8.15625
 31
0.0
  0
CIRCLE
  5
501
100
AcDbEntity
  8
0
100
AcDbCircle
 10
8.968775
 20
8.15625
 30
0.0
 40
0.0213
  0
LINE
  5
502
100
AcDbEntity
  8
0
100
AcDbLine
 10
8.968775
 20
8.15525
 30
0.0
 11
8.968775
 21
8.15725
 31
0.0
  0
LINE
  5
503
100
AcDbEntity
  8
0
100
AcDbLine
 10
8.969775
 20
8.15625
 30
0.0
 11
8.967775
 21
8.15625
 31
0.0
  0
CIRCLE
  5
504
100
AcDbEntity
  8
0
100
AcDbCircle
 10
8.968775
 20
8.15625
 30
0.0
 40
0.0113
  0
LINE
  5
505
100
AcDbEntity
  8
0
100
AcDbLine
 10
8.89065
 20
4.0
 30
0.0
 11
8.8594
 21
3.921875
 31
0.0
  0
LINE
  5
506
100
AcDbEntity
  8
0
100
AcDbLine
 10
8.968775
 20
4.0
 30
0.0
 11
8.937525
 21
3.921875
 31
0.0
  0
LINE
  5
507
100
AcDbEntity
  8
0
100
AcDbLine
 10
9.0469
 20
4.0
 30
0.0
 11
9.01565
 21
3.921875
 31
0.0
  0
LINE
  5
508
100
AcDbEntity
  8
0
100
AcDbLine
 10
8.968775
 20
4.0
 30
0.0
 11
9.0469
 21
4.0
 31
0.0
  0
LINE
  5
509
100
AcDbEntity
  8
0
100
AcDbLine
 10
8.968775
 20
4.0
 30
0.0
 11
8.89065
 21
4.0
 31
0.0
  0
LINE
  5
50A
100
AcDbEntity
  8
0
100
AcDbLine
 10
8.968775
 20
4.0625
 30
0.0
 11
8.968775
 21
4.0
 31
0.0
  0
CIRCLE
  5
51B
100
AcDbEntity
  8
0
100
AcDbCircle
 10
8.968775
 20
13.15625
 30
0.0
 40
0.0213
  0
LINE
  5
51C
100
AcDbEntity
  8
0
100
AcDbLine
 10
8.968775
 20
13.15525
 30
0.0
 11
8.968775
 21
13.15725
 31
0.0
  0
LINE
  5
51D
100
AcDbEntity
  8
0
100
AcDbLine
 10
8.969775
 20
13.15625
 30
0.0
 11
8.967775
 21
13.15625
 31
0.0
  0
CIRCLE
  5
51E
100
AcDbEntity
  8
0
100
AcDbCircle
 10
8.968775
 20
13.15625
 30
0.0
 40
0.0113
  0
LINE
  5
51F
100
AcDbEntity
  8
0
100
AcDbLine
 10
8.968775
 20
13.5625
 30
0.0
 11
8.968775
 21
4.25
 31
0.0
  0
LINE
  5
520
100
AcDbEntity
  8
0
100
AcDbLine
 10
9.531275
 20
13.65625
 30
0.0
 11
9.156275
 21
13.65625
 31
0.0
  0
LINE
  5
521
100
AcDbEntity
  8
0
100
AcDbLine
 10
9.45315
 20
13.59375
 30
0.0
 11
9.4219
 21
13.515625
 31
0.0
  0
LINE
  5
522
100
AcDbEntity
  8
0
100
AcDbLine
 10
9.531275
 20
13.59375
 30
0.0
 11
9.500025
 21
13.515625
 31
0.0
  0
LINE
  5
523
100
AcDbEntity
  8
0
100
AcDbLine
 10
9.6094
 20
13.59375
 30
0.0
 11
9.57815
 21
13.515625
 31
0.0
  0
LINE
  5
524
100
AcDbEntity
  8
0
100
AcDbLine
 10
9.531275
 20
13.59375
 30
0.0
 11
9.6094
 21
13.59375
 31
0.0
  0
LINE
  5
525
100
AcDbEntity
  8
0
100
AcDbLine
 10
9.531275
 20
13.59375
 30
0.0
 11
9.45315
 21
13.59375
 31
0.0
  0
LINE
  5
526
100
AcDbEntity
  8
0
100
AcDbLine
 10
9.531275
 20
13.65625
 30
0.0
 11
9.531275
 21
13.59375
 31
0.0
  0
TEXT
  5
532
100
AcDbEntity
  8
TEXT
100
AcDbText
 10
9.528125
 20
13.9545
 30
0.0
 40
0.05
  1
115 VAC Neutral
100
AcDbText
  0
LINE
  5
533
100
AcDbEntity
  8
0
100
AcDbLine
 10
9.492125
 20
14.0875
 30
0.0
 11
10.242125
 21
14.0875
 31
0.0
  0
LINE
  5
534
100
AcDbEntity
  8
0
100
AcDbLine
 10
9.492125
 20
13.8625
 30
0.0
 11
10.242125
 21
13.8625
 31
0.0
  0
LINE
  5
535
100
AcDbEntity
  8
0
100
AcDbLine
 10
9.154625
 20
13.75
 30
0.0
 11
9.203071
 21
13.834066
 31
0.0
  0
LINE
  5
536
100
AcDbEntity
  8
0
100
AcDbLine
 10
9.238497
 20
13.798781
 30
0.0
 11
9.154625
 21
13.75
 31
0.0
  0
LINE
  5
537
100
AcDbEntity
  8
0
100
AcDbLine
 10
9.379625
 20
13.975
 30
0.0
 11
9.220916
 21
13.816291
 31
0.0
  0
LINE
  5
538
100
AcDbEntity
  8
0
100
AcDbLine
 10
9.492125
 20
14.0875
 30
0.0
 11
9.492125
 21
13.8625
 31
0.0
  0
LINE
  5
539
100
AcDbEntity
  8
0
100
AcDbLine
 10
9.203071
 20
13.834066
 30
0.0
 11
9.238497
 21
13.798781
 31
0.0
  0
LINE
  5
53A
100
AcDbEntity
  8
0
100
AcDbLine
 10
9.492125
 20
13.975
 30
0.0
 11
9.379625
 21
13.975
 31
0.0
  0
LINE
  5
53B
100
AcDbEntity
  8
0
100
AcDbLine
 10
10.242125
 20
14.0875
 30
0.0
 11
10.242125
 21
13.8625
 31
0.0
  0
TEXT
  5
53C
100
AcDbEntity
  8
TEXT
100
AcDbText
 10
2.196176
 20
12.622348
 30
0.0
 40
0.1
  1
*
 41
0.8
  7
ROMANS
 72
     2
 11
2.2457
 21
12.622348
 31
0.0
100
AcDbText
  0
TEXT
  5
53D
100
AcDbEntity
  8
TEXT
100
AcDbText
 10
1.1257
 20
13.122348
 30
0.0
 40
0.1
  1
115 VAC (Neutral)
 41
0.8
  7
ROMANS
 72
     2
 11
2.2457
 21
13.122348
 31
0.0
100
AcDbText
  0
TEXT
  5
53E
100
AcDbEntity
  8
TEXT
100
AcDbText
 10
1.346652
 20
13.622348
 30
0.0
 40
0.1
  1
115 VAC (Hot)
 41
0.8
  7
ROMANS
 72
     2
 11
2.2457
 21
13.622348
 31
0.0
100
AcDbText
  0
TEXT
  5
53F
100
AcDbEntity
  8
TEXT
100
AcDbText
 10
1.1257
 20
8.122348
 30
0.0
 40
0.1
  1
115 VAC (Neutral)
 41
0.8
  7
ROMANS
 72
     2
 11
2.2457
 21
8.122348
 31
0.0
100
AcDbText
  0
TEXT
  5
540
100
AcDbEntity
  8
TEXT
100
AcDbText
 10
1.346652
 20
8.622348
 30
0.0
 40
0.1
  1
115 VAC (Hot)
 41
0.8
  7
ROMANS
 72
     2
 11
2.2457
 21
8.622348
 31
0.0
100
AcDbText
  0
CIRCLE
  5
548
100
AcDbEntity
  8
0
100
AcDbCircle
 10
8.968775
 20
13.15625
 30
0.0
 40
0.0213
  0
CIRCLE
  5
549
100
AcDbEntity
  8
0
100
AcDbCircle
 10
8.968775
 20
13.15625
 30
0.0
 40
0.0113
  0
LINE
  5
54A
100
AcDbEntity
  8
0
100
AcDbLine
 10
8.969775
 20
13.15625
 30
0.0
 11
8.967775
 21
13.15625
 31
0.0
  0
LINE
  5
54B
100
AcDbEntity
  8
0
100
AcDbLine
 10
8.968775
 20
13.15525
 30
0.0
 11
8.968775
 21
13.15725
 31
0.0
  0
TEXT
  5
55C
100
AcDbEntity
  8
0
100
AcDbText
 10
35.962292
 20
13.62774
 30
0.0
 40
0.075
  1

 72
     1
 11
35.962292
 21
13.62774
 31
0.0
100
AcDbText
  0
TEXT
  5
55D
100
AcDbEntity
  8
0
100
AcDbText
 10
35.962292
 20
13.12774
 30
0.0
 40
0.075
  1

 72
     1
 11
35.962292
 21
13.12774
 31
0.0
100
AcDbText
  0
TEXT
  5
55E
100
AcDbEntity
  8
0
100
AcDbText
 10
35.962292
 20
12.62774
 30
0.0
 40
0.1
  1

 72
     1
 11
35.962292
 21
12.62774
 31
0.0
100
AcDbText
  0
TEXT
  5
55F
100
AcDbEntity
  8
0
100
AcDbText
 10
35.774792
 20
6.62774
 30
0.0
 40
0.1
  1

100
AcDbText
  0
TEXT
  5
560
100
AcDbEntity
  8
0
100
AcDbText
 10
35.774792
 20
12.12774
 30
0.0
 40
0.1
  1

100
AcDbText
  0
TEXT
  5
561
100
AcDbEntity
  8
0
100
AcDbText
 10
34.33883
 20
13.62774
 30
0.0
 40
0.075
  1

 72
     1
 11
34.33883
 21
13.62774
 31
0.0
100
AcDbText
  0
TEXT
  5
562
100
AcDbEntity
  8
0
100
AcDbText
 10
34.33883
 20
13.12774
 30
0.0
 40
0.075
  1

 72
     1
 11
34.33883
 21
13.12774
 31
0.0
100
AcDbText
  0
TEXT
  5
563
100
AcDbEntity
  8
0
100
AcDbText
 10
34.33883
 20
12.62774
 30
0.0
 40
0.1
  1

 72
     1
 11
34.33883
 21
12.62774
 31
0.0
100
AcDbText
  0
TEXT
  5
564
100
AcDbEntity
  8
0
100
AcDbText
 10
34.15133
 20
6.62774
 30
0.0
 40
0.1
  1

100
AcDbText
  0
TEXT
  5
565
100
AcDbEntity
  8
0
100
AcDbText
 10
34.15133
 20
12.12774
 30
0.0
 40
0.1
  1

100
AcDbText
  0
TEXT
  5
566
100
AcDbEntity
  8
0
100
AcDbText
 10
34.47633
 20
8.62774
 30
0.0
 40
0.1
  1

 72
     1
 11
34.47633
 21
8.62774
 31
0.0
100
AcDbText
  0
TEXT
  5
567
100
AcDbEntity
  8
0
100
AcDbText
 10
25.873875
 20
26.472125
 30
0.0
 40
0.075
  1

 72
     1
 11
25.873875
 21
26.472125
 31
0.0
100
AcDbText
  0
TEXT
  5
568
100
AcDbEntity
  8
0
100
AcDbText
 10
25.873875
 20
25.972125
 30
0.0
 40
0.075
  1

 72
     1
 11
25.873875
 21
25.972125
 31
0.0
100
AcDbText
  0
TEXT
  5
569
100
AcDbEntity
  8
0
100
AcDbText
 10
25.873875
 20
25.472125
 30
0.0
 40
0.1
  1

 72
     1
 11
25.873875
 21
25.472125
 31
0.0
100
AcDbText
  0
TEXT
  5
56A
100
AcDbEntity
  8
0
100
AcDbText
 10
25.686375
 20
19.472125
 30
0.0
 40
0.1
  1

100
AcDbText
  0
TEXT
  5
56B
100
AcDbEntity
  8
0
100
AcDbText
 10
25.686375
 20
24.972125
 30
0.0
 40
0.1
  1

100
AcDbText
  0
TEXT
  5
56C
100
AcDbEntity
  8
0
100
AcDbText
 10
26.011375
 20
21.472125
 30
0.0
 40
0.1
  1

 72
     1
 11
26.011375
 21
21.472125
 31
0.0
100
AcDbText
  0
TEXT
  5
56D
100
AcDbEntity
  8
0
100
AcDbText
 10
35.514536
 20
13.618875
 30
0.0
 40
0.075
  1

 72
     1
 11
35.514536
 21
13.618875
 31
0.0
100
AcDbText
  0
TEXT
  5
56E
100
AcDbEntity
  8
0
100
AcDbText
 10
35.514536
 20
13.118875
 30
0.0
 40
0.075
  1

 72
     1
 11
35.514536
 21
13.118875
 31
0.0
100
AcDbText
  0
TEXT
  5
56F
100
AcDbEntity
  8
0
100
AcDbText
 10
35.514536
 20
12.618875
 30
0.0
 40
0.1
  1

 72
     1
 11
35.514536
 21
12.618875
 31
0.0
100
AcDbText
  0
TEXT
  5
570
100
AcDbEntity
  8
0
100
AcDbText
 10
35.327036
 20
6.618875
 30
0.0
 40
0.1
  1

100
AcDbText
  0
TEXT
  5
571
100
AcDbEntity
  8
0
100
AcDbText
 10
35.327036
 20
12.118875
 30
0.0
 40
0.1
  1

100
AcDbText
  0
TEXT
  5
572
100
AcDbEntity
  8
0
100
AcDbText
 10
35.652036
 20
8.618875
 30
0.0
 40
0.1
  1

 72
     1
 11
35.652036
 21
8.618875
 31
0.0
100
AcDbText
  0
TEXT
  5
574
100
AcDbEntity
  8
TEXT
100
AcDbText
 10
0.653151
 20
13.881375
 30
0.0
 40
0.1
  1
SOFTWARE:
 41
0.8
  7
ROMANS
100
AcDbText
  0
LINE
  5
575
100
AcDbEntity
  8
0
100
AcDbLine
 10
0.659525
 20
13.818967
 30
0.0
 11
1.280259
 21
13.818967
 31
0.0
  0
TEXT
  5
576
100
AcDbEntity
  8
TEXT
100
AcDbText
 10
1.653151
 20
13.881375
 30
0.0
 40
0.1
  1
NEMONIC:
 41
0.8
  7
ROMANS
100
AcDbText
  0
LINE
  5
577
100
AcDbEntity
  8
0
100
AcDbLine
 10
1.624623
 20
13.818967
 30
0.0
 11
2.245357
 21
13.818967
 31
0.0
  0
LINE
  5
578
100
AcDbEntity
  8
0
100
AcDbLine
 10
5.031275
 20
12.75
 30
0.0
 11
5.406275
 21
12.75
 31
0.0
  0
LINE
  5
579
100
AcDbEntity
  8
0
100
AcDbLine
 10
5.031275
 20
12.5625
 30
0.0
 11
5.406275
 21
12.5625
 31
0.0
  0
LINE
  5
57A
100
AcDbEntity
  8
0
100
AcDbLine
 10
5.031275
 20
12.75
 30
0.0
 11
5.031275
 21
12.5625
 31
0.0
  0
LINE
  5
57B
100
AcDbEntity
  8
0
100
AcDbLine
 10
5.406275
 20
12.75
 30
0.0
 11
5.406275
 21
12.5625
 31
0.0
  0
TEXT
  5
57C
100
AcDbEntity
  8
TEXT
100
AcDbText
 10
5.085442
 20
12.60625
 30
0.0
 40
0.1
  1
---
 72
     1
 11
5.218775
 21
12.60625
 31
0.0
100
AcDbText
  0
TEXT
  5
57E
100
AcDbEntity
  8
TEXT
100
AcDbText
 10
5.085442
 20
13.10625
 30
0.0
 40
0.1
  1
---
 72
     1
 11
5.218775
 21
13.10625
 31
0.0
100
AcDbText
  0
LINE
  5
57F
100
AcDbEntity
  8
0
100
AcDbLine
 10
5.031275
 20
13.0625
 30
0.0
 11
5.406275
 21
13.0625
 31
0.0
  0
LINE
  5
580
100
AcDbEntity
  8
0
100
AcDbLine
 10
5.031275
 20
13.25
 30
0.0
 11
5.406275
 21
13.25
 31
0.0
  0
LINE
  5
581
100
AcDbEntity
  8
0
100
AcDbLine
 10
5.031275
 20
13.25
 30
0.0
 11
5.031275
 21
13.0625
 31
0.0
  0
LINE
  5
582
100
AcDbEntity
  8
0
100
AcDbLine
 10
5.406275
 20
13.25
 30
0.0
 11
5.406275
 21
13.0625
 31
0.0
  0
TEXT
  5
583
100
AcDbEntity
  8
TEXT
100
AcDbText
 10
5.085442
 20
13.60625
 30
0.0
 40
0.1
  1
---
 72
     1
 11
5.218775
 21
13.60625
 31
0.0
100
AcDbText
  0
LINE
  5
584
100
AcDbEntity
  8
0
100
AcDbLine
 10
5.031275
 20
13.5625
 30
0.0
 11
5.406275
 21
13.5625
 31
0.0
  0
LINE
  5
585
100
AcDbEntity
  8
0
100
AcDbLine
 10
5.031275
 20
13.75
 30
0.0
 11
5.406275
 21
13.75
 31
0.0
  0
LINE
  5
586
100
AcDbEntity
  8
0
100
AcDbLine
 10
5.031275
 20
13.75
 30
0.0
 11
5.031275
 21
13.5625
 31
0.0
  0
LINE
  5
587
100
AcDbEntity
  8
0
100
AcDbLine
 10
5.406275
 20
13.75
 30
0.0
 11
5.406275
 21
13.5625
 31
0.0
  0
TEXT
  5
588
100
AcDbEntity
  8
TEXT
100
AcDbText
 10
5.085442
 20
11.10625
 30
0.0
 40
0.1
  1
---
 72
     1
 11
5.218775
 21
11.10625
 31
0.0
100
AcDbText
  0
LINE
  5
589
100
AcDbEntity
  8
0
100
AcDbLine
 10
5.031275
 20
11.0625
 30
0.0
 11
5.406275
 21
11.0625
 31
0.0
  0
LINE
  5
58A
100
AcDbEntity
  8
0
100
AcDbLine
 10
5.031275
 20
11.25
 30
0.0
 11
5.406275
 21
11.25
 31
0.0
  0
LINE
  5
58B
100
AcDbEntity
  8
0
100
AcDbLine
 10
5.031275
 20
11.25
 30
0.0
 11
5.031275
 21
11.0625
 31
0.0
  0
LINE
  5
58C
100
AcDbEntity
  8
0
100
AcDbLine
 10
5.406275
 20
11.25
 30
0.0
 11
5.406275
 21
11.0625
 31
0.0
  0
LINE
  5
58D
100
AcDbEntity
  8
0
100
AcDbLine
 10
5.031275
 20
11.75
 30
0.0
 11
5.406275
 21
11.75
 31
0.0
  0
LINE
  5
58E
100
AcDbEntity
  8
0
100
AcDbLine
 10
5.031275
 20
11.5625
 30
0.0
 11
5.406275
 21
11.5625
 31
0.0
  0
TEXT
  5
58F
100
AcDbEntity
  8
TEXT
100
AcDbText
 10
5.085442
 20
11.60625
 30
0.0
 40
0.1
  1
---
 72
     1
 11
5.218775
 21
11.60625
 31
0.0
100
AcDbText
  0
LINE
  5
590
100
AcDbEntity
  8
0
100
AcDbLine
 10
5.031275
 20
11.75
 30
0.0
 11
5.031275
 21
11.5625
 31
0.0
  0
LINE
  5
591
100
AcDbEntity
  8
0
100
AcDbLine
 10
5.406275
 20
11.75
 30
0.0
 11
5.406275
 21
11.5625
 31
0.0
  0
LINE
  5
592
100
AcDbEntity
  8
0
100
AcDbLine
 10
5.031275
 20
12.25
 30
0.0
 11
5.406275
 21
12.25
 31
0.0
  0
LINE
  5
593
100
AcDbEntity
  8
0
100
AcDbLine
 10
5.031275
 20
12.0625
 30
0.0
 11
5.406275
 21
12.0625
 31
0.0
  0
TEXT
  5
594
100
AcDbEntity
  8
TEXT
100
AcDbText
 10
5.085442
 20
12.10625
 30
0.0
 40
0.1
  1
---
 72
     1
 11
5.218775
 21
12.10625
 31
0.0
100
AcDbText
  0
LINE
  5
595
100
AcDbEntity
  8
0
100
AcDbLine
 10
5.031275
 20
12.25
 30
0.0
 11
5.031275
 21
12.0625
 31
0.0
  0
LINE
  5
596
100
AcDbEntity
  8
0
100
AcDbLine
 10
5.406275
 20
12.25
 30
0.0
 11
5.406275
 21
12.0625
 31
0.0
  0
TEXT
  5
597
100
AcDbEntity
  8
TEXT
100
AcDbText
 10
5.085442
 20
9.60625
 30
0.0
 40
0.1
  1
---
 72
     1
 11
5.218775
 21
9.60625
 31
0.0
100
AcDbText
  0
LINE
  5
598
100
AcDbEntity
  8
0
100
AcDbLine
 10
5.031275
 20
9.5625
 30
0.0
 11
5.406275
 21
9.5625
 31
0.0
  0
LINE
  5
599
100
AcDbEntity
  8
0
100
AcDbLine
 10
5.031275
 20
9.75
 30
0.0
 11
5.406275
 21
9.75
 31
0.0
  0
LINE
  5
59A
100
AcDbEntity
  8
0
100
AcDbLine
 10
5.031275
 20
9.75
 30
0.0
 11
5.031275
 21
9.5625
 31
0.0
  0
LINE
  5
59B
100
AcDbEntity
  8
0
100
AcDbLine
 10
5.406275
 20
9.75
 30
0.0
 11
5.406275
 21
9.5625
 31
0.0
  0
LINE
  5
59C
100
AcDbEntity
  8
0
100
AcDbLine
 10
5.031275
 20
10.25
 30
0.0
 11
5.406275
 21
10.25
 31
0.0
  0
LINE
  5
59D
100
AcDbEntity
  8
0
100
AcDbLine
 10
5.031275
 20
10.0625
 30
0.0
 11
5.406275
 21
10.0625
 31
0.0
  0
TEXT
  5
59E
100
AcDbEntity
  8
TEXT
100
AcDbText
 10
5.085442
 20
10.10625
 30
0.0
 40
0.1
  1
---
 72
     1
 11
5.218775
 21
10.10625
 31
0.0
100
AcDbText
  0
LINE
  5
59F
100
AcDbEntity
  8
0
100
AcDbLine
 10
5.031275
 20
10.25
 30
0.0
 11
5.031275
 21
10.0625
 31
0.0
  0
LINE
  5
5A0
100
AcDbEntity
  8
0
100
AcDbLine
 10
5.406275
 20
10.25
 30
0.0
 11
5.406275
 21
10.0625
 31
0.0
  0
LINE
  5
5A1
100
AcDbEntity
  8
0
100
AcDbLine
 10
5.031275
 20
10.75
 30
0.0
 11
5.406275
 21
10.75
 31
0.0
  0
LINE
  5
5A2
100
AcDbEntity
  8
0
100
AcDbLine
 10
5.031275
 20
10.5625
 30
0.0
 11
5.406275
 21
10.5625
 31
0.0
  0
TEXT
  5
5A3
100
AcDbEntity
  8
TEXT
100
AcDbText
 10
5.085442
 20
10.60625
 30
0.0
 40
0.1
  1
---
 72
     1
 11
5.218775
 21
10.60625
 31
0.0
100
AcDbText
  0
LINE
  5
5A4
100
AcDbEntity
  8
0
100
AcDbLine
 10
5.031275
 20
10.75
 30
0.0
 11
5.031275
 21
10.5625
 31
0.0
  0
LINE
  5
5A5
100
AcDbEntity
  8
0
100
AcDbLine
 10
5.406275
 20
10.75
 30
0.0
 11
5.406275
 21
10.5625
 31
0.0
  0
LINE
  5
5A6
100
AcDbEntity
  8
0
100
AcDbLine
 10
5.406275
 20
5.25
 30
0.0
 11
5.406275
 21
5.0625
 31
0.0
  0
LINE
  5
5A7
100
AcDbEntity
  8
0
100
AcDbLine
 10
5.031275
 20
5.25
 30
0.0
 11
5.031275
 21
5.0625
 31
0.0
  0
LINE
  5
5A8
100
AcDbEntity
  8
0
100
AcDbLine
 10
5.031275
 20
5.0625
 30
0.0
 11
5.406275
 21
5.0625
 31
0.0
  0
TEXT
  5
5A9
100
AcDbEntity
  8
TEXT
100
AcDbText
 10
5.085442
 20
5.10625
 30
0.0
 40
0.1
  1
---
 72
     1
 11
5.218775
 21
5.10625
 31
0.0
100
AcDbText
  0
TEXT
  5
5AA
100
AcDbEntity
  8
TEXT
100
AcDbText
 10
5.085442
 20
5.60625
 30
0.0
 40
0.1
  1
---
 72
     1
 11
5.218775
 21
5.60625
 31
0.0
100
AcDbText
  0
LINE
  5
5AB
100
AcDbEntity
  8
0
100
AcDbLine
 10
5.031275
 20
5.5625
 30
0.0
 11
5.406275
 21
5.5625
 31
0.0
  0
LINE
  5
5AC
100
AcDbEntity
  8
0
100
AcDbLine
 10
5.031275
 20
5.75
 30
0.0
 11
5.406275
 21
5.75
 31
0.0
  0
LINE
  5
5AD
100
AcDbEntity
  8
0
100
AcDbLine
 10
5.031275
 20
5.25
 30
0.0
 11
5.406275
 21
5.25
 31
0.0
  0
LINE
  5
5AE
100
AcDbEntity
  8
0
100
AcDbLine
 10
5.031275
 20
5.75
 30
0.0
 11
5.031275
 21
5.5625
 31
0.0
  0
LINE
  5
5AF
100
AcDbEntity
  8
0
100
AcDbLine
 10
5.406275
 20
5.75
 30
0.0
 11
5.406275
 21
5.5625
 31
0.0
  0
LINE
  5
5B0
100
AcDbEntity
  8
0
100
AcDbLine
 10
5.406275
 20
7.25
 30
0.0
 11
5.406275
 21
7.0625
 31
0.0
  0
LINE
  5
5B1
100
AcDbEntity
  8
0
100
AcDbLine
 10
5.031275
 20
7.25
 30
0.0
 11
5.031275
 21
7.0625
 31
0.0
  0
TEXT
  5
5B2
100
AcDbEntity
  8
TEXT
100
AcDbText
 10
5.085442
 20
6.10625
 30
0.0
 40
0.1
  1
---
 72
     1
 11
5.218775
 21
6.10625
 31
0.0
100
AcDbText
  0
LINE
  5
5B3
100
AcDbEntity
  8
0
100
AcDbLine
 10
5.031275
 20
6.0625
 30
0.0
 11
5.406275
 21
6.0625
 31
0.0
  0
LINE
  5
5B4
100
AcDbEntity
  8
0
100
AcDbLine
 10
5.031275
 20
6.25
 30
0.0
 11
5.406275
 21
6.25
 31
0.0
  0
LINE
  5
5B5
100
AcDbEntity
  8
0
100
AcDbLine
 10
5.031275
 20
6.25
 30
0.0
 11
5.031275
 21
6.0625
 31
0.0
  0
LINE
  5
5B6
100
AcDbEntity
  8
0
100
AcDbLine
 10
5.406275
 20
6.25
 30
0.0
 11
5.406275
 21
6.0625
 31
0.0
  0
TEXT
  5
5B7
100
AcDbEntity
  8
TEXT
100
AcDbText
 10
5.085442
 20
7.10625
 30
0.0
 40
0.1
  1
---
 72
     1
 11
5.218775
 21
7.10625
 31
0.0
100
AcDbText
  0
LINE
  5
5B8
100
AcDbEntity
  8
0
100
AcDbLine
 10
5.031275
 20
7.0625
 30
0.0
 11
5.406275
 21
7.0625
 31
0.0
  0
LINE
  5
5B9
100
AcDbEntity
  8
0
100
AcDbLine
 10
5.031275
 20
6.75
 30
0.0
 11
5.406275
 21
6.75
 31
0.0
  0
LINE
  5
5BA
100
AcDbEntity
  8
0
100
AcDbLine
 10
5.031275
 20
6.5625
 30
0.0
 11
5.406275
 21
6.5625
 31
0.0
  0
TEXT
  5
5BB
100
AcDbEntity
  8
TEXT
100
AcDbText
 10
5.085442
 20
6.60625
 30
0.0
 40
0.1
  1
---
 72
     1
 11
5.218775
 21
6.60625
 31
0.0
100
AcDbText
  0
LINE
  5
5BC
100
AcDbEntity
  8
0
100
AcDbLine
 10
5.031275
 20
6.75
 30
0.0
 11
5.031275
 21
6.5625
 31
0.0
  0
LINE
  5
5BD
100
AcDbEntity
  8
0
100
AcDbLine
 10
5.406275
 20
6.75
 30
0.0
 11
5.406275
 21
6.5625
 31
0.0
  0
LINE
  5
5BE
100
AcDbEntity
  8
0
100
AcDbLine
 10
5.406275
 20
7.75
 30
0.0
 11
5.406275
 21
7.5625
 31
0.0
  0
LINE
  5
5BF
100
AcDbEntity
  8
0
100
AcDbLine
 10
5.031275
 20
7.75
 30
0.0
 11
5.031275
 21
7.5625
 31
0.0
  0
TEXT
  5
5C0
100
AcDbEntity
  8
TEXT
100
AcDbText
 10
5.085442
 20
7.60625
 30
0.0
 40
0.1
  1
---
 72
     1
 11
5.218775
 21
7.60625
 31
0.0
100
AcDbText
  0
LINE
  5
5C1
100
AcDbEntity
  8
0
100
AcDbLine
 10
5.031275
 20
7.5625
 30
0.0
 11
5.406275
 21
7.5625
 31
0.0
  0
LINE
  5
5C2
100
AcDbEntity
  8
0
100
AcDbLine
 10
5.031275
 20
7.25
 30
0.0
 11
5.406275
 21
7.25
 31
0.0
  0
LINE
  5
5C3
100
AcDbEntity
  8
0
100
AcDbLine
 10
5.031275
 20
7.75
 30
0.0
 11
5.406275
 21
7.75
 31
0.0
  0
TEXT
  5
5C4
100
AcDbEntity
  8
TEXT
100
AcDbText
 10
5.085442
 20
8.10625
 30
0.0
 40
0.1
  1
---
 72
     1
 11
5.218775
 21
8.10625
 31
0.0
100
AcDbText
  0
LINE
  5
5C5
100
AcDbEntity
  8
0
100
AcDbLine
 10
5.031275
 20
8.0625
 30
0.0
 11
5.406275
 21
8.0625
 31
0.0
  0
LINE
  5
5C6
100
AcDbEntity
  8
0
100
AcDbLine
 10
5.031275
 20
8.25
 30
0.0
 11
5.406275
 21
8.25
 31
0.0
  0
LINE
  5
5C7
100
AcDbEntity
  8
0
100
AcDbLine
 10
5.031275
 20
8.25
 30
0.0
 11
5.031275
 21
8.0625
 31
0.0
  0
LINE
  5
5C8
100
AcDbEntity
  8
0
100
AcDbLine
 10
5.406275
 20
8.25
 30
0.0
 11
5.406275
 21
8.0625
 31
0.0
  0
LINE
  5
5C9
100
AcDbEntity
  8
0
100
AcDbLine
 10
5.031275
 20
8.75
 30
0.0
 11
5.406275
 21
8.75
 31
0.0
  0
LINE
  5
5CA
100
AcDbEntity
  8
0
100
AcDbLine
 10
5.031275
 20
8.5625
 30
0.0
 11
5.406275
 21
8.5625
 31
0.0
  0
TEXT
  5
5CB
100
AcDbEntity
  8
TEXT
100
AcDbText
 10
5.085442
 20
8.60625
 30
0.0
 40
0.1
  1
---
 72
     1
 11
5.218775
 21
8.60625
 31
0.0
100
AcDbText
  0
LINE
  5
5CC
100
AcDbEntity
  8
0
100
AcDbLine
 10
5.031275
 20
8.75
 30
0.0
 11
5.031275
 21
8.5625
 31
0.0
  0
LINE
  5
5CD
100
AcDbEntity
  8
0
100
AcDbLine
 10
5.406275
 20
8.75
 30
0.0
 11
5.406275
 21
8.5625
 31
0.0
  0
LINE
  5
5CE
100
AcDbEntity
  8
0
100
AcDbLine
 10
5.031275
 20
9.25
 30
0.0
 11
5.406275
 21
9.25
 31
0.0
  0
LINE
  5
5CF
100
AcDbEntity
  8
0
100
AcDbLine
 10
5.031275
 20
9.0625
 30
0.0
 11
5.406275
 21
9.0625
 31
0.0
  0
TEXT
  5
5D0
100
AcDbEntity
  8
TEXT
100
AcDbText
 10
5.085442
 20
9.10625
 30
0.0
 40
0.1
  1
---
 72
     1
 11
5.218775
 21
9.10625
 31
0.0
100
AcDbText
  0
LINE
  5
5D1
100
AcDbEntity
  8
0
100
AcDbLine
 10
5.031275
 20
9.25
 30
0.0
 11
5.031275
 21
9.0625
 31
0.0
  0
LINE
  5
5D2
100
AcDbEntity
  8
0
100
AcDbLine
 10
5.406275
 20
9.25
 30
0.0
 11
5.406275
 21
9.0625
 31
0.0
  0
LINE
  5
5D3
100
AcDbEntity
  8
0
100
AcDbLine
 10
5.031275
 20
4.25
 30
0.0
 11
5.406275
 21
4.25
 31
0.0
  0
TEXT
  5
5D4
100
AcDbEntity
  8
TEXT
100
AcDbText
 10
5.085442
 20
4.10625
 30
0.0
 40
0.1
  1
---
 72
     1
 11
5.218775
 21
4.10625
 31
0.0
100
AcDbText
  0
LINE
  5
5D5
100
AcDbEntity
  8
0
100
AcDbLine
 10
5.031275
 20
4.0625
 30
0.0
 11
5.406275
 21
4.0625
 31
0.0
  0
LINE
  5
5D6
100
AcDbEntity
  8
0
100
AcDbLine
 10
5.031275
 20
4.25
 30
0.0
 11
5.031275
 21
4.0625
 31
0.0
  0
LINE
  5
5D7
100
AcDbEntity
  8
0
100
AcDbLine
 10
5.406275
 20
4.25
 30
0.0
 11
5.406275
 21
4.0625
 31
0.0
  0
LINE
  5
5D8
100
AcDbEntity
  8
0
100
AcDbLine
 10
5.031275
 20
4.75
 30
0.0
 11
5.406275
 21
4.75
 31
0.0
  0
LINE
  5
5D9
100
AcDbEntity
  8
0
100
AcDbLine
 10
5.031275
 20
4.5625
 30
0.0
 11
5.406275
 21
4.5625
 31
0.0
  0
TEXT
  5
5DA
100
AcDbEntity
  8
TEXT
100
AcDbText
 10
5.085442
 20
4.60625
 30
0.0
 40
0.1
  1
---
 72
     1
 11
5.218775
 21
4.60625
 31
0.0
100
AcDbText
  0
LINE
  5
5DB
100
AcDbEntity
  8
0
100
AcDbLine
 10
5.031275
 20
4.75
 30
0.0
 11
5.031275
 21
4.5625
 31
0.0
  0
LINE
  5
5DC
100
AcDbEntity
  8
0
100
AcDbLine
 10
5.406275
 20
4.75
 30
0.0
 11
5.406275
 21
4.5625
 31
0.0
  0
LINE
  5
5EE
100
AcDbEntity
  8
0
100
AcDbLine
 10
8.781275
 20
13.75
 30
0.0
 11
9.156275
 21
13.75
 31
0.0
  0
LINE
  5
5EF
100
AcDbEntity
  8
0
100
AcDbLine
 10
8.781275
 20
13.5625
 30
0.0
 11
9.156275
 21
13.5625
 31
0.0
  0
LINE
  5
5F0
100
AcDbEntity
  8
0
100
AcDbLine
 10
8.781275
 20
13.75
 30
0.0
 11
8.781275
 21
13.5625
 31
0.0
  0
LINE
  5
5F1
100
AcDbEntity
  8
0
100
AcDbLine
 10
9.156275
 20
13.75
 30
0.0
 11
9.156275
 21
13.5625
 31
0.0
  0
TEXT
  5
5F2
100
AcDbEntity
  8
TEXT
100
AcDbText
 10
8.835442
 20
13.60625
 30
0.0
 40
0.1
  1
---
 72
     1
 11
8.968775
 21
13.60625
 31
0.0
100
AcDbText
  0
LINE
  5
62F
100
AcDbEntity
  8
0
100
AcDbLine
 10
8.781275
 20
4.25
 30
0.0
 11
9.156275
 21
4.25
 31
0.0
  0
LINE
  5
630
100
AcDbEntity
  8
0
100
AcDbLine
 10
8.781275
 20
4.0625
 30
0.0
 11
9.156275
 21
4.0625
 31
0.0
  0
LINE
  5
631
100
AcDbEntity
  8
0
100
AcDbLine
 10
8.781275
 20
4.25
 30
0.0
 11
8.781275
 21
4.0625
 31
0.0
  0
LINE
  5
632
100
AcDbEntity
  8
0
100
AcDbLine
 10
9.156275
 20
4.25
 30
0.0
 11
9.156275
 21
4.0625
 31
0.0
  0
TEXT
  5
633
100
AcDbEntity
  8
TEXT
100
AcDbText
 10
8.835442
 20
4.10625
 30
0.0
 40
0.1
  1
---
 72
     1
 11
8.968775
 21
4.10625
 31
0.0
100
AcDbText
  0
LINE
  5
63B
100
AcDbEntity
  8
0
100
AcDbLine
 10
4.281275
 20
12.15625
 30
0.0
 11
5.031275
 21
12.15625
 31
0.0
  0
LINE
  5
63C
100
AcDbEntity
  8
0
100
AcDbLine
 10
5.031275
 20
12.65625
 30
0.0
 11
4.281275
 21
12.65625
 31
0.0
  0
LINE
  5
63D
100
AcDbEntity
  8
0
100
AcDbLine
 10
4.281275
 20
11.15625
 30
0.0
 11
5.031275
 21
11.15625
 31
0.0
  0
LINE
  5
63E
100
AcDbEntity
  8
0
100
AcDbLine
 10
5.031275
 20
11.65625
 30
0.0
 11
4.281275
 21
11.65625
 31
0.0
  0
LINE
  5
63F
100
AcDbEntity
  8
0
100
AcDbLine
 10
4.281275
 20
10.15625
 30
0.0
 11
5.031275
 21
10.15625
 31
0.0
  0
LINE
  5
640
100
AcDbEntity
  8
0
100
AcDbLine
 10
5.031275
 20
10.65625
 30
0.0
 11
4.281275
 21
10.65625
 31
0.0
  0
LINE
  5
641
100
AcDbEntity
  8
0
100
AcDbLine
 10
4.281275
 20
9.15625
 30
0.0
 11
5.031275
 21
9.15625
 31
0.0
  0
LINE
  5
642
100
AcDbEntity
  8
0
100
AcDbLine
 10
5.031275
 20
9.65625
 30
0.0
 11
4.281275
 21
9.65625
 31
0.0
  0
LINE
  5
643
100
AcDbEntity
  8
0
100
AcDbLine
 10
4.281275
 20
5.15625
 30
0.0
 11
5.031275
 21
5.15625
 31
0.0
  0
LINE
  5
644
100
AcDbEntity
  8
0
100
AcDbLine
 10
4.281275
 20
4.65625
 30
0.0
 11
5.031275
 21
4.65625
 31
0.0
  0
LINE
  5
645
100
AcDbEntity
  8
0
100
AcDbLine
 10
4.281275
 20
5.65625
 30
0.0
 11
5.031275
 21
5.65625
 31
0.0
  0
LINE
  5
646
100
AcDbEntity
  8
0
100
AcDbLine
 10
5.031275
 20
6.15625
 30
0.0
 11
4.281275
 21
6.15625
 31
0.0
  0
LINE
  5
647
100
AcDbEntity
  8
0
100
AcDbLine
 10
4.281275
 20
6.65625
 30
0.0
 11
5.031275
 21
6.65625
 31
0.0
  0
LINE
  5
648
100
AcDbEntity
  8
0
100
AcDbLine
 10
5.031275
 20
7.15625
 30
0.0
 11
4.281275
 21
7.15625
 31
0.0
  0
LINE
  5
649
100
AcDbEntity
  8
0
100
AcDbLine
 10
4.281275
 20
7.65625
 30
0.0
 11
5.031275
 21
7.65625
 31
0.0
  0
LINE
  5
64A
100
AcDbEntity
  8
0
100
AcDbLine
 10
4.281275
 20
4.15625
 30
0.0
 11
5.031275
 21
4.15625
 31
0.0
  0
TEXT
  5
BBD
100
AcDbEntity
  8
0
100
AcDbText
 10
18.62765
 20
12.944875
 30
0.0
 40
0.075
  1

 41
0.8
 51
10.0
  7
ROMANS
100
AcDbText
  0
TEXT
  5
BDA
100
AcDbEntity
  8
0
100
AcDbText
 10
20.3324
 20
13.06575
 30
0.0
 40
0.1
  1

 41
0.8
 51
10.0
  7
ROMANS
100
AcDbText
  0
TEXT
  5
BDB
100
AcDbEntity
  8
0
100
AcDbText
 10
20.3324
 20
2.56575
 30
0.0
 40
0.1
  1

 41
0.8
 51
10.0
  7
ROMANS
100
AcDbText
  0
TEXT
  5
BDC
100
AcDbEntity
  8
0
100
AcDbText
 10
20.3324
 20
11.42975
 30
0.0
 40
0.1
  1

 41
0.8
 51
10.0
  7
ROMANS
100
AcDbText
  0
TEXT
  5
BEA
100
AcDbEntity
  8
0
100
AcDbText
 10
20.3324
 20
10.71575
 30
0.0
 40
0.1
  1

 41
0.8
 51
10.0
  7
ROMANS
100
AcDbText
  0
TEXT
  5
BEB
100
AcDbEntity
  8
0
100
AcDbText
 10
20.3324
 20
11.21575
 30
0.0
 40
0.1
  1

 41
0.8
 51
10.0
  7
ROMANS
100
AcDbText
  0
TEXT
  5
BEF
100
AcDbEntity
  8
0
100
AcDbText
 10
18.757407
 20
9.41575
 30
0.0
 40
0.1
  1

100
AcDbText
  0
TEXT
  5
C0E
100
AcDbEntity
  8
0
100
AcDbText
 10
18.62765
 20
5.944875
 30
0.0
 40
0.075
  1

 41
0.8
 51
10.0
  7
ROMANS
100
AcDbText
  0
TEXT
  5
DED
100
AcDbEntity
  8
TEXT
100
AcDbText
 10
2.196176
 20
12.122348
 30
0.0
 40
0.1
  1
*
 41
0.8
  7
ROMANS
 72
     2
 11
2.2457
 21
12.122348
 31
0.0
100
AcDbText
  0
TEXT
  5
DEE
100
AcDbEntity
  8
TEXT
100
AcDbText
 10
0.653151
 20
12.631375
 30
0.0
 40
0.1
  1
*
 41
0.8
  7
ROMANS
100
AcDbText
  0
TEXT
  5
109F
100
AcDbEntity
  8
TEXT
100
AcDbText
 10
0.653151
 20
4.131375
 30
0.0
 40
0.1
  1
*
 41
0.8
  7
ROMANS
100
AcDbText
  0
TEXT
  5
10A0
100
AcDbEntity
  8
TEXT
100
AcDbText
 10
2.196176
 20
4.122348
 30
0.0
 40
0.1
  1
*
 41
0.8
  7
ROMANS
 72
     2
 11
2.2457
 21
4.122348
 31
0.0
100
AcDbText
  0
TEXT
  5
10E6
100
AcDbEntity
  8
TEXT
100
AcDbText
 10
3.200025
 20
15.0085
 30
0.0
 40
0.125
  1
 
 41
0.8
 51
10.0
  7
ROMANS
 72
     1
 11
3.250025
 21
15.0085
 31
0.0
100
AcDbText
  0
TEXT
  5
10E9
100
AcDbEntity
  8
TEXT
100
AcDbText
 10
9.1914
 20
4.10625
 30
0.0
 40
0.1
  1
*
 41
0.8
 51
10.0
  7
ROMANS
100
AcDbText
  0
TEXT
  5
10F8
100
AcDbEntity
  8
TEXT
100
AcDbText
 10
9.1914
 20
3.96025
 30
0.0
 40
0.1
  1
 
 41
0.8
 51
10.0
  7
ROMANS
100
AcDbText
  0
TEXT
  5
1131
100
AcDbEntity
  8
0
100
AcDbText
 10
9.984375
 20
8.1875
 30
0.0
 40
0.1
  1

 72
     1
 11
9.984375
 21
8.1875
 31
0.0
100
AcDbText
  0
TEXT
  5
1132
100
AcDbEntity
  8
0
100
AcDbText
 10
16.133413
 20
5.047875
 30
0.0
 40
0.075
  1

100
AcDbText
  0
TEXT
  5
1133
100
AcDbEntity
  8
0
100
AcDbText
 10
15.785706
 20
5.047875
 30
0.0
 40
0.075
  1

100
AcDbText
  0
TEXT
  5
1134
100
AcDbEntity
  8
0
100
AcDbText
 10
15.69458
 20
14.57881
 30
0.0
 40
0.1
  1

 72
     1
 11
15.69458
 21
14.57881
 31
0.0
100
AcDbText
  0
TEXT
  5
1135
100
AcDbEntity
  8
0
100
AcDbText
 10
21.843618
 20
11.439185
 30
0.0
 40
0.075
  1

100
AcDbText
  0
TEXT
  5
1136
100
AcDbEntity
  8
0
100
AcDbText
 10
21.495911
 20
11.439185
 30
0.0
 40
0.075
  1

100
AcDbText
  0
TEXT
  5
1137
100
AcDbEntity
  8
0
100
AcDbText
 10
21.572875
 20
8.220875
 30
0.0
 40
0.1
  1

 72
     1
 11
21.572875
 21
8.220875
 31
0.0
100
AcDbText
  0
TEXT
  5
1138
100
AcDbEntity
  8
0
100
AcDbText
 10
27.721913
 20
5.08125
 30
0.0
 40
0.075
  1

100
AcDbText
  0
TEXT
  5
1139
100
AcDbEntity
  8
0
100
AcDbText
 10
27.374206
 20
5.08125
 30
0.0
 40
0.075
  1

100
AcDbText
  0
TEXT
  5
113A
100
AcDbEntity
  8
0
100
AcDbText
 10
27.28308
 20
14.612185
 30
0.0
 40
0.1
  1

 72
     1
 11
27.28308
 21
14.612185
 31
0.0
100
AcDbText
  0
TEXT
  5
113B
100
AcDbEntity
  8
0
100
AcDbText
 10
33.432118
 20
11.47256
 30
0.0
 40
0.075
  1

100
AcDbText
  0
TEXT
  5
113C
100
AcDbEntity
  8
0
100
AcDbText
 10
33.084411
 20
11.47256
 30
0.0
 40
0.075
  1

100
AcDbText
  0
TEXT
  5
119D
100
AcDbEntity
  8
TEXT
100
AcDbText
 10
0.653151
 20
12.131375
 30
0.0
 40
0.1
  1
*
 41
0.8
  7
ROMANS
100
AcDbText
  0
TEXT
  5
119E
100
AcDbEntity
  8
TEXT
100
AcDbText
 10
0.653151
 20
11.131375
 30
0.0
 40
0.1
  1
*
 41
0.8
  7
ROMANS
100
AcDbText
  0
TEXT
  5
119F
100
AcDbEntity
  8
TEXT
100
AcDbText
 10
2.196176
 20
11.122348
 30
0.0
 40
0.1
  1
*
 41
0.8
  7
ROMANS
 72
     2
 11
2.2457
 21
11.122348
 31
0.0
100
AcDbText
  0
TEXT
  5
11A0
100
AcDbEntity
  8
TEXT
100
AcDbText
 10
2.196176
 20
11.622348
 30
0.0
 40
0.1
  1
*
 41
0.8
  7
ROMANS
 72
     2
 11
2.2457
 21
11.622348
 31
0.0
100
AcDbText
  0
TEXT
  5
11A3
100
AcDbEntity
  8
TEXT
100
AcDbText
 10
0.653151
 20
10.631375
 30
0.0
 40
0.1
  1
*
 41
0.8
  7
ROMANS
100
AcDbText
  0
TEXT
  5
11A4
100
AcDbEntity
  8
TEXT
100
AcDbText
 10
0.653151
 20
10.131375
 30
0.0
 40
0.1
  1
*
 41
0.8
  7
ROMANS
100
AcDbText
  0
TEXT
  5
11A5
100
AcDbEntity
  8
TEXT
100
AcDbText
 10
2.196176
 20
10.122348
 30
0.0
 40
0.1
  1
*
 41
0.8
  7
ROMANS
 72
     2
 11
2.2457
 21
10.122348
 31
0.0
100
AcDbText
  0
TEXT
  5
11A6
100
AcDbEntity
  8
TEXT
100
AcDbText
 10
2.196176
 20
10.622348
 30
0.0
 40
0.1
  1
*
 41
0.8
  7
ROMANS
 72
     2
 11
2.2457
 21
10.622348
 31
0.0
100
AcDbText
  0
TEXT
  5
11A9
100
AcDbEntity
  8
TEXT
100
AcDbText
 10
0.653151
 20
9.631375
 30
0.0
 40
0.1
  1
*
 41
0.8
  7
ROMANS
100
AcDbText
  0
TEXT
  5
11AA
100
AcDbEntity
  8
TEXT
100
AcDbText
 10
0.653151
 20
9.131375
 30
0.0
 40
0.1
  1
*
 41
0.8
  7
ROMANS
100
AcDbText
  0
TEXT
  5
11AB
100
AcDbEntity
  8
TEXT
100
AcDbText
 10
2.196176
 20
9.122348
 30
0.0
 40
0.1
  1
*
 41
0.8
  7
ROMANS
 72
     2
 11
2.2457
 21
9.122348
 31
0.0
100
AcDbText
  0
TEXT
  5
11AC
100
AcDbEntity
  8
TEXT
100
AcDbText
 10
2.196176
 20
9.622348
 30
0.0
 40
0.1
  1
*
 41
0.8
  7
ROMANS
 72
     2
 11
2.2457
 21
9.622348
 31
0.0
100
AcDbText
  0
TEXT
  5
11B6
100
AcDbEntity
  8
TEXT
100
AcDbText
 10
2.196176
 20
7.622348
 30
0.0
 40
0.1
  1
*
 41
0.8
  7
ROMANS
 72
     2
 11
2.2457
 21
7.622348
 31
0.0
100
AcDbText
  0
TEXT
  5
11B7
100
AcDbEntity
  8
TEXT
100
AcDbText
 10
0.653151
 20
4.631375
 30
0.0
 40
0.1
  1
*
 41
0.8
  7
ROMANS
100
AcDbText
  0
TEXT
  5
11B8
100
AcDbEntity
  8
TEXT
100
AcDbText
 10
0.653151
 20
5.131375
 30
0.0
 40
0.1
  1
*
 41
0.8
  7
ROMANS
100
AcDbText
  0
TEXT
  5
11B9
100
AcDbEntity
  8
TEXT
100
AcDbText
 10
0.653151
 20
5.631375
 30
0.0
 40
0.1
  1
*
 41
0.8
  7
ROMANS
100
AcDbText
  0
TEXT
  5
11BA
100
AcDbEntity
  8
TEXT
100
AcDbText
 10
0.653151
 20
6.131375
 30
0.0
 40
0.1
  1
*
 41
0.8
  7
ROMANS
100
AcDbText
  0
TEXT
  5
11BB
100
AcDbEntity
  8
TEXT
100
AcDbText
 10
0.653151
 20
7.131375
 30
0.0
 40
0.1
  1
*
 41
0.8
  7
ROMANS
100
AcDbText
  0
TEXT
  5
11BC
100
AcDbEntity
  8
TEXT
100
AcDbText
 10
0.653151
 20
6.631375
 30
0.0
 40
0.1
  1
*
 41
0.8
  7
ROMANS
100
AcDbText
  0
TEXT
  5
11BD
100
AcDbEntity
  8
TEXT
100
AcDbText
 10
0.653151
 20
7.631375
 30
0.0
 40
0.1
  1
*
 41
0.8
  7
ROMANS
100
AcDbText
  0
TEXT
  5
137F
100
AcDbEntity
  8
TEXT
100
AcDbText
 10
0.653151
 20
11.131375
 30
0.0
 40
0.1
  1
*
 41
0.8
  7
ROMANS
100
AcDbText
  0
TEXT
  5
1380
100
AcDbEntity
  8
TEXT
100
AcDbText
 10
0.653151
 20
11.631375
 30
0.0
 40
0.1
  1
*
 41
0.8
  7
ROMANS
100
AcDbText
  0
TEXT
  5
13B4
100
AcDbEntity
  8
TEXT
100
AcDbText
 10
2.196176
 20
7.122348
 30
0.0
 40
0.1
  1
*
 41
0.8
  7
ROMANS
 72
     2
 11
2.2457
 21
7.122348
 31
0.0
100
AcDbText
  0
TEXT
  5
13B5
100
AcDbEntity
  8
TEXT
100
AcDbText
 10
2.196176
 20
6.622348
 30
0.0
 40
0.1
  1
*
 41
0.8
  7
ROMANS
 72
     2
 11
2.2457
 21
6.622348
 31
0.0
100
AcDbText
  0
TEXT
  5
13B6
100
AcDbEntity
  8
TEXT
100
AcDbText
 10
2.196176
 20
6.122348
 30
0.0
 40
0.1
  1
*
 41
0.8
  7
ROMANS
 72
     2
 11
2.2457
 21
6.122348
 31
0.0
100
AcDbText
  0
TEXT
  5
13B7
100
AcDbEntity
  8
TEXT
100
AcDbText
 10
2.196176
 20
5.622348
 30
0.0
 40
0.1
  1
*
 41
0.8
  7
ROMANS
 72
     2
 11
2.2457
 21
5.622348
 31
0.0
100
AcDbText
  0
TEXT
  5
13B8
100
AcDbEntity
  8
TEXT
100
AcDbText
 10
2.196176
 20
5.122348
 30
0.0
 40
0.1
  1
*
 41
0.8
  7
ROMANS
 72
     2
 11
2.2457
 21
5.122348
 31
0.0
100
AcDbText
  0
TEXT
  5
13B9
100
AcDbEntity
  8
TEXT
100
AcDbText
 10
2.196176
 20
4.622348
 30
0.0
 40
0.1
  1
*
 41
0.8
  7
ROMANS
 72
     2
 11
2.2457
 21
4.622348
 31
0.0
100
AcDbText
  0
ENDSEC
  0
SECTION
  2
OBJECTS
  0
DICTIONARY
  5
C
100
AcDbDictionary
  3
ACAD_GROUP
350
D
  3
ACAD_MLINESTYLE
350
E
  0
DICTIONARY
  5
D
102
{ACAD_REACTORS
330
C
102
}
100
AcDbDictionary
  0
DICTIONARY
  5
E
102
{ACAD_REACTORS
330
C
102
}
100
AcDbDictionary
  3
STANDARD
350
1B
  0
MLINESTYLE
  5
1B
102
{ACAD_REACTORS
330
E
102
}
100
AcDbMlineStyle
  2
STANDARD
 70
     0
  3

 62
     0
 51
90.0
 52
90.0
 71
     2
 49
0.5
 62
   256
  6
BYLAYER
 49
-0.5
 62
   256
  6
BYLAYER
  0
ENDSEC
  0
EOF
