  0
SECTION
  2
HEADER
  9
$ACADVER
  1
AC1012
  9
$DWGCODEPAGE
  3
ANSI_1252
  9
$INSBASE
 10
0.359375
 20
0.0625
 30
0.0
  9
$EXTMIN
 10
6.921351
 20
1.53125
 30
0.0
  9
$EXTMAX
 10
9.088095
 20
15.485279
 30
0.0
  9
$LIMMIN
 10
0.0
 20
0.0
  9
$LIMMAX
 10
10.4582
 20
15.7255
  9
$ORTHOMODE
 70
     1
  9
$REGENMODE
 70
     1
  9
$FILLMODE
 70
     1
  9
$QTEXTMODE
 70
     0
  9
$MIRRTEXT
 70
     1
  9
$DRAGMODE
 70
     2
  9
$LTSCALE
 40
0.25
  9
$OSMODE
 70
     0
  9
$ATTMODE
 70
     1
  9
$TEXTSIZE
 40
0.1
  9
$TRACEWID
 40
0.05
  9
$TEXTSTYLE
  7
ROMANS
  9
$CLAYER
  8
0
  9
$CELTYPE
  6
BYLAYER
  9
$CECOLOR
 62
   256
  9
$CELTSCALE
 40
1.0
  9
$DELOBJ
 70
     1
  9
$DISPSILH
 70
     0
  9
$DIMSCALE
 40
1.0
  9
$DIMASZ
 40
0.18
  9
$DIMEXO
 40
0.0625
  9
$DIMDLI
 40
0.38
  9
$DIMRND
 40
0.0
  9
$DIMDLE
 40
0.0
  9
$DIMEXE
 40
0.18
  9
$DIMTP
 40
0.0
  9
$DIMTM
 40
0.0
  9
$DIMTXT
 40
0.18
  9
$DIMCEN
 40
0.09
  9
$DIMTSZ
 40
0.0
  9
$DIMTOL
 70
     0
  9
$DIMLIM
 70
     0
  9
$DIMTIH
 70
     1
  9
$DIMTOH
 70
     1
  9
$DIMSE1
 70
     0
  9
$DIMSE2
 70
     0
  9
$DIMTAD
 70
     0
  9
$DIMZIN
 70
     0
  9
$DIMBLK
  1

  9
$DIMASO
 70
     1
  9
$DIMSHO
 70
     0
  9
$DIMPOST
  1

  9
$DIMAPOST
  1

  9
$DIMALT
 70
     0
  9
$DIMALTD
 70
     2
  9
$DIMALTF
 40
25.4
  9
$DIMLFAC
 40
1.0
  9
$DIMTOFL
 70
     0
  9
$DIMTVP
 40
0.0
  9
$DIMTIX
 70
     0
  9
$DIMSOXD
 70
     0
  9
$DIMSAH
 70
     0
  9
$DIMBLK1
  1

  9
$DIMBLK2
  1

  9
$DIMSTYLE
  2
STANDARD
  9
$DIMCLRD
 70
     0
  9
$DIMCLRE
 70
     0
  9
$DIMCLRT
 70
     0
  9
$DIMTFAC
 40
1.0
  9
$DIMGAP
 40
0.09
  9
$DIMJUST
 70
     0
  9
$DIMSD1
 70
     0
  9
$DIMSD2
 70
     0
  9
$DIMTOLJ
 70
     1
  9
$DIMTZIN
 70
     0
  9
$DIMALTZ
 70
     0
  9
$DIMALTTZ
 70
     0
  9
$DIMFIT
 70
     3
  9
$DIMUPT
 70
     0
  9
$DIMUNIT
 70
     2
  9
$DIMDEC
 70
     4
  9
$DIMTDEC
 70
     4
  9
$DIMALTU
 70
     2
  9
$DIMALTTD
 70
     2
  9
$DIMTXSTY
  7
STANDARD
  9
$DIMAUNIT
 70
     0
  9
$LUNITS
 70
     2
  9
$LUPREC
 70
     4
  9
$SKETCHINC
 40
0.1
  9
$FILLETRAD
 40
0.0
  9
$AUNITS
 70
     0
  9
$AUPREC
 70
     0
  9
$MENU
  1
acad
  9
$ELEVATION
 40
0.0
  9
$PELEVATION
 40
0.0
  9
$THICKNESS
 40
0.0
  9
$LIMCHECK
 70
     0
  9
$BLIPMODE
 70
     1
  9
$CHAMFERA
 40
0.0
  9
$CHAMFERB
 40
0.0
  9
$CHAMFERC
 40
0.0
  9
$CHAMFERD
 40
0.0
  9
$SKPOLY
 70
     0
  9
$TDCREATE
 40
2448812.543357407
  9
$TDUPDATE
 40
2451092.549419560
  9
$TDINDWG
 40
0.0977951389
  9
$TDUSRTIMER
 40
0.0977951389
  9
$USRTIMER
 70
     1
  9
$ANGBASE
 50
0.0
  9
$ANGDIR
 70
     0
  9
$PDMODE
 70
     3
  9
$PDSIZE
 40
0.1
  9
$PLINEWID
 40
0.01
  9
$COORDS
 70
     2
  9
$SPLFRAME
 70
     0
  9
$SPLINETYPE
 70
     6
  9
$SPLINESEGS
 70
     8
  9
$ATTDIA
 70
     0
  9
$ATTREQ
 70
     1
  9
$HANDLING
 70
     1
  9
$HANDSEED
  5
FE1
  9
$SURFTAB1
 70
     6
  9
$SURFTAB2
 70
     6
  9
$SURFTYPE
 70
     6
  9
$SURFU
 70
     6
  9
$SURFV
 70
     6
  9
$UCSNAME
  2

  9
$UCSORG
 10
0.0
 20
0.0
 30
0.0
  9
$UCSXDIR
 10
1.0
 20
0.0
 30
0.0
  9
$UCSYDIR
 10
0.0
 20
1.0
 30
0.0
  9
$PUCSNAME
  2

  9
$PUCSORG
 10
0.0
 20
0.0
 30
0.0
  9
$PUCSXDIR
 10
1.0
 20
0.0
 30
0.0
  9
$PUCSYDIR
 10
0.0
 20
1.0
 30
0.0
  9
$USERI1
 70
     0
  9
$USERI2
 70
     0
  9
$USERI3
 70
     0
  9
$USERI4
 70
     0
  9
$USERI5
 70
     0
  9
$USERR1
 40
0.0
  9
$USERR2
 40
0.0
  9
$USERR3
 40
0.0
  9
$USERR4
 40
0.0
  9
$USERR5
 40
0.0
  9
$WORLDVIEW
 70
     1
  9
$SHADEDGE
 70
     3
  9
$SHADEDIF
 70
    70
  9
$TILEMODE
 70
     1
  9
$MAXACTVP
 70
    16
  9
$PINSBASE
 10
0.0
 20
0.0
 30
0.0
  9
$PLIMCHECK
 70
     0
  9
$PEXTMIN
 10
1.000000E+20
 20
1.000000E+20
 30
1.000000E+20
  9
$PEXTMAX
 10
-1.000000E+20
 20
-1.000000E+20
 30
-1.000000E+20
  9
$PLIMMIN
 10
0.0
 20
0.0
  9
$PLIMMAX
 10
12.0
 20
9.0
  9
$UNITMODE
 70
     0
  9
$VISRETAIN
 70
     0
  9
$PLINEGEN
 70
     0
  9
$PSLTSCALE
 70
     0
  9
$TREEDEPTH
 70
  3020
  9
$PICKSTYLE
 70
     1
  9
$CMLSTYLE
  2
STANDARD
  9
$CMLJUST
 70
     0
  9
$CMLSCALE
 40
1.0
  9
$SAVEIMAGES
 70
     1
  0
ENDSEC
  0
SECTION
  2
CLASSES
  0
CLASS
  1
LWPOLYLINE
  2
AcDbPolyline
  3
"AutoCAD"
 90
    32768
280
     0
281
     1
  0
ENDSEC
  0
SECTION
  2
TABLES
  0
TABLE
  2
VPORT
  5
8
100
AcDbSymbolTable
 70
     2
  0
VPORT
  5
FE0
100
AcDbSymbolTableRecord
100
AcDbViewportTableRecord
  2
*ACTIVE
 70
     0
 10
0.0
 20
0.0
 11
1.0
 21
1.0
 12
14.236177
 22
7.86275
 13
0.0
 23
0.0
 14
0.0001
 24
0.0001
 15
1.0
 25
1.0
 16
0.0
 26
0.0
 36
1.0
 17
0.0
 27
0.0
 37
0.0
 40
15.7255
 41
1.810585
 42
50.0
 43
0.0
 44
0.0
 50
0.0
 51
0.0
 71
     0
 72
   100
 73
     1
 74
     1
 75
     1
 76
     0
 77
     0
 78
     0
  0
ENDTAB
  0
TABLE
  2
LTYPE
  5
5
100
AcDbSymbolTable
 70
     1
  0
LTYPE
  5
12
100
AcDbSymbolTableRecord
100
AcDbLinetypeTableRecord
  2
BYBLOCK
 70
     0
  3

 72
    65
 73
     0
 40
0.0
  0
LTYPE
  5
13
100
AcDbSymbolTableRecord
100
AcDbLinetypeTableRecord
  2
BYLAYER
 70
     0
  3

 72
    65
 73
     0
 40
0.0
  0
LTYPE
  5
14
100
AcDbSymbolTableRecord
100
AcDbLinetypeTableRecord
  2
CONTINUOUS
 70
     0
  3
Solid line
 72
    65
 73
     0
 40
0.0
  0
ENDTAB
  0
TABLE
  2
LAYER
  5
2
100
AcDbSymbolTable
 70
     2
  0
LAYER
  5
F
100
AcDbSymbolTableRecord
100
AcDbLayerTableRecord
  2
0
 70
     0
 62
     7
  6
CONTINUOUS
  0
LAYER
  5
166
100
AcDbSymbolTableRecord
100
AcDbLayerTableRecord
  2
TEXT
 70
     0
 62
     2
  6
CONTINUOUS
  0
ENDTAB
  0
TABLE
  2
STYLE
  5
3
100
AcDbSymbolTable
 70
     2
  0
STYLE
  5
10
100
AcDbSymbolTableRecord
100
AcDbTextStyleTableRecord
  2
STANDARD
 70
     0
 40
0.0
 41
1.0
 50
0.0
 71
     0
 42
0.2
  3
txt
  4

  0
STYLE
  5
1C
100
AcDbSymbolTableRecord
100
AcDbTextStyleTableRecord
  2
ROMANS
 70
     0
 40
0.0
 41
0.8
 50
10.0
 71
     0
 42
0.1
  3
romans
  4

  0
ENDTAB
  0
TABLE
  2
VIEW
  5
6
100
AcDbSymbolTable
 70
     0
  0
ENDTAB
  0
TABLE
  2
UCS
  5
7
100
AcDbSymbolTable
 70
     0
  0
ENDTAB
  0
TABLE
  2
APPID
  5
9
100
AcDbSymbolTable
 70
     1
  0
APPID
  5
11
100
AcDbSymbolTableRecord
100
AcDbRegAppTableRecord
  2
ACAD
 70
     0
  0
ENDTAB
  0
TABLE
  2
DIMSTYLE
  5
A
100
AcDbSymbolTable
 70
     1
  0
DIMSTYLE
105
14D
100
AcDbSymbolTableRecord
100
AcDbDimStyleTableRecord
  2
STANDARD
 70
     0
  3

  4

  5

  6

  7

 40
1.0
 41
0.18
 42
0.0625
 43
0.38
 44
0.18
 45
0.0
 46
0.0
 47
0.0
 48
0.0
140
0.18
141
0.09
142
0.0
143
25.4
144
1.0
145
0.0
146
1.0
147
0.09
 71
     0
 72
     0
 73
     1
 74
     1
 75
     0
 76
     0
 77
     0
 78
     0
170
     0
171
     2
172
     0
173
     0
174
     0
175
     0
176
     0
177
     0
178
     0
270
     2
271
     4
272
     4
273
     2
274
     2
340
10
275
     0
280
     0
281
     0
282
     0
283
     1
284
     0
285
     0
286
     0
287
     3
288
     0
  0
ENDTAB
  0
TABLE
  2
BLOCK_RECORD
  5
1
100
AcDbSymbolTable
 70
     0
  0
BLOCK_RECORD
  5
18
100
AcDbSymbolTableRecord
100
AcDbBlockTableRecord
  2
*MODEL_SPACE
  0
BLOCK_RECORD
  5
15
100
AcDbSymbolTableRecord
100
AcDbBlockTableRecord
  2
*PAPER_SPACE
  0
ENDTAB
  0
ENDSEC
  0
SECTION
  2
BLOCKS
  0
BLOCK
  5
26
100
AcDbEntity
  8
0
100
AcDbBlockBegin
  2
*MODEL_SPACE
 70
     0
 10
0.0
 20
0.0
 30
0.0
  3
*MODEL_SPACE
  1

  0
ENDBLK
  5
27
100
AcDbEntity
  8
0
100
AcDbBlockEnd
  0
BLOCK
  5
24
100
AcDbEntity
 67
     1
  8
0
100
AcDbBlockBegin
  2
*PAPER_SPACE
 70
     0
 10
0.0
 20
0.0
 30
0.0
  3
*PAPER_SPACE
  1

  0
ENDBLK
  5
25
100
AcDbEntity
 67
     1
  8
0
100
AcDbBlockEnd
  0
ENDSEC
  0
SECTION
  2
ENTITIES
  0
LINE
  5
29
100
AcDbEntity
  8
0
100
AcDbLine
 10
8.734375
 20
14.84375
 30
0.0
 11
7.1875
 21
14.84375
 31
0.0
  0
LINE
  5
2A
100
AcDbEntity
  8
0
100
AcDbLine
 10
8.734375
 20
1.53125
 30
0.0
 11
8.734375
 21
14.84375
 31
0.0
  0
LINE
  5
2B
100
AcDbEntity
  8
0
100
AcDbLine
 10
7.1875
 20
1.53125
 30
0.0
 11
8.734375
 21
1.53125
 31
0.0
  0
LINE
  5
2C
100
AcDbEntity
  8
0
100
AcDbLine
 10
7.1875
 20
14.84375
 30
0.0
 11
7.1875
 21
1.53125
 31
0.0
  0
LINE
  5
2D
100
AcDbEntity
  8
0
100
AcDbLine
 10
6.9375
 20
14.3125
 30
0.0
 11
6.9375
 21
14.0625
 31
0.0
  0
LINE
  5
2E
100
AcDbEntity
  8
0
100
AcDbLine
 10
7.1875
 20
14.3125
 30
0.0
 11
6.9375
 21
14.3125
 31
0.0
  0
LINE
  5
2F
100
AcDbEntity
  8
0
100
AcDbLine
 10
7.1875
 20
14.0625
 30
0.0
 11
6.9375
 21
14.0625
 31
0.0
  0
LINE
  5
30
100
AcDbEntity
  8
0
100
AcDbLine
 10
7.1875
 20
13.5625
 30
0.0
 11
6.9375
 21
13.5625
 31
0.0
  0
LINE
  5
31
100
AcDbEntity
  8
0
100
AcDbLine
 10
7.1875
 20
13.8125
 30
0.0
 11
6.9375
 21
13.8125
 31
0.0
  0
LINE
  5
32
100
AcDbEntity
  8
0
100
AcDbLine
 10
6.9375
 20
13.8125
 30
0.0
 11
6.9375
 21
13.5625
 31
0.0
  0
LINE
  5
33
100
AcDbEntity
  8
0
100
AcDbLine
 10
7.1875
 20
13.0625
 30
0.0
 11
6.9375
 21
13.0625
 31
0.0
  0
LINE
  5
34
100
AcDbEntity
  8
0
100
AcDbLine
 10
7.1875
 20
13.3125
 30
0.0
 11
6.9375
 21
13.3125
 31
0.0
  0
LINE
  5
35
100
AcDbEntity
  8
0
100
AcDbLine
 10
6.9375
 20
13.3125
 30
0.0
 11
6.9375
 21
13.0625
 31
0.0
  0
LINE
  5
36
100
AcDbEntity
  8
0
100
AcDbLine
 10
7.1875
 20
12.5625
 30
0.0
 11
6.9375
 21
12.5625
 31
0.0
  0
LINE
  5
37
100
AcDbEntity
  8
0
100
AcDbLine
 10
7.1875
 20
12.8125
 30
0.0
 11
6.9375
 21
12.8125
 31
0.0
  0
LINE
  5
38
100
AcDbEntity
  8
0
100
AcDbLine
 10
6.9375
 20
12.8125
 30
0.0
 11
6.9375
 21
12.5625
 31
0.0
  0
LINE
  5
39
100
AcDbEntity
  8
0
100
AcDbLine
 10
7.1875
 20
12.0625
 30
0.0
 11
6.9375
 21
12.0625
 31
0.0
  0
LINE
  5
3A
100
AcDbEntity
  8
0
100
AcDbLine
 10
7.1875
 20
12.3125
 30
0.0
 11
6.9375
 21
12.3125
 31
0.0
  0
LINE
  5
3B
100
AcDbEntity
  8
0
100
AcDbLine
 10
6.9375
 20
12.3125
 30
0.0
 11
6.9375
 21
12.0625
 31
0.0
  0
LINE
  5
3C
100
AcDbEntity
  8
0
100
AcDbLine
 10
7.1875
 20
11.5625
 30
0.0
 11
6.9375
 21
11.5625
 31
0.0
  0
LINE
  5
3D
100
AcDbEntity
  8
0
100
AcDbLine
 10
7.1875
 20
11.8125
 30
0.0
 11
6.9375
 21
11.8125
 31
0.0
  0
LINE
  5
3E
100
AcDbEntity
  8
0
100
AcDbLine
 10
6.9375
 20
11.8125
 30
0.0
 11
6.9375
 21
11.5625
 31
0.0
  0
LINE
  5
3F
100
AcDbEntity
  8
0
100
AcDbLine
 10
7.1875
 20
11.0625
 30
0.0
 11
6.9375
 21
11.0625
 31
0.0
  0
LINE
  5
40
100
AcDbEntity
  8
0
100
AcDbLine
 10
7.1875
 20
11.3125
 30
0.0
 11
6.9375
 21
11.3125
 31
0.0
  0
LINE
  5
41
100
AcDbEntity
  8
0
100
AcDbLine
 10
6.9375
 20
11.3125
 30
0.0
 11
6.9375
 21
11.0625
 31
0.0
  0
LINE
  5
42
100
AcDbEntity
  8
0
100
AcDbLine
 10
7.1875
 20
10.5625
 30
0.0
 11
6.9375
 21
10.5625
 31
0.0
  0
LINE
  5
43
100
AcDbEntity
  8
0
100
AcDbLine
 10
7.1875
 20
10.8125
 30
0.0
 11
6.9375
 21
10.8125
 31
0.0
  0
LINE
  5
44
100
AcDbEntity
  8
0
100
AcDbLine
 10
6.9375
 20
10.8125
 30
0.0
 11
6.9375
 21
10.5625
 31
0.0
  0
LINE
  5
45
100
AcDbEntity
  8
0
100
AcDbLine
 10
7.1875
 20
10.0625
 30
0.0
 11
6.9375
 21
10.0625
 31
0.0
  0
LINE
  5
46
100
AcDbEntity
  8
0
100
AcDbLine
 10
7.1875
 20
10.3125
 30
0.0
 11
6.9375
 21
10.3125
 31
0.0
  0
LINE
  5
47
100
AcDbEntity
  8
0
100
AcDbLine
 10
6.9375
 20
10.3125
 30
0.0
 11
6.9375
 21
10.0625
 31
0.0
  0
LINE
  5
48
100
AcDbEntity
  8
0
100
AcDbLine
 10
7.1875
 20
9.5625
 30
0.0
 11
6.9375
 21
9.5625
 31
0.0
  0
LINE
  5
49
100
AcDbEntity
  8
0
100
AcDbLine
 10
7.1875
 20
9.8125
 30
0.0
 11
6.9375
 21
9.8125
 31
0.0
  0
LINE
  5
4A
100
AcDbEntity
  8
0
100
AcDbLine
 10
6.9375
 20
9.8125
 30
0.0
 11
6.9375
 21
9.5625
 31
0.0
  0
LINE
  5
4B
100
AcDbEntity
  8
0
100
AcDbLine
 10
7.1875
 20
9.0625
 30
0.0
 11
6.9375
 21
9.0625
 31
0.0
  0
LINE
  5
4C
100
AcDbEntity
  8
0
100
AcDbLine
 10
7.1875
 20
9.3125
 30
0.0
 11
6.9375
 21
9.3125
 31
0.0
  0
LINE
  5
4D
100
AcDbEntity
  8
0
100
AcDbLine
 10
6.9375
 20
9.3125
 30
0.0
 11
6.9375
 21
9.0625
 31
0.0
  0
LINE
  5
4E
100
AcDbEntity
  8
0
100
AcDbLine
 10
7.1875
 20
8.5625
 30
0.0
 11
6.9375
 21
8.5625
 31
0.0
  0
LINE
  5
4F
100
AcDbEntity
  8
0
100
AcDbLine
 10
7.1875
 20
8.8125
 30
0.0
 11
6.9375
 21
8.8125
 31
0.0
  0
LINE
  5
50
100
AcDbEntity
  8
0
100
AcDbLine
 10
6.9375
 20
8.8125
 30
0.0
 11
6.9375
 21
8.5625
 31
0.0
  0
LINE
  5
51
100
AcDbEntity
  8
0
100
AcDbLine
 10
7.1875
 20
8.0625
 30
0.0
 11
6.9375
 21
8.0625
 31
0.0
  0
LINE
  5
52
100
AcDbEntity
  8
0
100
AcDbLine
 10
7.1875
 20
8.3125
 30
0.0
 11
6.9375
 21
8.3125
 31
0.0
  0
LINE
  5
53
100
AcDbEntity
  8
0
100
AcDbLine
 10
6.9375
 20
8.3125
 30
0.0
 11
6.9375
 21
8.0625
 31
0.0
  0
LINE
  5
54
100
AcDbEntity
  8
0
100
AcDbLine
 10
7.1875
 20
7.5625
 30
0.0
 11
6.9375
 21
7.5625
 31
0.0
  0
LINE
  5
55
100
AcDbEntity
  8
0
100
AcDbLine
 10
7.1875
 20
7.8125
 30
0.0
 11
6.9375
 21
7.8125
 31
0.0
  0
LINE
  5
57
100
AcDbEntity
  8
0
100
AcDbLine
 10
7.1875
 20
7.0625
 30
0.0
 11
6.9375
 21
7.0625
 31
0.0
  0
LINE
  5
58
100
AcDbEntity
  8
0
100
AcDbLine
 10
7.1875
 20
7.3125
 30
0.0
 11
6.9375
 21
7.3125
 31
0.0
  0
LINE
  5
5A
100
AcDbEntity
  8
0
100
AcDbLine
 10
7.1875
 20
6.5625
 30
0.0
 11
6.9375
 21
6.5625
 31
0.0
  0
LINE
  5
5B
100
AcDbEntity
  8
0
100
AcDbLine
 10
7.1875
 20
6.8125
 30
0.0
 11
6.9375
 21
6.8125
 31
0.0
  0
LINE
  5
5D
100
AcDbEntity
  8
0
100
AcDbLine
 10
7.1875
 20
6.0625
 30
0.0
 11
6.9375
 21
6.0625
 31
0.0
  0
LINE
  5
5E
100
AcDbEntity
  8
0
100
AcDbLine
 10
7.1875
 20
6.3125
 30
0.0
 11
6.9375
 21
6.3125
 31
0.0
  0
LINE
  5
60
100
AcDbEntity
  8
0
100
AcDbLine
 10
7.1875
 20
5.5625
 30
0.0
 11
6.9375
 21
5.5625
 31
0.0
  0
LINE
  5
61
100
AcDbEntity
  8
0
100
AcDbLine
 10
7.1875
 20
5.8125
 30
0.0
 11
6.9375
 21
5.8125
 31
0.0
  0
LINE
  5
63
100
AcDbEntity
  8
0
100
AcDbLine
 10
7.1875
 20
5.0625
 30
0.0
 11
6.9375
 21
5.0625
 31
0.0
  0
LINE
  5
64
100
AcDbEntity
  8
0
100
AcDbLine
 10
7.1875
 20
5.3125
 30
0.0
 11
6.9375
 21
5.3125
 31
0.0
  0
LINE
  5
66
100
AcDbEntity
  8
0
100
AcDbLine
 10
7.1875
 20
4.5625
 30
0.0
 11
6.9375
 21
4.5625
 31
0.0
  0
LINE
  5
67
100
AcDbEntity
  8
0
100
AcDbLine
 10
7.1875
 20
4.8125
 30
0.0
 11
6.9375
 21
4.8125
 31
0.0
  0
LINE
  5
69
100
AcDbEntity
  8
0
100
AcDbLine
 10
7.1875
 20
4.0625
 30
0.0
 11
6.9375
 21
4.0625
 31
0.0
  0
LINE
  5
6A
100
AcDbEntity
  8
0
100
AcDbLine
 10
7.1875
 20
4.3125
 30
0.0
 11
6.9375
 21
4.3125
 31
0.0
  0
LINE
  5
6C
100
AcDbEntity
  8
0
100
AcDbLine
 10
7.1875
 20
3.5625
 30
0.0
 11
6.9375
 21
3.5625
 31
0.0
  0
LINE
  5
6D
100
AcDbEntity
  8
0
100
AcDbLine
 10
7.1875
 20
3.8125
 30
0.0
 11
6.9375
 21
3.8125
 31
0.0
  0
LINE
  5
6F
100
AcDbEntity
  8
0
100
AcDbLine
 10
7.1875
 20
3.0625
 30
0.0
 11
6.9375
 21
3.0625
 31
0.0
  0
LINE
  5
70
100
AcDbEntity
  8
0
100
AcDbLine
 10
7.1875
 20
3.3125
 30
0.0
 11
6.9375
 21
3.3125
 31
0.0
  0
LINE
  5
72
100
AcDbEntity
  8
0
100
AcDbLine
 10
7.1875
 20
2.5625
 30
0.0
 11
6.9375
 21
2.5625
 31
0.0
  0
LINE
  5
73
100
AcDbEntity
  8
0
100
AcDbLine
 10
7.1875
 20
2.8125
 30
0.0
 11
6.9375
 21
2.8125
 31
0.0
  0
TEXT
  5
75
100
AcDbEntity
  8
TEXT
100
AcDbText
 10
7.022024
 20
14.125
 30
0.0
 40
0.125
  1
1
 41
0.8
 51
10.0
  7
ROMANS
 72
     1
 11
7.0625
 21
14.125
 31
0.0
100
AcDbText
  0
TEXT
  5
76
100
AcDbEntity
  8
TEXT
100
AcDbText
 10
7.014881
 20
13.625
 30
0.0
 40
0.125
  1
2
 41
0.8
 51
10.0
  7
ROMANS
 72
     1
 11
7.0625
 21
13.625
 31
0.0
100
AcDbText
  0
TEXT
  5
77
100
AcDbEntity
  8
TEXT
100
AcDbText
 10
7.014881
 20
13.125
 30
0.0
 40
0.125
  1
3
 41
0.8
 51
10.0
  7
ROMANS
 72
     1
 11
7.0625
 21
13.125
 31
0.0
100
AcDbText
  0
TEXT
  5
78
100
AcDbEntity
  8
TEXT
100
AcDbText
 10
7.0125
 20
12.625
 30
0.0
 40
0.125
  1
4
 41
0.8
 51
10.0
  7
ROMANS
 72
     1
 11
7.0625
 21
12.625
 31
0.0
100
AcDbText
  0
TEXT
  5
79
100
AcDbEntity
  8
TEXT
100
AcDbText
 10
7.014881
 20
12.125
 30
0.0
 40
0.125
  1
5
 41
0.8
 51
10.0
  7
ROMANS
 72
     1
 11
7.0625
 21
12.125
 31
0.0
100
AcDbText
  0
TEXT
  5
7A
100
AcDbEntity
  8
TEXT
100
AcDbText
 10
7.0125
 20
11.625
 30
0.0
 40
0.125
  1
6
 41
0.8
 51
10.0
  7
ROMANS
 72
     1
 11
7.0625
 21
11.625
 31
0.0
100
AcDbText
  0
TEXT
  5
7B
100
AcDbEntity
  8
TEXT
100
AcDbText
 10
7.014881
 20
11.125
 30
0.0
 40
0.125
  1
7
 41
0.8
 51
10.0
  7
ROMANS
 72
     1
 11
7.0625
 21
11.125
 31
0.0
100
AcDbText
  0
TEXT
  5
7C
100
AcDbEntity
  8
TEXT
100
AcDbText
 10
7.014881
 20
10.625
 30
0.0
 40
0.125
  1
8
 41
0.8
 51
10.0
  7
ROMANS
 72
     1
 11
7.0625
 21
10.625
 31
0.0
100
AcDbText
  0
TEXT
  5
7D
100
AcDbEntity
  8
TEXT
100
AcDbText
 10
7.017262
 20
10.125
 30
0.0
 40
0.125
  1
9
 41
0.8
 51
10.0
  7
ROMANS
 72
     1
 11
7.0625
 21
10.125
 31
0.0
100
AcDbText
  0
TEXT
  5
7E
100
AcDbEntity
  8
TEXT
100
AcDbText
 10
6.960119
 20
9.625
 30
0.0
 40
0.125
  1
10
 41
0.8
 51
10.0
  7
ROMANS
 72
     1
 11
7.0625
 21
9.625
 31
0.0
100
AcDbText
  0
TEXT
  5
7F
100
AcDbEntity
  8
TEXT
100
AcDbText
 10
6.974405
 20
9.125
 30
0.0
 40
0.125
  1
11
 41
0.8
 51
10.0
  7
ROMANS
 72
     1
 11
7.0625
 21
9.125
 31
0.0
100
AcDbText
  0
TEXT
  5
80
100
AcDbEntity
  8
TEXT
100
AcDbText
 10
6.960119
 20
8.625
 30
0.0
 40
0.125
  1
12
 41
0.8
 51
10.0
  7
ROMANS
 72
     1
 11
7.0625
 21
8.625
 31
0.0
100
AcDbText
  0
TEXT
  5
81
100
AcDbEntity
  8
TEXT
100
AcDbText
 10
6.960119
 20
8.125
 30
0.0
 40
0.125
  1
13
 41
0.8
 51
10.0
  7
ROMANS
 72
     1
 11
7.0625
 21
8.125
 31
0.0
100
AcDbText
  0
TEXT
  5
82
100
AcDbEntity
  8
TEXT
100
AcDbText
 10
6.957738
 20
7.625
 30
0.0
 40
0.125
  1
14
 41
0.8
 51
10.0
  7
ROMANS
 72
     1
 11
7.0625
 21
7.625
 31
0.0
100
AcDbText
  0
TEXT
  5
83
100
AcDbEntity
  8
TEXT
100
AcDbText
 10
6.960119
 20
7.125
 30
0.0
 40
0.125
  1
15
 41
0.8
 51
10.0
  7
ROMANS
 72
     1
 11
7.0625
 21
7.125
 31
0.0
100
AcDbText
  0
TEXT
  5
84
100
AcDbEntity
  8
TEXT
100
AcDbText
 10
6.960119
 20
6.625
 30
0.0
 40
0.125
  1
16
 41
0.8
 51
10.0
  7
ROMANS
 72
     1
 11
7.0625
 21
6.625
 31
0.0
100
AcDbText
  0
TEXT
  5
85
100
AcDbEntity
  8
TEXT
100
AcDbText
 10
6.960119
 20
6.125
 30
0.0
 40
0.125
  1
17
 41
0.8
 51
10.0
  7
ROMANS
 72
     1
 11
7.0625
 21
6.125
 31
0.0
100
AcDbText
  0
TEXT
  5
86
100
AcDbEntity
  8
TEXT
100
AcDbText
 10
6.960119
 20
5.625
 30
0.0
 40
0.125
  1
18
 41
0.8
 51
10.0
  7
ROMANS
 72
     1
 11
7.0625
 21
5.625
 31
0.0
100
AcDbText
  0
TEXT
  5
87
100
AcDbEntity
  8
TEXT
100
AcDbText
 10
6.9625
 20
5.125
 30
0.0
 40
0.125
  1
19
 41
0.8
 51
10.0
  7
ROMANS
 72
     1
 11
7.0625
 21
5.125
 31
0.0
100
AcDbText
  0
TEXT
  5
88
100
AcDbEntity
  8
TEXT
100
AcDbText
 10
6.967262
 20
4.625
 30
0.0
 40
0.125
  1
20
 41
0.8
 51
10.0
  7
ROMANS
 72
     1
 11
7.0625
 21
4.625
 31
0.0
100
AcDbText
  0
TEXT
  5
89
100
AcDbEntity
  8
TEXT
100
AcDbText
 10
6.981548
 20
4.125
 30
0.0
 40
0.125
  1
21
 41
0.8
 51
10.0
  7
ROMANS
 72
     1
 11
7.0625
 21
4.125
 31
0.0
100
AcDbText
  0
TEXT
  5
8A
100
AcDbEntity
  8
TEXT
100
AcDbText
 10
6.967262
 20
3.625
 30
0.0
 40
0.125
  1
22
 41
0.8
 51
10.0
  7
ROMANS
 72
     1
 11
7.0625
 21
3.625
 31
0.0
100
AcDbText
  0
TEXT
  5
8B
100
AcDbEntity
  8
TEXT
100
AcDbText
 10
6.967262
 20
3.125
 30
0.0
 40
0.125
  1
23
 41
0.8
 51
10.0
  7
ROMANS
 72
     1
 11
7.0625
 21
3.125
 31
0.0
100
AcDbText
  0
TEXT
  5
8C
100
AcDbEntity
  8
TEXT
100
AcDbText
 10
6.964881
 20
2.625
 30
0.0
 40
0.125
  1
24
 41
0.8
 51
10.0
  7
ROMANS
 72
     1
 11
7.0625
 21
2.625
 31
0.0
100
AcDbText
  0
TEXT
  5
8D
100
AcDbEntity
  8
TEXT
100
AcDbText
 10
7.34375
 20
14.125
 30
0.0
 40
0.125
  1
CH-1+
 41
0.8
 51
10.0
  7
ROMANS
100
AcDbText
  0
TEXT
  5
8E
100
AcDbEntity
  8
TEXT
100
AcDbText
 10
7.34375
 20
13.625
 30
0.0
 40
0.125
  1
CH-2+
 41
0.8
 51
10.0
  7
ROMANS
100
AcDbText
  0
TEXT
  5
8F
100
AcDbEntity
  8
TEXT
100
AcDbText
 10
7.34375
 20
13.125
 30
0.0
 40
0.125
  1
CH-1-
 41
0.8
 51
10.0
  7
ROMANS
100
AcDbText
  0
TEXT
  5
90
100
AcDbEntity
  8
TEXT
100
AcDbText
 10
7.34375
 20
12.625
 30
0.0
 40
0.125
  1
CH-2-
 41
0.8
 51
10.0
  7
ROMANS
100
AcDbText
  0
TEXT
  5
91
100
AcDbEntity
  8
TEXT
100
AcDbText
 10
7.34375
 20
12.125
 30
0.0
 40
0.125
  1
ch-1 res
 41
0.8
 51
10.0
  7
ROMANS
100
AcDbText
  0
TEXT
  5
92
100
AcDbEntity
  8
TEXT
100
AcDbText
 10
7.34375
 20
11.625
 30
0.0
 40
0.125
  1
ch-2 res
 41
0.8
 51
10.0
  7
ROMANS
100
AcDbText
  0
TEXT
  5
93
100
AcDbEntity
  8
TEXT
100
AcDbText
 10
7.34375
 20
11.125
 30
0.0
 40
0.125
  1
CH-3+
 41
0.8
 51
10.0
  7
ROMANS
100
AcDbText
  0
TEXT
  5
94
100
AcDbEntity
  8
TEXT
100
AcDbText
 10
7.34375
 20
10.625
 30
0.0
 40
0.125
  1
CH-4+
 41
0.8
 51
10.0
  7
ROMANS
100
AcDbText
  0
TEXT
  5
95
100
AcDbEntity
  8
TEXT
100
AcDbText
 10
7.34375
 20
10.125
 30
0.0
 40
0.125
  1
CH-3-
 41
0.8
 51
10.0
  7
ROMANS
100
AcDbText
  0
TEXT
  5
96
100
AcDbEntity
  8
TEXT
100
AcDbText
 10
7.34375
 20
9.625
 30
0.0
 40
0.125
  1
CH-4-
 41
0.8
 51
10.0
  7
ROMANS
100
AcDbText
  0
TEXT
  5
97
100
AcDbEntity
  8
TEXT
100
AcDbText
 10
7.34375
 20
3.625
 30
0.0
 40
0.125
  1
CH-8-
 41
0.8
 51
10.0
  7
ROMANS
100
AcDbText
  0
TEXT
  5
98
100
AcDbEntity
  8
TEXT
100
AcDbText
 10
7.34375
 20
4.125
 30
0.0
 40
0.125
  1
CH-7-
 41
0.8
 51
10.0
  7
ROMANS
100
AcDbText
  0
TEXT
  5
99
100
AcDbEntity
  8
TEXT
100
AcDbText
 10
7.34375
 20
4.625
 30
0.0
 40
0.125
  1
CH-8+
 41
0.8
 51
10.0
  7
ROMANS
100
AcDbText
  0
TEXT
  5
9A
100
AcDbEntity
  8
TEXT
100
AcDbText
 10
7.34375
 20
5.125
 30
0.0
 40
0.125
  1
CH-7+
 41
0.8
 51
10.0
  7
ROMANS
100
AcDbText
  0
TEXT
  5
9B
100
AcDbEntity
  8
TEXT
100
AcDbText
 10
7.34375
 20
5.625
 30
0.0
 40
0.125
  1
ch-6 res
 41
0.8
 51
10.0
  7
ROMANS
100
AcDbText
  0
TEXT
  5
9C
100
AcDbEntity
  8
TEXT
100
AcDbText
 10
7.34375
 20
6.125
 30
0.0
 40
0.125
  1
ch-5 res
 41
0.8
 51
10.0
  7
ROMANS
100
AcDbText
  0
TEXT
  5
9D
100
AcDbEntity
  8
TEXT
100
AcDbText
 10
7.34375
 20
6.625
 30
0.0
 40
0.125
  1
CH-6-
 41
0.8
 51
10.0
  7
ROMANS
100
AcDbText
  0
TEXT
  5
9E
100
AcDbEntity
  8
TEXT
100
AcDbText
 10
7.34375
 20
7.125
 30
0.0
 40
0.125
  1
CH-5-
 41
0.8
 51
10.0
  7
ROMANS
100
AcDbText
  0
TEXT
  5
9F
100
AcDbEntity
  8
TEXT
100
AcDbText
 10
7.34375
 20
7.625
 30
0.0
 40
0.125
  1
CH-6+
 41
0.8
 51
10.0
  7
ROMANS
100
AcDbText
  0
TEXT
  5
A0
100
AcDbEntity
  8
TEXT
100
AcDbText
 10
7.34375
 20
8.125
 30
0.0
 40
0.125
  1
CH-5+
 41
0.8
 51
10.0
  7
ROMANS
100
AcDbText
  0
TEXT
  5
A1
100
AcDbEntity
  8
TEXT
100
AcDbText
 10
7.34375
 20
3.125
 30
0.0
 40
0.125
  1
ch-7 res
 41
0.8
 51
10.0
  7
ROMANS
100
AcDbText
  0
TEXT
  5
A2
100
AcDbEntity
  8
TEXT
100
AcDbText
 10
7.34375
 20
2.625
 30
0.0
 40
0.125
  1
ch-8 res
 41
0.8
 51
10.0
  7
ROMANS
100
AcDbText
  0
LINE
  5
A3
100
AcDbEntity
  8
0
100
AcDbLine
 10
7.1875
 20
1.5625
 30
0.0
 11
6.9375
 21
1.5625
 31
0.0
  0
LINE
  5
A4
100
AcDbEntity
  8
0
100
AcDbLine
 10
7.1875
 20
1.8125
 30
0.0
 11
6.9375
 21
1.8125
 31
0.0
  0
LINE
  5
A5
100
AcDbEntity
  8
0
100
AcDbLine
 10
6.9375
 20
1.8125
 30
0.0
 11
6.9375
 21
1.5625
 31
0.0
  0
LINE
  5
A6
100
AcDbEntity
  8
0
100
AcDbLine
 10
7.1875
 20
2.0625
 30
0.0
 11
6.9375
 21
2.0625
 31
0.0
  0
LINE
  5
A7
100
AcDbEntity
  8
0
100
AcDbLine
 10
7.1875
 20
2.3125
 30
0.0
 11
6.9375
 21
2.3125
 31
0.0
  0
LINE
  5
A8
100
AcDbEntity
  8
0
100
AcDbLine
 10
6.9375
 20
2.3125
 30
0.0
 11
6.9375
 21
2.0625
 31
0.0
  0
TEXT
  5
B4
100
AcDbEntity
  8
TEXT
100
AcDbText
 10
6.892857
 20
15.141369
 30
0.0
 40
0.125
  1
+/-10VDC,0-20mA,4-20mA
 41
0.8
 51
10.0
  7
ROMANS
 72
     1
 11
8.0
 21
15.141369
 31
0.0
100
AcDbText
  0
TEXT
  5
B5
100
AcDbEntity
  8
TEXT
100
AcDbText
 10
7.05
 20
14.938988
 30
0.0
 40
0.125
  1
ANALOG IN (12-Bit Res)
 41
0.8
 51
10.0
  7
ROMANS
 72
     1
 11
8.0
 21
14.938988
 31
0.0
100
AcDbText
  0
TEXT
  5
B6
100
AcDbEntity
  8
TEXT
100
AcDbText
 10
7.34375
 20
2.125
 30
0.0
 40
0.125
  1
27
 41
0.8
 51
10.0
  7
ROMANS
100
AcDbText
  0
TEXT
  5
B7
100
AcDbEntity
  8
TEXT
100
AcDbText
 10
7.75
 20
2.125
 30
0.0
 40
0.125
  1
31 COM.
 41
0.8
 51
10.0
  7
ROMANS
100
AcDbText
  0
TEXT
  5
B8
100
AcDbEntity
  8
TEXT
100
AcDbText
 10
7.34375
 20
1.625
 30
0.0
 40
0.125
  1
32
 41
0.8
 51
10.0
  7
ROMANS
100
AcDbText
  0
TEXT
  5
B9
100
AcDbEntity
  8
TEXT
100
AcDbText
 10
7.75
 20
1.625
 30
0.0
 40
0.125
  1
40 SPG.
 41
0.8
 51
10.0
  7
ROMANS
100
AcDbText
  0
LINE
  5
BA
100
AcDbEntity
  8
TEXT
100
AcDbLine
 10
7.59375
 20
2.1875
 30
0.0
 11
7.71875
 21
2.1875
 31
0.0
  0
LINE
  5
BB
100
AcDbEntity
  8
TEXT
100
AcDbLine
 10
7.71875
 20
2.1875
 30
0.0
 11
7.6875
 21
2.21875
 31
0.0
  0
LINE
  5
BC
100
AcDbEntity
  8
TEXT
100
AcDbLine
 10
7.71875
 20
2.1875
 30
0.0
 11
7.6875
 21
2.15625
 31
0.0
  0
LINE
  5
BD
100
AcDbEntity
  8
TEXT
100
AcDbLine
 10
7.59375
 20
1.6875
 30
0.0
 11
7.71875
 21
1.6875
 31
0.0
  0
LINE
  5
BE
100
AcDbEntity
  8
TEXT
100
AcDbLine
 10
7.71875
 20
1.6875
 30
0.0
 11
7.6875
 21
1.71875
 31
0.0
  0
LINE
  5
BF
100
AcDbEntity
  8
TEXT
100
AcDbLine
 10
7.71875
 20
1.6875
 30
0.0
 11
7.6875
 21
1.65625
 31
0.0
  0
TEXT
  5
C0
100
AcDbEntity
  8
TEXT
100
AcDbText
 10
7.34375
 20
9.125
 30
0.0
 40
0.125
  1
ch-3 res
 41
0.8
 51
10.0
  7
ROMANS
100
AcDbText
  0
TEXT
  5
C1
100
AcDbEntity
  8
TEXT
100
AcDbText
 10
7.34375
 20
8.625
 30
0.0
 40
0.125
  1
ch-4 res
 41
0.8
 51
10.0
  7
ROMANS
100
AcDbText
  0
TEXT
  5
C2
100
AcDbEntity
  8
TEXT
100
AcDbText
 10
7.3375
 20
14.657738
 30
0.0
 40
0.125
  1
502-03642-03
 41
0.8
 51
10.0
  7
ROMANS
 72
     1
 11
7.9375
 21
14.657738
 31
0.0
100
AcDbText
  0
TEXT
  5
103
100
AcDbEntity
  8
0
100
AcDbText
 10
8.28125
 20
0.359375
 30
0.0
 40
0.075
  1
 
 41
0.8
  7
ROMANS
100
AcDbText
  0
TEXT
  5
15D
100
AcDbEntity
  8
TEXT
100
AcDbText
 10
7.557143
 20
15.336469
 30
0.0
 40
0.125
  1
Card # --
 41
0.8
 51
10.0
  7
ROMANS
 72
     1
 11
8.0
 21
15.336469
 31
0.0
100
AcDbText
  0
TEXT
  5
57D
100
AcDbEntity
  8
0
100
AcDbText
 10
19.868225
 20
3.09375
 30
0.0
 40
0.125
  1

 41
0.8
 51
10.0
  7
ROMANS
100
AcDbText
  0
TEXT
  5
5DE
100
AcDbEntity
  8
0
100
AcDbText
 10
29.861975
 20
3.109375
 30
0.0
 40
0.125
  1

 41
0.8
 51
10.0
  7
ROMANS
100
AcDbText
  0
TEXT
  5
689
100
AcDbEntity
  8
0
100
AcDbText
 10
14.308225
 20
7.638
 30
0.0
 40
0.075
  1
 
100
AcDbText
  0
TEXT
  5
68A
100
AcDbEntity
  8
0
100
AcDbText
 10
13.461798
 20
7.638
 30
0.0
 40
0.075
  1
 
100
AcDbText
  0
TEXT
  5
788
100
AcDbEntity
  8
TEXT
100
AcDbText
 10
8.890625
 20
12.625
 30
0.0
 40
0.125
  1
*
 41
0.8
 51
10.0
  7
ROMANS
100
AcDbText
  0
TEXT
  5
789
100
AcDbEntity
  8
TEXT
100
AcDbText
 10
8.890625
 20
13.125
 30
0.0
 40
0.125
  1
*
 41
0.8
 51
10.0
  7
ROMANS
100
AcDbText
  0
TEXT
  5
78B
100
AcDbEntity
  8
TEXT
100
AcDbText
 10
8.890625
 20
13.625
 30
0.0
 40
0.125
  1
*
 41
0.8
 51
10.0
  7
ROMANS
100
AcDbText
  0
TEXT
  5
78D
100
AcDbEntity
  8
TEXT
100
AcDbText
 10
8.890625
 20
14.125
 30
0.0
 40
0.125
  1
*
 41
0.8
 51
10.0
  7
ROMANS
100
AcDbText
  0
TEXT
  5
78F
100
AcDbEntity
  8
TEXT
100
AcDbText
 10
8.890625
 20
12.125
 30
0.0
 40
0.125
  1
*
 41
0.8
 51
10.0
  7
ROMANS
100
AcDbText
  0
TEXT
  5
791
100
AcDbEntity
  8
TEXT
100
AcDbText
 10
8.890625
 20
11.625
 30
0.0
 40
0.125
  1
*
 41
0.8
 51
10.0
  7
ROMANS
100
AcDbText
  0
TEXT
  5
793
100
AcDbEntity
  8
TEXT
100
AcDbText
 10
8.890625
 20
11.125
 30
0.0
 40
0.125
  1
*
 41
0.8
 51
10.0
  7
ROMANS
100
AcDbText
  0
TEXT
  5
795
100
AcDbEntity
  8
TEXT
100
AcDbText
 10
8.890625
 20
10.625
 30
0.0
 40
0.125
  1
*
 41
0.8
 51
10.0
  7
ROMANS
100
AcDbText
  0
TEXT
  5
797
100
AcDbEntity
  8
TEXT
100
AcDbText
 10
8.890625
 20
10.125
 30
0.0
 40
0.125
  1
*
 41
0.8
 51
10.0
  7
ROMANS
100
AcDbText
  0
TEXT
  5
799
100
AcDbEntity
  8
TEXT
100
AcDbText
 10
8.890625
 20
9.625
 30
0.0
 40
0.125
  1
*
 41
0.8
 51
10.0
  7
ROMANS
100
AcDbText
  0
TEXT
  5
79B
100
AcDbEntity
  8
TEXT
100
AcDbText
 10
8.890625
 20
5.125
 30
0.0
 40
0.125
  1
*
 41
0.8
 51
10.0
  7
ROMANS
100
AcDbText
  0
TEXT
  5
79C
100
AcDbEntity
  8
TEXT
100
AcDbText
 10
8.890625
 20
5.625
 30
0.0
 40
0.125
  1
*
 41
0.8
 51
10.0
  7
ROMANS
100
AcDbText
  0
TEXT
  5
79D
100
AcDbEntity
  8
TEXT
100
AcDbText
 10
8.890625
 20
6.125
 30
0.0
 40
0.125
  1
*
 41
0.8
 51
10.0
  7
ROMANS
100
AcDbText
  0
TEXT
  5
79E
100
AcDbEntity
  8
TEXT
100
AcDbText
 10
8.890625
 20
6.625
 30
0.0
 40
0.125
  1
*
 41
0.8
 51
10.0
  7
ROMANS
100
AcDbText
  0
TEXT
  5
79F
100
AcDbEntity
  8
TEXT
100
AcDbText
 10
8.890625
 20
7.125
 30
0.0
 40
0.125
  1
*
 41
0.8
 51
10.0
  7
ROMANS
100
AcDbText
  0
TEXT
  5
7A0
100
AcDbEntity
  8
TEXT
100
AcDbText
 10
8.890625
 20
7.625
 30
0.0
 40
0.125
  1
*
 41
0.8
 51
10.0
  7
ROMANS
100
AcDbText
  0
TEXT
  5
7A1
100
AcDbEntity
  8
TEXT
100
AcDbText
 10
8.890625
 20
8.125
 30
0.0
 40
0.125
  1
*
 41
0.8
 51
10.0
  7
ROMANS
100
AcDbText
  0
TEXT
  5
7A2
100
AcDbEntity
  8
TEXT
100
AcDbText
 10
8.890625
 20
8.625
 30
0.0
 40
0.125
  1
*
 41
0.8
 51
10.0
  7
ROMANS
100
AcDbText
  0
TEXT
  5
7A3
100
AcDbEntity
  8
TEXT
100
AcDbText
 10
8.890625
 20
9.125
 30
0.0
 40
0.125
  1
*
 41
0.8
 51
10.0
  7
ROMANS
100
AcDbText
  0
TEXT
  5
7AF
100
AcDbEntity
  8
TEXT
100
AcDbText
 10
8.890625
 20
2.625
 30
0.0
 40
0.125
  1
*
 41
0.8
 51
10.0
  7
ROMANS
100
AcDbText
  0
TEXT
  5
7B0
100
AcDbEntity
  8
TEXT
100
AcDbText
 10
8.890625
 20
3.125
 30
0.0
 40
0.125
  1
*
 41
0.8
 51
10.0
  7
ROMANS
100
AcDbText
  0
TEXT
  5
7B1
100
AcDbEntity
  8
TEXT
100
AcDbText
 10
8.890625
 20
3.625
 30
0.0
 40
0.125
  1
*
 41
0.8
 51
10.0
  7
ROMANS
100
AcDbText
  0
TEXT
  5
7B2
100
AcDbEntity
  8
TEXT
100
AcDbText
 10
8.890625
 20
4.625
 30
0.0
 40
0.125
  1
*
 41
0.8
 51
10.0
  7
ROMANS
100
AcDbText
  0
TEXT
  5
7B3
100
AcDbEntity
  8
TEXT
100
AcDbText
 10
8.890625
 20
4.125
 30
0.0
 40
0.125
  1
*
 41
0.8
 51
10.0
  7
ROMANS
100
AcDbText
  0
LINE
  5
B3C
100
AcDbEntity
  8
0
100
AcDbLine
 10
6.9375
 20
6.8125
 30
0.0
 11
6.9375
 21
6.5625
 31
0.0
  0
LINE
  5
B5A
100
AcDbEntity
  8
0
100
AcDbLine
 10
6.9375
 20
3.3125
 30
0.0
 11
6.9375
 21
3.0625
 31
0.0
  0
LINE
  5
B5B
100
AcDbEntity
  8
0
100
AcDbLine
 10
6.9375
 20
3.8125
 30
0.0
 11
6.9375
 21
3.5625
 31
0.0
  0
LINE
  5
B5C
100
AcDbEntity
  8
0
100
AcDbLine
 10
6.9375
 20
4.3125
 30
0.0
 11
6.9375
 21
4.0625
 31
0.0
  0
LINE
  5
B5D
100
AcDbEntity
  8
0
100
AcDbLine
 10
6.9375
 20
4.8125
 30
0.0
 11
6.9375
 21
4.5625
 31
0.0
  0
LINE
  5
B5E
100
AcDbEntity
  8
0
100
AcDbLine
 10
6.9375
 20
5.3125
 30
0.0
 11
6.9375
 21
5.0625
 31
0.0
  0
LINE
  5
B5F
100
AcDbEntity
  8
0
100
AcDbLine
 10
6.9375
 20
6.3125
 30
0.0
 11
6.9375
 21
6.0625
 31
0.0
  0
LINE
  5
B60
100
AcDbEntity
  8
0
100
AcDbLine
 10
6.9375
 20
5.8125
 30
0.0
 11
6.9375
 21
5.5625
 31
0.0
  0
LINE
  5
B6A
100
AcDbEntity
  8
0
100
AcDbLine
 10
6.9375
 20
7.3125
 30
0.0
 11
6.9375
 21
7.0625
 31
0.0
  0
LINE
  5
B6B
100
AcDbEntity
  8
0
100
AcDbLine
 10
6.9375
 20
7.8125
 30
0.0
 11
6.9375
 21
7.5625
 31
0.0
  0
LINE
  5
B6C
100
AcDbEntity
  8
0
100
AcDbLine
 10
6.9375
 20
8.3125
 30
0.0
 11
6.9375
 21
8.0625
 31
0.0
  0
LINE
  5
B6D
100
AcDbEntity
  8
0
100
AcDbLine
 10
6.9375
 20
2.8125
 30
0.0
 11
6.9375
 21
2.5625
 31
0.0
  0
TEXT
  5
F9F
100
AcDbEntity
  8
TEXT
100
AcDbText
 10
9.055425
 20
14.625
 30
0.0
 40
0.125
  1
 
 41
0.8
 51
10.0
  7
ROMANS
100
AcDbText
  0
TEXT
  5
FA0
100
AcDbEntity
  8
TEXT
100
AcDbText
 10
9.048325
 20
5.375
 30
0.0
 40
0.125
  1
 
 41
0.8
 51
10.0
  7
ROMANS
100
AcDbText
  0
ENDSEC
  0
SECTION
  2
OBJECTS
  0
DICTIONARY
  5
C
100
AcDbDictionary
  3
ACAD_GROUP
350
D
  3
ACAD_MLINESTYLE
350
E
  0
DICTIONARY
  5
D
102
{ACAD_REACTORS
330
C
102
}
100
AcDbDictionary
  0
DICTIONARY
  5
E
102
{ACAD_REACTORS
330
C
102
}
100
AcDbDictionary
  3
STANDARD
350
1B
  0
MLINESTYLE
  5
1B
102
{ACAD_REACTORS
330
E
102
}
100
AcDbMlineStyle
  2
STANDARD
 70
     0
  3

 62
     0
 51
90.0
 52
90.0
 71
     2
 49
0.5
 62
   256
  6
BYLAYER
 49
-0.5
 62
   256
  6
BYLAYER
  0
ENDSEC
  0
EOF
