  0
SECTION
  2
HEADER
  9
$ACADVER
  1
AC1012
  9
$DWGCODEPAGE
  3
ANSI_1252
  9
$INSBASE
 10
0.359375
 20
0.0625
 30
0.0
  9
$EXTMIN
 10
1.106627
 20
1.90625
 30
0.0
  9
$EXTMAX
 10
8.03125
 20
15.46131
 30
0.0
  9
$LIMMIN
 10
0.0
 20
0.0
  9
$LIMMAX
 10
24.0
 20
18.0
  9
$ORTHOMODE
 70
     1
  9
$REGENMODE
 70
     1
  9
$FILLMODE
 70
     1
  9
$QTEXTMODE
 70
     0
  9
$MIRRTEXT
 70
     0
  9
$DRAGMODE
 70
     2
  9
$LTSCALE
 40
0.25
  9
$OSMODE
 70
     0
  9
$ATTMODE
 70
     1
  9
$TEXTSIZE
 40
0.125
  9
$TRACEWID
 40
0.05
  9
$TEXTSTYLE
  7
ROMANS
  9
$CLAYER
  8
0
  9
$CELTYPE
  6
BYLAYER
  9
$CECOLOR
 62
   256
  9
$CELTSCALE
 40
1.0
  9
$DELOBJ
 70
     1
  9
$DISPSILH
 70
     0
  9
$DIMSCALE
 40
1.0
  9
$DIMASZ
 40
0.18
  9
$DIMEXO
 40
0.0625
  9
$DIMDLI
 40
0.38
  9
$DIMRND
 40
0.0
  9
$DIMDLE
 40
0.0
  9
$DIMEXE
 40
0.18
  9
$DIMTP
 40
0.0
  9
$DIMTM
 40
0.0
  9
$DIMTXT
 40
0.18
  9
$DIMCEN
 40
0.09
  9
$DIMTSZ
 40
0.0
  9
$DIMTOL
 70
     0
  9
$DIMLIM
 70
     0
  9
$DIMTIH
 70
     1
  9
$DIMTOH
 70
     1
  9
$DIMSE1
 70
     0
  9
$DIMSE2
 70
     0
  9
$DIMTAD
 70
     0
  9
$DIMZIN
 70
     0
  9
$DIMBLK
  1

  9
$DIMASO
 70
     1
  9
$DIMSHO
 70
     0
  9
$DIMPOST
  1

  9
$DIMAPOST
  1

  9
$DIMALT
 70
     0
  9
$DIMALTD
 70
     2
  9
$DIMALTF
 40
25.4
  9
$DIMLFAC
 40
1.0
  9
$DIMTOFL
 70
     0
  9
$DIMTVP
 40
0.0
  9
$DIMTIX
 70
     0
  9
$DIMSOXD
 70
     0
  9
$DIMSAH
 70
     0
  9
$DIMBLK1
  1

  9
$DIMBLK2
  1

  9
$DIMSTYLE
  2
STANDARD
  9
$DIMCLRD
 70
     0
  9
$DIMCLRE
 70
     0
  9
$DIMCLRT
 70
     0
  9
$DIMTFAC
 40
1.0
  9
$DIMGAP
 40
0.09
  9
$DIMJUST
 70
     0
  9
$DIMSD1
 70
     0
  9
$DIMSD2
 70
     0
  9
$DIMTOLJ
 70
     1
  9
$DIMTZIN
 70
     0
  9
$DIMALTZ
 70
     0
  9
$DIMALTTZ
 70
     0
  9
$DIMFIT
 70
     5
  9
$DIMUPT
 70
     0
  9
$DIMUNIT
 70
     2
  9
$DIMDEC
 70
     2
  9
$DIMTDEC
 70
     2
  9
$DIMALTU
 70
     2
  9
$DIMALTTD
 70
     2
  9
$DIMTXSTY
  7
ROMANS
  9
$DIMAUNIT
 70
     0
  9
$LUNITS
 70
     2
  9
$LUPREC
 70
     2
  9
$SKETCHINC
 40
0.1
  9
$FILLETRAD
 40
0.0
  9
$AUNITS
 70
     0
  9
$AUPREC
 70
     0
  9
$MENU
  1
ACAD
  9
$ELEVATION
 40
0.0
  9
$PELEVATION
 40
0.0
  9
$THICKNESS
 40
0.0
  9
$LIMCHECK
 70
     0
  9
$BLIPMODE
 70
     0
  9
$CHAMFERA
 40
0.0
  9
$CHAMFERB
 40
0.0
  9
$CHAMFERC
 40
0.0
  9
$CHAMFERD
 40
0.0
  9
$SKPOLY
 70
     0
  9
$TDCREATE
 40
2449378.415001504
  9
$TDUPDATE
 40
2451092.686420486
  9
$TDINDWG
 40
0.1755020833
  9
$TDUSRTIMER
 40
0.1755020833
  9
$USRTIMER
 70
     1
  9
$ANGBASE
 50
0.0
  9
$ANGDIR
 70
     0
  9
$PDMODE
 70
     3
  9
$PDSIZE
 40
0.1
  9
$PLINEWID
 40
0.01
  9
$COORDS
 70
     2
  9
$SPLFRAME
 70
     0
  9
$SPLINETYPE
 70
     6
  9
$SPLINESEGS
 70
     8
  9
$ATTDIA
 70
     0
  9
$ATTREQ
 70
     1
  9
$HANDLING
 70
     1
  9
$HANDSEED
  5
DC
  9
$SURFTAB1
 70
     6
  9
$SURFTAB2
 70
     6
  9
$SURFTYPE
 70
     6
  9
$SURFU
 70
     6
  9
$SURFV
 70
     6
  9
$UCSNAME
  2

  9
$UCSORG
 10
0.0
 20
0.0
 30
0.0
  9
$UCSXDIR
 10
1.0
 20
0.0
 30
0.0
  9
$UCSYDIR
 10
0.0
 20
1.0
 30
0.0
  9
$PUCSNAME
  2

  9
$PUCSORG
 10
0.0
 20
0.0
 30
0.0
  9
$PUCSXDIR
 10
1.0
 20
0.0
 30
0.0
  9
$PUCSYDIR
 10
0.0
 20
1.0
 30
0.0
  9
$USERI1
 70
     0
  9
$USERI2
 70
     0
  9
$USERI3
 70
     0
  9
$USERI4
 70
     0
  9
$USERI5
 70
     0
  9
$USERR1
 40
0.0
  9
$USERR2
 40
0.0
  9
$USERR3
 40
0.0
  9
$USERR4
 40
0.0
  9
$USERR5
 40
0.0
  9
$WORLDVIEW
 70
     1
  9
$SHADEDGE
 70
     3
  9
$SHADEDIF
 70
    70
  9
$TILEMODE
 70
     1
  9
$MAXACTVP
 70
    16
  9
$PINSBASE
 10
0.0
 20
0.0
 30
0.0
  9
$PLIMCHECK
 70
     0
  9
$PEXTMIN
 10
1.000000E+20
 20
1.000000E+20
 30
1.000000E+20
  9
$PEXTMAX
 10
-1.000000E+20
 20
-1.000000E+20
 30
-1.000000E+20
  9
$PLIMMIN
 10
0.0
 20
0.0
  9
$PLIMMAX
 10
12.0
 20
9.0
  9
$UNITMODE
 70
     0
  9
$VISRETAIN
 70
     0
  9
$PLINEGEN
 70
     0
  9
$PSLTSCALE
 70
     0
  9
$TREEDEPTH
 70
  3020
  9
$PICKSTYLE
 70
     1
  9
$CMLSTYLE
  2
STANDARD
  9
$CMLJUST
 70
     0
  9
$CMLSCALE
 40
1.0
  9
$SAVEIMAGES
 70
     1
  0
ENDSEC
  0
SECTION
  2
CLASSES
  0
CLASS
  1
DICTIONARYVAR
  2
AcDbDictionaryVar
  3
"AutoCAD"
 90
    32768
280
     0
281
     0
  0
CLASS
  1
LWPOLYLINE
  2
AcDbPolyline
  3
"AutoCAD"
 90
    32768
280
     0
281
     1
  0
ENDSEC
  0
SECTION
  2
TABLES
  0
TABLE
  2
VPORT
  5
C6
100
AcDbSymbolTable
 70
     2
  0
VPORT
  5
DB
100
AcDbSymbolTableRecord
100
AcDbViewportTableRecord
  2
*ACTIVE
 70
     0
 10
0.0
 20
0.0
 11
1.0
 21
1.0
 12
14.270398
 22
7.8915
 13
0.0
 23
0.0
 14
0.001
 24
0.001
 15
1.0
 25
1.0
 16
0.0
 26
0.0
 36
1.0
 17
0.0
 27
0.0
 37
0.0
 40
15.739
 41
1.810585
 42
50.0
 43
0.0
 44
0.0
 50
0.0
 51
0.0
 71
     0
 72
   100
 73
     1
 74
     0
 75
     1
 76
     0
 77
     0
 78
     0
  0
ENDTAB
  0
TABLE
  2
LTYPE
  5
C1
100
AcDbSymbolTable
 70
     1
  0
LTYPE
  5
C2
100
AcDbSymbolTableRecord
100
AcDbLinetypeTableRecord
  2
BYBLOCK
 70
     0
  3

 72
    65
 73
     0
 40
0.0
  0
LTYPE
  5
C3
100
AcDbSymbolTableRecord
100
AcDbLinetypeTableRecord
  2
BYLAYER
 70
     0
  3

 72
    65
 73
     0
 40
0.0
  0
LTYPE
  5
5
100
AcDbSymbolTableRecord
100
AcDbLinetypeTableRecord
  2
CONTINUOUS
 70
     0
  3
Solid line
 72
    65
 73
     0
 40
0.0
  0
ENDTAB
  0
TABLE
  2
LAYER
  5
BE
100
AcDbSymbolTable
 70
     2
  0
LAYER
  5
9
100
AcDbSymbolTableRecord
100
AcDbLayerTableRecord
  2
0
 70
     0
 62
     7
  6
CONTINUOUS
  0
LAYER
  5
4
100
AcDbSymbolTableRecord
100
AcDbLayerTableRecord
  2
TEXT
 70
     0
 62
     2
  6
CONTINUOUS
  0
ENDTAB
  0
TABLE
  2
STYLE
  5
BF
100
AcDbSymbolTable
 70
     3
  0
STYLE
  5
C0
100
AcDbSymbolTableRecord
100
AcDbTextStyleTableRecord
  2
STANDARD
 70
     0
 40
0.0
 41
1.0
 50
0.0
 71
     0
 42
0.2
  3
txt
  4

  0
STYLE
  5
6
100
AcDbSymbolTableRecord
100
AcDbTextStyleTableRecord
  2
ROMANS
 70
     0
 40
0.0
 41
0.8
 50
10.0
 71
     0
 42
0.125
  3
romans
  4

  0
STYLE
  5
69
100
AcDbSymbolTableRecord
100
AcDbTextStyleTableRecord
  2

 70
     1
 40
0.0
 41
0.75
 50
0.0
 71
     0
 42
0.125
  3
ELEC
  4

  0
ENDTAB
  0
TABLE
  2
VIEW
  5
C4
100
AcDbSymbolTable
 70
     0
  0
ENDTAB
  0
TABLE
  2
UCS
  5
C5
100
AcDbSymbolTable
 70
     0
  0
ENDTAB
  0
TABLE
  2
APPID
  5
C8
100
AcDbSymbolTable
 70
     1
  0
APPID
  5
C9
100
AcDbSymbolTableRecord
100
AcDbRegAppTableRecord
  2
ACAD
 70
     0
  0
ENDTAB
  0
TABLE
  2
DIMSTYLE
  5
CA
100
AcDbSymbolTable
 70
     1
  0
DIMSTYLE
105
D0
100
AcDbSymbolTableRecord
100
AcDbDimStyleTableRecord
  2
STANDARD
 70
     0
  3

  4

  5

  6

  7

 40
1.0
 41
0.18
 42
0.0625
 43
0.38
 44
0.18
 45
0.0
 46
0.0
 47
0.0
 48
0.0
140
0.18
141
0.09
142
0.0
143
25.4
144
1.0
145
0.0
146
1.0
147
0.09
 71
     0
 72
     0
 73
     1
 74
     1
 75
     0
 76
     0
 77
     0
 78
     0
170
     0
171
     2
172
     0
173
     0
174
     0
175
     0
176
     0
177
     0
178
     0
270
     2
271
     4
272
     4
273
     2
274
     2
340
C0
275
     0
280
     0
281
     0
282
     0
283
     1
284
     0
285
     0
286
     0
287
     3
288
     0
  0
ENDTAB
  0
TABLE
  2
BLOCK_RECORD
  5
1
100
AcDbSymbolTable
 70
     0
  0
BLOCK_RECORD
  5
2
100
AcDbSymbolTableRecord
100
AcDbBlockTableRecord
  2
*MODEL_SPACE
  0
BLOCK_RECORD
  5
BB
100
AcDbSymbolTableRecord
100
AcDbBlockTableRecord
  2
*PAPER_SPACE
  0
ENDTAB
  0
ENDSEC
  0
SECTION
  2
BLOCKS
  0
BLOCK
  5
B9
100
AcDbEntity
  8
0
100
AcDbBlockBegin
  2
*MODEL_SPACE
 70
     0
 10
0.0
 20
0.0
 30
0.0
  3
*MODEL_SPACE
  1

  0
ENDBLK
  5
BA
100
AcDbEntity
  8
0
100
AcDbBlockEnd
  0
BLOCK
  5
BC
100
AcDbEntity
 67
     1
  8
0
100
AcDbBlockBegin
  2
*PAPER_SPACE
 70
     0
 10
0.0
 20
0.0
 30
0.0
  3
*PAPER_SPACE
  1

  0
ENDBLK
  5
BD
100
AcDbEntity
 67
     1
  8
0
100
AcDbBlockEnd
  0
ENDSEC
  0
SECTION
  2
ENTITIES
  0
TEXT
  5
3
100
AcDbEntity
  8
TEXT
100
AcDbText
 10
2.750179
 20
14.45997
 30
0.0
 40
0.1
  1
LISTED BELOW 
 41
0.8
  7
ROMANS
 72
     4
 11
3.21875
 21
14.50997
 31
0.0
100
AcDbText
  0
TEXT
  5
7
100
AcDbEntity
  8
TEXT
100
AcDbText
 10
2.563512
 20
14.621875
 30
0.0
 40
0.1
  1
INTERNAL ADDRESSES
 41
0.8
  7
ROMANS
 72
     4
 11
3.21875
 21
14.671875
 31
0.0
100
AcDbText
  0
LINE
  5
8
100
AcDbEntity
  8
0
100
AcDbLine
 10
2.484375
 20
14.8125
 30
0.0
 11
4.03125
 21
14.8125
 31
0.0
  0
LINE
  5
A
100
AcDbEntity
  8
0
100
AcDbLine
 10
2.484375
 20
1.90625
 30
0.0
 11
2.484375
 21
14.8125
 31
0.0
  0
LINE
  5
B
100
AcDbEntity
  8
0
100
AcDbLine
 10
4.03125
 20
1.90625
 30
0.0
 11
2.484375
 21
1.90625
 31
0.0
  0
LINE
  5
C
100
AcDbEntity
  8
0
100
AcDbLine
 10
4.03125
 20
14.8125
 30
0.0
 11
4.03125
 21
1.90625
 31
0.0
  0
LINE
  5
D
100
AcDbEntity
  8
0
100
AcDbLine
 10
4.28125
 20
14.28125
 30
0.0
 11
4.28125
 21
14.03125
 31
0.0
  0
LINE
  5
E
100
AcDbEntity
  8
0
100
AcDbLine
 10
4.03125
 20
14.28125
 30
0.0
 11
4.28125
 21
14.28125
 31
0.0
  0
LINE
  5
F
100
AcDbEntity
  8
0
100
AcDbLine
 10
4.03125
 20
14.03125
 30
0.0
 11
4.28125
 21
14.03125
 31
0.0
  0
LINE
  5
10
100
AcDbEntity
  8
0
100
AcDbLine
 10
4.03125
 20
13.53125
 30
0.0
 11
4.28125
 21
13.53125
 31
0.0
  0
LINE
  5
11
100
AcDbEntity
  8
0
100
AcDbLine
 10
4.03125
 20
13.78125
 30
0.0
 11
4.28125
 21
13.78125
 31
0.0
  0
LINE
  5
12
100
AcDbEntity
  8
0
100
AcDbLine
 10
4.28125
 20
13.78125
 30
0.0
 11
4.28125
 21
13.53125
 31
0.0
  0
LINE
  5
13
100
AcDbEntity
  8
0
100
AcDbLine
 10
4.03125
 20
13.03125
 30
0.0
 11
4.28125
 21
13.03125
 31
0.0
  0
LINE
  5
14
100
AcDbEntity
  8
0
100
AcDbLine
 10
4.03125
 20
13.28125
 30
0.0
 11
4.28125
 21
13.28125
 31
0.0
  0
LINE
  5
15
100
AcDbEntity
  8
0
100
AcDbLine
 10
4.28125
 20
13.28125
 30
0.0
 11
4.28125
 21
13.03125
 31
0.0
  0
LINE
  5
16
100
AcDbEntity
  8
0
100
AcDbLine
 10
4.03125
 20
12.53125
 30
0.0
 11
4.28125
 21
12.53125
 31
0.0
  0
LINE
  5
17
100
AcDbEntity
  8
0
100
AcDbLine
 10
4.03125
 20
12.78125
 30
0.0
 11
4.28125
 21
12.78125
 31
0.0
  0
LINE
  5
18
100
AcDbEntity
  8
0
100
AcDbLine
 10
4.28125
 20
12.78125
 30
0.0
 11
4.28125
 21
12.53125
 31
0.0
  0
LINE
  5
19
100
AcDbEntity
  8
0
100
AcDbLine
 10
4.03125
 20
12.03125
 30
0.0
 11
4.28125
 21
12.03125
 31
0.0
  0
LINE
  5
1A
100
AcDbEntity
  8
0
100
AcDbLine
 10
4.03125
 20
12.28125
 30
0.0
 11
4.28125
 21
12.28125
 31
0.0
  0
LINE
  5
1B
100
AcDbEntity
  8
0
100
AcDbLine
 10
4.28125
 20
12.28125
 30
0.0
 11
4.28125
 21
12.03125
 31
0.0
  0
LINE
  5
1C
100
AcDbEntity
  8
0
100
AcDbLine
 10
4.03125
 20
11.53125
 30
0.0
 11
4.28125
 21
11.53125
 31
0.0
  0
LINE
  5
1D
100
AcDbEntity
  8
0
100
AcDbLine
 10
4.03125
 20
11.78125
 30
0.0
 11
4.28125
 21
11.78125
 31
0.0
  0
LINE
  5
1E
100
AcDbEntity
  8
0
100
AcDbLine
 10
4.28125
 20
11.78125
 30
0.0
 11
4.28125
 21
11.53125
 31
0.0
  0
LINE
  5
1F
100
AcDbEntity
  8
0
100
AcDbLine
 10
4.03125
 20
11.03125
 30
0.0
 11
4.28125
 21
11.03125
 31
0.0
  0
LINE
  5
20
100
AcDbEntity
  8
0
100
AcDbLine
 10
4.03125
 20
11.28125
 30
0.0
 11
4.28125
 21
11.28125
 31
0.0
  0
LINE
  5
21
100
AcDbEntity
  8
0
100
AcDbLine
 10
4.28125
 20
11.28125
 30
0.0
 11
4.28125
 21
11.03125
 31
0.0
  0
LINE
  5
22
100
AcDbEntity
  8
0
100
AcDbLine
 10
4.03125
 20
10.53125
 30
0.0
 11
4.28125
 21
10.53125
 31
0.0
  0
LINE
  5
23
100
AcDbEntity
  8
0
100
AcDbLine
 10
4.03125
 20
10.78125
 30
0.0
 11
4.28125
 21
10.78125
 31
0.0
  0
LINE
  5
24
100
AcDbEntity
  8
0
100
AcDbLine
 10
4.28125
 20
10.78125
 30
0.0
 11
4.28125
 21
10.53125
 31
0.0
  0
LINE
  5
25
100
AcDbEntity
  8
0
100
AcDbLine
 10
4.03125
 20
10.03125
 30
0.0
 11
4.28125
 21
10.03125
 31
0.0
  0
LINE
  5
26
100
AcDbEntity
  8
0
100
AcDbLine
 10
4.03125
 20
10.28125
 30
0.0
 11
4.28125
 21
10.28125
 31
0.0
  0
LINE
  5
27
100
AcDbEntity
  8
0
100
AcDbLine
 10
4.28125
 20
10.28125
 30
0.0
 11
4.28125
 21
10.03125
 31
0.0
  0
LINE
  5
28
100
AcDbEntity
  8
0
100
AcDbLine
 10
4.03125
 20
9.53125
 30
0.0
 11
4.28125
 21
9.53125
 31
0.0
  0
LINE
  5
29
100
AcDbEntity
  8
0
100
AcDbLine
 10
4.03125
 20
9.78125
 30
0.0
 11
4.28125
 21
9.78125
 31
0.0
  0
LINE
  5
2A
100
AcDbEntity
  8
0
100
AcDbLine
 10
4.28125
 20
9.78125
 30
0.0
 11
4.28125
 21
9.53125
 31
0.0
  0
LINE
  5
2B
100
AcDbEntity
  8
0
100
AcDbLine
 10
4.03125
 20
9.03125
 30
0.0
 11
4.28125
 21
9.03125
 31
0.0
  0
LINE
  5
2C
100
AcDbEntity
  8
0
100
AcDbLine
 10
4.03125
 20
9.28125
 30
0.0
 11
4.28125
 21
9.28125
 31
0.0
  0
LINE
  5
2D
100
AcDbEntity
  8
0
100
AcDbLine
 10
4.28125
 20
9.28125
 30
0.0
 11
4.28125
 21
9.03125
 31
0.0
  0
LINE
  5
2E
100
AcDbEntity
  8
0
100
AcDbLine
 10
4.03125
 20
8.53125
 30
0.0
 11
4.28125
 21
8.53125
 31
0.0
  0
LINE
  5
2F
100
AcDbEntity
  8
0
100
AcDbLine
 10
4.03125
 20
8.78125
 30
0.0
 11
4.28125
 21
8.78125
 31
0.0
  0
LINE
  5
30
100
AcDbEntity
  8
0
100
AcDbLine
 10
4.28125
 20
8.78125
 30
0.0
 11
4.28125
 21
8.53125
 31
0.0
  0
LINE
  5
31
100
AcDbEntity
  8
0
100
AcDbLine
 10
4.03125
 20
8.03125
 30
0.0
 11
4.28125
 21
8.03125
 31
0.0
  0
LINE
  5
32
100
AcDbEntity
  8
0
100
AcDbLine
 10
4.03125
 20
8.28125
 30
0.0
 11
4.28125
 21
8.28125
 31
0.0
  0
LINE
  5
33
100
AcDbEntity
  8
0
100
AcDbLine
 10
4.28125
 20
8.28125
 30
0.0
 11
4.28125
 21
8.03125
 31
0.0
  0
LINE
  5
34
100
AcDbEntity
  8
0
100
AcDbLine
 10
4.03125
 20
7.53125
 30
0.0
 11
4.28125
 21
7.53125
 31
0.0
  0
LINE
  5
35
100
AcDbEntity
  8
0
100
AcDbLine
 10
4.03125
 20
7.78125
 30
0.0
 11
4.28125
 21
7.78125
 31
0.0
  0
LINE
  5
36
100
AcDbEntity
  8
0
100
AcDbLine
 10
4.28125
 20
7.78125
 30
0.0
 11
4.28125
 21
7.53125
 31
0.0
  0
LINE
  5
37
100
AcDbEntity
  8
0
100
AcDbLine
 10
4.03125
 20
7.03125
 30
0.0
 11
4.28125
 21
7.03125
 31
0.0
  0
LINE
  5
38
100
AcDbEntity
  8
0
100
AcDbLine
 10
4.03125
 20
7.28125
 30
0.0
 11
4.28125
 21
7.28125
 31
0.0
  0
LINE
  5
39
100
AcDbEntity
  8
0
100
AcDbLine
 10
4.28125
 20
7.28125
 30
0.0
 11
4.28125
 21
7.03125
 31
0.0
  0
LINE
  5
3A
100
AcDbEntity
  8
0
100
AcDbLine
 10
4.03125
 20
6.53125
 30
0.0
 11
4.28125
 21
6.53125
 31
0.0
  0
LINE
  5
3B
100
AcDbEntity
  8
0
100
AcDbLine
 10
4.03125
 20
6.78125
 30
0.0
 11
4.28125
 21
6.78125
 31
0.0
  0
LINE
  5
3C
100
AcDbEntity
  8
0
100
AcDbLine
 10
4.28125
 20
6.78125
 30
0.0
 11
4.28125
 21
6.53125
 31
0.0
  0
LINE
  5
3D
100
AcDbEntity
  8
0
100
AcDbLine
 10
4.03125
 20
6.03125
 30
0.0
 11
4.28125
 21
6.03125
 31
0.0
  0
LINE
  5
3E
100
AcDbEntity
  8
0
100
AcDbLine
 10
4.03125
 20
6.28125
 30
0.0
 11
4.28125
 21
6.28125
 31
0.0
  0
LINE
  5
3F
100
AcDbEntity
  8
0
100
AcDbLine
 10
4.28125
 20
6.28125
 30
0.0
 11
4.28125
 21
6.03125
 31
0.0
  0
LINE
  5
40
100
AcDbEntity
  8
0
100
AcDbLine
 10
4.03125
 20
5.53125
 30
0.0
 11
4.28125
 21
5.53125
 31
0.0
  0
LINE
  5
41
100
AcDbEntity
  8
0
100
AcDbLine
 10
4.03125
 20
5.78125
 30
0.0
 11
4.28125
 21
5.78125
 31
0.0
  0
LINE
  5
42
100
AcDbEntity
  8
0
100
AcDbLine
 10
4.28125
 20
5.78125
 30
0.0
 11
4.28125
 21
5.53125
 31
0.0
  0
LINE
  5
43
100
AcDbEntity
  8
0
100
AcDbLine
 10
4.03125
 20
5.03125
 30
0.0
 11
4.28125
 21
5.03125
 31
0.0
  0
LINE
  5
44
100
AcDbEntity
  8
0
100
AcDbLine
 10
4.03125
 20
5.28125
 30
0.0
 11
4.28125
 21
5.28125
 31
0.0
  0
LINE
  5
45
100
AcDbEntity
  8
0
100
AcDbLine
 10
4.28125
 20
5.28125
 30
0.0
 11
4.28125
 21
5.03125
 31
0.0
  0
LINE
  5
46
100
AcDbEntity
  8
0
100
AcDbLine
 10
4.03125
 20
4.53125
 30
0.0
 11
4.28125
 21
4.53125
 31
0.0
  0
LINE
  5
47
100
AcDbEntity
  8
0
100
AcDbLine
 10
4.03125
 20
4.78125
 30
0.0
 11
4.28125
 21
4.78125
 31
0.0
  0
LINE
  5
48
100
AcDbEntity
  8
0
100
AcDbLine
 10
4.28125
 20
4.78125
 30
0.0
 11
4.28125
 21
4.53125
 31
0.0
  0
LINE
  5
49
100
AcDbEntity
  8
0
100
AcDbLine
 10
4.03125
 20
4.03125
 30
0.0
 11
4.28125
 21
4.03125
 31
0.0
  0
LINE
  5
4A
100
AcDbEntity
  8
0
100
AcDbLine
 10
4.03125
 20
4.28125
 30
0.0
 11
4.28125
 21
4.28125
 31
0.0
  0
LINE
  5
4B
100
AcDbEntity
  8
0
100
AcDbLine
 10
4.28125
 20
4.28125
 30
0.0
 11
4.28125
 21
4.03125
 31
0.0
  0
LINE
  5
4C
100
AcDbEntity
  8
0
100
AcDbLine
 10
4.03125
 20
3.53125
 30
0.0
 11
4.28125
 21
3.53125
 31
0.0
  0
LINE
  5
4D
100
AcDbEntity
  8
0
100
AcDbLine
 10
4.03125
 20
3.78125
 30
0.0
 11
4.28125
 21
3.78125
 31
0.0
  0
LINE
  5
4E
100
AcDbEntity
  8
0
100
AcDbLine
 10
4.28125
 20
3.78125
 30
0.0
 11
4.28125
 21
3.53125
 31
0.0
  0
LINE
  5
4F
100
AcDbEntity
  8
0
100
AcDbLine
 10
4.03125
 20
3.03125
 30
0.0
 11
4.28125
 21
3.03125
 31
0.0
  0
LINE
  5
50
100
AcDbEntity
  8
0
100
AcDbLine
 10
4.03125
 20
3.28125
 30
0.0
 11
4.28125
 21
3.28125
 31
0.0
  0
LINE
  5
51
100
AcDbEntity
  8
0
100
AcDbLine
 10
4.28125
 20
3.28125
 30
0.0
 11
4.28125
 21
3.03125
 31
0.0
  0
LINE
  5
52
100
AcDbEntity
  8
0
100
AcDbLine
 10
4.03125
 20
2.03125
 30
0.0
 11
4.28125
 21
2.03125
 31
0.0
  0
LINE
  5
53
100
AcDbEntity
  8
0
100
AcDbLine
 10
4.03125
 20
2.28125
 30
0.0
 11
4.28125
 21
2.28125
 31
0.0
  0
LINE
  5
54
100
AcDbEntity
  8
0
100
AcDbLine
 10
4.28125
 20
2.28125
 30
0.0
 11
4.28125
 21
2.03125
 31
0.0
  0
TEXT
  5
55
100
AcDbEntity
  8
TEXT
100
AcDbText
 10
2.835714
 20
15.3125
 30
0.0
 40
0.125
  1
CARD# --
 41
0.8
 51
10.0
  7
ROMANS
 72
     1
 11
3.25
 21
15.3125
 31
0.0
100
AcDbText
  0
TEXT
  5
56
100
AcDbEntity
  8
TEXT
100
AcDbText
 10
2.635714
 20
15.110119
 30
0.0
 40
0.125
  1
ANALOG OUTPUT
 41
0.8
 51
10.0
  7
ROMANS
 72
     1
 11
3.25
 21
15.110119
 31
0.0
100
AcDbText
  0
TEXT
  5
57
100
AcDbEntity
  8
TEXT
100
AcDbText
 10
2.65
 20
14.907738
 30
0.0
 40
0.125
  1
502-03518-02
 41
0.8
 51
10.0
  7
ROMANS
 72
     1
 11
3.25
 21
14.907738
 31
0.0
100
AcDbText
  0
TEXT
  5
58
100
AcDbEntity
  8
TEXT
100
AcDbText
 10
3.15625
 20
14.09375
 30
0.0
 40
0.1
  1
CH1
 41
0.8
 51
10.0
  7
ROMANS
100
AcDbText
  0
TEXT
  5
59
100
AcDbEntity
  8
TEXT
100
AcDbText
 10
3.15625
 20
13.125
 30
0.0
 40
0.1
  1
CH1
 41
0.8
 51
10.0
  7
ROMANS
100
AcDbText
  0
TEXT
  5
5A
100
AcDbEntity
  8
TEXT
100
AcDbText
 10
3.15625
 20
13.59375
 30
0.0
 40
0.1
  1
CH2
 41
0.8
 51
10.0
  7
ROMANS
100
AcDbText
  0
TEXT
  5
5B
100
AcDbEntity
  8
TEXT
100
AcDbText
 10
3.15625
 20
12.59375
 30
0.0
 40
0.1
  1
CH2
 41
0.8
 51
10.0
  7
ROMANS
100
AcDbText
  0
TEXT
  5
5C
100
AcDbEntity
  8
TEXT
100
AcDbText
 10
3.15625
 20
12.09375
 30
0.0
 40
0.1
  1
CH3
 41
0.8
 51
10.0
  7
ROMANS
100
AcDbText
  0
TEXT
  5
5D
100
AcDbEntity
  8
TEXT
100
AcDbText
 10
3.15625
 20
11.625
 30
0.0
 40
0.1
  1
CH4
 41
0.8
 51
10.0
  7
ROMANS
100
AcDbText
  0
TEXT
  5
5E
100
AcDbEntity
  8
TEXT
100
AcDbText
 10
3.15625
 20
11.125
 30
0.0
 40
0.1
  1
CH3
 41
0.8
 51
10.0
  7
ROMANS
100
AcDbText
  0
TEXT
  5
5F
100
AcDbEntity
  8
TEXT
100
AcDbText
 10
3.15625
 20
10.59375
 30
0.0
 40
0.1
  1
CH4
 41
0.8
 51
10.0
  7
ROMANS
100
AcDbText
  0
LINE
  5
60
100
AcDbEntity
  8
TEXT
100
AcDbLine
 10
3.125
 20
13.28125
 30
0.0
 11
3.40625
 21
13.28125
 31
0.0
  0
LINE
  5
61
100
AcDbEntity
  8
TEXT
100
AcDbLine
 10
3.125
 20
12.75
 30
0.0
 11
3.40625
 21
12.75
 31
0.0
  0
LINE
  5
62
100
AcDbEntity
  8
TEXT
100
AcDbLine
 10
3.125
 20
11.28125
 30
0.0
 11
3.40625
 21
11.28125
 31
0.0
  0
LINE
  5
63
100
AcDbEntity
  8
TEXT
100
AcDbLine
 10
3.125
 20
10.78125
 30
0.0
 11
3.40625
 21
10.78125
 31
0.0
  0
LINE
  5
64
100
AcDbEntity
  8
0
100
AcDbLine
 10
4.28125
 20
2.75
 30
0.0
 11
4.28125
 21
2.5
 31
0.0
  0
LINE
  5
65
100
AcDbEntity
  8
0
100
AcDbLine
 10
4.03125
 20
2.75
 30
0.0
 11
4.28125
 21
2.75
 31
0.0
  0
LINE
  5
66
100
AcDbEntity
  8
0
100
AcDbLine
 10
4.03125
 20
2.5
 30
0.0
 11
4.28125
 21
2.5
 31
0.0
  0
LINE
  5
67
100
AcDbEntity
  8
0
100
AcDbLine
 10
4.28125
 20
2.15625
 30
0.0
 11
5.0625
 21
2.15625
 31
0.0
  0
SHAPE
  5
68
100
AcDbEntity
  8
0
100
AcDbShape
 10
5.0625
 20
2.15625
 30
0.0
 40
1.0
 70
   168
  0
TEXT
  5
6A
100
AcDbEntity
  8
TEXT
100
AcDbText
 10
5.21875
 20
2.0
 30
0.0
 40
0.1
  1
SPG
 41
0.8
 51
10.0
  7
ROMANS
100
AcDbText
  0
TEXT
  5
6B
100
AcDbEntity
  8
TEXT
100
AcDbText
 10
3.15625
 20
8.59375
 30
0.0
 40
0.1
  1
CH6
 41
0.8
 51
10.0
  7
ROMANS
100
AcDbText
  0
LINE
  5
6C
100
AcDbEntity
  8
TEXT
100
AcDbLine
 10
3.125
 20
8.78125
 30
0.0
 11
3.40625
 21
8.78125
 31
0.0
  0
LINE
  5
6D
100
AcDbEntity
  8
TEXT
100
AcDbLine
 10
3.125
 20
9.28125
 30
0.0
 11
3.40625
 21
9.28125
 31
0.0
  0
TEXT
  5
6E
100
AcDbEntity
  8
TEXT
100
AcDbText
 10
3.15625
 20
9.125
 30
0.0
 40
0.1
  1
CH5
 41
0.8
 51
10.0
  7
ROMANS
100
AcDbText
  0
TEXT
  5
6F
100
AcDbEntity
  8
TEXT
100
AcDbText
 10
3.15625
 20
9.625
 30
0.0
 40
0.1
  1
CH6
 41
0.8
 51
10.0
  7
ROMANS
100
AcDbText
  0
TEXT
  5
70
100
AcDbEntity
  8
TEXT
100
AcDbText
 10
3.15625
 20
10.09375
 30
0.0
 40
0.1
  1
CH5
 41
0.8
 51
10.0
  7
ROMANS
100
AcDbText
  0
TEXT
  5
71
100
AcDbEntity
  8
TEXT
100
AcDbText
 10
3.15625
 20
6.59375
 30
0.0
 40
0.1
  1
CH8
 41
0.8
 51
10.0
  7
ROMANS
100
AcDbText
  0
LINE
  5
72
100
AcDbEntity
  8
TEXT
100
AcDbLine
 10
3.125
 20
6.78125
 30
0.0
 11
3.40625
 21
6.78125
 31
0.0
  0
TEXT
  5
73
100
AcDbEntity
  8
TEXT
100
AcDbText
 10
3.15625
 20
7.625
 30
0.0
 40
0.1
  1
CH8
 41
0.8
 51
10.0
  7
ROMANS
100
AcDbText
  0
TEXT
  5
74
100
AcDbEntity
  8
TEXT
100
AcDbText
 10
3.15625
 20
7.125
 30
0.0
 40
0.1
  1
CH7
 41
0.8
 51
10.0
  7
ROMANS
100
AcDbText
  0
LINE
  5
75
100
AcDbEntity
  8
TEXT
100
AcDbLine
 10
3.125
 20
7.28125
 30
0.0
 11
3.40625
 21
7.28125
 31
0.0
  0
TEXT
  5
76
100
AcDbEntity
  8
TEXT
100
AcDbText
 10
3.15625
 20
8.09375
 30
0.0
 40
0.1
  1
CH7
 41
0.8
 51
10.0
  7
ROMANS
100
AcDbText
  0
LINE
  5
77
100
AcDbEntity
  8
0
100
AcDbLine
 10
8.03125
 20
3.85125
 30
0.0
 11
6.03125
 21
3.85125
 31
0.0
  0
LINE
  5
78
100
AcDbEntity
  8
0
100
AcDbLine
 10
8.03125
 20
3.85125
 30
0.0
 11
8.03125
 21
3.01825
 31
0.0
  0
LINE
  5
79
100
AcDbEntity
  8
0
100
AcDbLine
 10
8.03125
 20
3.01825
 30
0.0
 11
6.03125
 21
3.01825
 31
0.0
  0
LINE
  5
7A
100
AcDbEntity
  8
0
100
AcDbLine
 10
6.03125
 20
3.85125
 30
0.0
 11
6.03125
 21
3.01825
 31
0.0
  0
TEXT
  5
7B
100
AcDbEntity
  8
TEXT
100
AcDbText
 10
6.18125
 20
3.55125
 30
0.0
 40
0.1
  1
NOTE: The Analog Output
 41
0.8
 51
10.0
  7
ROMANS
100
AcDbText
  0
TEXT
  5
7C
100
AcDbEntity
  8
TEXT
100
AcDbText
 10
6.18125
 20
3.40125
 30
0.0
 40
0.1
  1
     CAN BE LIMITED
 41
0.8
 51
10.0
  7
ROMANS
100
AcDbText
  0
TEXT
  5
7D
100
AcDbEntity
  8
TEXT
100
AcDbText
 10
6.18125
 20
3.25125
 30
0.0
 40
0.1
  1
     (In Software)
 41
0.8
 51
10.0
  7
ROMANS
100
AcDbText
  0
TEXT
  5
7E
100
AcDbEntity
  8
0
100
AcDbText
 10
6.18125
 20
3.10125
 30
0.0
 40
0.1
  1
 
 41
0.8
 51
10.0
  7
ROMANS
100
AcDbText
  0
TEXT
  5
7F
100
AcDbEntity
  8
TEXT
100
AcDbText
 10
2.196151
 20
14.122348
 30
0.0
 40
0.1
  1
*
 41
0.8
  7
ROMANS
 72
     2
 11
2.245675
 21
14.122348
 31
0.0
100
AcDbText
  0
TEXT
  5
80
100
AcDbEntity
  8
TEXT
100
AcDbText
 10
1.842675
 20
13.972348
 30
0.0
 40
0.1
  1
 
 41
0.8
  7
ROMANS
 72
     2
 11
1.922675
 21
13.972348
 31
0.0
100
AcDbText
  0
TEXT
  5
81
100
AcDbEntity
  8
TEXT
100
AcDbText
 10
2.196151
 20
13.622348
 30
0.0
 40
0.1
  1
*
 41
0.8
  7
ROMANS
 72
     2
 11
2.245675
 21
13.622348
 31
0.0
100
AcDbText
  0
TEXT
  5
82
100
AcDbEntity
  8
TEXT
100
AcDbText
 10
1.842675
 20
13.472348
 30
0.0
 40
0.1
  1
 
 41
0.8
  7
ROMANS
 72
     2
 11
1.922675
 21
13.472348
 31
0.0
100
AcDbText
  0
TEXT
  5
83
100
AcDbEntity
  8
TEXT
100
AcDbText
 10
1.842675
 20
11.472348
 30
0.0
 40
0.1
  1
 
 41
0.8
  7
ROMANS
 72
     2
 11
1.922675
 21
11.472348
 31
0.0
100
AcDbText
  0
TEXT
  5
84
100
AcDbEntity
  8
TEXT
100
AcDbText
 10
1.842675
 20
11.972348
 30
0.0
 40
0.1
  1
 
 41
0.8
  7
ROMANS
 72
     2
 11
1.922675
 21
11.972348
 31
0.0
100
AcDbText
  0
TEXT
  5
85
100
AcDbEntity
  8
TEXT
100
AcDbText
 10
2.196151
 20
11.622348
 30
0.0
 40
0.1
  1
*
 41
0.8
  7
ROMANS
 72
     2
 11
2.245675
 21
11.622348
 31
0.0
100
AcDbText
  0
TEXT
  5
86
100
AcDbEntity
  8
TEXT
100
AcDbText
 10
2.196151
 20
12.122348
 30
0.0
 40
0.1
  1
*
 41
0.8
  7
ROMANS
 72
     2
 11
2.245675
 21
12.122348
 31
0.0
100
AcDbText
  0
TEXT
  5
87
100
AcDbEntity
  8
TEXT
100
AcDbText
 10
1.842675
 20
9.472348
 30
0.0
 40
0.1
  1
 
 41
0.8
  7
ROMANS
 72
     2
 11
1.922675
 21
9.472348
 31
0.0
100
AcDbText
  0
TEXT
  5
88
100
AcDbEntity
  8
TEXT
100
AcDbText
 10
1.842675
 20
9.972348
 30
0.0
 40
0.1
  1
 
 41
0.8
  7
ROMANS
 72
     2
 11
1.922675
 21
9.972348
 31
0.0
100
AcDbText
  0
TEXT
  5
89
100
AcDbEntity
  8
TEXT
100
AcDbText
 10
2.196151
 20
9.622348
 30
0.0
 40
0.1
  1
*
 41
0.8
  7
ROMANS
 72
     2
 11
2.245675
 21
9.622348
 31
0.0
100
AcDbText
  0
TEXT
  5
8A
100
AcDbEntity
  8
TEXT
100
AcDbText
 10
2.196151
 20
10.122348
 30
0.0
 40
0.1
  1
*
 41
0.8
  7
ROMANS
 72
     2
 11
2.245675
 21
10.122348
 31
0.0
100
AcDbText
  0
TEXT
  5
8B
100
AcDbEntity
  8
TEXT
100
AcDbText
 10
1.266627
 20
13.122348
 30
0.0
 40
0.1
  1
Ch #1 Common
 41
0.8
  7
ROMANS
 72
     2
 11
2.245675
 21
13.122348
 31
0.0
100
AcDbText
  0
TEXT
  5
8C
100
AcDbEntity
  8
TEXT
100
AcDbText
 10
1.266627
 20
12.622348
 30
0.0
 40
0.1
  1
Ch #2 Common
 41
0.8
  7
ROMANS
 72
     2
 11
2.245675
 21
12.622348
 31
0.0
100
AcDbText
  0
TEXT
  5
8D
100
AcDbEntity
  8
TEXT
100
AcDbText
 10
1.266627
 20
11.122348
 30
0.0
 40
0.1
  1
Ch #3 Common
 41
0.8
  7
ROMANS
 72
     2
 11
2.245675
 21
11.122348
 31
0.0
100
AcDbText
  0
TEXT
  5
8E
100
AcDbEntity
  8
TEXT
100
AcDbText
 10
1.266627
 20
10.622348
 30
0.0
 40
0.1
  1
Ch #4 Common
 41
0.8
  7
ROMANS
 72
     2
 11
2.245675
 21
10.622348
 31
0.0
100
AcDbText
  0
TEXT
  5
8F
100
AcDbEntity
  8
TEXT
100
AcDbText
 10
1.266627
 20
9.122348
 30
0.0
 40
0.1
  1
Ch #5 Common
 41
0.8
  7
ROMANS
 72
     2
 11
2.245675
 21
9.122348
 31
0.0
100
AcDbText
  0
TEXT
  5
90
100
AcDbEntity
  8
TEXT
100
AcDbText
 10
1.266627
 20
8.622348
 30
0.0
 40
0.1
  1
Ch #6 Common
 41
0.8
  7
ROMANS
 72
     2
 11
2.245675
 21
8.622348
 31
0.0
100
AcDbText
  0
TEXT
  5
91
100
AcDbEntity
  8
TEXT
100
AcDbText
 10
1.266627
 20
6.622348
 30
0.0
 40
0.1
  1
Ch #8 Common
 41
0.8
  7
ROMANS
 72
     2
 11
2.245675
 21
6.622348
 31
0.0
100
AcDbText
  0
TEXT
  5
92
100
AcDbEntity
  8
TEXT
100
AcDbText
 10
1.266627
 20
7.122348
 30
0.0
 40
0.1
  1
Ch #7 Common
 41
0.8
  7
ROMANS
 72
     2
 11
2.245675
 21
7.122348
 31
0.0
100
AcDbText
  0
TEXT
  5
93
100
AcDbEntity
  8
TEXT
100
AcDbText
 10
2.196151
 20
8.122348
 30
0.0
 40
0.1
  1
*
 41
0.8
  7
ROMANS
 72
     2
 11
2.245675
 21
8.122348
 31
0.0
100
AcDbText
  0
TEXT
  5
94
100
AcDbEntity
  8
TEXT
100
AcDbText
 10
1.842675
 20
7.972348
 30
0.0
 40
0.1
  1
 
 41
0.8
  7
ROMANS
 72
     2
 11
1.922675
 21
7.972348
 31
0.0
100
AcDbText
  0
TEXT
  5
95
100
AcDbEntity
  8
TEXT
100
AcDbText
 10
2.196151
 20
7.622348
 30
0.0
 40
0.1
  1
*
 41
0.8
  7
ROMANS
 72
     2
 11
2.245675
 21
7.622348
 31
0.0
100
AcDbText
  0
TEXT
  5
96
100
AcDbEntity
  8
TEXT
100
AcDbText
 10
1.842675
 20
7.472348
 30
0.0
 40
0.1
  1
 
 41
0.8
  7
ROMANS
 72
     2
 11
1.922675
 21
7.472348
 31
0.0
100
AcDbText
  0
TEXT
  5
97
100
AcDbEntity
  8
TEXT
100
AcDbText
 10
1.095198
 20
6.122348
 30
0.0
 40
0.1
  1
Ch #1 Signal Gnd.
 41
0.8
  7
ROMANS
 72
     2
 11
2.245675
 21
6.122348
 31
0.0
100
AcDbText
  0
TEXT
  5
98
100
AcDbEntity
  8
TEXT
100
AcDbText
 10
1.095198
 20
5.622348
 30
0.0
 40
0.1
  1
Ch #2 Signal Gnd.
 41
0.8
  7
ROMANS
 72
     2
 11
2.245675
 21
5.622348
 31
0.0
100
AcDbText
  0
TEXT
  5
99
100
AcDbEntity
  8
TEXT
100
AcDbText
 10
1.095198
 20
5.122348
 30
0.0
 40
0.1
  1
Ch #3 Signal Gnd.
 41
0.8
  7
ROMANS
 72
     2
 11
2.245675
 21
5.122348
 31
0.0
100
AcDbText
  0
TEXT
  5
9A
100
AcDbEntity
  8
TEXT
100
AcDbText
 10
1.095198
 20
4.622348
 30
0.0
 40
0.1
  1
Ch #4 Signal Gnd.
 41
0.8
  7
ROMANS
 72
     2
 11
2.245675
 21
4.622348
 31
0.0
100
AcDbText
  0
TEXT
  5
9B
100
AcDbEntity
  8
TEXT
100
AcDbText
 10
1.095198
 20
4.122348
 30
0.0
 40
0.1
  1
Ch #5 Signal Gnd.
 41
0.8
  7
ROMANS
 72
     2
 11
2.245675
 21
4.122348
 31
0.0
100
AcDbText
  0
TEXT
  5
9C
100
AcDbEntity
  8
TEXT
100
AcDbText
 10
1.095198
 20
3.622348
 30
0.0
 40
0.1
  1
Ch #6 Signal Gnd.
 41
0.8
  7
ROMANS
 72
     2
 11
2.245675
 21
3.622348
 31
0.0
100
AcDbText
  0
TEXT
  5
9D
100
AcDbEntity
  8
TEXT
100
AcDbText
 10
1.095198
 20
3.122348
 30
0.0
 40
0.1
  1
Ch #7 Signal Gnd.
 41
0.8
  7
ROMANS
 72
     2
 11
2.245675
 21
3.122348
 31
0.0
100
AcDbText
  0
TEXT
  5
9E
100
AcDbEntity
  8
TEXT
100
AcDbText
 10
1.095198
 20
2.591098
 30
0.0
 40
0.1
  1
Ch #8 Signal Gnd.
 41
0.8
  7
ROMANS
 72
     2
 11
2.245675
 21
2.591098
 31
0.0
100
AcDbText
  0
TEXT
  5
9F
100
AcDbEntity
  8
TEXT
100
AcDbText
 10
1.186627
 20
2.122348
 30
0.0
 40
0.1
  1
Single Point Gnd.
 41
0.8
  7
ROMANS
 72
     2
 11
2.245675
 21
2.122348
 31
0.0
100
AcDbText
  0
TEXT
  5
A0
100
AcDbEntity
  8
TEXT
100
AcDbText
 10
4.061012
 20
2.09375
 30
0.0
 40
0.125
  1
25
 41
0.8
 51
10.0
  7
ROMANS
 72
     1
 11
4.15625
 21
2.15625
 31
0.0
100
AcDbText
 73
     2
  0
TEXT
  5
A1
100
AcDbEntity
  8
TEXT
100
AcDbText
 10
4.061012
 20
3.09375
 30
0.0
 40
0.125
  1
23
 41
0.8
 51
10.0
  7
ROMANS
 72
     1
 11
4.15625
 21
3.15625
 31
0.0
100
AcDbText
 73
     2
  0
TEXT
  5
A2
100
AcDbEntity
  8
TEXT
100
AcDbText
 10
4.061012
 20
3.59375
 30
0.0
 40
0.125
  1
22
 41
0.8
 51
10.0
  7
ROMANS
 72
     1
 11
4.15625
 21
3.65625
 31
0.0
100
AcDbText
 73
     2
  0
TEXT
  5
A3
100
AcDbEntity
  8
TEXT
100
AcDbText
 10
4.075298
 20
4.09375
 30
0.0
 40
0.125
  1
21
 41
0.8
 51
10.0
  7
ROMANS
 72
     1
 11
4.15625
 21
4.15625
 31
0.0
100
AcDbText
 73
     2
  0
TEXT
  5
A4
100
AcDbEntity
  8
TEXT
100
AcDbText
 10
4.061012
 20
4.59375
 30
0.0
 40
0.125
  1
20
 41
0.8
 51
10.0
  7
ROMANS
 72
     1
 11
4.15625
 21
4.65625
 31
0.0
100
AcDbText
 73
     2
  0
TEXT
  5
A5
100
AcDbEntity
  8
TEXT
100
AcDbText
 10
4.05625
 20
5.09375
 30
0.0
 40
0.125
  1
19
 41
0.8
 51
10.0
  7
ROMANS
 72
     1
 11
4.15625
 21
5.15625
 31
0.0
100
AcDbText
 73
     2
  0
TEXT
  5
A6
100
AcDbEntity
  8
TEXT
100
AcDbText
 10
4.053869
 20
5.59375
 30
0.0
 40
0.125
  1
18
 41
0.8
 51
10.0
  7
ROMANS
 72
     1
 11
4.15625
 21
5.65625
 31
0.0
100
AcDbText
 73
     2
  0
TEXT
  5
A7
100
AcDbEntity
  8
TEXT
100
AcDbText
 10
4.053869
 20
6.09375
 30
0.0
 40
0.125
  1
17
 41
0.8
 51
10.0
  7
ROMANS
 72
     1
 11
4.15625
 21
6.15625
 31
0.0
100
AcDbText
 73
     2
  0
TEXT
  5
A8
100
AcDbEntity
  8
TEXT
100
AcDbText
 10
4.053869
 20
6.59375
 30
0.0
 40
0.125
  1
16
 41
0.8
 51
10.0
  7
ROMANS
 72
     1
 11
4.15625
 21
6.65625
 31
0.0
100
AcDbText
 73
     2
  0
TEXT
  5
A9
100
AcDbEntity
  8
TEXT
100
AcDbText
 10
4.053869
 20
7.09375
 30
0.0
 40
0.125
  1
15
 41
0.8
 51
10.0
  7
ROMANS
 72
     1
 11
4.15625
 21
7.15625
 31
0.0
100
AcDbText
 73
     2
  0
TEXT
  5
AA
100
AcDbEntity
  8
TEXT
100
AcDbText
 10
4.051488
 20
7.59375
 30
0.0
 40
0.125
  1
14
 41
0.8
 51
10.0
  7
ROMANS
 72
     1
 11
4.15625
 21
7.65625
 31
0.0
100
AcDbText
 73
     2
  0
TEXT
  5
AB
100
AcDbEntity
  8
TEXT
100
AcDbText
 10
4.053869
 20
8.09375
 30
0.0
 40
0.125
  1
13
 41
0.8
 51
10.0
  7
ROMANS
 72
     1
 11
4.15625
 21
8.15625
 31
0.0
100
AcDbText
 73
     2
  0
TEXT
  5
AC
100
AcDbEntity
  8
TEXT
100
AcDbText
 10
4.053869
 20
8.59375
 30
0.0
 40
0.125
  1
12
 41
0.8
 51
10.0
  7
ROMANS
 72
     1
 11
4.15625
 21
8.65625
 31
0.0
100
AcDbText
 73
     2
  0
TEXT
  5
AD
100
AcDbEntity
  8
TEXT
100
AcDbText
 10
4.068155
 20
9.09375
 30
0.0
 40
0.125
  1
11
 41
0.8
 51
10.0
  7
ROMANS
 72
     1
 11
4.15625
 21
9.15625
 31
0.0
100
AcDbText
 73
     2
  0
TEXT
  5
AE
100
AcDbEntity
  8
TEXT
100
AcDbText
 10
4.053869
 20
9.59375
 30
0.0
 40
0.125
  1
10
 41
0.8
 51
10.0
  7
ROMANS
 72
     1
 11
4.15625
 21
9.65625
 31
0.0
100
AcDbText
 73
     2
  0
TEXT
  5
AF
100
AcDbEntity
  8
TEXT
100
AcDbText
 10
4.111012
 20
10.09375
 30
0.0
 40
0.125
  1
9
 41
0.8
 51
10.0
  7
ROMANS
 72
     1
 11
4.15625
 21
10.15625
 31
0.0
100
AcDbText
 73
     2
  0
TEXT
  5
B0
100
AcDbEntity
  8
TEXT
100
AcDbText
 10
4.108631
 20
10.59375
 30
0.0
 40
0.125
  1
8
 41
0.8
 51
10.0
  7
ROMANS
 72
     1
 11
4.15625
 21
10.65625
 31
0.0
100
AcDbText
 73
     2
  0
TEXT
  5
B1
100
AcDbEntity
  8
TEXT
100
AcDbText
 10
4.108631
 20
11.09375
 30
0.0
 40
0.125
  1
7
 41
0.8
 51
10.0
  7
ROMANS
 72
     1
 11
4.15625
 21
11.15625
 31
0.0
100
AcDbText
 73
     2
  0
TEXT
  5
B2
100
AcDbEntity
  8
TEXT
100
AcDbText
 10
4.10625
 20
11.59375
 30
0.0
 40
0.125
  1
6
 41
0.8
 51
10.0
  7
ROMANS
 72
     1
 11
4.15625
 21
11.65625
 31
0.0
100
AcDbText
 73
     2
  0
TEXT
  5
B3
100
AcDbEntity
  8
TEXT
100
AcDbText
 10
4.108631
 20
12.09375
 30
0.0
 40
0.125
  1
5
 41
0.8
 51
10.0
  7
ROMANS
 72
     1
 11
4.15625
 21
12.15625
 31
0.0
100
AcDbText
 73
     2
  0
TEXT
  5
B4
100
AcDbEntity
  8
TEXT
100
AcDbText
 10
4.10625
 20
12.59375
 30
0.0
 40
0.125
  1
4
 41
0.8
 51
10.0
  7
ROMANS
 72
     1
 11
4.15625
 21
12.65625
 31
0.0
100
AcDbText
 73
     2
  0
TEXT
  5
B5
100
AcDbEntity
  8
TEXT
100
AcDbText
 10
4.108631
 20
13.09375
 30
0.0
 40
0.125
  1
3
 41
0.8
 51
10.0
  7
ROMANS
 72
     1
 11
4.15625
 21
13.15625
 31
0.0
100
AcDbText
 73
     2
  0
TEXT
  5
B6
100
AcDbEntity
  8
TEXT
100
AcDbText
 10
4.108631
 20
13.59375
 30
0.0
 40
0.125
  1
2
 41
0.8
 51
10.0
  7
ROMANS
 72
     1
 11
4.15625
 21
13.65625
 31
0.0
100
AcDbText
 73
     2
  0
TEXT
  5
B7
100
AcDbEntity
  8
TEXT
100
AcDbText
 10
4.115774
 20
14.09375
 30
0.0
 40
0.125
  1
1
 41
0.8
 51
10.0
  7
ROMANS
 72
     1
 11
4.15625
 21
14.15625
 31
0.0
100
AcDbText
 73
     2
  0
TEXT
  5
B8
100
AcDbEntity
  8
TEXT
100
AcDbText
 10
4.058631
 20
2.5625
 30
0.0
 40
0.125
  1
24
 41
0.8
 51
10.0
  7
ROMANS
 72
     1
 11
4.15625
 21
2.625
 31
0.0
100
AcDbText
 73
     2
  0
ENDSEC
  0
SECTION
  2
OBJECTS
  0
DICTIONARY
  5
CE
100
AcDbDictionary
  3
ACAD_GROUP
350
CC
  3
ACAD_MLINESTYLE
350
CD
  0
DICTIONARY
  5
CC
102
{ACAD_REACTORS
330
CE
102
}
100
AcDbDictionary
  0
DICTIONARY
  5
CD
102
{ACAD_REACTORS
330
CE
102
}
100
AcDbDictionary
  3
STANDARD
350
CF
  0
MLINESTYLE
  5
CF
102
{ACAD_REACTORS
330
CD
102
}
100
AcDbMlineStyle
  2
STANDARD
 70
     0
  3

 62
   256
 51
90.0
 52
90.0
 71
     2
 49
0.5
 62
   256
  6
BYLAYER
 49
-0.5
 62
   256
  6
BYLAYER
  0
ENDSEC
  0
EOF
