  0
SECTION
  2
HEADER
  9
$ACADVER
  1
AC1012
  9
$DWGCODEPAGE
  3
ANSI_1252
  9
$INSBASE
 10
0.359375
 20
0.0625
 30
0.0
  9
$EXTMIN
 10
0.980005
 20
1.741
 30
0.0
  9
$EXTMAX
 10
10.040007
 20
15.375
 30
0.0
  9
$LIMMIN
 10
0.0
 20
0.0
  9
$LIMMAX
 10
10.654
 20
15.881
  9
$ORTHOMODE
 70
     1
  9
$REGENMODE
 70
     1
  9
$FILLMODE
 70
     1
  9
$QTEXTMODE
 70
     0
  9
$MIRRTEXT
 70
     0
  9
$DRAGMODE
 70
     2
  9
$LTSCALE
 40
0.25
  9
$OSMODE
 70
     0
  9
$ATTMODE
 70
     1
  9
$TEXTSIZE
 40
0.1
  9
$TRACEWID
 40
0.05
  9
$TEXTSTYLE
  7
ROMANS
  9
$CLAYER
  8
0
  9
$CELTYPE
  6
BYLAYER
  9
$CECOLOR
 62
   256
  9
$CELTSCALE
 40
1.0
  9
$DELOBJ
 70
     1
  9
$DISPSILH
 70
     0
  9
$DIMSCALE
 40
1.0
  9
$DIMASZ
 40
0.18
  9
$DIMEXO
 40
0.0625
  9
$DIMDLI
 40
0.38
  9
$DIMRND
 40
0.0
  9
$DIMDLE
 40
0.0
  9
$DIMEXE
 40
0.18
  9
$DIMTP
 40
0.0
  9
$DIMTM
 40
0.0
  9
$DIMTXT
 40
0.18
  9
$DIMCEN
 40
0.09
  9
$DIMTSZ
 40
0.0
  9
$DIMTOL
 70
     0
  9
$DIMLIM
 70
     0
  9
$DIMTIH
 70
     1
  9
$DIMTOH
 70
     1
  9
$DIMSE1
 70
     0
  9
$DIMSE2
 70
     0
  9
$DIMTAD
 70
     0
  9
$DIMZIN
 70
     0
  9
$DIMBLK
  1

  9
$DIMASO
 70
     1
  9
$DIMSHO
 70
     0
  9
$DIMPOST
  1

  9
$DIMAPOST
  1

  9
$DIMALT
 70
     0
  9
$DIMALTD
 70
     2
  9
$DIMALTF
 40
25.4
  9
$DIMLFAC
 40
1.0
  9
$DIMTOFL
 70
     0
  9
$DIMTVP
 40
0.0
  9
$DIMTIX
 70
     0
  9
$DIMSOXD
 70
     0
  9
$DIMSAH
 70
     0
  9
$DIMBLK1
  1

  9
$DIMBLK2
  1

  9
$DIMSTYLE
  2
STANDARD
  9
$DIMCLRD
 70
     0
  9
$DIMCLRE
 70
     0
  9
$DIMCLRT
 70
     0
  9
$DIMTFAC
 40
1.0
  9
$DIMGAP
 40
0.09
  9
$DIMJUST
 70
     0
  9
$DIMSD1
 70
     0
  9
$DIMSD2
 70
     0
  9
$DIMTOLJ
 70
     1
  9
$DIMTZIN
 70
     0
  9
$DIMALTZ
 70
     0
  9
$DIMALTTZ
 70
     0
  9
$DIMFIT
 70
     3
  9
$DIMUPT
 70
     0
  9
$DIMUNIT
 70
     2
  9
$DIMDEC
 70
     4
  9
$DIMTDEC
 70
     4
  9
$DIMALTU
 70
     2
  9
$DIMALTTD
 70
     2
  9
$DIMTXSTY
  7
STANDARD
  9
$DIMAUNIT
 70
     0
  9
$LUNITS
 70
     2
  9
$LUPREC
 70
     4
  9
$SKETCHINC
 40
0.1
  9
$FILLETRAD
 40
0.0
  9
$AUNITS
 70
     0
  9
$AUPREC
 70
     0
  9
$MENU
  1
ACAD
  9
$ELEVATION
 40
0.0
  9
$PELEVATION
 40
0.0
  9
$THICKNESS
 40
0.0
  9
$LIMCHECK
 70
     0
  9
$BLIPMODE
 70
     0
  9
$CHAMFERA
 40
0.0
  9
$CHAMFERB
 40
0.0
  9
$CHAMFERC
 40
0.0
  9
$CHAMFERD
 40
0.0
  9
$SKPOLY
 70
     0
  9
$TDCREATE
 40
2449270.545578587
  9
$TDUPDATE
 40
2451087.631344328
  9
$TDINDWG
 40
0.4158388889
  9
$TDUSRTIMER
 40
0.4158388889
  9
$USRTIMER
 70
     1
  9
$ANGBASE
 50
0.0
  9
$ANGDIR
 70
     0
  9
$PDMODE
 70
     3
  9
$PDSIZE
 40
0.1
  9
$PLINEWID
 40
0.01
  9
$COORDS
 70
     2
  9
$SPLFRAME
 70
     0
  9
$SPLINETYPE
 70
     6
  9
$SPLINESEGS
 70
     8
  9
$ATTDIA
 70
     0
  9
$ATTREQ
 70
     1
  9
$HANDLING
 70
     1
  9
$HANDSEED
  5
678
  9
$SURFTAB1
 70
     6
  9
$SURFTAB2
 70
     6
  9
$SURFTYPE
 70
     6
  9
$SURFU
 70
     6
  9
$SURFV
 70
     6
  9
$UCSNAME
  2

  9
$UCSORG
 10
0.0
 20
0.0
 30
0.0
  9
$UCSXDIR
 10
1.0
 20
0.0
 30
0.0
  9
$UCSYDIR
 10
0.0
 20
1.0
 30
0.0
  9
$PUCSNAME
  2

  9
$PUCSORG
 10
0.0
 20
0.0
 30
0.0
  9
$PUCSXDIR
 10
1.0
 20
0.0
 30
0.0
  9
$PUCSYDIR
 10
0.0
 20
1.0
 30
0.0
  9
$USERI1
 70
     0
  9
$USERI2
 70
     0
  9
$USERI3
 70
     0
  9
$USERI4
 70
     0
  9
$USERI5
 70
     0
  9
$USERR1
 40
0.0
  9
$USERR2
 40
0.0
  9
$USERR3
 40
0.0
  9
$USERR4
 40
0.0
  9
$USERR5
 40
0.0
  9
$WORLDVIEW
 70
     1
  9
$SHADEDGE
 70
     3
  9
$SHADEDIF
 70
    70
  9
$TILEMODE
 70
     1
  9
$MAXACTVP
 70
    16
  9
$PINSBASE
 10
0.0
 20
0.0
 30
0.0
  9
$PLIMCHECK
 70
     0
  9
$PEXTMIN
 10
1.000000E+20
 20
1.000000E+20
 30
1.000000E+20
  9
$PEXTMAX
 10
-1.000000E+20
 20
-1.000000E+20
 30
-1.000000E+20
  9
$PLIMMIN
 10
0.0
 20
0.0
  9
$PLIMMAX
 10
12.0
 20
9.0
  9
$UNITMODE
 70
     0
  9
$VISRETAIN
 70
     0
  9
$PLINEGEN
 70
     0
  9
$PSLTSCALE
 70
     0
  9
$TREEDEPTH
 70
  3020
  9
$PICKSTYLE
 70
     1
  9
$CMLSTYLE
  2
STANDARD
  9
$CMLJUST
 70
     0
  9
$CMLSCALE
 40
1.0
  9
$SAVEIMAGES
 70
     1
  0
ENDSEC
  0
SECTION
  2
CLASSES
  0
CLASS
  1
LWPOLYLINE
  2
AcDbPolyline
  3
"AutoCAD"
 90
    32768
280
     0
281
     1
  0
ENDSEC
  0
SECTION
  2
TABLES
  0
TABLE
  2
VPORT
  5
8
100
AcDbSymbolTable
 70
     2
  0
VPORT
  5
677
100
AcDbSymbolTableRecord
100
AcDbViewportTableRecord
  2
*ACTIVE
 70
     0
 10
0.0
 20
0.0
 11
1.0
 21
1.0
 12
14.925018
 22
8.243202
 13
0.0
 23
0.0
 14
0.001
 24
0.001
 15
1.0
 25
1.0
 16
0.0
 26
0.0
 36
1.0
 17
0.0
 27
0.0
 37
0.0
 40
16.486405
 41
1.810585
 42
50.0
 43
0.0
 44
0.0
 50
0.0
 51
0.0
 71
     0
 72
   100
 73
     1
 74
     0
 75
     1
 76
     0
 77
     0
 78
     0
  0
ENDTAB
  0
TABLE
  2
LTYPE
  5
5
100
AcDbSymbolTable
 70
     2
  0
LTYPE
  5
12
100
AcDbSymbolTableRecord
100
AcDbLinetypeTableRecord
  2
BYBLOCK
 70
     0
  3

 72
    65
 73
     0
 40
0.0
  0
LTYPE
  5
13
100
AcDbSymbolTableRecord
100
AcDbLinetypeTableRecord
  2
BYLAYER
 70
     0
  3

 72
    65
 73
     0
 40
0.0
  0
LTYPE
  5
14
100
AcDbSymbolTableRecord
100
AcDbLinetypeTableRecord
  2
CONTINUOUS
 70
     0
  3
Solid line
 72
    65
 73
     0
 40
0.0
  0
LTYPE
  5
23
100
AcDbSymbolTableRecord
100
AcDbLinetypeTableRecord
  2
DASHED
 70
     0
  3
__ __ __ __ __ __ __ __ __ __ __ __ __ __ __ __
 72
    65
 73
     2
 40
0.75
 49
0.5
 74
     0
 49
-0.25
 74
     0
  0
ENDTAB
  0
TABLE
  2
LAYER
  5
2
100
AcDbSymbolTable
 70
     3
  0
LAYER
  5
F
100
AcDbSymbolTableRecord
100
AcDbLayerTableRecord
  2
0
 70
     0
 62
     7
  6
CONTINUOUS
  0
LAYER
  5
2A
100
AcDbSymbolTableRecord
100
AcDbLayerTableRecord
  2
TEXT
 70
     0
 62
     2
  6
CONTINUOUS
  0
LAYER
  5
30
100
AcDbSymbolTableRecord
100
AcDbLayerTableRecord
  2
DASH
 70
     0
 62
     2
  6
DASHED
  0
ENDTAB
  0
TABLE
  2
STYLE
  5
3
100
AcDbSymbolTable
 70
     2
  0
STYLE
  5
10
100
AcDbSymbolTableRecord
100
AcDbTextStyleTableRecord
  2
STANDARD
 70
     0
 40
0.0
 41
1.0
 50
0.0
 71
     0
 42
0.2
  3
txt
  4

  0
STYLE
  5
1D
100
AcDbSymbolTableRecord
100
AcDbTextStyleTableRecord
  2
ROMANS
 70
     0
 40
0.0
 41
0.8
 50
0.0
 71
     0
 42
0.1
  3
ROMANS
  4

  0
ENDTAB
  0
TABLE
  2
VIEW
  5
6
100
AcDbSymbolTable
 70
     0
  0
ENDTAB
  0
TABLE
  2
UCS
  5
7
100
AcDbSymbolTable
 70
     0
  0
ENDTAB
  0
TABLE
  2
APPID
  5
9
100
AcDbSymbolTable
 70
     1
  0
APPID
  5
11
100
AcDbSymbolTableRecord
100
AcDbRegAppTableRecord
  2
ACAD
 70
     0
  0
ENDTAB
  0
TABLE
  2
DIMSTYLE
  5
A
100
AcDbSymbolTable
 70
     1
  0
DIMSTYLE
105
26C
100
AcDbSymbolTableRecord
100
AcDbDimStyleTableRecord
  2
STANDARD
 70
     0
  3

  4

  5

  6

  7

 40
1.0
 41
0.18
 42
0.0625
 43
0.38
 44
0.18
 45
0.0
 46
0.0
 47
0.0
 48
0.0
140
0.18
141
0.09
142
0.0
143
25.4
144
1.0
145
0.0
146
1.0
147
0.09
 71
     0
 72
     0
 73
     1
 74
     1
 75
     0
 76
     0
 77
     0
 78
     0
170
     0
171
     2
172
     0
173
     0
174
     0
175
     0
176
     0
177
     0
178
     0
270
     2
271
     4
272
     4
273
     2
274
     2
340
10
275
     0
280
     0
281
     0
282
     0
283
     1
284
     0
285
     0
286
     0
287
     3
288
     0
  0
ENDTAB
  0
TABLE
  2
BLOCK_RECORD
  5
1
100
AcDbSymbolTable
 70
     3
  0
BLOCK_RECORD
  5
18
100
AcDbSymbolTableRecord
100
AcDbBlockTableRecord
  2
*MODEL_SPACE
  0
BLOCK_RECORD
  5
15
100
AcDbSymbolTableRecord
100
AcDbBlockTableRecord
  2
*PAPER_SPACE
  0
BLOCK_RECORD
  5
1C
100
AcDbSymbolTableRecord
100
AcDbBlockTableRecord
  2
TEMP5
  0
BLOCK_RECORD
  5
4D3
100
AcDbSymbolTableRecord
100
AcDbBlockTableRecord
  2
PCON_5
  0
BLOCK_RECORD
  5
573
100
AcDbSymbolTableRecord
100
AcDbBlockTableRecord
  2
DOT
  0
ENDTAB
  0
ENDSEC
  0
SECTION
  2
BLOCKS
  0
BLOCK
  5
33
100
AcDbEntity
  8
0
100
AcDbBlockBegin
  2
*MODEL_SPACE
 70
     0
 10
0.0
 20
0.0
 30
0.0
  3
*MODEL_SPACE
  1

  0
ENDBLK
  5
34
100
AcDbEntity
  8
0
100
AcDbBlockEnd
  0
BLOCK
  5
31
100
AcDbEntity
 67
     1
  8
0
100
AcDbBlockBegin
  2
*PAPER_SPACE
 70
     0
 10
0.0
 20
0.0
 30
0.0
  3
*PAPER_SPACE
  1

  0
ENDBLK
  5
32
100
AcDbEntity
 67
     1
  8
0
100
AcDbBlockEnd
  0
BLOCK
  5
35
100
AcDbEntity
  8
0
100
AcDbBlockBegin
  2
TEMP5
 70
     0
 10
0.0
 20
0.0
 30
0.0
  3
TEMP5
  1

  0
TEXT
  5
36
100
AcDbEntity
  8
0
100
AcDbText
 10
-1.467738
 20
-0.190625
 30
0.0
 40
0.1
  1
INTERNAL ADDRESSES
 41
0.8
  7
ROMANS
 72
     4
 11
-0.8125
 21
-0.140625
 31
0.0
100
AcDbText
  0
TEXT
  5
37
100
AcDbEntity
  8
0
100
AcDbText
 10
-1.281071
 20
-0.35253
 30
0.0
 40
0.1
  1
LISTED BELOW 
 41
0.8
  7
ROMANS
 72
     4
 11
-0.8125
 21
-0.30253
 31
0.0
100
AcDbText
  0
ENDBLK
  5
38
100
AcDbEntity
  8
0
100
AcDbBlockEnd
  0
BLOCK
  5
4FD
100
AcDbEntity
  8
0
100
AcDbBlockBegin
  2
PCON_5
 70
     0
 10
0.0
 20
0.0
 30
0.0
  3
PCON_5
  1

  0
LINE
  5
4D4
100
AcDbEntity
  8
0
100
AcDbLine
 10
0.0
 20
0.992
 30
0.0
 11
0.0
 21
0.0
 31
0.0
  0
LINE
  5
4D5
100
AcDbEntity
  8
0
100
AcDbLine
 10
-0.4895
 20
0.992
 30
0.0
 11
-0.4895
 21
0.0
 31
0.0
  0
LINE
  5
4D6
100
AcDbEntity
  8
0
100
AcDbLine
 10
0.0
 20
0.0
 30
0.0
 11
-0.4895
 21
0.0
 31
0.0
  0
LINE
  5
4D7
100
AcDbEntity
  8
0
100
AcDbLine
 10
0.0
 20
0.992
 30
0.0
 11
-0.4895
 21
0.992
 31
0.0
  0
LINE
  5
4D8
100
AcDbEntity
  8
0
100
AcDbLine
 10
-0.4235
 20
0.992
 30
0.0
 11
-0.4235
 21
0.0
 31
0.0
  0
CIRCLE
  5
4D9
100
AcDbEntity
  8
0
100
AcDbCircle
 10
-0.2605
 20
0.102
 30
0.0
 40
0.077
  0
CIRCLE
  5
4DA
100
AcDbEntity
  8
0
100
AcDbCircle
 10
-0.2605
 20
0.102
 30
0.0
 40
0.075
  0
LINE
  5
4DB
100
AcDbEntity
  8
0
100
AcDbLine
 10
-0.189789
 20
0.127
 30
0.0
 11
-0.331211
 21
0.127
 31
0.0
  0
LINE
  5
4DC
100
AcDbEntity
  8
0
100
AcDbLine
 10
-0.189789
 20
0.077
 30
0.0
 11
-0.331211
 21
0.077
 31
0.0
  0
LINE
  5
4DD
100
AcDbEntity
  8
0
100
AcDbLine
 10
-0.331211
 20
0.077
 30
0.0
 11
-0.331211
 21
0.127
 31
0.0
  0
LINE
  5
4DE
100
AcDbEntity
  8
0
100
AcDbLine
 10
-0.189789
 20
0.127
 30
0.0
 11
-0.189789
 21
0.077
 31
0.0
  0
SOLID
  5
4DF
100
AcDbEntity
  8
0
100
AcDbTrace
 10
-0.189789
 20
0.127
 30
0.0
 11
-0.331211
 21
0.127
 31
0.0
 12
-0.189789
 22
0.077
 32
0.0
 13
-0.331211
 23
0.077
 33
0.0
  0
SOLID
  5
4E0
100
AcDbEntity
  8
0
100
AcDbTrace
 10
-0.189789
 20
0.324
 30
0.0
 11
-0.331211
 21
0.324
 31
0.0
 12
-0.189789
 22
0.274
 32
0.0
 13
-0.331211
 23
0.274
 33
0.0
  0
LINE
  5
4E1
100
AcDbEntity
  8
0
100
AcDbLine
 10
-0.189789
 20
0.324
 30
0.0
 11
-0.189789
 21
0.274
 31
0.0
  0
LINE
  5
4E2
100
AcDbEntity
  8
0
100
AcDbLine
 10
-0.331211
 20
0.274
 30
0.0
 11
-0.331211
 21
0.324
 31
0.0
  0
LINE
  5
4E3
100
AcDbEntity
  8
0
100
AcDbLine
 10
-0.189789
 20
0.274
 30
0.0
 11
-0.331211
 21
0.274
 31
0.0
  0
LINE
  5
4E4
100
AcDbEntity
  8
0
100
AcDbLine
 10
-0.189789
 20
0.324
 30
0.0
 11
-0.331211
 21
0.324
 31
0.0
  0
CIRCLE
  5
4E5
100
AcDbEntity
  8
0
100
AcDbCircle
 10
-0.2605
 20
0.299
 30
0.0
 40
0.075
  0
CIRCLE
  5
4E6
100
AcDbEntity
  8
0
100
AcDbCircle
 10
-0.2605
 20
0.299
 30
0.0
 40
0.077
  0
CIRCLE
  5
4E7
100
AcDbEntity
  8
0
100
AcDbCircle
 10
-0.2605
 20
0.496
 30
0.0
 40
0.077
  0
CIRCLE
  5
4E8
100
AcDbEntity
  8
0
100
AcDbCircle
 10
-0.2605
 20
0.496
 30
0.0
 40
0.075
  0
LINE
  5
4E9
100
AcDbEntity
  8
0
100
AcDbLine
 10
-0.189789
 20
0.521
 30
0.0
 11
-0.331211
 21
0.521
 31
0.0
  0
LINE
  5
4EA
100
AcDbEntity
  8
0
100
AcDbLine
 10
-0.189789
 20
0.471
 30
0.0
 11
-0.331211
 21
0.471
 31
0.0
  0
LINE
  5
4EB
100
AcDbEntity
  8
0
100
AcDbLine
 10
-0.331211
 20
0.471
 30
0.0
 11
-0.331211
 21
0.521
 31
0.0
  0
LINE
  5
4EC
100
AcDbEntity
  8
0
100
AcDbLine
 10
-0.189789
 20
0.521
 30
0.0
 11
-0.189789
 21
0.471
 31
0.0
  0
SOLID
  5
4ED
100
AcDbEntity
  8
0
100
AcDbTrace
 10
-0.189789
 20
0.521
 30
0.0
 11
-0.331211
 21
0.521
 31
0.0
 12
-0.189789
 22
0.471
 32
0.0
 13
-0.331211
 23
0.471
 33
0.0
  0
CIRCLE
  5
4EE
100
AcDbEntity
  8
0
100
AcDbCircle
 10
-0.2605
 20
0.897
 30
0.0
 40
0.077
  0
CIRCLE
  5
4EF
100
AcDbEntity
  8
0
100
AcDbCircle
 10
-0.2605
 20
0.897
 30
0.0
 40
0.075
  0
LINE
  5
4F0
100
AcDbEntity
  8
0
100
AcDbLine
 10
-0.189789
 20
0.922
 30
0.0
 11
-0.331211
 21
0.922
 31
0.0
  0
LINE
  5
4F1
100
AcDbEntity
  8
0
100
AcDbLine
 10
-0.189789
 20
0.872
 30
0.0
 11
-0.331211
 21
0.872
 31
0.0
  0
SOLID
  5
4F2
100
AcDbEntity
  8
0
100
AcDbTrace
 10
-0.189789
 20
0.922
 30
0.0
 11
-0.331211
 21
0.922
 31
0.0
 12
-0.189789
 22
0.872
 32
0.0
 13
-0.331211
 23
0.872
 33
0.0
  0
SOLID
  5
4F3
100
AcDbEntity
  8
0
100
AcDbTrace
 10
-0.189789
 20
0.725
 30
0.0
 11
-0.331211
 21
0.725
 31
0.0
 12
-0.189789
 22
0.675
 32
0.0
 13
-0.331211
 23
0.675
 33
0.0
  0
LINE
  5
4F4
100
AcDbEntity
  8
0
100
AcDbLine
 10
-0.189789
 20
0.675
 30
0.0
 11
-0.331211
 21
0.675
 31
0.0
  0
LINE
  5
4F5
100
AcDbEntity
  8
0
100
AcDbLine
 10
-0.189789
 20
0.725
 30
0.0
 11
-0.331211
 21
0.725
 31
0.0
  0
CIRCLE
  5
4F6
100
AcDbEntity
  8
0
100
AcDbCircle
 10
-0.2605
 20
0.7
 30
0.0
 40
0.075
  0
CIRCLE
  5
4F7
100
AcDbEntity
  8
0
100
AcDbCircle
 10
-0.2605
 20
0.7
 30
0.0
 40
0.077
  0
LINE
  5
4F8
100
AcDbEntity
  8
0
100
AcDbLine
 10
-0.331211
 20
0.872
 30
0.0
 11
-0.331211
 21
0.922
 31
0.0
  0
LINE
  5
4F9
100
AcDbEntity
  8
0
100
AcDbLine
 10
-0.331211
 20
0.675
 30
0.0
 11
-0.331211
 21
0.725
 31
0.0
  0
LINE
  5
4FA
100
AcDbEntity
  8
0
100
AcDbLine
 10
-0.189789
 20
0.922
 30
0.0
 11
-0.189789
 21
0.872
 31
0.0
  0
LINE
  5
4FB
100
AcDbEntity
  8
0
100
AcDbLine
 10
-0.189789
 20
0.725
 30
0.0
 11
-0.189789
 21
0.675
 31
0.0
  0
TEXT
  5
4FC
100
AcDbEntity
  8
0
100
AcDbText
 10
-0.1879
 20
0.004167
 30
0.0
 40
0.0125
  1
C:\MS\PCON_5.DWG
 72
     2
 11
-0.004567
 21
0.0
 31
0.0
100
AcDbText
 73
     1
  0
ENDBLK
  5
4FE
100
AcDbEntity
  8
0
100
AcDbBlockEnd
  0
BLOCK
  5
578
100
AcDbEntity
  8
0
100
AcDbBlockBegin
  2
DOT
 70
     0
 10
0.0
 20
0.0
 30
0.0
  3
DOT
  1

  0
CIRCLE
  5
574
100
AcDbEntity
  8
0
100
AcDbCircle
 10
0.0
 20
0.0
 30
0.0
 40
0.0213
  0
CIRCLE
  5
575
100
AcDbEntity
  8
0
100
AcDbCircle
 10
0.0
 20
0.0
 30
0.0
 40
0.0113
  0
LINE
  5
576
100
AcDbEntity
  8
0
100
AcDbLine
 10
-0.001
 20
0.0
 30
0.0
 11
0.001
 21
0.0
 31
0.0
  0
LINE
  5
577
100
AcDbEntity
  8
0
100
AcDbLine
 10
0.0
 20
-0.001
 30
0.0
 11
0.0
 21
0.001
 31
0.0
  0
ENDBLK
  5
579
100
AcDbEntity
  8
0
100
AcDbBlockEnd
  0
ENDSEC
  0
SECTION
  2
ENTITIES
  0
LINE
  5
3C
100
AcDbEntity
  8
0
100
AcDbLine
 10
8.328125
 20
14.8125
 30
0.0
 11
6.78125
 21
14.8125
 31
0.0
  0
LINE
  5
3D
100
AcDbEntity
  8
0
100
AcDbLine
 10
8.328125
 20
1.99995
 30
0.0
 11
8.328125
 21
14.8125
 31
0.0
  0
LINE
  5
3F
100
AcDbEntity
  8
0
100
AcDbLine
 10
6.78125
 20
14.8125
 30
0.0
 11
6.78125
 21
1.99995
 31
0.0
  0
LINE
  5
40
100
AcDbEntity
  8
0
100
AcDbLine
 10
6.53125
 20
10.78125
 30
0.0
 11
6.53125
 21
10.53125
 31
0.0
  0
LINE
  5
41
100
AcDbEntity
  8
0
100
AcDbLine
 10
6.78125
 20
10.78125
 30
0.0
 11
6.53125
 21
10.78125
 31
0.0
  0
LINE
  5
42
100
AcDbEntity
  8
0
100
AcDbLine
 10
6.78125
 20
10.53125
 30
0.0
 11
6.53125
 21
10.53125
 31
0.0
  0
LINE
  5
43
100
AcDbEntity
  8
0
100
AcDbLine
 10
6.78125
 20
10.03125
 30
0.0
 11
6.53125
 21
10.03125
 31
0.0
  0
LINE
  5
44
100
AcDbEntity
  8
0
100
AcDbLine
 10
6.78125
 20
10.28125
 30
0.0
 11
6.53125
 21
10.28125
 31
0.0
  0
LINE
  5
45
100
AcDbEntity
  8
0
100
AcDbLine
 10
6.53125
 20
10.28125
 30
0.0
 11
6.53125
 21
10.03125
 31
0.0
  0
LINE
  5
46
100
AcDbEntity
  8
0
100
AcDbLine
 10
6.78125
 20
9.53125
 30
0.0
 11
6.53125
 21
9.53125
 31
0.0
  0
LINE
  5
47
100
AcDbEntity
  8
0
100
AcDbLine
 10
6.78125
 20
9.78125
 30
0.0
 11
6.53125
 21
9.78125
 31
0.0
  0
LINE
  5
48
100
AcDbEntity
  8
0
100
AcDbLine
 10
6.53125
 20
9.78125
 30
0.0
 11
6.53125
 21
9.53125
 31
0.0
  0
LINE
  5
49
100
AcDbEntity
  8
0
100
AcDbLine
 10
6.78125
 20
9.03125
 30
0.0
 11
6.53125
 21
9.03125
 31
0.0
  0
LINE
  5
4A
100
AcDbEntity
  8
0
100
AcDbLine
 10
6.78125
 20
9.28125
 30
0.0
 11
6.53125
 21
9.28125
 31
0.0
  0
LINE
  5
4B
100
AcDbEntity
  8
0
100
AcDbLine
 10
6.53125
 20
9.28125
 30
0.0
 11
6.53125
 21
9.03125
 31
0.0
  0
LINE
  5
4C
100
AcDbEntity
  8
0
100
AcDbLine
 10
6.78125
 20
8.53125
 30
0.0
 11
6.53125
 21
8.53125
 31
0.0
  0
LINE
  5
4D
100
AcDbEntity
  8
0
100
AcDbLine
 10
6.78125
 20
8.78125
 30
0.0
 11
6.53125
 21
8.78125
 31
0.0
  0
LINE
  5
4E
100
AcDbEntity
  8
0
100
AcDbLine
 10
6.53125
 20
8.78125
 30
0.0
 11
6.53125
 21
8.53125
 31
0.0
  0
LINE
  5
4F
100
AcDbEntity
  8
0
100
AcDbLine
 10
6.78125
 20
8.03125
 30
0.0
 11
6.53125
 21
8.03125
 31
0.0
  0
LINE
  5
50
100
AcDbEntity
  8
0
100
AcDbLine
 10
6.78125
 20
8.28125
 30
0.0
 11
6.53125
 21
8.28125
 31
0.0
  0
LINE
  5
51
100
AcDbEntity
  8
0
100
AcDbLine
 10
6.53125
 20
8.28125
 30
0.0
 11
6.53125
 21
8.03125
 31
0.0
  0
TEXT
  5
79
100
AcDbEntity
  8
TEXT
100
AcDbText
 10
6.615774
 20
10.59375
 30
0.0
 40
0.125
  1
1
 41
0.8
 51
10.0
  7
ROMANS
 72
     1
 11
6.65625
 21
10.59375
 31
0.0
100
AcDbText
  0
TEXT
  5
7A
100
AcDbEntity
  8
TEXT
100
AcDbText
 10
6.55625
 20
10.09375
 30
0.0
 40
0.125
  1
19
 41
0.8
 51
10.0
  7
ROMANS
 72
     1
 11
6.65625
 21
10.09375
 31
0.0
100
AcDbText
  0
TEXT
  5
7B
100
AcDbEntity
  8
TEXT
100
AcDbText
 10
6.608631
 20
9.59375
 30
0.0
 40
0.125
  1
2
 41
0.8
 51
10.0
  7
ROMANS
 72
     1
 11
6.65625
 21
9.59375
 31
0.0
100
AcDbText
  0
TEXT
  5
7C
100
AcDbEntity
  8
TEXT
100
AcDbText
 10
6.561012
 20
9.09375
 30
0.0
 40
0.125
  1
20
 41
0.8
 51
10.0
  7
ROMANS
 72
     1
 11
6.65625
 21
9.09375
 31
0.0
100
AcDbText
  0
TEXT
  5
7D
100
AcDbEntity
  8
TEXT
100
AcDbText
 10
6.608631
 20
8.59375
 30
0.0
 40
0.125
  1
3
 41
0.8
 51
10.0
  7
ROMANS
 72
     1
 11
6.65625
 21
8.59375
 31
0.0
100
AcDbText
  0
TEXT
  5
7E
100
AcDbEntity
  8
TEXT
100
AcDbText
 10
6.575298
 20
8.09375
 30
0.0
 40
0.125
  1
21
 41
0.8
 51
10.0
  7
ROMANS
 72
     1
 11
6.65625
 21
8.09375
 31
0.0
100
AcDbText
  0
TEXT
  5
8C
100
AcDbEntity
  8
TEXT
100
AcDbText
 10
6.84375
 20
9.09375
 30
0.0
 40
0.125
  1
DCIN2
 41
0.8
 51
10.0
  7
ROMANS
100
AcDbText
  0
TEXT
  5
8D
100
AcDbEntity
  8
TEXT
100
AcDbText
 10
6.84375
 20
8.59375
 30
0.0
 40
0.125
  1
DCIN3
 41
0.8
 51
10.0
  7
ROMANS
100
AcDbText
  0
LINE
  5
8E
100
AcDbEntity
  8
0
100
AcDbLine
 10
6.53125
 20
9.65625
 30
0.0
 11
5.78125
 21
9.65625
 31
0.0
  0
LINE
  5
8F
100
AcDbEntity
  8
0
100
AcDbLine
 10
5.40625
 20
9.65625
 30
0.0
 11
2.93285
 21
9.65625
 31
0.0
  0
LINE
  5
90
100
AcDbEntity
  8
0
100
AcDbLine
 10
6.53125
 20
9.15625
 30
0.0
 11
5.78125
 21
9.15625
 31
0.0
  0
LINE
  5
91
100
AcDbEntity
  8
0
100
AcDbLine
 10
6.53125
 20
8.65625
 30
0.0
 11
5.78125
 21
8.65625
 31
0.0
  0
LINE
  5
92
100
AcDbEntity
  8
0
100
AcDbLine
 10
5.40625
 20
8.65625
 30
0.0
 11
2.93285
 21
8.65625
 31
0.0
  0
LINE
  5
93
100
AcDbEntity
  8
0
100
AcDbLine
 10
6.53125
 20
8.15625
 30
0.0
 11
5.78125
 21
8.15625
 31
0.0
  0
LINE
  5
94
100
AcDbEntity
  8
0
100
AcDbLine
 10
5.40625
 20
8.15625
 30
0.0
 11
2.93285
 21
8.15625
 31
0.0
  0
LINE
  5
9E
100
AcDbEntity
  8
0
100
AcDbLine
 10
1.84375
 20
11.0625
 30
0.0
 11
1.84375
 21
2.75
 31
0.0
  0
TEXT
  5
A0
100
AcDbEntity
  8
TEXT
100
AcDbText
 10
7.019345
 20
15.25
 30
0.0
 40
0.125
  1
BLOCK INPUT
 41
0.8
  7
ROMANS
 72
     4
 11
7.53125
 21
15.3125
 31
0.0
100
AcDbText
  0
TEXT
  5
A1
100
AcDbEntity
  8
TEXT
100
AcDbText
 10
7.026488
 20
15.047619
 30
0.0
 40
0.125
  1
24VDC INPUT
 41
0.8
  7
ROMANS
 72
     4
 11
7.53125
 21
15.110119
 31
0.0
100
AcDbText
  0
TEXT
  5
A2
100
AcDbEntity
  8
TEXT
100
AcDbText
 10
6.945536
 20
14.845238
 30
0.0
 40
0.125
  1
503-25907-01
 41
0.8
  7
ROMANS
 72
     4
 11
7.53125
 21
14.907738
 31
0.0
100
AcDbText
  0
INSERT
  5
EE
100
AcDbEntity
  8
TEXT
100
AcDbBlockReference
  2
TEMP5
 10
8.34375
 20
14.8125
 30
0.0
  0
TEXT
  5
111
100
AcDbEntity
  8
TEXT
100
AcDbText
 10
6.84375
 20
10.09375
 30
0.0
 40
0.125
  1
DC 0 V
 41
0.8
 51
10.0
  7
ROMANS
100
AcDbText
  0
LINE
  5
117
100
AcDbEntity
  8
0
100
AcDbLine
 10
6.53125
 20
10.15625
 30
0.0
 11
5.78125
 21
10.15625
 31
0.0
  0
TEXT
  5
118
100
AcDbEntity
  8
TEXT
100
AcDbText
 10
6.84375
 20
8.09375
 30
0.0
 40
0.125
  1
DCIN4
 41
0.8
 51
10.0
  7
ROMANS
100
AcDbText
  0
TEXT
  5
119
100
AcDbEntity
  8
TEXT
100
AcDbText
 10
6.84375
 20
7.59375
 30
0.0
 40
0.125
  1
+ 24vdc Source
 41
0.8
 51
10.0
  7
ROMANS
100
AcDbText
  0
LINE
  5
121
100
AcDbEntity
  8
0
100
AcDbLine
 10
1.84375
 20
9.65525
 30
0.0
 11
1.84375
 21
9.65725
 31
0.0
  0
LINE
  5
122
100
AcDbEntity
  8
0
100
AcDbLine
 10
1.84275
 20
9.65625
 30
0.0
 11
1.84475
 21
9.65625
 31
0.0
  0
CIRCLE
  5
123
100
AcDbEntity
  8
0
100
AcDbCircle
 10
1.84375
 20
9.65625
 30
0.0
 40
0.0113
  0
CIRCLE
  5
124
100
AcDbEntity
  8
0
100
AcDbCircle
 10
1.84375
 20
9.65625
 30
0.0
 40
0.0213
  0
LINE
  5
125
100
AcDbEntity
  8
0
100
AcDbLine
 10
1.84375
 20
8.65525
 30
0.0
 11
1.84375
 21
8.65725
 31
0.0
  0
LINE
  5
126
100
AcDbEntity
  8
0
100
AcDbLine
 10
1.84275
 20
8.65625
 30
0.0
 11
1.84475
 21
8.65625
 31
0.0
  0
CIRCLE
  5
127
100
AcDbEntity
  8
0
100
AcDbCircle
 10
1.84375
 20
8.65625
 30
0.0
 40
0.0113
  0
CIRCLE
  5
128
100
AcDbEntity
  8
0
100
AcDbCircle
 10
1.84375
 20
8.65625
 30
0.0
 40
0.0213
  0
LINE
  5
131
100
AcDbEntity
  8
0
100
AcDbLine
 10
1.84375
 20
8.15525
 30
0.0
 11
1.84375
 21
8.15725
 31
0.0
  0
LINE
  5
132
100
AcDbEntity
  8
0
100
AcDbLine
 10
1.84275
 20
8.15625
 30
0.0
 11
1.84475
 21
8.15625
 31
0.0
  0
CIRCLE
  5
133
100
AcDbEntity
  8
0
100
AcDbCircle
 10
1.84375
 20
8.15625
 30
0.0
 40
0.0113
  0
CIRCLE
  5
134
100
AcDbEntity
  8
0
100
AcDbCircle
 10
1.84375
 20
8.15625
 30
0.0
 40
0.0213
  0
TEXT
  5
143
100
AcDbEntity
  8
TEXT
100
AcDbText
 10
6.561012
 20
7.09375
 30
0.0
 40
0.125
  1
22
 41
0.8
 51
10.0
  7
ROMANS
 72
     1
 11
6.65625
 21
7.09375
 31
0.0
100
AcDbText
  0
LINE
  5
144
100
AcDbEntity
  8
0
100
AcDbLine
 10
6.53125
 20
7.28125
 30
0.0
 11
6.53125
 21
7.03125
 31
0.0
  0
LINE
  5
145
100
AcDbEntity
  8
0
100
AcDbLine
 10
6.78125
 20
7.03125
 30
0.0
 11
6.53125
 21
7.03125
 31
0.0
  0
LINE
  5
146
100
AcDbEntity
  8
0
100
AcDbLine
 10
6.78125
 20
7.28125
 30
0.0
 11
6.53125
 21
7.28125
 31
0.0
  0
LINE
  5
147
100
AcDbEntity
  8
0
100
AcDbLine
 10
6.78125
 20
7.78125
 30
0.0
 11
6.53125
 21
7.78125
 31
0.0
  0
LINE
  5
148
100
AcDbEntity
  8
0
100
AcDbLine
 10
6.78125
 20
7.53125
 30
0.0
 11
6.53125
 21
7.53125
 31
0.0
  0
LINE
  5
149
100
AcDbEntity
  8
0
100
AcDbLine
 10
6.53125
 20
7.78125
 30
0.0
 11
6.53125
 21
7.53125
 31
0.0
  0
TEXT
  5
14A
100
AcDbEntity
  8
TEXT
100
AcDbText
 10
6.60625
 20
7.59375
 30
0.0
 40
0.125
  1
4
 41
0.8
 51
10.0
  7
ROMANS
 72
     1
 11
6.65625
 21
7.59375
 31
0.0
100
AcDbText
  0
LINE
  5
159
100
AcDbEntity
  8
0
100
AcDbLine
 10
5.40625
 20
6.65625
 30
0.0
 11
2.93285
 21
6.65625
 31
0.0
  0
LINE
  5
15A
100
AcDbEntity
  8
0
100
AcDbLine
 10
1.84375
 20
5.15525
 30
0.0
 11
1.84375
 21
5.15725
 31
0.0
  0
LINE
  5
15B
100
AcDbEntity
  8
0
100
AcDbLine
 10
1.84275
 20
5.15625
 30
0.0
 11
1.84475
 21
5.15625
 31
0.0
  0
CIRCLE
  5
15C
100
AcDbEntity
  8
0
100
AcDbCircle
 10
1.84375
 20
5.15625
 30
0.0
 40
0.0113
  0
CIRCLE
  5
15D
100
AcDbEntity
  8
0
100
AcDbCircle
 10
1.84375
 20
5.15625
 30
0.0
 40
0.0213
  0
CIRCLE
  5
15E
100
AcDbEntity
  8
0
100
AcDbCircle
 10
1.84375
 20
6.65625
 30
0.0
 40
0.0213
  0
CIRCLE
  5
15F
100
AcDbEntity
  8
0
100
AcDbCircle
 10
1.84375
 20
6.65625
 30
0.0
 40
0.0113
  0
LINE
  5
160
100
AcDbEntity
  8
0
100
AcDbLine
 10
1.84275
 20
6.65625
 30
0.0
 11
1.84475
 21
6.65625
 31
0.0
  0
LINE
  5
161
100
AcDbEntity
  8
0
100
AcDbLine
 10
1.84375
 20
6.65525
 30
0.0
 11
1.84375
 21
6.65725
 31
0.0
  0
LINE
  5
1DA
100
AcDbEntity
  8
0
100
AcDbLine
 10
2.45785
 20
9.65625
 30
0.0
 11
1.84375
 21
9.65625
 31
0.0
  0
LINE
  5
1DF
100
AcDbEntity
  8
0
100
AcDbLine
 10
2.45785
 20
8.65625
 30
0.0
 11
1.84375
 21
8.65625
 31
0.0
  0
LINE
  5
1E4
100
AcDbEntity
  8
0
100
AcDbLine
 10
2.45785
 20
8.15625
 30
0.0
 11
1.84375
 21
8.15625
 31
0.0
  0
LINE
  5
1F1
100
AcDbEntity
  8
0
100
AcDbLine
 10
2.45785
 20
6.65625
 30
0.0
 11
1.84375
 21
6.65625
 31
0.0
  0
LINE
  5
1F9
100
AcDbEntity
  8
0
100
AcDbLine
 10
2.45785
 20
5.15625
 30
0.0
 11
1.84375
 21
5.15625
 31
0.0
  0
LINE
  5
23E
100
AcDbEntity
  8
0
100
AcDbLine
 10
5.40625
 20
5.15625
 30
0.0
 11
2.93285
 21
5.15625
 31
0.0
  0
LINE
  5
251
100
AcDbEntity
  8
0
100
AcDbLine
 10
5.40625
 20
9.15625
 30
0.0
 11
2.93285
 21
9.15625
 31
0.0
  0
LINE
  5
256
100
AcDbEntity
  8
0
100
AcDbLine
 10
2.45785
 20
9.15625
 30
0.0
 11
1.84375
 21
9.15625
 31
0.0
  0
LINE
  5
257
100
AcDbEntity
  8
0
100
AcDbLine
 10
1.84375
 20
9.15525
 30
0.0
 11
1.84375
 21
9.15725
 31
0.0
  0
LINE
  5
258
100
AcDbEntity
  8
0
100
AcDbLine
 10
1.84275
 20
9.15625
 30
0.0
 11
1.84475
 21
9.15625
 31
0.0
  0
CIRCLE
  5
259
100
AcDbEntity
  8
0
100
AcDbCircle
 10
1.84375
 20
9.15625
 30
0.0
 40
0.0113
  0
CIRCLE
  5
25A
100
AcDbEntity
  8
0
100
AcDbCircle
 10
1.84375
 20
9.15625
 30
0.0
 40
0.0213
  0
TEXT
  5
279
100
AcDbEntity
  8
TEXT
100
AcDbText
 10
8.4375
 20
9.59375
 30
0.0
 40
0.125
  1
*
 41
0.8
 51
10.0
  7
ROMANS
100
AcDbText
  0
TEXT
  5
27A
100
AcDbEntity
  8
TEXT
100
AcDbText
 10
8.4375
 20
8.59375
 30
0.0
 40
0.125
  1
*
 41
0.8
 51
10.0
  7
ROMANS
100
AcDbText
  0
TEXT
  5
27B
100
AcDbEntity
  8
TEXT
100
AcDbText
 10
8.4375
 20
9.09375
 30
0.0
 40
0.125
  1
*
 41
0.8
 51
10.0
  7
ROMANS
100
AcDbText
  0
TEXT
  5
27D
100
AcDbEntity
  8
TEXT
100
AcDbText
 10
8.4375
 20
8.09375
 30
0.0
 40
0.125
  1
*
 41
0.8
 51
10.0
  7
ROMANS
100
AcDbText
  0
TEXT
  5
2F0
100
AcDbEntity
  8
0
100
AcDbText
 10
19.525
 20
8.125
 30
0.0
 40
0.1
  1

 72
     1
 11
19.525
 21
8.125
 31
0.0
100
AcDbText
  0
TEXT
  5
2F1
100
AcDbEntity
  8
0
100
AcDbText
 10
25.674038
 20
4.985375
 30
0.0
 40
0.075
  1

100
AcDbText
  0
TEXT
  5
2F2
100
AcDbEntity
  8
0
100
AcDbText
 10
25.326331
 20
4.985375
 30
0.0
 40
0.075
  1

100
AcDbText
  0
TEXT
  5
2F3
100
AcDbEntity
  8
0
100
AcDbText
 10
25.235205
 20
14.51631
 30
0.0
 40
0.1
  1

 72
     1
 11
25.235205
 21
14.51631
 31
0.0
100
AcDbText
  0
TEXT
  5
2F4
100
AcDbEntity
  8
0
100
AcDbText
 10
31.384243
 20
11.376685
 30
0.0
 40
0.075
  1

100
AcDbText
  0
TEXT
  5
2F5
100
AcDbEntity
  8
0
100
AcDbText
 10
31.036536
 20
11.376685
 30
0.0
 40
0.075
  1

100
AcDbText
  0
TEXT
  5
2F6
100
AcDbEntity
  8
0
100
AcDbText
 10
31.1135
 20
8.158375
 30
0.0
 40
0.1
  1

 72
     1
 11
31.1135
 21
8.158375
 31
0.0
100
AcDbText
  0
TEXT
  5
2F7
100
AcDbEntity
  8
0
100
AcDbText
 10
37.262538
 20
5.01875
 30
0.0
 40
0.075
  1

100
AcDbText
  0
TEXT
  5
2F8
100
AcDbEntity
  8
0
100
AcDbText
 10
36.914831
 20
5.01875
 30
0.0
 40
0.075
  1

100
AcDbText
  0
TEXT
  5
2F9
100
AcDbEntity
  8
0
100
AcDbText
 10
36.823705
 20
14.549685
 30
0.0
 40
0.1
  1

 72
     1
 11
36.823705
 21
14.549685
 31
0.0
100
AcDbText
  0
TEXT
  5
2FA
100
AcDbEntity
  8
0
100
AcDbText
 10
42.972743
 20
11.41006
 30
0.0
 40
0.075
  1

100
AcDbText
  0
TEXT
  5
2FB
100
AcDbEntity
  8
0
100
AcDbText
 10
42.625036
 20
11.41006
 30
0.0
 40
0.075
  1

100
AcDbText
  0
TEXT
  5
2FC
100
AcDbEntity
  8
0
100
AcDbText
 10
23.505358
 20
14.985613
 30
0.0
 40
0.075
  1

 72
     1
 11
23.505358
 21
14.985613
 31
0.0
100
AcDbText
  0
TEXT
  5
2FD
100
AcDbEntity
  8
0
100
AcDbText
 10
23.505358
 20
14.485613
 30
0.0
 40
0.075
  1

 72
     1
 11
23.505358
 21
14.485613
 31
0.0
100
AcDbText
  0
TEXT
  5
2FE
100
AcDbEntity
  8
0
100
AcDbText
 10
23.505358
 20
13.985613
 30
0.0
 40
0.1
  1

 72
     1
 11
23.505358
 21
13.985613
 31
0.0
100
AcDbText
  0
TEXT
  5
2FF
100
AcDbEntity
  8
0
100
AcDbText
 10
23.317858
 20
7.985613
 30
0.0
 40
0.1
  1

100
AcDbText
  0
TEXT
  5
300
100
AcDbEntity
  8
0
100
AcDbText
 10
23.317858
 20
13.485613
 30
0.0
 40
0.1
  1

100
AcDbText
  0
TEXT
  5
301
100
AcDbEntity
  8
0
100
AcDbText
 10
33.831491
 20
14.985613
 30
0.0
 40
0.075
  1

 72
     1
 11
33.831491
 21
14.985613
 31
0.0
100
AcDbText
  0
TEXT
  5
302
100
AcDbEntity
  8
0
100
AcDbText
 10
33.831491
 20
14.485613
 30
0.0
 40
0.075
  1

 72
     1
 11
33.831491
 21
14.485613
 31
0.0
100
AcDbText
  0
TEXT
  5
303
100
AcDbEntity
  8
0
100
AcDbText
 10
33.831491
 20
13.985613
 30
0.0
 40
0.1
  1

 72
     1
 11
33.831491
 21
13.985613
 31
0.0
100
AcDbText
  0
TEXT
  5
304
100
AcDbEntity
  8
0
100
AcDbText
 10
33.643991
 20
7.985613
 30
0.0
 40
0.1
  1

100
AcDbText
  0
TEXT
  5
305
100
AcDbEntity
  8
0
100
AcDbText
 10
33.643991
 20
13.485613
 30
0.0
 40
0.1
  1

100
AcDbText
  0
TEXT
  5
32D
100
AcDbEntity
  8
TEXT
100
AcDbText
 10
7.640625
 20
9.59375
 30
0.0
 40
0.125
  1
_._._
 41
0.8
 51
10.0
  7
ROMANS
100
AcDbText
  0
TEXT
  5
32E
100
AcDbEntity
  8
TEXT
100
AcDbText
 10
7.640625
 20
9.09375
 30
0.0
 40
0.125
  1
_._._
 41
0.8
 51
10.0
  7
ROMANS
100
AcDbText
  0
TEXT
  5
32F
100
AcDbEntity
  8
TEXT
100
AcDbText
 10
7.640625
 20
8.59375
 30
0.0
 40
0.125
  1
_._._
 41
0.8
 51
10.0
  7
ROMANS
100
AcDbText
  0
TEXT
  5
330
100
AcDbEntity
  8
TEXT
100
AcDbText
 10
7.640625
 20
8.09375
 30
0.0
 40
0.125
  1
_._._
 41
0.8
 51
10.0
  7
ROMANS
100
AcDbText
  0
LINE
  5
343
100
AcDbEntity
  8
0
100
AcDbLine
 10
5.40625
 20
10.25
 30
0.0
 11
5.78125
 21
10.25
 31
0.0
  0
LINE
  5
344
100
AcDbEntity
  8
0
100
AcDbLine
 10
5.40625
 20
10.0625
 30
0.0
 11
5.78125
 21
10.0625
 31
0.0
  0
LINE
  5
345
100
AcDbEntity
  8
0
100
AcDbLine
 10
5.40625
 20
10.25
 30
0.0
 11
5.40625
 21
10.0625
 31
0.0
  0
LINE
  5
347
100
AcDbEntity
  8
0
100
AcDbLine
 10
5.78125
 20
10.25
 30
0.0
 11
5.78125
 21
10.0625
 31
0.0
  0
TEXT
  5
349
100
AcDbEntity
  8
TEXT
100
AcDbText
 10
5.410417
 20
10.10625
 30
0.0
 40
0.1
  1
____
 72
     1
 11
5.59375
 21
10.10625
 31
0.0
100
AcDbText
  0
TEXT
  5
34C
100
AcDbEntity
  8
TEXT
100
AcDbText
 10
5.410417
 20
9.60625
 30
0.0
 40
0.1
  1
____
 72
     1
 11
5.59375
 21
9.60625
 31
0.0
100
AcDbText
  0
LINE
  5
34D
100
AcDbEntity
  8
0
100
AcDbLine
 10
5.40625
 20
9.5625
 30
0.0
 11
5.78125
 21
9.5625
 31
0.0
  0
LINE
  5
34E
100
AcDbEntity
  8
0
100
AcDbLine
 10
5.40625
 20
9.75
 30
0.0
 11
5.78125
 21
9.75
 31
0.0
  0
LINE
  5
34F
100
AcDbEntity
  8
0
100
AcDbLine
 10
5.40625
 20
9.75
 30
0.0
 11
5.40625
 21
9.5625
 31
0.0
  0
LINE
  5
350
100
AcDbEntity
  8
0
100
AcDbLine
 10
5.78125
 20
9.75
 30
0.0
 11
5.78125
 21
9.5625
 31
0.0
  0
TEXT
  5
351
100
AcDbEntity
  8
TEXT
100
AcDbText
 10
5.410417
 20
9.10625
 30
0.0
 40
0.1
  1
____
 72
     1
 11
5.59375
 21
9.10625
 31
0.0
100
AcDbText
  0
LINE
  5
352
100
AcDbEntity
  8
0
100
AcDbLine
 10
5.40625
 20
9.0625
 30
0.0
 11
5.78125
 21
9.0625
 31
0.0
  0
LINE
  5
353
100
AcDbEntity
  8
0
100
AcDbLine
 10
5.40625
 20
9.25
 30
0.0
 11
5.78125
 21
9.25
 31
0.0
  0
LINE
  5
354
100
AcDbEntity
  8
0
100
AcDbLine
 10
5.40625
 20
9.25
 30
0.0
 11
5.40625
 21
9.0625
 31
0.0
  0
LINE
  5
355
100
AcDbEntity
  8
0
100
AcDbLine
 10
5.78125
 20
9.25
 30
0.0
 11
5.78125
 21
9.0625
 31
0.0
  0
TEXT
  5
356
100
AcDbEntity
  8
TEXT
100
AcDbText
 10
5.410417
 20
8.60625
 30
0.0
 40
0.1
  1
____
 72
     1
 11
5.59375
 21
8.60625
 31
0.0
100
AcDbText
  0
LINE
  5
357
100
AcDbEntity
  8
0
100
AcDbLine
 10
5.40625
 20
8.5625
 30
0.0
 11
5.78125
 21
8.5625
 31
0.0
  0
LINE
  5
358
100
AcDbEntity
  8
0
100
AcDbLine
 10
5.40625
 20
8.75
 30
0.0
 11
5.78125
 21
8.75
 31
0.0
  0
LINE
  5
359
100
AcDbEntity
  8
0
100
AcDbLine
 10
5.40625
 20
8.75
 30
0.0
 11
5.40625
 21
8.5625
 31
0.0
  0
LINE
  5
35A
100
AcDbEntity
  8
0
100
AcDbLine
 10
5.78125
 20
8.75
 30
0.0
 11
5.78125
 21
8.5625
 31
0.0
  0
TEXT
  5
35B
100
AcDbEntity
  8
TEXT
100
AcDbText
 10
5.410417
 20
8.10625
 30
0.0
 40
0.1
  1
____
 72
     1
 11
5.59375
 21
8.10625
 31
0.0
100
AcDbText
  0
LINE
  5
35C
100
AcDbEntity
  8
0
100
AcDbLine
 10
5.40625
 20
8.0625
 30
0.0
 11
5.78125
 21
8.0625
 31
0.0
  0
LINE
  5
35D
100
AcDbEntity
  8
0
100
AcDbLine
 10
5.40625
 20
8.25
 30
0.0
 11
5.78125
 21
8.25
 31
0.0
  0
LINE
  5
35E
100
AcDbEntity
  8
0
100
AcDbLine
 10
5.40625
 20
8.25
 30
0.0
 11
5.40625
 21
8.0625
 31
0.0
  0
LINE
  5
35F
100
AcDbEntity
  8
0
100
AcDbLine
 10
5.78125
 20
8.25
 30
0.0
 11
5.78125
 21
8.0625
 31
0.0
  0
TEXT
  5
374
100
AcDbEntity
  8
TEXT
100
AcDbText
 10
0.953125
 20
9.59375
 30
0.0
 40
0.125
  1
*
 41
0.8
 51
10.0
  7
ROMANS
100
AcDbText
  0
TEXT
  5
375
100
AcDbEntity
  8
TEXT
100
AcDbText
 10
0.953125
 20
9.09375
 30
0.0
 40
0.125
  1
*
 41
0.8
 51
10.0
  7
ROMANS
100
AcDbText
  0
TEXT
  5
376
100
AcDbEntity
  8
TEXT
100
AcDbText
 10
0.953125
 20
8.59375
 30
0.0
 40
0.125
  1
*
 41
0.8
 51
10.0
  7
ROMANS
100
AcDbText
  0
TEXT
  5
377
100
AcDbEntity
  8
TEXT
100
AcDbText
 10
0.953125
 20
8.09375
 30
0.0
 40
0.125
  1
*
 41
0.8
 51
10.0
  7
ROMANS
100
AcDbText
  0
TEXT
  5
37A
100
AcDbEntity
  8
TEXT
100
AcDbText
 10
0.953125
 20
6.59375
 30
0.0
 40
0.125
  1
*
 41
0.8
 51
10.0
  7
ROMANS
100
AcDbText
  0
LINE
  5
37C
100
AcDbEntity
  8
0
100
AcDbLine
 10
1.65625
 20
11.25
 30
0.0
 11
2.03125
 21
11.25
 31
0.0
  0
LINE
  5
37D
100
AcDbEntity
  8
0
100
AcDbLine
 10
1.65625
 20
11.0625
 30
0.0
 11
2.03125
 21
11.0625
 31
0.0
  0
LINE
  5
37E
100
AcDbEntity
  8
0
100
AcDbLine
 10
1.65625
 20
11.25
 30
0.0
 11
1.65625
 21
11.0625
 31
0.0
  0
LINE
  5
380
100
AcDbEntity
  8
0
100
AcDbLine
 10
2.03125
 20
11.25
 30
0.0
 11
2.03125
 21
11.0625
 31
0.0
  0
TEXT
  5
382
100
AcDbEntity
  8
TEXT
100
AcDbText
 10
1.660417
 20
11.10625
 30
0.0
 40
0.1
  1
____
 72
     1
 11
1.84375
 21
11.10625
 31
0.0
100
AcDbText
  0
TEXT
  5
3C1
100
AcDbEntity
  8
TEXT
100
AcDbText
 10
0.953125
 20
5.09375
 30
0.0
 40
0.125
  1
*
 41
0.8
 51
10.0
  7
ROMANS
100
AcDbText
  0
TEXT
  5
3C2
100
AcDbEntity
  8
TEXT
100
AcDbText
 10
0.953125
 20
5.59375
 30
0.0
 40
0.125
  1
*
 41
0.8
 51
10.0
  7
ROMANS
100
AcDbText
  0
TEXT
  5
3C3
100
AcDbEntity
  8
TEXT
100
AcDbText
 10
0.953125
 20
6.09375
 30
0.0
 40
0.125
  1
*
 41
0.8
 51
10.0
  7
ROMANS
100
AcDbText
  0
TEXT
  5
3CB
100
AcDbEntity
  8
TEXT
100
AcDbText
 10
6.84375
 20
10.59375
 30
0.0
 40
0.125
  1
+24 VDC Source
 41
0.8
 51
10.0
  7
ROMANS
100
AcDbText
  0
TEXT
  5
3CF
100
AcDbEntity
  8
TEXT
100
AcDbText
 10
6.84375
 20
9.59375
 30
0.0
 40
0.125
  1
DCIN1
 41
0.8
 51
10.0
  7
ROMANS
100
AcDbText
  0
TEXT
  5
3D0
100
AcDbEntity
  8
TEXT
100
AcDbText
 10
6.84375
 20
7.09375
 30
0.0
 40
0.125
  1
DC 0 V
 41
0.8
 51
10.0
  7
ROMANS
100
AcDbText
  0
TEXT
  5
3D3
100
AcDbEntity
  8
TEXT
100
AcDbText
 10
6.84375
 20
4.59375
 30
0.0
 40
0.125
  1
+ 24vdc Source
 41
0.8
 51
10.0
  7
ROMANS
100
AcDbText
  0
TEXT
  5
3D4
100
AcDbEntity
  8
TEXT
100
AcDbText
 10
6.84375
 20
6.59375
 30
0.0
 40
0.125
  1
DCIN5
 41
0.8
 51
10.0
  7
ROMANS
100
AcDbText
  0
TEXT
  5
3D5
100
AcDbEntity
  8
TEXT
100
AcDbText
 10
6.84375
 20
6.09375
 30
0.0
 40
0.125
  1
DCIN6
 41
0.8
 51
10.0
  7
ROMANS
100
AcDbText
  0
TEXT
  5
3D6
100
AcDbEntity
  8
TEXT
100
AcDbText
 10
6.84375
 20
5.59375
 30
0.0
 40
0.125
  1
DCIN7
 41
0.8
 51
10.0
  7
ROMANS
100
AcDbText
  0
TEXT
  5
3D7
100
AcDbEntity
  8
TEXT
100
AcDbText
 10
6.84375
 20
5.09375
 30
0.0
 40
0.125
  1
DCIN8
 41
0.8
 51
10.0
  7
ROMANS
100
AcDbText
  0
LINE
  5
3E2
100
AcDbEntity
  8
0
100
AcDbLine
 10
6.53125
 20
6.15625
 30
0.0
 11
5.78125
 21
6.15625
 31
0.0
  0
LINE
  5
3E3
100
AcDbEntity
  8
0
100
AcDbLine
 10
6.53125
 20
6.65625
 30
0.0
 11
5.78125
 21
6.65625
 31
0.0
  0
LINE
  5
3E5
100
AcDbEntity
  8
0
100
AcDbLine
 10
6.53125
 20
5.15625
 30
0.0
 11
5.78125
 21
5.15625
 31
0.0
  0
LINE
  5
3E6
100
AcDbEntity
  8
0
100
AcDbLine
 10
6.53125
 20
5.65625
 30
0.0
 11
5.78125
 21
5.65625
 31
0.0
  0
LINE
  5
3E7
100
AcDbEntity
  8
0
100
AcDbLine
 10
5.78125
 20
5.75
 30
0.0
 11
5.78125
 21
5.5625
 31
0.0
  0
LINE
  5
3E8
100
AcDbEntity
  8
0
100
AcDbLine
 10
5.40625
 20
5.75
 30
0.0
 11
5.40625
 21
5.5625
 31
0.0
  0
LINE
  5
3EC
100
AcDbEntity
  8
0
100
AcDbLine
 10
5.40625
 20
5.25
 30
0.0
 11
5.78125
 21
5.25
 31
0.0
  0
LINE
  5
3ED
100
AcDbEntity
  8
0
100
AcDbLine
 10
5.40625
 20
5.0625
 30
0.0
 11
5.78125
 21
5.0625
 31
0.0
  0
TEXT
  5
3EE
100
AcDbEntity
  8
TEXT
100
AcDbText
 10
5.410417
 20
5.10625
 30
0.0
 40
0.1
  1
____
 72
     1
 11
5.59375
 21
5.10625
 31
0.0
100
AcDbText
  0
LINE
  5
3EF
100
AcDbEntity
  8
0
100
AcDbLine
 10
5.40625
 20
5.5625
 30
0.0
 11
5.78125
 21
5.5625
 31
0.0
  0
TEXT
  5
3F0
100
AcDbEntity
  8
TEXT
100
AcDbText
 10
5.410417
 20
5.60625
 30
0.0
 40
0.1
  1
____
 72
     1
 11
5.59375
 21
5.60625
 31
0.0
100
AcDbText
  0
LINE
  5
3F2
100
AcDbEntity
  8
0
100
AcDbLine
 10
5.40625
 20
5.25
 30
0.0
 11
5.40625
 21
5.0625
 31
0.0
  0
LINE
  5
3F4
100
AcDbEntity
  8
0
100
AcDbLine
 10
5.78125
 20
5.25
 30
0.0
 11
5.78125
 21
5.0625
 31
0.0
  0
LINE
  5
3F5
100
AcDbEntity
  8
0
100
AcDbLine
 10
5.40625
 20
5.75
 30
0.0
 11
5.78125
 21
5.75
 31
0.0
  0
LINE
  5
3F6
100
AcDbEntity
  8
0
100
AcDbLine
 10
5.40625
 20
6.25
 30
0.0
 11
5.78125
 21
6.25
 31
0.0
  0
LINE
  5
3F7
100
AcDbEntity
  8
0
100
AcDbLine
 10
5.40625
 20
6.0625
 30
0.0
 11
5.78125
 21
6.0625
 31
0.0
  0
TEXT
  5
3F8
100
AcDbEntity
  8
TEXT
100
AcDbText
 10
5.410417
 20
6.10625
 30
0.0
 40
0.1
  1
____
 72
     1
 11
5.59375
 21
6.10625
 31
0.0
100
AcDbText
  0
LINE
  5
3F9
100
AcDbEntity
  8
0
100
AcDbLine
 10
5.40625
 20
6.75
 30
0.0
 11
5.78125
 21
6.75
 31
0.0
  0
LINE
  5
3FA
100
AcDbEntity
  8
0
100
AcDbLine
 10
5.40625
 20
6.5625
 30
0.0
 11
5.78125
 21
6.5625
 31
0.0
  0
TEXT
  5
3FB
100
AcDbEntity
  8
TEXT
100
AcDbText
 10
5.410417
 20
6.60625
 30
0.0
 40
0.1
  1
____
 72
     1
 11
5.59375
 21
6.60625
 31
0.0
100
AcDbText
  0
LINE
  5
3FC
100
AcDbEntity
  8
0
100
AcDbLine
 10
5.40625
 20
6.25
 30
0.0
 11
5.40625
 21
6.0625
 31
0.0
  0
LINE
  5
3FD
100
AcDbEntity
  8
0
100
AcDbLine
 10
5.40625
 20
6.75
 30
0.0
 11
5.40625
 21
6.5625
 31
0.0
  0
LINE
  5
3FE
100
AcDbEntity
  8
0
100
AcDbLine
 10
5.78125
 20
6.25
 30
0.0
 11
5.78125
 21
6.0625
 31
0.0
  0
LINE
  5
3FF
100
AcDbEntity
  8
0
100
AcDbLine
 10
5.78125
 20
6.75
 30
0.0
 11
5.78125
 21
6.5625
 31
0.0
  0
TEXT
  5
400
100
AcDbEntity
  8
TEXT
100
AcDbText
 10
6.60625
 20
5.59375
 30
0.0
 40
0.125
  1
6
 41
0.8
 51
10.0
  7
ROMANS
 72
     1
 11
6.65625
 21
5.59375
 31
0.0
100
AcDbText
  0
LINE
  5
401
100
AcDbEntity
  8
0
100
AcDbLine
 10
6.53125
 20
5.78125
 30
0.0
 11
6.53125
 21
5.53125
 31
0.0
  0
LINE
  5
402
100
AcDbEntity
  8
0
100
AcDbLine
 10
6.78125
 20
5.53125
 30
0.0
 11
6.53125
 21
5.53125
 31
0.0
  0
LINE
  5
403
100
AcDbEntity
  8
0
100
AcDbLine
 10
6.78125
 20
5.28125
 30
0.0
 11
6.53125
 21
5.28125
 31
0.0
  0
LINE
  5
404
100
AcDbEntity
  8
0
100
AcDbLine
 10
6.78125
 20
4.78125
 30
0.0
 11
6.53125
 21
4.78125
 31
0.0
  0
LINE
  5
405
100
AcDbEntity
  8
0
100
AcDbLine
 10
6.78125
 20
5.03125
 30
0.0
 11
6.53125
 21
5.03125
 31
0.0
  0
LINE
  5
406
100
AcDbEntity
  8
0
100
AcDbLine
 10
6.78125
 20
4.53125
 30
0.0
 11
6.53125
 21
4.53125
 31
0.0
  0
LINE
  5
407
100
AcDbEntity
  8
0
100
AcDbLine
 10
6.53125
 20
5.28125
 30
0.0
 11
6.53125
 21
5.03125
 31
0.0
  0
LINE
  5
408
100
AcDbEntity
  8
0
100
AcDbLine
 10
6.53125
 20
4.78125
 30
0.0
 11
6.53125
 21
4.53125
 31
0.0
  0
TEXT
  5
409
100
AcDbEntity
  8
TEXT
100
AcDbText
 10
6.608631
 20
4.59375
 30
0.0
 40
0.125
  1
7
 41
0.8
 51
10.0
  7
ROMANS
 72
     1
 11
6.65625
 21
4.59375
 31
0.0
100
AcDbText
  0
TEXT
  5
40A
100
AcDbEntity
  8
TEXT
100
AcDbText
 10
6.558631
 20
5.09375
 30
0.0
 40
0.125
  1
24
 41
0.8
 51
10.0
  7
ROMANS
 72
     1
 11
6.65625
 21
5.09375
 31
0.0
100
AcDbText
  0
TEXT
  5
40B
100
AcDbEntity
  8
TEXT
100
AcDbText
 10
6.561012
 20
6.09375
 30
0.0
 40
0.125
  1
23
 41
0.8
 51
10.0
  7
ROMANS
 72
     1
 11
6.65625
 21
6.09375
 31
0.0
100
AcDbText
  0
LINE
  5
40C
100
AcDbEntity
  8
0
100
AcDbLine
 10
6.78125
 20
6.78125
 30
0.0
 11
6.53125
 21
6.78125
 31
0.0
  0
LINE
  5
40D
100
AcDbEntity
  8
0
100
AcDbLine
 10
6.78125
 20
6.53125
 30
0.0
 11
6.53125
 21
6.53125
 31
0.0
  0
LINE
  5
40E
100
AcDbEntity
  8
0
100
AcDbLine
 10
6.78125
 20
6.28125
 30
0.0
 11
6.53125
 21
6.28125
 31
0.0
  0
LINE
  5
40F
100
AcDbEntity
  8
0
100
AcDbLine
 10
6.78125
 20
6.03125
 30
0.0
 11
6.53125
 21
6.03125
 31
0.0
  0
LINE
  5
410
100
AcDbEntity
  8
0
100
AcDbLine
 10
6.78125
 20
5.78125
 30
0.0
 11
6.53125
 21
5.78125
 31
0.0
  0
LINE
  5
411
100
AcDbEntity
  8
0
100
AcDbLine
 10
6.53125
 20
6.28125
 30
0.0
 11
6.53125
 21
6.03125
 31
0.0
  0
LINE
  5
412
100
AcDbEntity
  8
0
100
AcDbLine
 10
6.53125
 20
6.78125
 30
0.0
 11
6.53125
 21
6.53125
 31
0.0
  0
TEXT
  5
413
100
AcDbEntity
  8
TEXT
100
AcDbText
 10
6.608631
 20
6.59375
 30
0.0
 40
0.125
  1
5
 41
0.8
 51
10.0
  7
ROMANS
 72
     1
 11
6.65625
 21
6.59375
 31
0.0
100
AcDbText
  0
TEXT
  5
414
100
AcDbEntity
  8
TEXT
100
AcDbText
 10
7.640625
 20
5.09375
 30
0.0
 40
0.125
  1
_._._
 41
0.8
 51
10.0
  7
ROMANS
100
AcDbText
  0
TEXT
  5
415
100
AcDbEntity
  8
TEXT
100
AcDbText
 10
7.640625
 20
5.59375
 30
0.0
 40
0.125
  1
_._._
 41
0.8
 51
10.0
  7
ROMANS
100
AcDbText
  0
TEXT
  5
416
100
AcDbEntity
  8
TEXT
100
AcDbText
 10
7.640625
 20
6.09375
 30
0.0
 40
0.125
  1
_._._
 41
0.8
 51
10.0
  7
ROMANS
100
AcDbText
  0
TEXT
  5
417
100
AcDbEntity
  8
TEXT
100
AcDbText
 10
7.640625
 20
6.59375
 30
0.0
 40
0.125
  1
_._._
 41
0.8
 51
10.0
  7
ROMANS
100
AcDbText
  0
TEXT
  5
418
100
AcDbEntity
  8
TEXT
100
AcDbText
 10
8.4375
 20
5.59375
 30
0.0
 40
0.125
  1
*
 41
0.8
 51
10.0
  7
ROMANS
100
AcDbText
  0
TEXT
  5
419
100
AcDbEntity
  8
TEXT
100
AcDbText
 10
8.4375
 20
5.09375
 30
0.0
 40
0.125
  1
*
 41
0.8
 51
10.0
  7
ROMANS
100
AcDbText
  0
TEXT
  5
41A
100
AcDbEntity
  8
TEXT
100
AcDbText
 10
8.4375
 20
6.09375
 30
0.0
 40
0.125
  1
*
 41
0.8
 51
10.0
  7
ROMANS
100
AcDbText
  0
TEXT
  5
41B
100
AcDbEntity
  8
TEXT
100
AcDbText
 10
8.4375
 20
6.59375
 30
0.0
 40
0.125
  1
*
 41
0.8
 51
10.0
  7
ROMANS
100
AcDbText
  0
LINE
  5
42F
100
AcDbEntity
  8
DASH
100
AcDbLine
 10
8.328125
 20
7.90625
 30
0.0
 11
6.78125
 21
7.90625
 31
0.0
  0
LINE
  5
431
100
AcDbEntity
  8
DASH
100
AcDbLine
 10
8.328125
 20
4.90625
 30
0.0
 11
6.78125
 21
4.90625
 31
0.0
  0
TEXT
  5
448
100
AcDbEntity
  8
TEXT
100
AcDbText
 10
6.84375
 20
4.09375
 30
0.0
 40
0.125
  1
DC 0 V
 41
0.8
 51
10.0
  7
ROMANS
100
AcDbText
  0
TEXT
  5
465
100
AcDbEntity
  8
TEXT
100
AcDbText
 10
6.561012
 20
4.09375
 30
0.0
 40
0.125
  1
25
 41
0.8
 51
10.0
  7
ROMANS
 72
     1
 11
6.65625
 21
4.09375
 31
0.0
100
AcDbText
  0
LINE
  5
466
100
AcDbEntity
  8
0
100
AcDbLine
 10
6.78125
 20
4.28125
 30
0.0
 11
6.53125
 21
4.28125
 31
0.0
  0
LINE
  5
467
100
AcDbEntity
  8
0
100
AcDbLine
 10
6.78125
 20
4.03125
 30
0.0
 11
6.53125
 21
4.03125
 31
0.0
  0
LINE
  5
468
100
AcDbEntity
  8
0
100
AcDbLine
 10
6.53125
 20
4.28125
 30
0.0
 11
6.53125
 21
4.03125
 31
0.0
  0
TEXT
  5
471
100
AcDbEntity
  8
TEXT
100
AcDbText
 10
6.84375
 20
3.09375
 30
0.0
 40
0.125
  1
Group 1 SS
 41
0.8
 51
10.0
  7
ROMANS
100
AcDbText
  0
TEXT
  5
472
100
AcDbEntity
  8
TEXT
100
AcDbText
 10
6.84375
 20
3.59375
 30
0.0
 40
0.125
  1
Group 1 SS
 41
0.8
 51
10.0
  7
ROMANS
100
AcDbText
  0
TEXT
  5
473
100
AcDbEntity
  8
TEXT
100
AcDbText
 10
6.561012
 20
3.09375
 30
0.0
 40
0.125
  1
26
 41
0.8
 51
10.0
  7
ROMANS
 72
     1
 11
6.65625
 21
3.09375
 31
0.0
100
AcDbText
  0
LINE
  5
474
100
AcDbEntity
  8
0
100
AcDbLine
 10
6.78125
 20
3.03125
 30
0.0
 11
6.53125
 21
3.03125
 31
0.0
  0
LINE
  5
475
100
AcDbEntity
  8
0
100
AcDbLine
 10
6.78125
 20
3.28125
 30
0.0
 11
6.53125
 21
3.28125
 31
0.0
  0
LINE
  5
476
100
AcDbEntity
  8
0
100
AcDbLine
 10
6.53125
 20
3.28125
 30
0.0
 11
6.53125
 21
3.03125
 31
0.0
  0
TEXT
  5
477
100
AcDbEntity
  8
TEXT
100
AcDbText
 10
6.608631
 20
3.59375
 30
0.0
 40
0.125
  1
8
 41
0.8
 51
10.0
  7
ROMANS
 72
     1
 11
6.65625
 21
3.59375
 31
0.0
100
AcDbText
  0
LINE
  5
478
100
AcDbEntity
  8
0
100
AcDbLine
 10
6.78125
 20
3.78125
 30
0.0
 11
6.53125
 21
3.78125
 31
0.0
  0
LINE
  5
479
100
AcDbEntity
  8
0
100
AcDbLine
 10
6.78125
 20
3.53125
 30
0.0
 11
6.53125
 21
3.53125
 31
0.0
  0
LINE
  5
47A
100
AcDbEntity
  8
0
100
AcDbLine
 10
6.53125
 20
3.78125
 30
0.0
 11
6.53125
 21
3.53125
 31
0.0
  0
LINE
  5
486
100
AcDbEntity
  8
DASH
100
AcDbLine
 10
8.328125
 20
1.99995
 30
0.0
 11
6.78125
 21
1.99995
 31
0.0
  0
LINE
  5
488
100
AcDbEntity
  8
DASH
100
AcDbLine
 10
2.69535
 20
9.65625
 30
0.0
 11
2.69535
 21
5.15625
 31
0.0
  0
LINE
  5
489
100
AcDbEntity
  8
0
100
AcDbLine
 10
2.45785
 20
6.15625
 30
0.0
 11
1.84375
 21
6.15625
 31
0.0
  0
LINE
  5
48A
100
AcDbEntity
  8
0
100
AcDbLine
 10
1.84375
 20
6.15525
 30
0.0
 11
1.84375
 21
6.15725
 31
0.0
  0
LINE
  5
48B
100
AcDbEntity
  8
0
100
AcDbLine
 10
1.84275
 20
6.15625
 30
0.0
 11
1.84475
 21
6.15625
 31
0.0
  0
CIRCLE
  5
48C
100
AcDbEntity
  8
0
100
AcDbCircle
 10
1.84375
 20
6.15625
 30
0.0
 40
0.0113
  0
CIRCLE
  5
48D
100
AcDbEntity
  8
0
100
AcDbCircle
 10
1.84375
 20
6.15625
 30
0.0
 40
0.0213
  0
LINE
  5
48E
100
AcDbEntity
  8
0
100
AcDbLine
 10
5.40625
 20
6.15625
 30
0.0
 11
2.93285
 21
6.15625
 31
0.0
  0
LINE
  5
48F
100
AcDbEntity
  8
0
100
AcDbLine
 10
2.45785
 20
5.65625
 30
0.0
 11
1.84375
 21
5.65625
 31
0.0
  0
LINE
  5
490
100
AcDbEntity
  8
0
100
AcDbLine
 10
1.84375
 20
5.65525
 30
0.0
 11
1.84375
 21
5.65725
 31
0.0
  0
LINE
  5
491
100
AcDbEntity
  8
0
100
AcDbLine
 10
1.84275
 20
5.65625
 30
0.0
 11
1.84475
 21
5.65625
 31
0.0
  0
CIRCLE
  5
492
100
AcDbEntity
  8
0
100
AcDbCircle
 10
1.84375
 20
5.65625
 30
0.0
 40
0.0113
  0
CIRCLE
  5
493
100
AcDbEntity
  8
0
100
AcDbCircle
 10
1.84375
 20
5.65625
 30
0.0
 40
0.0213
  0
LINE
  5
494
100
AcDbEntity
  8
0
100
AcDbLine
 10
5.40625
 20
5.65625
 30
0.0
 11
2.93285
 21
5.65625
 31
0.0
  0
LINE
  5
497
100
AcDbEntity
  8
0
100
AcDbLine
 10
6.53125
 20
4.15625
 30
0.0
 11
5.59375
 21
4.15625
 31
0.0
  0
LINE
  5
498
100
AcDbEntity
  8
0
100
AcDbLine
 10
5.59375
 20
4.15625
 30
0.0
 11
5.59375
 21
3.15625
 31
0.0
  0
LINE
  5
499
100
AcDbEntity
  8
0
100
AcDbLine
 10
6.53125
 20
3.15625
 30
0.0
 11
5.59375
 21
3.15625
 31
0.0
  0
LINE
  5
4A3
100
AcDbEntity
  8
DASH
100
AcDbLine
 10
8.328125
 20
11.40625
 30
0.0
 11
6.78125
 21
11.40625
 31
0.0
  0
TEXT
  5
4A4
100
AcDbEntity
  8
TEXT
100
AcDbText
 10
6.84375
 20
11.09375
 30
0.0
 40
0.125
  1
+24 VDC Source
 41
0.8
 51
10.0
  7
ROMANS
100
AcDbText
  0
LINE
  5
4A5
100
AcDbEntity
  8
0
100
AcDbLine
 10
6.78125
 20
11.28125
 30
0.0
 11
6.53125
 21
11.28125
 31
0.0
  0
LINE
  5
4A6
100
AcDbEntity
  8
0
100
AcDbLine
 10
6.78125
 20
11.03125
 30
0.0
 11
6.53125
 21
11.03125
 31
0.0
  0
LINE
  5
4A7
100
AcDbEntity
  8
0
100
AcDbLine
 10
6.53125
 20
11.28125
 30
0.0
 11
6.53125
 21
11.03125
 31
0.0
  0
TEXT
  5
4A8
100
AcDbEntity
  8
TEXT
100
AcDbText
 10
6.553869
 20
11.09375
 30
0.0
 40
0.125
  1
18
 41
0.8
 51
10.0
  7
ROMANS
 72
     1
 11
6.65625
 21
11.09375
 31
0.0
100
AcDbText
  0
TEXT
  5
4AC
100
AcDbEntity
  8
TEXT
100
AcDbText
 10
3.466012
 20
9.872917
 30
0.0
 40
0.1
  1
+24 VDC Sourcing Inputs:
 41
0.8
  7
ROMANS
 72
     4
 11
4.28125
 21
9.90625
 31
0.0
100
AcDbText
  0
LINE
  5
4AE
100
AcDbEntity
  8
0
100
AcDbLine
 10
6.53125
 20
11.15625
 30
0.0
 11
2.03125
 21
11.15625
 31
0.0
  0
TEXT
  5
4B1
100
AcDbEntity
  8
TEXT
100
AcDbText
 10
3.466012
 20
6.872917
 30
0.0
 40
0.1
  1
+24 VDC Sourcing Inputs:
 41
0.8
  7
ROMANS
 72
     4
 11
4.28125
 21
6.90625
 31
0.0
100
AcDbText
  0
LINE
  5
4B4
100
AcDbEntity
  8
0
100
AcDbLine
 10
1.65625
 20
2.75
 30
0.0
 11
2.03125
 21
2.75
 31
0.0
  0
LINE
  5
4B5
100
AcDbEntity
  8
0
100
AcDbLine
 10
1.65625
 20
2.5625
 30
0.0
 11
2.03125
 21
2.5625
 31
0.0
  0
LINE
  5
4B6
100
AcDbEntity
  8
0
100
AcDbLine
 10
1.65625
 20
2.75
 30
0.0
 11
1.65625
 21
2.5625
 31
0.0
  0
LINE
  5
4B8
100
AcDbEntity
  8
0
100
AcDbLine
 10
2.03125
 20
2.75
 30
0.0
 11
2.03125
 21
2.5625
 31
0.0
  0
TEXT
  5
4BA
100
AcDbEntity
  8
TEXT
100
AcDbText
 10
1.660417
 20
2.60625
 30
0.0
 40
0.1
  1
____
 72
     1
 11
1.84375
 21
2.60625
 31
0.0
100
AcDbText
  0
TEXT
  5
4BF
100
AcDbEntity
  8
TEXT
100
AcDbText
 10
2.512017
 20
2.60625
 30
0.0
 40
0.1
  1
____
 72
     1
 11
2.69535
 21
2.60625
 31
0.0
100
AcDbText
  0
LINE
  5
4C0
100
AcDbEntity
  8
0
100
AcDbLine
 10
2.50785
 20
2.5625
 30
0.0
 11
2.88285
 21
2.5625
 31
0.0
  0
LINE
  5
4C1
100
AcDbEntity
  8
0
100
AcDbLine
 10
2.50785
 20
2.75
 30
0.0
 11
2.88285
 21
2.75
 31
0.0
  0
LINE
  5
4C2
100
AcDbEntity
  8
0
100
AcDbLine
 10
2.50785
 20
2.75
 30
0.0
 11
2.50785
 21
2.5625
 31
0.0
  0
LINE
  5
4C3
100
AcDbEntity
  8
0
100
AcDbLine
 10
2.88285
 20
2.75
 30
0.0
 11
2.88285
 21
2.5625
 31
0.0
  0
TEXT
  5
4C4
100
AcDbEntity
  8
TEXT
100
AcDbText
 10
6.84375
 20
2.59375
 30
0.0
 40
0.125
  1
DC 0 V
 41
0.8
 51
10.0
  7
ROMANS
100
AcDbText
  0
TEXT
  5
4C5
100
AcDbEntity
  8
TEXT
100
AcDbText
 10
6.561012
 20
2.59375
 30
0.0
 40
0.125
  1
35
 41
0.8
 51
10.0
  7
ROMANS
 72
     1
 11
6.65625
 21
2.59375
 31
0.0
100
AcDbText
  0
LINE
  5
4C6
100
AcDbEntity
  8
0
100
AcDbLine
 10
6.78125
 20
2.78125
 30
0.0
 11
6.53125
 21
2.78125
 31
0.0
  0
LINE
  5
4C7
100
AcDbEntity
  8
0
100
AcDbLine
 10
6.78125
 20
2.53125
 30
0.0
 11
6.53125
 21
2.53125
 31
0.0
  0
LINE
  5
4C8
100
AcDbEntity
  8
0
100
AcDbLine
 10
6.53125
 20
2.78125
 30
0.0
 11
6.53125
 21
2.53125
 31
0.0
  0
LINE
  5
4C9
100
AcDbEntity
  8
0
100
AcDbLine
 10
6.53125
 20
2.65625
 30
0.0
 11
2.88285
 21
2.65625
 31
0.0
  0
INSERT
  5
4FF
100
AcDbEntity
  8
0
100
AcDbBlockReference
  2
PCON_5
 10
6.78125
 20
11.80425
 30
0.0
  0
INSERT
  5
504
100
AcDbEntity
  8
0
100
AcDbBlockReference
  2
PCON_5
 10
6.78125
 20
13.04625
 30
0.0
  0
LINE
  5
50A
100
AcDbEntity
  8
DASH
100
AcDbLine
 10
8.328125
 20
12.90625
 30
0.0
 11
6.78125
 21
12.90625
 31
0.0
  0
LINE
  5
50B
100
AcDbEntity
  8
DASH
100
AcDbLine
 10
8.328125
 20
14.40625
 30
0.0
 11
6.78125
 21
14.40625
 31
0.0
  0
LINE
  5
50D
100
AcDbEntity
  8
0
100
AcDbLine
 10
6.52075
 20
13.94325
 30
0.0
 11
5.9065
 21
13.94325
 31
0.0
  0
LINE
  5
50E
100
AcDbEntity
  8
0
100
AcDbLine
 10
6.52075
 20
13.74625
 30
0.0
 11
5.9065
 21
13.74625
 31
0.0
  0
LINE
  5
50F
100
AcDbEntity
  8
0
100
AcDbLine
 10
6.52075
 20
13.54225
 30
0.0
 11
5.75875
 21
13.54225
 31
0.0
  0
TEXT
  5
519
100
AcDbEntity
  8
TEXT
100
AcDbText
 10
8.4375
 20
12.19275
 30
0.0
 40
0.125
  1
OUT (To Next Block)
 41
0.8
 51
10.0
  7
ROMANS
100
AcDbText
  0
TEXT
  5
51A
100
AcDbEntity
  8
TEXT
100
AcDbText
 10
8.4375
 20
13.43475
 30
0.0
 40
0.125
  1
IN (From CPU)
 41
0.8
 51
10.0
  7
ROMANS
100
AcDbText
  0
TEXT
  5
51B
100
AcDbEntity
  8
TEXT
100
AcDbText
 10
6.84375
 20
13.88075
 30
0.0
 40
0.125
  1
5: Driver (-)
 41
0.8
 51
10.0
  7
ROMANS
100
AcDbText
  0
TEXT
  5
51C
100
AcDbEntity
  8
TEXT
100
AcDbText
 10
6.84375
 20
13.68375
 30
0.0
 40
0.125
  1
4: Driver (+)
 41
0.8
 51
10.0
  7
ROMANS
100
AcDbText
  0
TEXT
  5
51D
100
AcDbEntity
  8
TEXT
100
AcDbText
 10
6.84375
 20
13.47975
 30
0.0
 40
0.125
  1
3: Shield
 41
0.8
 51
10.0
  7
ROMANS
100
AcDbText
  0
TEXT
  5
51E
100
AcDbEntity
  8
TEXT
100
AcDbText
 10
6.84375
 20
13.08575
 30
0.0
 40
0.125
  1
1: Receiver (+)
 41
0.8
 51
10.0
  7
ROMANS
100
AcDbText
  0
TEXT
  5
51F
100
AcDbEntity
  8
TEXT
100
AcDbText
 10
6.84375
 20
13.28275
 30
0.0
 40
0.125
  1
2: Receiver (-)
 41
0.8
 51
10.0
  7
ROMANS
100
AcDbText
  0
TEXT
  5
520
100
AcDbEntity
  8
TEXT
100
AcDbText
 10
6.84375
 20
12.63875
 30
0.0
 40
0.125
  1
5: Receiver (-)
 41
0.8
 51
10.0
  7
ROMANS
100
AcDbText
  0
TEXT
  5
521
100
AcDbEntity
  8
TEXT
100
AcDbText
 10
6.84375
 20
12.44175
 30
0.0
 40
0.125
  1
4: Receiver (+)
 41
0.8
 51
10.0
  7
ROMANS
100
AcDbText
  0
TEXT
  5
522
100
AcDbEntity
  8
TEXT
100
AcDbText
 10
6.84375
 20
12.23775
 30
0.0
 40
0.125
  1
3: Shield
 41
0.8
 51
10.0
  7
ROMANS
100
AcDbText
  0
TEXT
  5
523
100
AcDbEntity
  8
TEXT
100
AcDbText
 10
6.84375
 20
12.04075
 30
0.0
 40
0.125
  1
2: Driver (-)
 41
0.8
 51
10.0
  7
ROMANS
100
AcDbText
  0
TEXT
  5
524
100
AcDbEntity
  8
TEXT
100
AcDbText
 10
6.84375
 20
11.84375
 30
0.0
 40
0.125
  1
1: Driver (+)
 41
0.8
 51
10.0
  7
ROMANS
100
AcDbText
  0
ELLIPSE
  5
55A
100
AcDbEntity
  8
0
100
AcDbEllipse
 10
4.7245
 20
13.84475
 30
0.0
 11
0.1477499999999994
 21
0.0
 31
0.0
210
0.0
220
0.0
230
1.0
 40
0.5
 41
0.0
 42
6.283185307179586
  0
ELLIPSE
  5
55B
100
AcDbEntity
  8
0
100
AcDbEllipse
 10
4.429
 20
13.84475
 30
0.0
 11
0.1477499999999994
 21
0.0
 31
0.0
210
0.0
220
0.0
230
1.0
 40
0.5
 41
-1.570796326794896
 42
1.570796326794896
  0
ELLIPSE
  5
562
100
AcDbEntity
  8
0
100
AcDbEllipse
 10
5.3155
 20
13.84475
 30
0.0
 11
0.1477499999999994
 21
0.0
 31
0.0
210
0.0
220
0.0
230
1.0
 40
0.5
 41
0.0
 42
6.283185307179586
  0
ELLIPSE
  5
563
100
AcDbEntity
  8
0
100
AcDbEllipse
 10
5.02
 20
13.84475
 30
0.0
 11
0.1477499999999994
 21
0.0
 31
0.0
210
0.0
220
0.0
230
1.0
 40
0.5
 41
0.0
 42
6.283185307179586
  0
LINE
  5
564
100
AcDbEntity
  8
0
100
AcDbLine
 10
4.429
 20
13.918625
 30
0.0
 11
4.429
 21
13.94325
 31
0.0
  0
LINE
  5
565
100
AcDbEntity
  8
0
100
AcDbLine
 10
4.429
 20
13.770875
 30
0.0
 11
4.429
 21
13.74625
 31
0.0
  0
ELLIPSE
  5
566
100
AcDbEntity
  8
0
100
AcDbEllipse
 10
5.9065
 20
13.84475
 30
0.0
 11
0.1477499999999994
 21
0.0
 31
0.0
210
0.0
220
0.0
230
1.0
 40
0.5
 41
1.570796326794902
 42
4.712388980384745
  0
ELLIPSE
  5
567
100
AcDbEntity
  8
0
100
AcDbEllipse
 10
5.611
 20
13.84475
 30
0.0
 11
0.1477499999999994
 21
0.0
 31
0.0
210
0.0
220
0.0
230
1.0
 40
0.5
 41
0.0
 42
6.283185307179586
  0
LINE
  5
568
100
AcDbEntity
  8
0
100
AcDbLine
 10
5.9065
 20
13.74625
 30
0.0
 11
5.9065
 21
13.770875
 31
0.0
  0
LINE
  5
569
100
AcDbEntity
  8
0
100
AcDbLine
 10
5.9065
 20
13.918625
 30
0.0
 11
5.9065
 21
13.94325
 31
0.0
  0
LINE
  5
56A
100
AcDbEntity
  8
0
100
AcDbLine
 10
4.429
 20
13.94325
 30
0.0
 11
4.28125
 21
13.94325
 31
0.0
  0
LINE
  5
56B
100
AcDbEntity
  8
0
100
AcDbLine
 10
4.429
 20
13.74625
 30
0.0
 11
4.28125
 21
13.74625
 31
0.0
  0
LINE
  5
56C
100
AcDbEntity
  8
DASH
100
AcDbLine
 10
4.57675
 20
13.94325
 30
0.0
 11
5.75875
 21
13.94325
 31
0.0
  0
LINE
  5
572
100
AcDbEntity
  8
DASH
100
AcDbLine
 10
5.75875
 20
13.94325
 30
0.0
 11
5.75875
 21
13.14125
 31
0.0
  0
INSERT
  5
57A
100
AcDbEntity
  8
0
100
AcDbBlockReference
  2
DOT
 10
5.75875
 20
13.54225
 30
0.0
  0
LINE
  5
57D
100
AcDbEntity
  8
DASH
100
AcDbLine
 10
4.57675
 20
13.14125
 30
0.0
 11
5.75875
 21
13.14125
 31
0.0
  0
ELLIPSE
  5
57E
100
AcDbEntity
  8
0
100
AcDbEllipse
 10
5.3155
 20
13.23975
 30
0.0
 11
0.1477499999999994
 21
0.0
 31
0.0
210
0.0
220
0.0
230
-1.0
 40
0.5
 41
0.0
 42
6.283185307179586
  0
ELLIPSE
  5
57F
100
AcDbEntity
  8
0
100
AcDbEllipse
 10
4.429
 20
13.23975
 30
0.0
 11
0.1477499999999994
 21
0.0
 31
0.0
210
0.0
220
0.0
230
-1.0
 40
0.5
 41
-1.570796326794896
 42
1.570796326794896
  0
LINE
  5
580
100
AcDbEntity
  8
0
100
AcDbLine
 10
4.429
 20
13.33825
 30
0.0
 11
4.28125
 21
13.33825
 31
0.0
  0
LINE
  5
581
100
AcDbEntity
  8
0
100
AcDbLine
 10
4.429
 20
13.14125
 30
0.0
 11
4.28125
 21
13.14125
 31
0.0
  0
LINE
  5
582
100
AcDbEntity
  8
0
100
AcDbLine
 10
4.429
 20
13.313625
 30
0.0
 11
4.429
 21
13.33825
 31
0.0
  0
LINE
  5
583
100
AcDbEntity
  8
0
100
AcDbLine
 10
4.429
 20
13.165875
 30
0.0
 11
4.429
 21
13.14125
 31
0.0
  0
ELLIPSE
  5
584
100
AcDbEntity
  8
0
100
AcDbEllipse
 10
5.02
 20
13.23975
 30
0.0
 11
0.1477499999999994
 21
0.0
 31
0.0
210
0.0
220
0.0
230
-1.0
 40
0.5
 41
0.0
 42
6.283185307179586
  0
ELLIPSE
  5
585
100
AcDbEntity
  8
0
100
AcDbEllipse
 10
4.7245
 20
13.23975
 30
0.0
 11
0.1477499999999994
 21
0.0
 31
0.0
210
0.0
220
0.0
230
-1.0
 40
0.5
 41
0.0
 42
6.283185307179586
  0
ELLIPSE
  5
587
100
AcDbEntity
  8
0
100
AcDbEllipse
 10
5.611
 20
13.23975
 30
0.0
 11
0.1477499999999994
 21
0.0
 31
0.0
210
0.0
220
0.0
230
-1.0
 40
0.5
 41
0.0
 42
6.283185307179586
  0
ELLIPSE
  5
588
100
AcDbEntity
  8
0
100
AcDbEllipse
 10
5.9065
 20
13.23975
 30
0.0
 11
0.1477499999999994
 21
0.0
 31
0.0
210
0.0
220
0.0
230
-1.0
 40
0.5
 41
1.570796326794902
 42
4.712388980384758
  0
LINE
  5
589
100
AcDbEntity
  8
0
100
AcDbLine
 10
5.9065
 20
13.33825
 30
0.0
 11
5.9065
 21
13.313625
 31
0.0
  0
LINE
  5
58A
100
AcDbEntity
  8
0
100
AcDbLine
 10
5.9065
 20
13.165875
 30
0.0
 11
5.9065
 21
13.14125
 31
0.0
  0
LINE
  5
58B
100
AcDbEntity
  8
0
100
AcDbLine
 10
6.52075
 20
13.33825
 30
0.0
 11
5.9065
 21
13.33825
 31
0.0
  0
LINE
  5
58C
100
AcDbEntity
  8
0
100
AcDbLine
 10
6.52075
 20
13.14125
 30
0.0
 11
5.9065
 21
13.14125
 31
0.0
  0
LINE
  5
5AF
100
AcDbEntity
  8
0
100
AcDbLine
 10
6.52075
 20
11.89925
 30
0.0
 11
5.9065
 21
11.89925
 31
0.0
  0
LINE
  5
5B0
100
AcDbEntity
  8
0
100
AcDbLine
 10
6.52075
 20
12.09625
 30
0.0
 11
5.9065
 21
12.09625
 31
0.0
  0
LINE
  5
5B1
100
AcDbEntity
  8
0
100
AcDbLine
 10
6.52075
 20
12.50425
 30
0.0
 11
5.9065
 21
12.50425
 31
0.0
  0
LINE
  5
5B2
100
AcDbEntity
  8
0
100
AcDbLine
 10
6.52075
 20
12.70125
 30
0.0
 11
5.9065
 21
12.70125
 31
0.0
  0
LINE
  5
5BB
100
AcDbEntity
  8
0
100
AcDbLine
 10
6.52075
 20
12.30025
 30
0.0
 11
5.75875
 21
12.30025
 31
0.0
  0
TEXT
  5
5BD
100
AcDbEntity
  8
TEXT
100
AcDbText
 10
6.543155
 20
1.741
 30
0.0
 40
0.125
  1
Continued On Next Sheet
 41
0.8
  7
ROMANS
 72
     4
 11
7.53125
 21
1.8035
 31
0.0
100
AcDbText
  0
TEXT
  5
5D0
100
AcDbEntity
  8
TEXT
100
AcDbText
 10
1.708964
 20
2.259833
 30
0.0
 40
0.125
  1
24 vdc Supply
 41
0.8
  7
ROMANS
 72
     4
 11
2.27325
 21
2.3015
 31
0.0
100
AcDbText
  0
TEXT
  5
5D5
100
AcDbEntity
  8
TEXT
100
AcDbText
 10
4.832512
 20
13.99325
 30
0.0
 40
0.1
  1
Cable #__
 41
0.8
  7
ROMANS
 72
     1
 11
5.16775
 21
14.04325
 31
0.0
100
AcDbText
 73
     2
  0
TEXT
  5
5D7
100
AcDbEntity
  8
TEXT
100
AcDbText
 10
4.832512
 20
12.75125
 30
0.0
 40
0.1
  1
Cable #__
 41
0.8
  7
ROMANS
 72
     1
 11
5.16775
 21
12.80125
 31
0.0
100
AcDbText
 73
     2
  0
LINE
  5
5D9
100
AcDbEntity
  8
DASH
100
AcDbLine
 10
4.57675
 20
13.94325
 30
0.0
 11
4.57675
 21
13.14125
 31
0.0
  0
ELLIPSE
  5
5DA
100
AcDbEntity
  8
0
100
AcDbEllipse
 10
5.3155
 20
11.99775
 30
0.0
 11
0.1477499999999994
 21
0.0
 31
0.0
210
0.0
220
0.0
230
-1.0
 40
0.5
 41
0.0
 42
6.283185307179586
  0
LINE
  5
5DB
100
AcDbEntity
  8
DASH
100
AcDbLine
 10
4.57675
 20
11.89925
 30
0.0
 11
5.75875
 21
11.89925
 31
0.0
  0
LINE
  5
5DC
100
AcDbEntity
  8
DASH
100
AcDbLine
 10
4.57675
 20
12.70125
 30
0.0
 11
5.75875
 21
12.70125
 31
0.0
  0
ELLIPSE
  5
5DD
100
AcDbEntity
  8
0
100
AcDbEllipse
 10
5.3155
 20
12.60275
 30
0.0
 11
0.1477499999999994
 21
0.0
 31
0.0
210
0.0
220
0.0
230
1.0
 40
0.5
 41
0.0
 42
6.283185307179586
  0
ELLIPSE
  5
5DE
100
AcDbEntity
  8
0
100
AcDbEllipse
 10
4.429
 20
11.99775
 30
0.0
 11
0.1477499999999994
 21
0.0
 31
0.0
210
0.0
220
0.0
230
-1.0
 40
0.5
 41
-1.570796326794896
 42
1.570796326794896
  0
ELLIPSE
  5
5DF
100
AcDbEntity
  8
0
100
AcDbEllipse
 10
4.429
 20
12.60275
 30
0.0
 11
0.1477499999999994
 21
0.0
 31
0.0
210
0.0
220
0.0
230
1.0
 40
0.5
 41
-1.570796326794896
 42
1.570796326794896
  0
LINE
  5
5E0
100
AcDbEntity
  8
0
100
AcDbLine
 10
4.429
 20
11.89925
 30
0.0
 11
4.28125
 21
11.89925
 31
0.0
  0
LINE
  5
5E1
100
AcDbEntity
  8
0
100
AcDbLine
 10
4.429
 20
12.09625
 30
0.0
 11
4.28125
 21
12.09625
 31
0.0
  0
LINE
  5
5E2
100
AcDbEntity
  8
0
100
AcDbLine
 10
4.429
 20
11.923875
 30
0.0
 11
4.429
 21
11.89925
 31
0.0
  0
LINE
  5
5E3
100
AcDbEntity
  8
0
100
AcDbLine
 10
4.429
 20
12.071625
 30
0.0
 11
4.429
 21
12.09625
 31
0.0
  0
LINE
  5
5E4
100
AcDbEntity
  8
0
100
AcDbLine
 10
4.429
 20
12.50425
 30
0.0
 11
4.28125
 21
12.50425
 31
0.0
  0
LINE
  5
5E5
100
AcDbEntity
  8
0
100
AcDbLine
 10
4.429
 20
12.70125
 30
0.0
 11
4.28125
 21
12.70125
 31
0.0
  0
LINE
  5
5E6
100
AcDbEntity
  8
0
100
AcDbLine
 10
4.429
 20
12.528875
 30
0.0
 11
4.429
 21
12.50425
 31
0.0
  0
LINE
  5
5E7
100
AcDbEntity
  8
0
100
AcDbLine
 10
4.429
 20
12.676625
 30
0.0
 11
4.429
 21
12.70125
 31
0.0
  0
ELLIPSE
  5
5E8
100
AcDbEntity
  8
0
100
AcDbEllipse
 10
5.02
 20
11.99775
 30
0.0
 11
0.1477499999999994
 21
0.0
 31
0.0
210
0.0
220
0.0
230
-1.0
 40
0.5
 41
0.0
 42
6.283185307179586
  0
ELLIPSE
  5
5E9
100
AcDbEntity
  8
0
100
AcDbEllipse
 10
5.02
 20
12.60275
 30
0.0
 11
0.1477499999999994
 21
0.0
 31
0.0
210
0.0
220
0.0
230
1.0
 40
0.5
 41
0.0
 42
6.283185307179586
  0
LINE
  5
5EA
100
AcDbEntity
  8
DASH
100
AcDbLine
 10
4.57675
 20
12.70125
 30
0.0
 11
4.57675
 21
11.89925
 31
0.0
  0
ELLIPSE
  5
5EB
100
AcDbEntity
  8
0
100
AcDbEllipse
 10
4.7245
 20
11.99775
 30
0.0
 11
0.1477499999999994
 21
0.0
 31
0.0
210
0.0
220
0.0
230
-1.0
 40
0.5
 41
0.0
 42
6.283185307179586
  0
ELLIPSE
  5
5EC
100
AcDbEntity
  8
0
100
AcDbEllipse
 10
4.7245
 20
12.60275
 30
0.0
 11
0.1477499999999994
 21
0.0
 31
0.0
210
0.0
220
0.0
230
1.0
 40
0.5
 41
0.0
 42
6.283185307179586
  0
ELLIPSE
  5
5ED
100
AcDbEntity
  8
0
100
AcDbEllipse
 10
5.611
 20
11.99775
 30
0.0
 11
0.1477499999999994
 21
0.0
 31
0.0
210
0.0
220
0.0
230
-1.0
 40
0.5
 41
0.0
 42
6.283185307179586
  0
ELLIPSE
  5
5EE
100
AcDbEntity
  8
0
100
AcDbEllipse
 10
5.611
 20
12.60275
 30
0.0
 11
0.1477499999999994
 21
0.0
 31
0.0
210
0.0
220
0.0
230
1.0
 40
0.5
 41
0.0
 42
6.283185307179586
  0
INSERT
  5
5EF
100
AcDbEntity
  8
0
100
AcDbBlockReference
  2
DOT
 10
5.75875
 20
12.30025
 30
0.0
  0
LINE
  5
5F0
100
AcDbEntity
  8
DASH
100
AcDbLine
 10
5.75875
 20
12.70125
 30
0.0
 11
5.75875
 21
11.89925
 31
0.0
  0
ELLIPSE
  5
5F1
100
AcDbEntity
  8
0
100
AcDbEllipse
 10
5.9065
 20
11.99775
 30
0.0
 11
0.1477499999999994
 21
0.0
 31
0.0
210
0.0
220
0.0
230
-1.0
 40
0.5
 41
1.570796326794902
 42
4.712388980384782
  0
LINE
  5
5F2
100
AcDbEntity
  8
0
100
AcDbLine
 10
5.9065
 20
11.923875
 30
0.0
 11
5.9065
 21
11.89925
 31
0.0
  0
LINE
  5
5F3
100
AcDbEntity
  8
0
100
AcDbLine
 10
5.9065
 20
12.09625
 30
0.0
 11
5.9065
 21
12.071625
 31
0.0
  0
ELLIPSE
  5
5F4
100
AcDbEntity
  8
0
100
AcDbEllipse
 10
5.9065
 20
12.60275
 30
0.0
 11
0.1477499999999994
 21
0.0
 31
0.0
210
0.0
220
0.0
230
1.0
 40
0.5
 41
1.570796326794902
 42
4.712388980384758
  0
LINE
  5
5F5
100
AcDbEntity
  8
0
100
AcDbLine
 10
5.9065
 20
12.50425
 30
0.0
 11
5.9065
 21
12.528875
 31
0.0
  0
LINE
  5
5F6
100
AcDbEntity
  8
0
100
AcDbLine
 10
5.9065
 20
12.676625
 30
0.0
 11
5.9065
 21
12.70125
 31
0.0
  0
ENDSEC
  0
SECTION
  2
OBJECTS
  0
DICTIONARY
  5
C
100
AcDbDictionary
  3
ACAD_GROUP
350
D
  3
ACAD_MLINESTYLE
350
E
  0
DICTIONARY
  5
D
102
{ACAD_REACTORS
330
C
102
}
100
AcDbDictionary
  0
DICTIONARY
  5
E
102
{ACAD_REACTORS
330
C
102
}
100
AcDbDictionary
  3
STANDARD
350
1B
  0
MLINESTYLE
  5
1B
102
{ACAD_REACTORS
330
E
102
}
100
AcDbMlineStyle
  2
STANDARD
 70
     0
  3

 62
     0
 51
90.0
 52
90.0
 71
     2
 49
0.5
 62
   256
  6
BYLAYER
 49
-0.5
 62
   256
  6
BYLAYER
  0
ENDSEC
  0
EOF
