  0
SECTION
  2
HEADER
  9
$ACADVER
  1
AC1018
  9
$ACADMAINTVER
 70
    76
  9
$DWGCODEPAGE
  3
ANSI_1252
  9
$LASTSAVEDBY
  1
gregory.mumm
  9
$INSBASE
 10
0.359375
 20
0.0625
 30
0.0
  9
$EXTMIN
 10
0.9800054986220297
 20
1.999950000000001
 30
0.0
  9
$EXTMAX
 10
8.518296938409241
 20
15.375
 30
0.0
  9
$LIMMIN
 10
0.0
 20
0.0
  9
$LIMMAX
 10
10.654
 20
15.881
  9
$ORTHOMODE
 70
     1
  9
$REGENMODE
 70
     1
  9
$FILLMODE
 70
     1
  9
$QTEXTMODE
 70
     0
  9
$MIRRTEXT
 70
     0
  9
$LTSCALE
 40
0.25
  9
$ATTMODE
 70
     1
  9
$TEXTSIZE
 40
0.1
  9
$TRACEWID
 40
0.05
  9
$TEXTSTYLE
  7
ROMANS
  9
$CLAYER
  8
0
  9
$CELTYPE
  6
BYLAYER
  9
$CECOLOR
 62
   256
  9
$CELTSCALE
 40
1.0
  9
$DISPSILH
 70
     0
  9
$DIMSCALE
 40
1.0
  9
$DIMASZ
 40
0.18
  9
$DIMEXO
 40
0.0625
  9
$DIMDLI
 40
0.38
  9
$DIMRND
 40
0.0
  9
$DIMDLE
 40
0.0
  9
$DIMEXE
 40
0.18
  9
$DIMTP
 40
0.0
  9
$DIMTM
 40
0.0
  9
$DIMTXT
 40
0.18
  9
$DIMCEN
 40
0.09
  9
$DIMTSZ
 40
0.0
  9
$DIMTOL
 70
     0
  9
$DIMLIM
 70
     0
  9
$DIMTIH
 70
     1
  9
$DIMTOH
 70
     1
  9
$DIMSE1
 70
     0
  9
$DIMSE2
 70
     0
  9
$DIMTAD
 70
     0
  9
$DIMZIN
 70
     0
  9
$DIMBLK
  1

  9
$DIMASO
 70
     1
  9
$DIMSHO
 70
     0
  9
$DIMPOST
  1

  9
$DIMAPOST
  1

  9
$DIMALT
 70
     0
  9
$DIMALTD
 70
     2
  9
$DIMALTF
 40
25.4
  9
$DIMLFAC
 40
1.0
  9
$DIMTOFL
 70
     0
  9
$DIMTVP
 40
0.0
  9
$DIMTIX
 70
     0
  9
$DIMSOXD
 70
     0
  9
$DIMSAH
 70
     0
  9
$DIMBLK1
  1

  9
$DIMBLK2
  1

  9
$DIMSTYLE
  2
STANDARD
  9
$DIMCLRD
 70
     0
  9
$DIMCLRE
 70
     0
  9
$DIMCLRT
 70
     0
  9
$DIMTFAC
 40
1.0
  9
$DIMGAP
 40
0.09
  9
$DIMJUST
 70
     0
  9
$DIMSD1
 70
     0
  9
$DIMSD2
 70
     0
  9
$DIMTOLJ
 70
     1
  9
$DIMTZIN
 70
     0
  9
$DIMALTZ
 70
     0
  9
$DIMALTTZ
 70
     0
  9
$DIMUPT
 70
     0
  9
$DIMDEC
 70
     4
  9
$DIMTDEC
 70
     4
  9
$DIMALTU
 70
     2
  9
$DIMALTTD
 70
     2
  9
$DIMTXSTY
  7
STANDARD
  9
$DIMAUNIT
 70
     0
  9
$DIMADEC
 70
     0
  9
$DIMALTRND
 40
0.0
  9
$DIMAZIN
 70
     0
  9
$DIMDSEP
 70
    46
  9
$DIMATFIT
 70
     3
  9
$DIMFRAC
 70
     0
  9
$DIMLDRBLK
  1

  9
$DIMLUNIT
 70
     2
  9
$DIMLWD
 70
    -2
  9
$DIMLWE
 70
    -2
  9
$DIMTMOVE
 70
     0
  9
$LUNITS
 70
     2
  9
$LUPREC
 70
     4
  9
$SKETCHINC
 40
0.1
  9
$FILLETRAD
 40
0.0
  9
$AUNITS
 70
     0
  9
$AUPREC
 70
     0
  9
$MENU
  1
ACAD
  9
$ELEVATION
 40
0.0
  9
$PELEVATION
 40
0.0
  9
$THICKNESS
 40
0.0
  9
$LIMCHECK
 70
     0
  9
$CHAMFERA
 40
0.0
  9
$CHAMFERB
 40
0.0
  9
$CHAMFERC
 40
0.0
  9
$CHAMFERD
 40
0.0
  9
$SKPOLY
 70
     0
  9
$TDCREATE
 40
2449270.545578588
  9
$TDUCREATE
 40
2449270.795578588
  9
$TDUPDATE
 40
2454790.344595197
  9
$TDUUPDATE
 40
2454790.594595197
  9
$TDINDWG
 40
0.4172725694
  9
$TDUSRTIMER
 40
0.4172725694
  9
$USRTIMER
 70
     1
  9
$ANGBASE
 50
0.0
  9
$ANGDIR
 70
     0
  9
$PDMODE
 70
     3
  9
$PDSIZE
 40
0.1
  9
$PLINEWID
 40
0.01
  9
$SPLFRAME
 70
     0
  9
$SPLINETYPE
 70
     6
  9
$SPLINESEGS
 70
     8
  9
$HANDSEED
  5
698
  9
$SURFTAB1
 70
     6
  9
$SURFTAB2
 70
     6
  9
$SURFTYPE
 70
     6
  9
$SURFU
 70
     6
  9
$SURFV
 70
     6
  9
$UCSBASE
  2

  9
$UCSNAME
  2

  9
$UCSORG
 10
0.0
 20
0.0
 30
0.0
  9
$UCSXDIR
 10
1.0
 20
0.0
 30
0.0
  9
$UCSYDIR
 10
0.0
 20
1.0
 30
0.0
  9
$UCSORTHOREF
  2

  9
$UCSORTHOVIEW
 70
     0
  9
$UCSORGTOP
 10
0.0
 20
0.0
 30
0.0
  9
$UCSORGBOTTOM
 10
0.0
 20
0.0
 30
0.0
  9
$UCSORGLEFT
 10
0.0
 20
0.0
 30
0.0
  9
$UCSORGRIGHT
 10
0.0
 20
0.0
 30
0.0
  9
$UCSORGFRONT
 10
0.0
 20
0.0
 30
0.0
  9
$UCSORGBACK
 10
0.0
 20
0.0
 30
0.0
  9
$PUCSBASE
  2

  9
$PUCSNAME
  2

  9
$PUCSORG
 10
0.0
 20
0.0
 30
0.0
  9
$PUCSXDIR
 10
1.0
 20
0.0
 30
0.0
  9
$PUCSYDIR
 10
0.0
 20
1.0
 30
0.0
  9
$PUCSORTHOREF
  2

  9
$PUCSORTHOVIEW
 70
     0
  9
$PUCSORGTOP
 10
0.0
 20
0.0
 30
0.0
  9
$PUCSORGBOTTOM
 10
0.0
 20
0.0
 30
0.0
  9
$PUCSORGLEFT
 10
0.0
 20
0.0
 30
0.0
  9
$PUCSORGRIGHT
 10
0.0
 20
0.0
 30
0.0
  9
$PUCSORGFRONT
 10
0.0
 20
0.0
 30
0.0
  9
$PUCSORGBACK
 10
0.0
 20
0.0
 30
0.0
  9
$USERI1
 70
     0
  9
$USERI2
 70
     0
  9
$USERI3
 70
     0
  9
$USERI4
 70
     0
  9
$USERI5
 70
     0
  9
$USERR1
 40
0.0
  9
$USERR2
 40
0.0
  9
$USERR3
 40
0.0
  9
$USERR4
 40
0.0
  9
$USERR5
 40
0.0
  9
$WORLDVIEW
 70
     1
  9
$SHADEDGE
 70
     3
  9
$SHADEDIF
 70
    70
  9
$TILEMODE
 70
     1
  9
$MAXACTVP
 70
    16
  9
$PINSBASE
 10
0.0
 20
0.0
 30
0.0
  9
$PLIMCHECK
 70
     0
  9
$PEXTMIN
 10
1.000000000000000E+20
 20
1.000000000000000E+20
 30
1.000000000000000E+20
  9
$PEXTMAX
 10
-1.000000000000000E+20
 20
-1.000000000000000E+20
 30
-1.000000000000000E+20
  9
$PLIMMIN
 10
0.0
 20
0.0
  9
$PLIMMAX
 10
12.0
 20
9.0
  9
$UNITMODE
 70
     0
  9
$VISRETAIN
 70
     0
  9
$PLINEGEN
 70
     0
  9
$PSLTSCALE
 70
     0
  9
$TREEDEPTH
 70
  3020
  9
$CMLSTYLE
  2
STANDARD
  9
$CMLJUST
 70
     0
  9
$CMLSCALE
 40
1.0
  9
$PROXYGRAPHICS
 70
     1
  9
$MEASUREMENT
 70
     0
  9
$CELWEIGHT
370
    -1
  9
$ENDCAPS
280
     0
  9
$JOINSTYLE
280
     0
  9
$LWDISPLAY
290
     0
  9
$INSUNITS
 70
     0
  9
$HYPERLINKBASE
  1

  9
$STYLESHEET
  1

  9
$XEDIT
290
     1
  9
$CEPSNTYPE
380
     0
  9
$PSTYLEMODE
290
     1
  9
$FINGERPRINTGUID
  2
{6E23959E-6287-4DEA-816A-DCF6B3AD04D8}
  9
$VERSIONGUID
  2
{23B756A8-2B0E-402C-AD15-F6FFC583001A}
  9
$EXTNAMES
290
     1
  9
$PSVPSCALE
 40
0.0
  9
$OLESTARTUP
290
     0
  9
$SORTENTS
280
   127
  9
$INDEXCTL
280
     0
  9
$HIDETEXT
280
     0
  9
$XCLIPFRAME
290
     0
  9
$HALOGAP
280
     0
  9
$OBSCOLOR
 70
   257
  9
$OBSLTYPE
280
     0
  9
$INTERSECTIONDISPLAY
280
     0
  9
$INTERSECTIONCOLOR
 70
   257
  9
$DIMASSOC
280
     1
  9
$PROJECTNAME
  1

  0
ENDSEC
  0
SECTION
  2
CLASSES
  0
CLASS
  1
ACDBDICTIONARYWDFLT
  2
AcDbDictionaryWithDefault
  3
ObjectDBX Classes
 90
        0
 91
        1
280
     0
281
     0
  0
CLASS
  1
TABLESTYLE
  2
AcDbTableStyle
  3
ObjectDBX Classes
 90
     2047
 91
        1
280
     0
281
     0
  0
CLASS
  1
DICTIONARYVAR
  2
AcDbDictionaryVar
  3
ObjectDBX Classes
 90
        0
 91
        1
280
     0
281
     0
  0
ENDSEC
  0
SECTION
  2
TABLES
  0
TABLE
  2
VPORT
  5
8
330
0
100
AcDbSymbolTable
 70
     3
  0
VPORT
  5
697
330
8
100
AcDbSymbolTableRecord
100
AcDbViewportTableRecord
  2
*Active
 70
     0
 10
0.0
 20
0.0
 11
1.0
 21
1.0
 12
14.93141443298969
 22
7.9405
 13
0.0
 23
0.0
 14
0.001
 24
0.001
 15
1.0
 25
1.0
 16
0.0
 26
0.0
 36
1.0
 17
0.0
 27
0.0
 37
0.0
 40
15.881
 41
1.88041237113402
 42
50.0
 43
0.0
 44
0.0
 50
0.0
 51
0.0
 71
     0
 72
   100
 73
     1
 74
     0
 75
     1
 76
     0
 77
     0
 78
     0
281
     0
 65
     1
110
0.0
120
0.0
130
0.0
111
1.0
121
0.0
131
0.0
112
0.0
122
1.0
132
0.0
 79
     0
146
0.0
  0
ENDTAB
  0
TABLE
  2
LTYPE
  5
5
330
0
100
AcDbSymbolTable
 70
     2
  0
LTYPE
  5
12
330
5
100
AcDbSymbolTableRecord
100
AcDbLinetypeTableRecord
  2
BYBLOCK
 70
     0
  3

 72
    65
 73
     0
 40
0.0
  0
LTYPE
  5
13
330
5
100
AcDbSymbolTableRecord
100
AcDbLinetypeTableRecord
  2
BYLAYER
 70
     0
  3

 72
    65
 73
     0
 40
0.0
  0
LTYPE
  5
14
330
5
100
AcDbSymbolTableRecord
100
AcDbLinetypeTableRecord
  2
CONTINUOUS
 70
     0
  3
Solid line
 72
    65
 73
     0
 40
0.0
  0
LTYPE
  5
23
330
5
100
AcDbSymbolTableRecord
100
AcDbLinetypeTableRecord
  2
DASHED
 70
     0
  3
__ __ __ __ __ __ __ __ __ __ __ __ __ __ __ __
 72
    65
 73
     2
 40
0.75
 49
0.5
 74
     0
 49
-0.25
 74
     0
  0
ENDTAB
  0
TABLE
  2
LAYER
  5
2
330
0
100
AcDbSymbolTable
 70
     3
  0
LAYER
  5
F
330
2
100
AcDbSymbolTableRecord
100
AcDbLayerTableRecord
  2
0
 70
     0
 62
     7
  6
CONTINUOUS
370
    -3
390
688
  0
LAYER
  5
2A
330
2
100
AcDbSymbolTableRecord
100
AcDbLayerTableRecord
  2
TEXT
 70
     0
 62
     2
  6
CONTINUOUS
370
    -3
390
688
  0
LAYER
  5
30
330
2
100
AcDbSymbolTableRecord
100
AcDbLayerTableRecord
  2
DASH
 70
     0
 62
     2
  6
DASHED
370
    -3
390
688
  0
ENDTAB
  0
TABLE
  2
STYLE
  5
3
330
0
100
AcDbSymbolTable
 70
     2
  0
STYLE
  5
10
330
3
100
AcDbSymbolTableRecord
100
AcDbTextStyleTableRecord
  2
STANDARD
 70
     0
 40
0.0
 41
1.0
 50
0.0
 71
     0
 42
0.2
  3
txt
  4

  0
STYLE
  5
1D
330
3
100
AcDbSymbolTableRecord
100
AcDbTextStyleTableRecord
  2
ROMANS
 70
     0
 40
0.0
 41
0.8
 50
0.0
 71
     0
 42
0.1
  3
ROMANS
  4

  0
ENDTAB
  0
TABLE
  2
VIEW
  5
6
330
0
100
AcDbSymbolTable
 70
     0
  0
ENDTAB
  0
TABLE
  2
UCS
  5
7
330
0
100
AcDbSymbolTable
 70
     0
  0
ENDTAB
  0
TABLE
  2
APPID
  5
9
330
0
100
AcDbSymbolTable
 70
     1
  0
APPID
  5
11
330
9
100
AcDbSymbolTableRecord
100
AcDbRegAppTableRecord
  2
ACAD
 70
     0
  0
ENDTAB
  0
TABLE
  2
DIMSTYLE
  5
A
330
0
100
AcDbSymbolTable
 70
     1
100
AcDbDimStyleTable
 71
     0
  0
DIMSTYLE
105
26C
330
A
100
AcDbSymbolTableRecord
100
AcDbDimStyleTableRecord
  2
STANDARD
 70
     0
340
10
  0
ENDTAB
  0
TABLE
  2
BLOCK_RECORD
  5
1
330
0
100
AcDbSymbolTable
 70
     1
  0
BLOCK_RECORD
  5
18
330
1
100
AcDbSymbolTableRecord
100
AcDbBlockTableRecord
  2
*MODEL_SPACE
340
68F
  0
BLOCK_RECORD
  5
15
330
1
100
AcDbSymbolTableRecord
100
AcDbBlockTableRecord
  2
*PAPER_SPACE
340
690
  0
BLOCK_RECORD
  5
1C
330
1
100
AcDbSymbolTableRecord
100
AcDbBlockTableRecord
  2
TEMP5
340
0
102
{BLKREFS
331
EE
102
}
  0
ENDTAB
  0
ENDSEC
  0
SECTION
  2
BLOCKS
  0
BLOCK
  5
33
330
18
100
AcDbEntity
  8
0
100
AcDbBlockBegin
  2
*MODEL_SPACE
 70
     0
 10
0.0
 20
0.0
 30
0.0
  3
*MODEL_SPACE
  1

  0
ENDBLK
  5
34
330
18
100
AcDbEntity
  8
0
100
AcDbBlockEnd
  0
BLOCK
  5
31
330
15
100
AcDbEntity
 67
     1
  8
0
100
AcDbBlockBegin
  2
*PAPER_SPACE
 70
     0
 10
0.0
 20
0.0
 30
0.0
  3
*PAPER_SPACE
  1

  0
ENDBLK
  5
32
330
15
100
AcDbEntity
 67
     1
  8
0
100
AcDbBlockEnd
  0
BLOCK
  5
35
330
1C
100
AcDbEntity
  8
0
100
AcDbBlockBegin
  2
TEMP5
 70
     0
 10
0.0
 20
0.0
 30
0.0
  3
TEMP5
  1

  0
TEXT
  5
36
330
1C
100
AcDbEntity
  8
0
100
AcDbText
 10
-1.467738095238095
 20
-0.1906250000000001
 30
0.0
 40
0.1
  1
INTERNAL ADDRESSES
 41
0.8
  7
ROMANS
 72
     4
 11
-0.8125
 21
-0.140625
 31
0.0
100
AcDbText
  0
TEXT
  5
37
330
1C
100
AcDbEntity
  8
0
100
AcDbText
 10
-1.281071428571428
 20
-0.35253
 30
0.0
 40
0.1
  1
LISTED BELOW 
 41
0.8
  7
ROMANS
 72
     4
 11
-0.8125
 21
-0.30253
 31
0.0
100
AcDbText
  0
ENDBLK
  5
38
330
1C
100
AcDbEntity
  8
0
100
AcDbBlockEnd
  0
ENDSEC
  0
SECTION
  2
ENTITIES
  0
LINE
  5
3C
330
18
100
AcDbEntity
  8
DASH
100
AcDbLine
 10
8.328125
 20
14.8125
 30
0.0
 11
6.78125
 21
14.8125
 31
0.0
  0
LINE
  5
3D
330
18
100
AcDbEntity
  8
0
100
AcDbLine
 10
8.328125
 20
1.999950000000001
 30
0.0
 11
8.328125
 21
14.8125
 31
0.0
  0
LINE
  5
3F
330
18
100
AcDbEntity
  8
0
100
AcDbLine
 10
6.78125
 20
14.8125
 30
0.0
 11
6.781249999999996
 21
1.999950000000001
 31
0.0
  0
LINE
  5
40
330
18
100
AcDbEntity
  8
0
100
AcDbLine
 10
6.53125
 20
10.78125
 30
0.0
 11
6.53125
 21
10.53125
 31
0.0
  0
LINE
  5
41
330
18
100
AcDbEntity
  8
0
100
AcDbLine
 10
6.78125
 20
10.78125
 30
0.0
 11
6.53125
 21
10.78125
 31
0.0
  0
LINE
  5
42
330
18
100
AcDbEntity
  8
0
100
AcDbLine
 10
6.78125
 20
10.53125
 30
0.0
 11
6.53125
 21
10.53125
 31
0.0
  0
LINE
  5
43
330
18
100
AcDbEntity
  8
0
100
AcDbLine
 10
6.78125
 20
10.03125
 30
0.0
 11
6.53125
 21
10.03125
 31
0.0
  0
LINE
  5
44
330
18
100
AcDbEntity
  8
0
100
AcDbLine
 10
6.78125
 20
10.28125
 30
0.0
 11
6.53125
 21
10.28125
 31
0.0
  0
LINE
  5
45
330
18
100
AcDbEntity
  8
0
100
AcDbLine
 10
6.53125
 20
10.28125
 30
0.0
 11
6.53125
 21
10.03125
 31
0.0
  0
LINE
  5
46
330
18
100
AcDbEntity
  8
0
100
AcDbLine
 10
6.78125
 20
9.531249999999998
 30
0.0
 11
6.53125
 21
9.531249999999998
 31
0.0
  0
LINE
  5
47
330
18
100
AcDbEntity
  8
0
100
AcDbLine
 10
6.78125
 20
9.781249999999998
 30
0.0
 11
6.53125
 21
9.781249999999998
 31
0.0
  0
LINE
  5
48
330
18
100
AcDbEntity
  8
0
100
AcDbLine
 10
6.53125
 20
9.781249999999998
 30
0.0
 11
6.53125
 21
9.531249999999998
 31
0.0
  0
LINE
  5
49
330
18
100
AcDbEntity
  8
0
100
AcDbLine
 10
6.78125
 20
9.031249999999998
 30
0.0
 11
6.53125
 21
9.031249999999998
 31
0.0
  0
LINE
  5
4A
330
18
100
AcDbEntity
  8
0
100
AcDbLine
 10
6.78125
 20
9.281249999999998
 30
0.0
 11
6.53125
 21
9.281249999999998
 31
0.0
  0
LINE
  5
4B
330
18
100
AcDbEntity
  8
0
100
AcDbLine
 10
6.53125
 20
9.281249999999998
 30
0.0
 11
6.53125
 21
9.031249999999998
 31
0.0
  0
LINE
  5
4C
330
18
100
AcDbEntity
  8
0
100
AcDbLine
 10
6.78125
 20
8.531249999999998
 30
0.0
 11
6.53125
 21
8.531249999999998
 31
0.0
  0
LINE
  5
4D
330
18
100
AcDbEntity
  8
0
100
AcDbLine
 10
6.78125
 20
8.781249999999998
 30
0.0
 11
6.53125
 21
8.781249999999998
 31
0.0
  0
LINE
  5
4E
330
18
100
AcDbEntity
  8
0
100
AcDbLine
 10
6.53125
 20
8.781249999999998
 30
0.0
 11
6.53125
 21
8.531249999999998
 31
0.0
  0
LINE
  5
4F
330
18
100
AcDbEntity
  8
0
100
AcDbLine
 10
6.78125
 20
8.031249999999998
 30
0.0
 11
6.53125
 21
8.031249999999998
 31
0.0
  0
LINE
  5
50
330
18
100
AcDbEntity
  8
0
100
AcDbLine
 10
6.78125
 20
8.281249999999998
 30
0.0
 11
6.53125
 21
8.281249999999998
 31
0.0
  0
LINE
  5
51
330
18
100
AcDbEntity
  8
0
100
AcDbLine
 10
6.53125
 20
8.281249999999998
 30
0.0
 11
6.53125
 21
8.031249999999998
 31
0.0
  0
TEXT
  5
79
330
18
100
AcDbEntity
  8
TEXT
100
AcDbText
 10
6.611011904761904
 20
10.59375
 30
0.0
 40
0.125
  1
9
 41
0.8
 51
10.0
  7
ROMANS
 72
     1
 11
6.65625
 21
10.59375
 31
0.0
100
AcDbText
  0
TEXT
  5
7A
330
18
100
AcDbEntity
  8
TEXT
100
AcDbText
 10
6.561011904761905
 20
10.09375
 30
0.0
 40
0.125
  1
27
 41
0.8
 51
10.0
  7
ROMANS
 72
     1
 11
6.65625
 21
10.09375
 31
0.0
100
AcDbText
  0
TEXT
  5
7B
330
18
100
AcDbEntity
  8
TEXT
100
AcDbText
 10
6.553869047619047
 20
9.593749999999998
 30
0.0
 40
0.125
  1
10
 41
0.8
 51
10.0
  7
ROMANS
 72
     1
 11
6.65625
 21
9.593749999999998
 31
0.0
100
AcDbText
  0
TEXT
  5
7C
330
18
100
AcDbEntity
  8
TEXT
100
AcDbText
 10
6.561011904761905
 20
9.093749999999998
 30
0.0
 40
0.125
  1
28
 41
0.8
 51
10.0
  7
ROMANS
 72
     1
 11
6.65625
 21
9.093749999999998
 31
0.0
100
AcDbText
  0
TEXT
  5
7D
330
18
100
AcDbEntity
  8
TEXT
100
AcDbText
 10
6.568154761904762
 20
8.593749999999998
 30
0.0
 40
0.125
  1
11
 41
0.8
 51
10.0
  7
ROMANS
 72
     1
 11
6.65625
 21
8.593749999999998
 31
0.0
100
AcDbText
  0
TEXT
  5
7E
330
18
100
AcDbEntity
  8
TEXT
100
AcDbText
 10
6.563392857142857
 20
8.093749999999998
 30
0.0
 40
0.125
  1
29
 41
0.8
 51
10.0
  7
ROMANS
 72
     1
 11
6.65625
 21
8.093749999999998
 31
0.0
100
AcDbText
  0
TEXT
  5
8C
330
18
100
AcDbEntity
  8
TEXT
100
AcDbText
 10
6.84375
 20
9.093749999999998
 30
0.0
 40
0.125
  1
DCIN10
 41
0.8
 51
10.0
  7
ROMANS
100
AcDbText
  0
TEXT
  5
8D
330
18
100
AcDbEntity
  8
TEXT
100
AcDbText
 10
6.84375
 20
8.593749999999998
 30
0.0
 40
0.125
  1
DCIN11
 41
0.8
 51
10.0
  7
ROMANS
100
AcDbText
  0
LINE
  5
8E
330
18
100
AcDbEntity
  8
0
100
AcDbLine
 10
6.53125
 20
9.656249999999998
 30
0.0
 11
5.78125
 21
9.656249999999998
 31
0.0
  0
LINE
  5
8F
330
18
100
AcDbEntity
  8
0
100
AcDbLine
 10
5.40625
 20
9.656249999999998
 30
0.0
 11
2.93285
 21
9.656249999999998
 31
0.0
  0
LINE
  5
90
330
18
100
AcDbEntity
  8
0
100
AcDbLine
 10
6.53125
 20
9.156249999999998
 30
0.0
 11
5.78125
 21
9.156249999999998
 31
0.0
  0
LINE
  5
91
330
18
100
AcDbEntity
  8
0
100
AcDbLine
 10
6.53125
 20
8.656249999999998
 30
0.0
 11
5.78125
 21
8.656249999999998
 31
0.0
  0
LINE
  5
92
330
18
100
AcDbEntity
  8
0
100
AcDbLine
 10
5.40625
 20
8.656249999999998
 30
0.0
 11
2.93285
 21
8.656249999999998
 31
0.0
  0
LINE
  5
93
330
18
100
AcDbEntity
  8
0
100
AcDbLine
 10
6.53125
 20
8.156249999999998
 30
0.0
 11
5.78125
 21
8.156249999999998
 31
0.0
  0
LINE
  5
94
330
18
100
AcDbEntity
  8
0
100
AcDbLine
 10
5.40625
 20
8.156249999999998
 30
0.0
 11
2.93285
 21
8.156249999999998
 31
0.0
  0
LINE
  5
9E
330
18
100
AcDbEntity
  8
0
100
AcDbLine
 10
1.84375
 20
11.06249999999999
 30
0.0
 11
1.84375
 21
2.750000000000001
 31
0.0
  0
TEXT
  5
A0
330
18
100
AcDbEntity
  8
TEXT
100
AcDbText
 10
7.019345238095238
 20
15.25
 30
0.0
 40
0.125
  1
BLOCK INPUT
 41
0.8
  7
ROMANS
 72
     4
 11
7.53125
 21
15.3125
 31
0.0
100
AcDbText
  0
TEXT
  5
A1
330
18
100
AcDbEntity
  8
TEXT
100
AcDbText
 10
7.026488095238095
 20
15.047619
 30
0.0
 40
0.125
  1
24VDC INPUT
 41
0.8
  7
ROMANS
 72
     4
 11
7.53125
 21
15.110119
 31
0.0
100
AcDbText
  0
TEXT
  5
A2
330
18
100
AcDbEntity
  8
TEXT
100
AcDbText
 10
6.945535714285714
 20
14.845238
 30
0.0
 40
0.125
  1
503-25907-01
 41
0.8
  7
ROMANS
 72
     4
 11
7.53125
 21
14.907738
 31
0.0
100
AcDbText
  0
INSERT
  5
EE
330
18
100
AcDbEntity
  8
TEXT
100
AcDbBlockReference
  2
TEMP5
 10
8.34375
 20
14.8125
 30
0.0
  0
TEXT
  5
111
330
18
100
AcDbEntity
  8
TEXT
100
AcDbText
 10
6.84375
 20
10.09375
 30
0.0
 40
0.125
  1
DC 0 V
 41
0.8
 51
10.0
  7
ROMANS
100
AcDbText
  0
LINE
  5
117
330
18
100
AcDbEntity
  8
0
100
AcDbLine
 10
6.53125
 20
10.15625
 30
0.0
 11
5.78125
 21
10.15625
 31
0.0
  0
TEXT
  5
118
330
18
100
AcDbEntity
  8
TEXT
100
AcDbText
 10
6.84375
 20
8.093749999999998
 30
0.0
 40
0.125
  1
DCIN12
 41
0.8
 51
10.0
  7
ROMANS
100
AcDbText
  0
TEXT
  5
119
330
18
100
AcDbEntity
  8
TEXT
100
AcDbText
 10
6.84375
 20
7.593749999999998
 30
0.0
 40
0.125
  1
+ 24vdc Source
 41
0.8
 51
10.0
  7
ROMANS
100
AcDbText
  0
LINE
  5
121
330
18
100
AcDbEntity
  8
0
100
AcDbLine
 10
1.843749999999998
 20
9.65525
 30
0.0
 11
1.843749999999998
 21
9.657249999999999
 31
0.0
  0
LINE
  5
122
330
18
100
AcDbEntity
  8
0
100
AcDbLine
 10
1.842749999999998
 20
9.65625
 30
0.0
 11
1.844749999999997
 21
9.65625
 31
0.0
  0
CIRCLE
  5
123
330
18
100
AcDbEntity
  8
0
100
AcDbCircle
 10
1.843749999999998
 20
9.65625
 30
0.0
 40
0.0113
  0
CIRCLE
  5
124
330
18
100
AcDbEntity
  8
0
100
AcDbCircle
 10
1.843749999999998
 20
9.65625
 30
0.0
 40
0.0213
  0
LINE
  5
125
330
18
100
AcDbEntity
  8
0
100
AcDbLine
 10
1.843749999999998
 20
8.65525
 30
0.0
 11
1.843749999999998
 21
8.657249999999999
 31
0.0
  0
LINE
  5
126
330
18
100
AcDbEntity
  8
0
100
AcDbLine
 10
1.842749999999998
 20
8.65625
 30
0.0
 11
1.844749999999997
 21
8.65625
 31
0.0
  0
CIRCLE
  5
127
330
18
100
AcDbEntity
  8
0
100
AcDbCircle
 10
1.843749999999998
 20
8.65625
 30
0.0
 40
0.0113
  0
CIRCLE
  5
128
330
18
100
AcDbEntity
  8
0
100
AcDbCircle
 10
1.843749999999998
 20
8.65625
 30
0.0
 40
0.0213
  0
LINE
  5
131
330
18
100
AcDbEntity
  8
0
100
AcDbLine
 10
1.843749999999998
 20
8.155250000000002
 30
0.0
 11
1.843749999999998
 21
8.157250000000001
 31
0.0
  0
LINE
  5
132
330
18
100
AcDbEntity
  8
0
100
AcDbLine
 10
1.842749999999998
 20
8.156250000000001
 30
0.0
 11
1.844749999999997
 21
8.156250000000001
 31
0.0
  0
CIRCLE
  5
133
330
18
100
AcDbEntity
  8
0
100
AcDbCircle
 10
1.843749999999998
 20
8.156250000000001
 30
0.0
 40
0.0113
  0
CIRCLE
  5
134
330
18
100
AcDbEntity
  8
0
100
AcDbCircle
 10
1.843749999999998
 20
8.156250000000001
 30
0.0
 40
0.0213
  0
TEXT
  5
143
330
18
100
AcDbEntity
  8
TEXT
100
AcDbText
 10
6.561011904761905
 20
7.09375
 30
0.0
 40
0.125
  1
30
 41
0.8
 51
10.0
  7
ROMANS
 72
     1
 11
6.65625
 21
7.09375
 31
0.0
100
AcDbText
  0
LINE
  5
144
330
18
100
AcDbEntity
  8
0
100
AcDbLine
 10
6.53125
 20
7.28125
 30
0.0
 11
6.53125
 21
7.03125
 31
0.0
  0
LINE
  5
145
330
18
100
AcDbEntity
  8
0
100
AcDbLine
 10
6.78125
 20
7.03125
 30
0.0
 11
6.53125
 21
7.03125
 31
0.0
  0
LINE
  5
146
330
18
100
AcDbEntity
  8
0
100
AcDbLine
 10
6.78125
 20
7.28125
 30
0.0
 11
6.53125
 21
7.28125
 31
0.0
  0
LINE
  5
147
330
18
100
AcDbEntity
  8
0
100
AcDbLine
 10
6.78125
 20
7.78125
 30
0.0
 11
6.53125
 21
7.78125
 31
0.0
  0
LINE
  5
148
330
18
100
AcDbEntity
  8
0
100
AcDbLine
 10
6.78125
 20
7.53125
 30
0.0
 11
6.53125
 21
7.53125
 31
0.0
  0
LINE
  5
149
330
18
100
AcDbEntity
  8
0
100
AcDbLine
 10
6.53125
 20
7.78125
 30
0.0
 11
6.53125
 21
7.53125
 31
0.0
  0
TEXT
  5
14A
330
18
100
AcDbEntity
  8
TEXT
100
AcDbText
 10
6.553869047619047
 20
7.59375
 30
0.0
 40
0.125
  1
12
 41
0.8
 51
10.0
  7
ROMANS
 72
     1
 11
6.65625
 21
7.59375
 31
0.0
100
AcDbText
  0
LINE
  5
159
330
18
100
AcDbEntity
  8
0
100
AcDbLine
 10
5.40625
 20
6.65625
 30
0.0
 11
2.932849999999998
 21
6.656250000000001
 31
0.0
  0
LINE
  5
15A
330
18
100
AcDbEntity
  8
0
100
AcDbLine
 10
1.843749999999998
 20
5.155250000000004
 30
0.0
 11
1.843749999999998
 21
5.157250000000002
 31
0.0
  0
LINE
  5
15B
330
18
100
AcDbEntity
  8
0
100
AcDbLine
 10
1.842749999999998
 20
5.156250000000003
 30
0.0
 11
1.844749999999997
 21
5.156250000000003
 31
0.0
  0
CIRCLE
  5
15C
330
18
100
AcDbEntity
  8
0
100
AcDbCircle
 10
1.843749999999998
 20
5.156250000000003
 30
0.0
 40
0.0113
  0
CIRCLE
  5
15D
330
18
100
AcDbEntity
  8
0
100
AcDbCircle
 10
1.843749999999998
 20
5.156250000000003
 30
0.0
 40
0.0213
  0
CIRCLE
  5
15E
330
18
100
AcDbEntity
  8
0
100
AcDbCircle
 10
1.84375
 20
6.656250000000001
 30
0.0
 40
0.0213
  0
CIRCLE
  5
15F
330
18
100
AcDbEntity
  8
0
100
AcDbCircle
 10
1.84375
 20
6.656250000000001
 30
0.0
 40
0.0113
  0
LINE
  5
160
330
18
100
AcDbEntity
  8
0
100
AcDbLine
 10
1.842749999999998
 20
6.656250000000001
 30
0.0
 11
1.844749999999997
 21
6.656250000000001
 31
0.0
  0
LINE
  5
161
330
18
100
AcDbEntity
  8
0
100
AcDbLine
 10
1.84375
 20
6.655250000000002
 30
0.0
 11
1.84375
 21
6.657250000000001
 31
0.0
  0
LINE
  5
1DA
330
18
100
AcDbEntity
  8
0
100
AcDbLine
 10
2.45785
 20
9.656249999999998
 30
0.0
 11
1.84375
 21
9.65625
 31
0.0
  0
LINE
  5
1DF
330
18
100
AcDbEntity
  8
0
100
AcDbLine
 10
2.45785
 20
8.656249999999998
 30
0.0
 11
1.84375
 21
8.65625
 31
0.0
  0
LINE
  5
1E4
330
18
100
AcDbEntity
  8
0
100
AcDbLine
 10
2.45785
 20
8.156250000000001
 30
0.0
 11
1.84375
 21
8.156250000000001
 31
0.0
  0
LINE
  5
1F1
330
18
100
AcDbEntity
  8
0
100
AcDbLine
 10
2.457849999999996
 20
6.65625
 30
0.0
 11
1.84375
 21
6.656250000000001
 31
0.0
  0
LINE
  5
1F9
330
18
100
AcDbEntity
  8
0
100
AcDbLine
 10
2.457849999999996
 20
5.156250000000003
 30
0.0
 11
1.84375
 21
5.156250000000003
 31
0.0
  0
LINE
  5
23E
330
18
100
AcDbEntity
  8
0
100
AcDbLine
 10
5.40625
 20
5.156250000000001
 30
0.0
 11
2.932849999999998
 21
5.156250000000001
 31
0.0
  0
LINE
  5
251
330
18
100
AcDbEntity
  8
0
100
AcDbLine
 10
5.40625
 20
9.156249999999998
 30
0.0
 11
2.932849999999998
 21
9.15625
 31
0.0
  0
LINE
  5
256
330
18
100
AcDbEntity
  8
0
100
AcDbLine
 10
2.457849999999998
 20
9.15625
 30
0.0
 11
1.84375
 21
9.15625
 31
0.0
  0
LINE
  5
257
330
18
100
AcDbEntity
  8
0
100
AcDbLine
 10
1.843749999999996
 20
9.15525
 30
0.0
 11
1.843749999999996
 21
9.157249999999999
 31
0.0
  0
LINE
  5
258
330
18
100
AcDbEntity
  8
0
100
AcDbLine
 10
1.842749999999998
 20
9.15625
 30
0.0
 11
1.844749999999997
 21
9.15625
 31
0.0
  0
CIRCLE
  5
259
330
18
100
AcDbEntity
  8
0
100
AcDbCircle
 10
1.843749999999996
 20
9.15625
 30
0.0
 40
0.0113
  0
CIRCLE
  5
25A
330
18
100
AcDbEntity
  8
0
100
AcDbCircle
 10
1.843749999999996
 20
9.15625
 30
0.0
 40
0.0213
  0
TEXT
  5
279
330
18
100
AcDbEntity
  8
TEXT
100
AcDbText
 10
8.4375
 20
9.593749999999998
 30
0.0
 40
0.125
  1
*
 41
0.8
 51
10.0
  7
ROMANS
100
AcDbText
  0
TEXT
  5
27A
330
18
100
AcDbEntity
  8
TEXT
100
AcDbText
 10
8.4375
 20
8.593749999999998
 30
0.0
 40
0.125
  1
*
 41
0.8
 51
10.0
  7
ROMANS
100
AcDbText
  0
TEXT
  5
27B
330
18
100
AcDbEntity
  8
TEXT
100
AcDbText
 10
8.4375
 20
9.093749999999998
 30
0.0
 40
0.125
  1
*
 41
0.8
 51
10.0
  7
ROMANS
100
AcDbText
  0
TEXT
  5
27D
330
18
100
AcDbEntity
  8
TEXT
100
AcDbText
 10
8.4375
 20
8.093749999999998
 30
0.0
 40
0.125
  1
*
 41
0.8
 51
10.0
  7
ROMANS
100
AcDbText
  0
TEXT
  5
2F0
330
18
100
AcDbEntity
  8
0
100
AcDbText
 10
19.525
 20
8.125
 30
0.0
 40
0.1
  1

 72
     1
 11
19.525
 21
8.125
 31
0.0
100
AcDbText
  0
TEXT
  5
2F1
330
18
100
AcDbEntity
  8
0
100
AcDbText
 10
25.67403808143782
 20
4.985374999999998
 30
0.0
 40
0.075
  1

100
AcDbText
  0
TEXT
  5
2F2
330
18
100
AcDbEntity
  8
0
100
AcDbText
 10
25.32633053740864
 20
4.985374999999998
 30
0.0
 40
0.075
  1

100
AcDbText
  0
TEXT
  5
2F3
330
18
100
AcDbEntity
  8
0
100
AcDbText
 10
25.23520532397234
 20
14.51631030265525
 30
0.0
 40
0.1
  1

 72
     1
 11
25.23520532397234
 21
14.51631030265525
 31
0.0
100
AcDbText
  0
TEXT
  5
2F4
330
18
100
AcDbEntity
  8
0
100
AcDbText
 10
31.38424340541015
 20
11.37668530265524
 30
0.0
 40
0.075
  1

100
AcDbText
  0
TEXT
  5
2F5
330
18
100
AcDbEntity
  8
0
100
AcDbText
 10
31.03653586138097
 20
11.37668530265524
 30
0.0
 40
0.075
  1

100
AcDbText
  0
TEXT
  5
2F6
330
18
100
AcDbEntity
  8
0
100
AcDbText
 10
31.1135
 20
8.158374999999999
 30
0.0
 40
0.1
  1

 72
     1
 11
31.1135
 21
8.158374999999999
 31
0.0
100
AcDbText
  0
TEXT
  5
2F7
330
18
100
AcDbEntity
  8
0
100
AcDbText
 10
37.26253808143782
 20
5.018749999999998
 30
0.0
 40
0.075
  1

100
AcDbText
  0
TEXT
  5
2F8
330
18
100
AcDbEntity
  8
0
100
AcDbText
 10
36.91483053740864
 20
5.018749999999998
 30
0.0
 40
0.075
  1

100
AcDbText
  0
TEXT
  5
2F9
330
18
100
AcDbEntity
  8
0
100
AcDbText
 10
36.82370532397233
 20
14.54968530265525
 30
0.0
 40
0.1
  1

 72
     1
 11
36.82370532397233
 21
14.54968530265525
 31
0.0
100
AcDbText
  0
TEXT
  5
2FA
330
18
100
AcDbEntity
  8
0
100
AcDbText
 10
42.97274340541014
 20
11.41006030265524
 30
0.0
 40
0.075
  1

100
AcDbText
  0
TEXT
  5
2FB
330
18
100
AcDbEntity
  8
0
100
AcDbText
 10
42.62503586138096
 20
11.41006030265524
 30
0.0
 40
0.075
  1

100
AcDbText
  0
TEXT
  5
2FC
330
18
100
AcDbEntity
  8
0
100
AcDbText
 10
23.50535810065158
 20
14.98561286894363
 30
0.0
 40
0.075
  1

 72
     1
 11
23.50535810065158
 21
14.98561286894363
 31
0.0
100
AcDbText
  0
TEXT
  5
2FD
330
18
100
AcDbEntity
  8
0
100
AcDbText
 10
23.50535810065158
 20
14.48561286894363
 30
0.0
 40
0.075
  1

 72
     1
 11
23.50535810065158
 21
14.48561286894363
 31
0.0
100
AcDbText
  0
TEXT
  5
2FE
330
18
100
AcDbEntity
  8
0
100
AcDbText
 10
23.50535810065158
 20
13.98561286894363
 30
0.0
 40
0.1
  1

 72
     1
 11
23.50535810065158
 21
13.98561286894363
 31
0.0
100
AcDbText
  0
TEXT
  5
2FF
330
18
100
AcDbEntity
  8
0
100
AcDbText
 10
23.31785810065159
 20
7.985612868943633
 30
0.0
 40
0.1
  1

100
AcDbText
  0
TEXT
  5
300
330
18
100
AcDbEntity
  8
0
100
AcDbText
 10
23.31785810065158
 20
13.48561286894363
 30
0.0
 40
0.1
  1

100
AcDbText
  0
TEXT
  5
301
330
18
100
AcDbEntity
  8
0
100
AcDbText
 10
33.83149085518776
 20
14.98561286894363
 30
0.0
 40
0.075
  1

 72
     1
 11
33.83149085518776
 21
14.98561286894363
 31
0.0
100
AcDbText
  0
TEXT
  5
302
330
18
100
AcDbEntity
  8
0
100
AcDbText
 10
33.83149085518776
 20
14.48561286894363
 30
0.0
 40
0.075
  1

 72
     1
 11
33.83149085518776
 21
14.48561286894363
 31
0.0
100
AcDbText
  0
TEXT
  5
303
330
18
100
AcDbEntity
  8
0
100
AcDbText
 10
33.83149085518776
 20
13.98561286894363
 30
0.0
 40
0.1
  1

 72
     1
 11
33.83149085518776
 21
13.98561286894363
 31
0.0
100
AcDbText
  0
TEXT
  5
304
330
18
100
AcDbEntity
  8
0
100
AcDbText
 10
33.64399085518776
 20
7.985612868943633
 30
0.0
 40
0.1
  1

100
AcDbText
  0
TEXT
  5
305
330
18
100
AcDbEntity
  8
0
100
AcDbText
 10
33.64399085518775
 20
13.48561286894363
 30
0.0
 40
0.1
  1

100
AcDbText
  0
TEXT
  5
32D
330
18
100
AcDbEntity
  8
TEXT
100
AcDbText
 10
7.640625
 20
9.593749999999998
 30
0.0
 40
0.125
  1
_._._
 41
0.8
 51
10.0
  7
ROMANS
100
AcDbText
  0
TEXT
  5
32E
330
18
100
AcDbEntity
  8
TEXT
100
AcDbText
 10
7.640625
 20
9.093749999999998
 30
0.0
 40
0.125
  1
_._._
 41
0.8
 51
10.0
  7
ROMANS
100
AcDbText
  0
TEXT
  5
32F
330
18
100
AcDbEntity
  8
TEXT
100
AcDbText
 10
7.640625
 20
8.593749999999998
 30
0.0
 40
0.125
  1
_._._
 41
0.8
 51
10.0
  7
ROMANS
100
AcDbText
  0
TEXT
  5
330
330
18
100
AcDbEntity
  8
TEXT
100
AcDbText
 10
7.640625
 20
8.093749999999998
 30
0.0
 40
0.125
  1
_._._
 41
0.8
 51
10.0
  7
ROMANS
100
AcDbText
  0
LINE
  5
343
330
18
100
AcDbEntity
  8
0
100
AcDbLine
 10
5.40625
 20
10.25
 30
0.0
 11
5.78125
 21
10.25
 31
0.0
  0
LINE
  5
344
330
18
100
AcDbEntity
  8
0
100
AcDbLine
 10
5.40625
 20
10.0625
 30
0.0
 11
5.78125
 21
10.0625
 31
0.0
  0
LINE
  5
345
330
18
100
AcDbEntity
  8
0
100
AcDbLine
 10
5.40625
 20
10.25
 30
0.0
 11
5.40625
 21
10.0625
 31
0.0
  0
LINE
  5
347
330
18
100
AcDbEntity
  8
0
100
AcDbLine
 10
5.78125
 20
10.25
 30
0.0
 11
5.78125
 21
10.0625
 31
0.0
  0
TEXT
  5
349
330
18
100
AcDbEntity
  8
TEXT
100
AcDbText
 10
5.410416666666666
 20
10.10625
 30
0.0
 40
0.1
  1
____
 72
     1
 11
5.59375
 21
10.10625
 31
0.0
100
AcDbText
  0
TEXT
  5
34C
330
18
100
AcDbEntity
  8
TEXT
100
AcDbText
 10
5.410416666666666
 20
9.606249999999995
 30
0.0
 40
0.1
  1
____
 72
     1
 11
5.59375
 21
9.606249999999995
 31
0.0
100
AcDbText
  0
LINE
  5
34D
330
18
100
AcDbEntity
  8
0
100
AcDbLine
 10
5.40625
 20
9.562499999999996
 30
0.0
 11
5.78125
 21
9.562499999999996
 31
0.0
  0
LINE
  5
34E
330
18
100
AcDbEntity
  8
0
100
AcDbLine
 10
5.40625
 20
9.749999999999996
 30
0.0
 11
5.78125
 21
9.749999999999996
 31
0.0
  0
LINE
  5
34F
330
18
100
AcDbEntity
  8
0
100
AcDbLine
 10
5.40625
 20
9.749999999999996
 30
0.0
 11
5.40625
 21
9.562499999999996
 31
0.0
  0
LINE
  5
350
330
18
100
AcDbEntity
  8
0
100
AcDbLine
 10
5.78125
 20
9.749999999999996
 30
0.0
 11
5.78125
 21
9.562499999999996
 31
0.0
  0
TEXT
  5
351
330
18
100
AcDbEntity
  8
TEXT
100
AcDbText
 10
5.410416666666666
 20
9.106249999999997
 30
0.0
 40
0.1
  1
____
 72
     1
 11
5.59375
 21
9.106249999999997
 31
0.0
100
AcDbText
  0
LINE
  5
352
330
18
100
AcDbEntity
  8
0
100
AcDbLine
 10
5.40625
 20
9.062499999999998
 30
0.0
 11
5.78125
 21
9.062499999999998
 31
0.0
  0
LINE
  5
353
330
18
100
AcDbEntity
  8
0
100
AcDbLine
 10
5.40625
 20
9.249999999999998
 30
0.0
 11
5.78125
 21
9.249999999999998
 31
0.0
  0
LINE
  5
354
330
18
100
AcDbEntity
  8
0
100
AcDbLine
 10
5.40625
 20
9.249999999999998
 30
0.0
 11
5.40625
 21
9.062499999999998
 31
0.0
  0
LINE
  5
355
330
18
100
AcDbEntity
  8
0
100
AcDbLine
 10
5.78125
 20
9.249999999999998
 30
0.0
 11
5.78125
 21
9.062499999999998
 31
0.0
  0
TEXT
  5
356
330
18
100
AcDbEntity
  8
TEXT
100
AcDbText
 10
5.410416666666666
 20
8.606249999999997
 30
0.0
 40
0.1
  1
____
 72
     1
 11
5.59375
 21
8.606249999999997
 31
0.0
100
AcDbText
  0
LINE
  5
357
330
18
100
AcDbEntity
  8
0
100
AcDbLine
 10
5.40625
 20
8.562499999999998
 30
0.0
 11
5.78125
 21
8.562499999999998
 31
0.0
  0
LINE
  5
358
330
18
100
AcDbEntity
  8
0
100
AcDbLine
 10
5.40625
 20
8.749999999999998
 30
0.0
 11
5.78125
 21
8.749999999999998
 31
0.0
  0
LINE
  5
359
330
18
100
AcDbEntity
  8
0
100
AcDbLine
 10
5.40625
 20
8.749999999999998
 30
0.0
 11
5.40625
 21
8.562499999999998
 31
0.0
  0
LINE
  5
35A
330
18
100
AcDbEntity
  8
0
100
AcDbLine
 10
5.78125
 20
8.749999999999998
 30
0.0
 11
5.78125
 21
8.562499999999998
 31
0.0
  0
TEXT
  5
35B
330
18
100
AcDbEntity
  8
TEXT
100
AcDbText
 10
5.410416666666666
 20
8.106249999999995
 30
0.0
 40
0.1
  1
____
 72
     1
 11
5.59375
 21
8.106249999999995
 31
0.0
100
AcDbText
  0
LINE
  5
35C
330
18
100
AcDbEntity
  8
0
100
AcDbLine
 10
5.40625
 20
8.062499999999996
 30
0.0
 11
5.78125
 21
8.062499999999996
 31
0.0
  0
LINE
  5
35D
330
18
100
AcDbEntity
  8
0
100
AcDbLine
 10
5.40625
 20
8.249999999999996
 30
0.0
 11
5.78125
 21
8.249999999999996
 31
0.0
  0
LINE
  5
35E
330
18
100
AcDbEntity
  8
0
100
AcDbLine
 10
5.40625
 20
8.249999999999996
 30
0.0
 11
5.40625
 21
8.062499999999996
 31
0.0
  0
LINE
  5
35F
330
18
100
AcDbEntity
  8
0
100
AcDbLine
 10
5.78125
 20
8.249999999999996
 30
0.0
 11
5.78125
 21
8.062499999999996
 31
0.0
  0
TEXT
  5
374
330
18
100
AcDbEntity
  8
TEXT
100
AcDbText
 10
0.953125
 20
9.593749999999994
 30
0.0
 40
0.125
  1
*
 41
0.8
 51
10.0
  7
ROMANS
100
AcDbText
  0
TEXT
  5
375
330
18
100
AcDbEntity
  8
TEXT
100
AcDbText
 10
0.953125
 20
9.093749999999996
 30
0.0
 40
0.125
  1
*
 41
0.8
 51
10.0
  7
ROMANS
100
AcDbText
  0
TEXT
  5
376
330
18
100
AcDbEntity
  8
TEXT
100
AcDbText
 10
0.953125
 20
8.593749999999996
 30
0.0
 40
0.125
  1
*
 41
0.8
 51
10.0
  7
ROMANS
100
AcDbText
  0
TEXT
  5
377
330
18
100
AcDbEntity
  8
TEXT
100
AcDbText
 10
0.953125
 20
8.093749999999994
 30
0.0
 40
0.125
  1
*
 41
0.8
 51
10.0
  7
ROMANS
100
AcDbText
  0
TEXT
  5
37A
330
18
100
AcDbEntity
  8
TEXT
100
AcDbText
 10
0.9531249999999964
 20
6.59375
 30
0.0
 40
0.125
  1
*
 41
0.8
 51
10.0
  7
ROMANS
100
AcDbText
  0
LINE
  5
37C
330
18
100
AcDbEntity
  8
0
100
AcDbLine
 10
1.65625
 20
11.25
 30
0.0
 11
2.03125
 21
11.25
 31
0.0
  0
LINE
  5
37D
330
18
100
AcDbEntity
  8
0
100
AcDbLine
 10
1.65625
 20
11.0625
 30
0.0
 11
2.03125
 21
11.0625
 31
0.0
  0
LINE
  5
37E
330
18
100
AcDbEntity
  8
0
100
AcDbLine
 10
1.65625
 20
11.25
 30
0.0
 11
1.65625
 21
11.0625
 31
0.0
  0
LINE
  5
380
330
18
100
AcDbEntity
  8
0
100
AcDbLine
 10
2.03125
 20
11.25
 30
0.0
 11
2.03125
 21
11.0625
 31
0.0
  0
TEXT
  5
382
330
18
100
AcDbEntity
  8
TEXT
100
AcDbText
 10
1.660416666666666
 20
11.10624999999999
 30
0.0
 40
0.1
  1
____
 72
     1
 11
1.84375
 21
11.10624999999999
 31
0.0
100
AcDbText
  0
TEXT
  5
3C1
330
18
100
AcDbEntity
  8
TEXT
100
AcDbText
 10
0.953125
 20
5.09375
 30
0.0
 40
0.125
  1
*
 41
0.8
 51
10.0
  7
ROMANS
100
AcDbText
  0
TEXT
  5
3C2
330
18
100
AcDbEntity
  8
TEXT
100
AcDbText
 10
0.953125
 20
5.593749999999998
 30
0.0
 40
0.125
  1
*
 41
0.8
 51
10.0
  7
ROMANS
100
AcDbText
  0
TEXT
  5
3C3
330
18
100
AcDbEntity
  8
TEXT
100
AcDbText
 10
0.953125
 20
6.09375
 30
0.0
 40
0.125
  1
*
 41
0.8
 51
10.0
  7
ROMANS
100
AcDbText
  0
TEXT
  5
3CB
330
18
100
AcDbEntity
  8
TEXT
100
AcDbText
 10
6.84375
 20
10.59375
 30
0.0
 40
0.125
  1
+24 VDC Source
 41
0.8
 51
10.0
  7
ROMANS
100
AcDbText
  0
TEXT
  5
3CF
330
18
100
AcDbEntity
  8
TEXT
100
AcDbText
 10
6.84375
 20
9.593749999999998
 30
0.0
 40
0.125
  1
DCIN9
 41
0.8
 51
10.0
  7
ROMANS
100
AcDbText
  0
TEXT
  5
3D0
330
18
100
AcDbEntity
  8
TEXT
100
AcDbText
 10
6.84375
 20
7.09375
 30
0.0
 40
0.125
  1
DC 0 V
 41
0.8
 51
10.0
  7
ROMANS
100
AcDbText
  0
TEXT
  5
3D3
330
18
100
AcDbEntity
  8
TEXT
100
AcDbText
 10
6.843749999999998
 20
4.59375
 30
0.0
 40
0.125
  1
+ 24vdc Source
 41
0.8
 51
10.0
  7
ROMANS
100
AcDbText
  0
TEXT
  5
3D4
330
18
100
AcDbEntity
  8
TEXT
100
AcDbText
 10
6.843749999999998
 20
6.59375
 30
0.0
 40
0.125
  1
DCIN13
 41
0.8
 51
10.0
  7
ROMANS
100
AcDbText
  0
TEXT
  5
3D5
330
18
100
AcDbEntity
  8
TEXT
100
AcDbText
 10
6.843749999999998
 20
6.09375
 30
0.0
 40
0.125
  1
DCIN14
 41
0.8
 51
10.0
  7
ROMANS
100
AcDbText
  0
TEXT
  5
3D6
330
18
100
AcDbEntity
  8
TEXT
100
AcDbText
 10
6.843749999999998
 20
5.59375
 30
0.0
 40
0.125
  1
DCIN15
 41
0.8
 51
10.0
  7
ROMANS
100
AcDbText
  0
TEXT
  5
3D7
330
18
100
AcDbEntity
  8
TEXT
100
AcDbText
 10
6.843749999999998
 20
5.09375
 30
0.0
 40
0.125
  1
DCIN16
 41
0.8
 51
10.0
  7
ROMANS
100
AcDbText
  0
LINE
  5
3E2
330
18
100
AcDbEntity
  8
0
100
AcDbLine
 10
6.531249999999998
 20
6.15625
 30
0.0
 11
5.781249999999998
 21
6.15625
 31
0.0
  0
LINE
  5
3E3
330
18
100
AcDbEntity
  8
0
100
AcDbLine
 10
6.531249999999998
 20
6.65625
 30
0.0
 11
5.781249999999998
 21
6.65625
 31
0.0
  0
LINE
  5
3E5
330
18
100
AcDbEntity
  8
0
100
AcDbLine
 10
6.531249999999998
 20
5.15625
 30
0.0
 11
5.781249999999998
 21
5.15625
 31
0.0
  0
LINE
  5
3E6
330
18
100
AcDbEntity
  8
0
100
AcDbLine
 10
6.531249999999998
 20
5.65625
 30
0.0
 11
5.781249999999998
 21
5.65625
 31
0.0
  0
LINE
  5
3E7
330
18
100
AcDbEntity
  8
0
100
AcDbLine
 10
5.781249999999998
 20
5.75
 30
0.0
 11
5.781249999999998
 21
5.5625
 31
0.0
  0
LINE
  5
3E8
330
18
100
AcDbEntity
  8
0
100
AcDbLine
 10
5.406249999999998
 20
5.75
 30
0.0
 11
5.406249999999998
 21
5.5625
 31
0.0
  0
LINE
  5
3EC
330
18
100
AcDbEntity
  8
0
100
AcDbLine
 10
5.406249999999998
 20
5.249999999999998
 30
0.0
 11
5.781249999999998
 21
5.249999999999998
 31
0.0
  0
LINE
  5
3ED
330
18
100
AcDbEntity
  8
0
100
AcDbLine
 10
5.406249999999998
 20
5.062499999999998
 30
0.0
 11
5.781249999999998
 21
5.062499999999998
 31
0.0
  0
TEXT
  5
3EE
330
18
100
AcDbEntity
  8
TEXT
100
AcDbText
 10
5.410416666666664
 20
5.106249999999997
 30
0.0
 40
0.1
  1
____
 72
     1
 11
5.593749999999998
 21
5.106249999999997
 31
0.0
100
AcDbText
  0
LINE
  5
3EF
330
18
100
AcDbEntity
  8
0
100
AcDbLine
 10
5.406249999999998
 20
5.5625
 30
0.0
 11
5.781249999999998
 21
5.5625
 31
0.0
  0
TEXT
  5
3F0
330
18
100
AcDbEntity
  8
TEXT
100
AcDbText
 10
5.410416666666664
 20
5.606249999999999
 30
0.0
 40
0.1
  1
____
 72
     1
 11
5.593749999999998
 21
5.606249999999999
 31
0.0
100
AcDbText
  0
LINE
  5
3F2
330
18
100
AcDbEntity
  8
0
100
AcDbLine
 10
5.406249999999998
 20
5.249999999999998
 30
0.0
 11
5.406249999999998
 21
5.062499999999998
 31
0.0
  0
LINE
  5
3F4
330
18
100
AcDbEntity
  8
0
100
AcDbLine
 10
5.781249999999998
 20
5.249999999999998
 30
0.0
 11
5.781249999999998
 21
5.062499999999998
 31
0.0
  0
LINE
  5
3F5
330
18
100
AcDbEntity
  8
0
100
AcDbLine
 10
5.406249999999998
 20
5.75
 30
0.0
 11
5.781249999999998
 21
5.75
 31
0.0
  0
LINE
  5
3F6
330
18
100
AcDbEntity
  8
0
100
AcDbLine
 10
5.406249999999996
 20
6.25
 30
0.0
 11
5.781249999999996
 21
6.25
 31
0.0
  0
LINE
  5
3F7
330
18
100
AcDbEntity
  8
0
100
AcDbLine
 10
5.406249999999996
 20
6.0625
 30
0.0
 11
5.781249999999996
 21
6.0625
 31
0.0
  0
TEXT
  5
3F8
330
18
100
AcDbEntity
  8
TEXT
100
AcDbText
 10
5.410416666666662
 20
6.106249999999999
 30
0.0
 40
0.1
  1
____
 72
     1
 11
5.593749999999996
 21
6.106249999999999
 31
0.0
100
AcDbText
  0
LINE
  5
3F9
330
18
100
AcDbEntity
  8
0
100
AcDbLine
 10
5.406249999999998
 20
6.749999999999998
 30
0.0
 11
5.781249999999998
 21
6.749999999999998
 31
0.0
  0
LINE
  5
3FA
330
18
100
AcDbEntity
  8
0
100
AcDbLine
 10
5.406249999999998
 20
6.562499999999998
 30
0.0
 11
5.781249999999998
 21
6.562499999999998
 31
0.0
  0
TEXT
  5
3FB
330
18
100
AcDbEntity
  8
TEXT
100
AcDbText
 10
5.410416666666664
 20
6.606249999999997
 30
0.0
 40
0.1
  1
____
 72
     1
 11
5.593749999999998
 21
6.606249999999997
 31
0.0
100
AcDbText
  0
LINE
  5
3FC
330
18
100
AcDbEntity
  8
0
100
AcDbLine
 10
5.406249999999996
 20
6.25
 30
0.0
 11
5.406249999999996
 21
6.0625
 31
0.0
  0
LINE
  5
3FD
330
18
100
AcDbEntity
  8
0
100
AcDbLine
 10
5.406249999999998
 20
6.749999999999998
 30
0.0
 11
5.406249999999998
 21
6.562499999999998
 31
0.0
  0
LINE
  5
3FE
330
18
100
AcDbEntity
  8
0
100
AcDbLine
 10
5.781249999999996
 20
6.25
 30
0.0
 11
5.781249999999996
 21
6.0625
 31
0.0
  0
LINE
  5
3FF
330
18
100
AcDbEntity
  8
0
100
AcDbLine
 10
5.781249999999998
 20
6.749999999999998
 30
0.0
 11
5.781249999999998
 21
6.562499999999998
 31
0.0
  0
TEXT
  5
400
330
18
100
AcDbEntity
  8
TEXT
100
AcDbText
 10
6.551488095238093
 20
5.59375
 30
0.0
 40
0.125
  1
14
 41
0.8
 51
10.0
  7
ROMANS
 72
     1
 11
6.656249999999998
 21
5.59375
 31
0.0
100
AcDbText
  0
LINE
  5
401
330
18
100
AcDbEntity
  8
0
100
AcDbLine
 10
6.531249999999998
 20
5.78125
 30
0.0
 11
6.531249999999998
 21
5.53125
 31
0.0
  0
LINE
  5
402
330
18
100
AcDbEntity
  8
0
100
AcDbLine
 10
6.781249999999998
 20
5.53125
 30
0.0
 11
6.531249999999998
 21
5.53125
 31
0.0
  0
LINE
  5
403
330
18
100
AcDbEntity
  8
0
100
AcDbLine
 10
6.781249999999998
 20
5.28125
 30
0.0
 11
6.531249999999998
 21
5.28125
 31
0.0
  0
LINE
  5
404
330
18
100
AcDbEntity
  8
0
100
AcDbLine
 10
6.781249999999998
 20
4.781250000000001
 30
0.0
 11
6.531249999999998
 21
4.781250000000001
 31
0.0
  0
LINE
  5
405
330
18
100
AcDbEntity
  8
0
100
AcDbLine
 10
6.781249999999998
 20
5.03125
 30
0.0
 11
6.531249999999998
 21
5.03125
 31
0.0
  0
LINE
  5
406
330
18
100
AcDbEntity
  8
0
100
AcDbLine
 10
6.781249999999998
 20
4.531250000000001
 30
0.0
 11
6.531249999999998
 21
4.531250000000001
 31
0.0
  0
LINE
  5
407
330
18
100
AcDbEntity
  8
0
100
AcDbLine
 10
6.531249999999998
 20
5.28125
 30
0.0
 11
6.531249999999998
 21
5.03125
 31
0.0
  0
LINE
  5
408
330
18
100
AcDbEntity
  8
0
100
AcDbLine
 10
6.531249999999998
 20
4.781250000000001
 30
0.0
 11
6.531249999999998
 21
4.531250000000001
 31
0.0
  0
TEXT
  5
409
330
18
100
AcDbEntity
  8
TEXT
100
AcDbText
 10
6.553869047619046
 20
4.593750000000001
 30
0.0
 40
0.125
  1
15
 41
0.8
 51
10.0
  7
ROMANS
 72
     1
 11
6.656249999999998
 21
4.593750000000001
 31
0.0
100
AcDbText
  0
TEXT
  5
40A
330
18
100
AcDbEntity
  8
TEXT
100
AcDbText
 10
6.561011904761903
 20
5.09375
 30
0.0
 40
0.125
  1
32
 41
0.8
 51
10.0
  7
ROMANS
 72
     1
 11
6.656249999999998
 21
5.09375
 31
0.0
100
AcDbText
  0
TEXT
  5
40B
330
18
100
AcDbEntity
  8
TEXT
100
AcDbText
 10
6.575297619047617
 20
6.09375
 30
0.0
 40
0.125
  1
31
 41
0.8
 51
10.0
  7
ROMANS
 72
     1
 11
6.656249999999998
 21
6.09375
 31
0.0
100
AcDbText
  0
LINE
  5
40C
330
18
100
AcDbEntity
  8
0
100
AcDbLine
 10
6.781249999999998
 20
6.78125
 30
0.0
 11
6.531249999999998
 21
6.78125
 31
0.0
  0
LINE
  5
40D
330
18
100
AcDbEntity
  8
0
100
AcDbLine
 10
6.781249999999998
 20
6.53125
 30
0.0
 11
6.531249999999998
 21
6.53125
 31
0.0
  0
LINE
  5
40E
330
18
100
AcDbEntity
  8
0
100
AcDbLine
 10
6.781249999999998
 20
6.28125
 30
0.0
 11
6.531249999999998
 21
6.28125
 31
0.0
  0
LINE
  5
40F
330
18
100
AcDbEntity
  8
0
100
AcDbLine
 10
6.781249999999998
 20
6.03125
 30
0.0
 11
6.531249999999998
 21
6.03125
 31
0.0
  0
LINE
  5
410
330
18
100
AcDbEntity
  8
0
100
AcDbLine
 10
6.781249999999998
 20
5.78125
 30
0.0
 11
6.531249999999998
 21
5.78125
 31
0.0
  0
LINE
  5
411
330
18
100
AcDbEntity
  8
0
100
AcDbLine
 10
6.531249999999998
 20
6.28125
 30
0.0
 11
6.531249999999998
 21
6.03125
 31
0.0
  0
LINE
  5
412
330
18
100
AcDbEntity
  8
0
100
AcDbLine
 10
6.531249999999998
 20
6.78125
 30
0.0
 11
6.531249999999998
 21
6.53125
 31
0.0
  0
TEXT
  5
413
330
18
100
AcDbEntity
  8
TEXT
100
AcDbText
 10
6.553869047619046
 20
6.59375
 30
0.0
 40
0.125
  1
13
 41
0.8
 51
10.0
  7
ROMANS
 72
     1
 11
6.656249999999998
 21
6.59375
 31
0.0
100
AcDbText
  0
TEXT
  5
414
330
18
100
AcDbEntity
  8
TEXT
100
AcDbText
 10
7.640624999999998
 20
5.09375
 30
0.0
 40
0.125
  1
_._._
 41
0.8
 51
10.0
  7
ROMANS
100
AcDbText
  0
TEXT
  5
415
330
18
100
AcDbEntity
  8
TEXT
100
AcDbText
 10
7.640624999999998
 20
5.59375
 30
0.0
 40
0.125
  1
_._._
 41
0.8
 51
10.0
  7
ROMANS
100
AcDbText
  0
TEXT
  5
416
330
18
100
AcDbEntity
  8
TEXT
100
AcDbText
 10
7.640624999999998
 20
6.09375
 30
0.0
 40
0.125
  1
_._._
 41
0.8
 51
10.0
  7
ROMANS
100
AcDbText
  0
TEXT
  5
417
330
18
100
AcDbEntity
  8
TEXT
100
AcDbText
 10
7.640624999999998
 20
6.59375
 30
0.0
 40
0.125
  1
_._._
 41
0.8
 51
10.0
  7
ROMANS
100
AcDbText
  0
TEXT
  5
418
330
18
100
AcDbEntity
  8
TEXT
100
AcDbText
 10
8.437499999999996
 20
5.59375
 30
0.0
 40
0.125
  1
*
 41
0.8
 51
10.0
  7
ROMANS
100
AcDbText
  0
TEXT
  5
419
330
18
100
AcDbEntity
  8
TEXT
100
AcDbText
 10
8.437499999999996
 20
5.09375
 30
0.0
 40
0.125
  1
*
 41
0.8
 51
10.0
  7
ROMANS
100
AcDbText
  0
TEXT
  5
41A
330
18
100
AcDbEntity
  8
TEXT
100
AcDbText
 10
8.437499999999996
 20
6.09375
 30
0.0
 40
0.125
  1
*
 41
0.8
 51
10.0
  7
ROMANS
100
AcDbText
  0
TEXT
  5
41B
330
18
100
AcDbEntity
  8
TEXT
100
AcDbText
 10
8.437499999999996
 20
6.59375
 30
0.0
 40
0.125
  1
*
 41
0.8
 51
10.0
  7
ROMANS
100
AcDbText
  0
LINE
  5
42F
330
18
100
AcDbEntity
  8
DASH
100
AcDbLine
 10
8.328125
 20
7.906249999999998
 30
0.0
 11
6.78125
 21
7.906249999999998
 31
0.0
  0
LINE
  5
431
330
18
100
AcDbEntity
  8
DASH
100
AcDbLine
 10
8.328125
 20
4.906250000000001
 30
0.0
 11
6.78125
 21
4.906250000000001
 31
0.0
  0
TEXT
  5
448
330
18
100
AcDbEntity
  8
TEXT
100
AcDbText
 10
6.84375
 20
4.093750000000001
 30
0.0
 40
0.125
  1
DC 0 V
 41
0.8
 51
10.0
  7
ROMANS
100
AcDbText
  0
TEXT
  5
465
330
18
100
AcDbEntity
  8
TEXT
100
AcDbText
 10
6.561011904761905
 20
4.093750000000001
 30
0.0
 40
0.125
  1
33
 41
0.8
 51
10.0
  7
ROMANS
 72
     1
 11
6.65625
 21
4.093750000000001
 31
0.0
100
AcDbText
  0
LINE
  5
466
330
18
100
AcDbEntity
  8
0
100
AcDbLine
 10
6.78125
 20
4.281250000000001
 30
0.0
 11
6.53125
 21
4.281250000000001
 31
0.0
  0
LINE
  5
467
330
18
100
AcDbEntity
  8
0
100
AcDbLine
 10
6.78125
 20
4.031250000000001
 30
0.0
 11
6.53125
 21
4.031250000000001
 31
0.0
  0
LINE
  5
468
330
18
100
AcDbEntity
  8
0
100
AcDbLine
 10
6.53125
 20
4.281250000000001
 30
0.0
 11
6.53125
 21
4.031250000000001
 31
0.0
  0
TEXT
  5
471
330
18
100
AcDbEntity
  8
TEXT
100
AcDbText
 10
6.84375
 20
3.093750000000001
 30
0.0
 40
0.125
  1
Group 2 SS
 41
0.8
 51
10.0
  7
ROMANS
100
AcDbText
  0
TEXT
  5
472
330
18
100
AcDbEntity
  8
TEXT
100
AcDbText
 10
6.843749999999998
 20
3.59375
 30
0.0
 40
0.125
  1
Group 2 SS
 41
0.8
 51
10.0
  7
ROMANS
100
AcDbText
  0
TEXT
  5
473
330
18
100
AcDbEntity
  8
TEXT
100
AcDbText
 10
6.558630952380952
 20
3.093750000000001
 30
0.0
 40
0.125
  1
34
 41
0.8
 51
10.0
  7
ROMANS
 72
     1
 11
6.65625
 21
3.093750000000001
 31
0.0
100
AcDbText
  0
LINE
  5
474
330
18
100
AcDbEntity
  8
0
100
AcDbLine
 10
6.78125
 20
3.031250000000001
 30
0.0
 11
6.53125
 21
3.031250000000001
 31
0.0
  0
LINE
  5
475
330
18
100
AcDbEntity
  8
0
100
AcDbLine
 10
6.78125
 20
3.281250000000001
 30
0.0
 11
6.53125
 21
3.281250000000001
 31
0.0
  0
LINE
  5
476
330
18
100
AcDbEntity
  8
0
100
AcDbLine
 10
6.53125
 20
3.281250000000001
 30
0.0
 11
6.53125
 21
3.031250000000001
 31
0.0
  0
TEXT
  5
477
330
18
100
AcDbEntity
  8
TEXT
100
AcDbText
 10
6.553869047619046
 20
3.593750000000001
 30
0.0
 40
0.125
  1
16
 41
0.8
 51
10.0
  7
ROMANS
 72
     1
 11
6.656249999999998
 21
3.593750000000001
 31
0.0
100
AcDbText
  0
LINE
  5
478
330
18
100
AcDbEntity
  8
0
100
AcDbLine
 10
6.781249999999998
 20
3.781250000000001
 30
0.0
 11
6.531249999999998
 21
3.781250000000001
 31
0.0
  0
LINE
  5
479
330
18
100
AcDbEntity
  8
0
100
AcDbLine
 10
6.781249999999998
 20
3.531250000000001
 30
0.0
 11
6.531249999999998
 21
3.531250000000001
 31
0.0
  0
LINE
  5
47A
330
18
100
AcDbEntity
  8
0
100
AcDbLine
 10
6.531249999999998
 20
3.781250000000001
 30
0.0
 11
6.531249999999998
 21
3.531250000000001
 31
0.0
  0
LINE
  5
486
330
18
100
AcDbEntity
  8
0
100
AcDbLine
 10
8.328125
 20
1.999950000000001
 30
0.0
 11
6.78125
 21
1.999950000000001
 31
0.0
  0
LINE
  5
488
330
18
100
AcDbEntity
  8
DASH
100
AcDbLine
 10
2.695350000000001
 20
9.656249999999998
 30
0.0
 11
2.695350000000001
 21
5.156250000000001
 31
0.0
  0
LINE
  5
489
330
18
100
AcDbEntity
  8
0
100
AcDbLine
 10
2.457849999999996
 20
6.15625
 30
0.0
 11
1.84375
 21
6.156250000000001
 31
0.0
  0
LINE
  5
48A
330
18
100
AcDbEntity
  8
0
100
AcDbLine
 10
1.84375
 20
6.155250000000002
 30
0.0
 11
1.84375
 21
6.157250000000001
 31
0.0
  0
LINE
  5
48B
330
18
100
AcDbEntity
  8
0
100
AcDbLine
 10
1.842749999999998
 20
6.156250000000001
 30
0.0
 11
1.844749999999997
 21
6.156250000000001
 31
0.0
  0
CIRCLE
  5
48C
330
18
100
AcDbEntity
  8
0
100
AcDbCircle
 10
1.84375
 20
6.156250000000001
 30
0.0
 40
0.0113
  0
CIRCLE
  5
48D
330
18
100
AcDbEntity
  8
0
100
AcDbCircle
 10
1.84375
 20
6.156250000000001
 30
0.0
 40
0.0213
  0
LINE
  5
48E
330
18
100
AcDbEntity
  8
0
100
AcDbLine
 10
5.40625
 20
6.15625
 30
0.0
 11
2.932849999999998
 21
6.156250000000001
 31
0.0
  0
LINE
  5
48F
330
18
100
AcDbEntity
  8
0
100
AcDbLine
 10
2.457849999999996
 20
5.65625
 30
0.0
 11
1.84375
 21
5.656250000000001
 31
0.0
  0
LINE
  5
490
330
18
100
AcDbEntity
  8
0
100
AcDbLine
 10
1.84375
 20
5.655250000000002
 30
0.0
 11
1.84375
 21
5.657250000000001
 31
0.0
  0
LINE
  5
491
330
18
100
AcDbEntity
  8
0
100
AcDbLine
 10
1.842749999999998
 20
5.656250000000001
 30
0.0
 11
1.844749999999997
 21
5.656250000000001
 31
0.0
  0
CIRCLE
  5
492
330
18
100
AcDbEntity
  8
0
100
AcDbCircle
 10
1.84375
 20
5.656250000000001
 30
0.0
 40
0.0113
  0
CIRCLE
  5
493
330
18
100
AcDbEntity
  8
0
100
AcDbCircle
 10
1.84375
 20
5.656250000000001
 30
0.0
 40
0.0213
  0
LINE
  5
494
330
18
100
AcDbEntity
  8
0
100
AcDbLine
 10
5.40625
 20
5.65625
 30
0.0
 11
2.932849999999998
 21
5.656250000000001
 31
0.0
  0
LINE
  5
497
330
18
100
AcDbEntity
  8
0
100
AcDbLine
 10
6.53125
 20
4.156250000000001
 30
0.0
 11
5.593749999999998
 21
4.15625
 31
0.0
  0
LINE
  5
498
330
18
100
AcDbEntity
  8
0
100
AcDbLine
 10
5.593749999999996
 20
4.15625
 30
0.0
 11
5.593749999999998
 21
3.156250000000001
 31
0.0
  0
LINE
  5
499
330
18
100
AcDbEntity
  8
0
100
AcDbLine
 10
6.53125
 20
3.156250000000001
 30
0.0
 11
5.593749999999998
 21
3.156250000000001
 31
0.0
  0
LINE
  5
4A3
330
18
100
AcDbEntity
  8
DASH
100
AcDbLine
 10
8.328125
 20
11.40625
 30
0.0
 11
6.78125
 21
11.40625
 31
0.0
  0
TEXT
  5
4A4
330
18
100
AcDbEntity
  8
TEXT
100
AcDbText
 10
6.84375
 20
11.09375
 30
0.0
 40
0.125
  1
+24 VDC Source
 41
0.8
 51
10.0
  7
ROMANS
100
AcDbText
  0
LINE
  5
4A5
330
18
100
AcDbEntity
  8
0
100
AcDbLine
 10
6.78125
 20
11.28125
 30
0.0
 11
6.53125
 21
11.28125
 31
0.0
  0
LINE
  5
4A6
330
18
100
AcDbEntity
  8
0
100
AcDbLine
 10
6.78125
 20
11.03125
 30
0.0
 11
6.53125
 21
11.03125
 31
0.0
  0
LINE
  5
4A7
330
18
100
AcDbEntity
  8
0
100
AcDbLine
 10
6.53125
 20
11.28125
 30
0.0
 11
6.53125
 21
11.03125
 31
0.0
  0
TEXT
  5
4A8
330
18
100
AcDbEntity
  8
TEXT
100
AcDbText
 10
6.553869047619047
 20
11.09375
 30
0.0
 40
0.125
  1
18
 41
0.8
 51
10.0
  7
ROMANS
 72
     1
 11
6.65625
 21
11.09375
 31
0.0
100
AcDbText
  0
TEXT
  5
4AC
330
18
100
AcDbEntity
  8
TEXT
100
AcDbText
 10
3.466011904761904
 20
9.872916666666665
 30
0.0
 40
0.1
  1
+24 VDC Sourcing Inputs:
 41
0.8
  7
ROMANS
 72
     4
 11
4.28125
 21
9.906249999999998
 31
0.0
100
AcDbText
  0
LINE
  5
4AE
330
18
100
AcDbEntity
  8
0
100
AcDbLine
 10
6.53125
 20
11.15625
 30
0.0
 11
2.03125
 21
11.15625
 31
0.0
  0
TEXT
  5
4B1
330
18
100
AcDbEntity
  8
TEXT
100
AcDbText
 10
3.4660119047619
 20
6.872916666666666
 30
0.0
 40
0.1
  1
+24 VDC Sourcing Inputs:
 41
0.8
  7
ROMANS
 72
     4
 11
4.281249999999996
 21
6.90625
 31
0.0
100
AcDbText
  0
LINE
  5
4B4
330
18
100
AcDbEntity
  8
0
100
AcDbLine
 10
1.65625
 20
2.750000000000001
 30
0.0
 11
2.03125
 21
2.75
 31
0.0
  0
LINE
  5
4B5
330
18
100
AcDbEntity
  8
0
100
AcDbLine
 10
1.65625
 20
2.562500000000001
 30
0.0
 11
2.03125
 21
2.562500000000001
 31
0.0
  0
LINE
  5
4B6
330
18
100
AcDbEntity
  8
0
100
AcDbLine
 10
1.65625
 20
2.750000000000001
 30
0.0
 11
1.65625
 21
2.562500000000001
 31
0.0
  0
LINE
  5
4B8
330
18
100
AcDbEntity
  8
0
100
AcDbLine
 10
2.03125
 20
2.750000000000001
 30
0.0
 11
2.03125
 21
2.562500000000001
 31
0.0
  0
TEXT
  5
4BA
330
18
100
AcDbEntity
  8
TEXT
100
AcDbText
 10
1.660416666666666
 20
2.606250000000001
 30
0.0
 40
0.1
  1
____
 72
     1
 11
1.84375
 21
2.606250000000001
 31
0.0
100
AcDbText
  0
TEXT
  5
4BF
330
18
100
AcDbEntity
  8
TEXT
100
AcDbText
 10
2.512016666666668
 20
2.606250000000001
 30
0.0
 40
0.1
  1
____
 72
     1
 11
2.695350000000001
 21
2.606250000000001
 31
0.0
100
AcDbText
  0
LINE
  5
4C0
330
18
100
AcDbEntity
  8
0
100
AcDbLine
 10
2.507850000000001
 20
2.562500000000001
 30
0.0
 11
2.882850000000001
 21
2.562500000000001
 31
0.0
  0
LINE
  5
4C1
330
18
100
AcDbEntity
  8
0
100
AcDbLine
 10
2.507850000000001
 20
2.750000000000001
 30
0.0
 11
2.882850000000001
 21
2.75
 31
0.0
  0
LINE
  5
4C2
330
18
100
AcDbEntity
  8
0
100
AcDbLine
 10
2.507850000000001
 20
2.750000000000001
 30
0.0
 11
2.507850000000001
 21
2.562500000000001
 31
0.0
  0
LINE
  5
4C3
330
18
100
AcDbEntity
  8
0
100
AcDbLine
 10
2.882850000000001
 20
2.750000000000001
 30
0.0
 11
2.882850000000001
 21
2.562500000000001
 31
0.0
  0
TEXT
  5
4C4
330
18
100
AcDbEntity
  8
TEXT
100
AcDbText
 10
6.84375
 20
2.593750000000001
 30
0.0
 40
0.125
  1
DC 0 V
 41
0.8
 51
10.0
  7
ROMANS
100
AcDbText
  0
TEXT
  5
4C5
330
18
100
AcDbEntity
  8
TEXT
100
AcDbText
 10
6.561011904761905
 20
2.593750000000001
 30
0.0
 40
0.125
  1
35
 41
0.8
 51
10.0
  7
ROMANS
 72
     1
 11
6.65625
 21
2.593750000000001
 31
0.0
100
AcDbText
  0
LINE
  5
4C6
330
18
100
AcDbEntity
  8
0
100
AcDbLine
 10
6.78125
 20
2.781250000000001
 30
0.0
 11
6.53125
 21
2.781250000000001
 31
0.0
  0
LINE
  5
4C7
330
18
100
AcDbEntity
  8
0
100
AcDbLine
 10
6.78125
 20
2.531250000000001
 30
0.0
 11
6.53125
 21
2.531250000000001
 31
0.0
  0
LINE
  5
4C8
330
18
100
AcDbEntity
  8
0
100
AcDbLine
 10
6.53125
 20
2.781250000000001
 30
0.0
 11
6.53125
 21
2.531250000000001
 31
0.0
  0
LINE
  5
4C9
330
18
100
AcDbEntity
  8
0
100
AcDbLine
 10
6.53125
 20
2.656250000000001
 30
0.0
 11
2.882850000000001
 21
2.656250000000001
 31
0.0
  0
LINE
  5
50B
330
18
100
AcDbEntity
  8
DASH
100
AcDbLine
 10
8.328125
 20
14.40625
 30
0.0
 11
6.78125
 21
14.40625
 31
0.0
  0
TEXT
  5
5D0
330
18
100
AcDbEntity
  8
TEXT
100
AcDbText
 10
1.708964285714285
 20
2.259833333333335
 30
0.0
 40
0.125
  1
24 vdc Supply
 41
0.8
  7
ROMANS
 72
     4
 11
2.273249999999999
 21
2.301500000000001
 31
0.0
100
AcDbText
  0
TEXT
  5
65A
330
18
100
AcDbEntity
  8
TEXT
100
AcDbText
 10
6.776488095238095
 20
14.039
 30
0.0
 40
0.125
  1
See Previous Sheet
 41
0.8
  7
ROMANS
 72
     4
 11
7.53125
 21
14.1015
 31
0.0
100
AcDbText
  0
TEXT
  5
65C
330
18
100
AcDbEntity
  8
TEXT
100
AcDbText
 10
6.84375
 20
2.093750000000001
 30
0.0
 40
0.125
  1
Chasis
 41
0.8
 51
10.0
  7
ROMANS
100
AcDbText
  0
LINE
  5
65D
330
18
100
AcDbEntity
  8
0
100
AcDbLine
 10
6.78125
 20
2.031250000000001
 30
0.0
 11
6.53125
 21
2.031250000000001
 31
0.0
  0
LINE
  5
65E
330
18
100
AcDbEntity
  8
0
100
AcDbLine
 10
6.78125
 20
2.281250000000001
 30
0.0
 11
6.53125
 21
2.281250000000001
 31
0.0
  0
LINE
  5
65F
330
18
100
AcDbEntity
  8
0
100
AcDbLine
 10
6.53125
 20
2.281250000000001
 30
0.0
 11
6.53125
 21
2.031250000000001
 31
0.0
  0
TEXT
  5
660
330
18
100
AcDbEntity
  8
TEXT
100
AcDbText
 10
6.561011904761905
 20
2.093750000000001
 30
0.0
 40
0.125
  1
36
 41
0.8
 51
10.0
  7
ROMANS
 72
     1
 11
6.65625
 21
2.093750000000001
 31
0.0
100
AcDbText
  0
TEXT
  5
661
330
18
100
AcDbEntity
  8
TEXT
100
AcDbText
 10
5.460416666666664
 20
2.106249999999999
 30
0.0
 40
0.1
  1
SPG
 72
     1
 11
5.593749999999998
 21
2.106249999999999
 31
0.0
100
AcDbText
  0
LINE
  5
662
330
18
100
AcDbEntity
  8
0
100
AcDbLine
 10
5.406249999999998
 20
2.0625
 30
0.0
 11
5.781249999999998
 21
2.0625
 31
0.0
  0
LINE
  5
663
330
18
100
AcDbEntity
  8
0
100
AcDbLine
 10
5.406249999999998
 20
2.25
 30
0.0
 11
5.781249999999998
 21
2.25
 31
0.0
  0
LINE
  5
664
330
18
100
AcDbEntity
  8
0
100
AcDbLine
 10
5.406249999999998
 20
2.25
 30
0.0
 11
5.406249999999998
 21
2.0625
 31
0.0
  0
LINE
  5
665
330
18
100
AcDbEntity
  8
0
100
AcDbLine
 10
5.781249999999998
 20
2.25
 30
0.0
 11
5.781249999999998
 21
2.0625
 31
0.0
  0
LINE
  5
666
330
18
100
AcDbEntity
  8
0
100
AcDbLine
 10
6.531249999999998
 20
2.156250000000001
 30
0.0
 11
5.781249999999998
 21
2.156250000000001
 31
0.0
  0
ENDSEC
  0
SECTION
  2
OBJECTS
  0
DICTIONARY
  5
C
330
0
100
AcDbDictionary
281
     1
  3
ACAD_COLOR
350
68A
  3
ACAD_GROUP
350
D
  3
ACAD_LAYOUT
350
68D
  3
ACAD_MATERIAL
350
689
  3
ACAD_MLINESTYLE
350
E
  3
ACAD_PLOTSETTINGS
350
68E
  3
ACAD_PLOTSTYLENAME
350
687
  3
ACAD_TABLESTYLE
350
68B
  3
AcDbVariableDictionary
350
695
  0
DICTIONARY
  5
68A
102
{ACAD_REACTORS
330
C
102
}
330
C
100
AcDbDictionary
281
     1
  0
DICTIONARY
  5
D
102
{ACAD_REACTORS
330
C
102
}
330
C
100
AcDbDictionary
281
     1
  0
DICTIONARY
  5
68D
102
{ACAD_REACTORS
330
C
102
}
330
C
100
AcDbDictionary
281
     1
  3
Layout1
350
690
  3
Model
350
68F
  0
DICTIONARY
  5
689
102
{ACAD_REACTORS
330
C
102
}
330
C
100
AcDbDictionary
281
     1
  0
DICTIONARY
  5
E
102
{ACAD_REACTORS
330
C
102
}
330
C
100
AcDbDictionary
281
     1
  3
STANDARD
350
1B
  0
DICTIONARY
  5
68E
102
{ACAD_REACTORS
330
C
102
}
330
C
100
AcDbDictionary
281
     1
  0
ACDBDICTIONARYWDFLT
  5
687
102
{ACAD_REACTORS
330
C
102
}
330
C
100
AcDbDictionary
281
     1
  3
Normal
350
688
100
AcDbDictionaryWithDefault
340
688
  0
DICTIONARY
  5
68B
102
{ACAD_REACTORS
330
C
102
}
330
C
100
AcDbDictionary
281
     1
  3
Standard
350
68C
  0
DICTIONARY
  5
695
102
{ACAD_REACTORS
330
C
102
}
330
C
100
AcDbDictionary
281
     1
  3
CTABLESTYLE
350
696
  0
LAYOUT
  5
690
102
{ACAD_REACTORS
330
68D
102
}
330
68D
100
AcDbPlotSettings
  1

  2
\\Fdlfs06\Engineering - Digital PrintServer 17/600 C
  4

  6

 40
0.0
 41
0.0
 42
0.0
 43
0.0
 44
0.0
 45
0.0
 46
0.0
 47
0.0
 48
0.0
 49
0.0
140
0.0
141
0.0
142
1.0
143
1.0
 70
   688
 72
     0
 73
     0
 74
     5
  7

 75
    16
147
1.0
 76
     0
 77
     2
 78
   300
148
0.0
149
0.0
100
AcDbLayout
  1
Layout1
 70
     0
 71
     1
 10
0.0
 20
0.0
 11
12.0
 21
9.0
 12
0.0
 22
0.0
 32
0.0
 14
1.000000000000000E+20
 24
1.000000000000000E+20
 34
1.000000000000000E+20
 15
-1.000000000000000E+20
 25
-1.000000000000000E+20
 35
-1.000000000000000E+20
146
0.0
 13
0.0
 23
0.0
 33
0.0
 16
1.0
 26
0.0
 36
0.0
 17
0.0
 27
1.0
 37
0.0
 76
     0
330
15
  0
LAYOUT
  5
68F
102
{ACAD_REACTORS
330
68D
102
}
330
68D
100
AcDbPlotSettings
  1

  2
\\Fdlfs06\Engineering - Digital PrintServer 17/600 C
  4

  6

 40
0.0
 41
0.0
 42
0.0
 43
0.0
 44
0.0
 45
0.0
 46
0.0
 47
0.0
 48
0.0
 49
0.0
140
0.0
141
0.0
142
1.0
143
1.0
 70
  1712
 72
     0
 73
     0
 74
     0
  7

 75
     0
147
1.0
 76
     0
 77
     2
 78
   300
148
0.0
149
0.0
100
AcDbLayout
  1
Model
 70
     1
 71
     0
 10
0.0
 20
0.0
 11
12.0
 21
9.0
 12
0.0
 22
0.0
 32
0.0
 14
0.0
 24
0.0
 34
0.0
 15
0.0
 25
0.0
 35
0.0
146
0.0
 13
0.0
 23
0.0
 33
0.0
 16
1.0
 26
0.0
 36
0.0
 17
0.0
 27
1.0
 37
0.0
 76
     0
330
18
  0
MLINESTYLE
  5
1B
102
{ACAD_REACTORS
330
E
102
}
330
E
100
AcDbMlineStyle
  2
STANDARD
 70
     0
  3

 62
     0
 51
90.0
 52
90.0
 71
     2
 49
0.5
 62
   256
  6
BYLAYER
 49
-0.5
 62
   256
  6
BYLAYER
  0
ACDBPLACEHOLDER
  5
688
102
{ACAD_REACTORS
330
687
102
}
330
687
  0
TABLESTYLE
  5
68C
102
{ACAD_REACTORS
330
68B
102
}
330
68B
100
AcDbTableStyle
  3
Standard
 70
     0
 71
     0
 40
0.06
 41
0.06
280
     0
281
     0
  7
STANDARD
140
0.18
170
     2
 62
     0
 63
     7
283
     0
274
    -2
284
     1
 64
     0
275
    -2
285
     1
 65
     0
276
    -2
286
     1
 66
     0
277
    -2
287
     1
 67
     0
278
    -2
288
     1
 68
     0
279
    -2
289
     1
 69
     0
  7
STANDARD
140
0.25
170
     5
 62
     0
 63
     7
283
     0
274
    -2
284
     1
 64
     0
275
    -2
285
     1
 65
     0
276
    -2
286
     1
 66
     0
277
    -2
287
     1
 67
     0
278
    -2
288
     1
 68
     0
279
    -2
289
     1
 69
     0
  7
STANDARD
140
0.18
170
     5
 62
     0
 63
     7
283
     0
274
    -2
284
     1
 64
     0
275
    -2
285
     1
 65
     0
276
    -2
286
     1
 66
     0
277
    -2
287
     1
 67
     0
278
    -2
288
     1
 68
     0
279
    -2
289
     1
 69
     0
  0
DICTIONARYVAR
  5
696
102
{ACAD_REACTORS
330
695
102
}
330
695
100
DictionaryVariables
280
     0
  1
STANDARD
  0
ENDSEC
  0
EOF
