  0
SECTION
  2
HEADER
  9
$ACADVER
  1
AC1015
  9
$ACADMAINTVER
 70
    20
  9
$DWGCODEPAGE
  3
ANSI_1252
  9
$INSBASE
 10
0.359375
 20
0.0625
 30
0.0
  9
$EXTMIN
 10
1.709068355652814
 20
4.155386211246934
 30
-0.0000000349181948
  9
$EXTMAX
 10
9.305017906536132
 20
15.37502579322274
 30
0.0000000814935746
  9
$LIMMIN
 10
0.0
 20
0.0
  9
$LIMMAX
 10
10.654
 20
15.881
  9
$ORTHOMODE
 70
     1
  9
$REGENMODE
 70
     1
  9
$FILLMODE
 70
     1
  9
$QTEXTMODE
 70
     0
  9
$MIRRTEXT
 70
     0
  9
$LTSCALE
 40
0.25
  9
$ATTMODE
 70
     1
  9
$TEXTSIZE
 40
0.125
  9
$TRACEWID
 40
0.05
  9
$TEXTSTYLE
  7
ROMANS
  9
$CLAYER
  8
0
  9
$CELTYPE
  6
BYLAYER
  9
$CECOLOR
 62
   256
  9
$CELTSCALE
 40
1.0
  9
$DISPSILH
 70
     0
  9
$DIMSCALE
 40
1.0
  9
$DIMASZ
 40
0.18
  9
$DIMEXO
 40
0.0625
  9
$DIMDLI
 40
0.38
  9
$DIMRND
 40
0.0
  9
$DIMDLE
 40
0.0
  9
$DIMEXE
 40
0.18
  9
$DIMTP
 40
0.0
  9
$DIMTM
 40
0.0
  9
$DIMTXT
 40
0.18
  9
$DIMCEN
 40
0.09
  9
$DIMTSZ
 40
0.0
  9
$DIMTOL
 70
     0
  9
$DIMLIM
 70
     0
  9
$DIMTIH
 70
     1
  9
$DIMTOH
 70
     1
  9
$DIMSE1
 70
     0
  9
$DIMSE2
 70
     0
  9
$DIMTAD
 70
     0
  9
$DIMZIN
 70
     0
  9
$DIMBLK
  1

  9
$DIMASO
 70
     1
  9
$DIMSHO
 70
     0
  9
$DIMPOST
  1

  9
$DIMAPOST
  1

  9
$DIMALT
 70
     0
  9
$DIMALTD
 70
     2
  9
$DIMALTF
 40
25.4
  9
$DIMLFAC
 40
1.0
  9
$DIMTOFL
 70
     0
  9
$DIMTVP
 40
0.0
  9
$DIMTIX
 70
     0
  9
$DIMSOXD
 70
     0
  9
$DIMSAH
 70
     0
  9
$DIMBLK1
  1

  9
$DIMBLK2
  1

  9
$DIMSTYLE
  2
STANDARD
  9
$DIMCLRD
 70
     0
  9
$DIMCLRE
 70
     0
  9
$DIMCLRT
 70
     0
  9
$DIMTFAC
 40
1.0
  9
$DIMGAP
 40
0.09
  9
$DIMJUST
 70
     0
  9
$DIMSD1
 70
     0
  9
$DIMSD2
 70
     0
  9
$DIMTOLJ
 70
     1
  9
$DIMTZIN
 70
     0
  9
$DIMALTZ
 70
     0
  9
$DIMALTTZ
 70
     0
  9
$DIMUPT
 70
     0
  9
$DIMDEC
 70
     4
  9
$DIMTDEC
 70
     4
  9
$DIMALTU
 70
     2
  9
$DIMALTTD
 70
     2
  9
$DIMTXSTY
  7
STANDARD
  9
$DIMAUNIT
 70
     0
  9
$DIMADEC
 70
     0
  9
$DIMALTRND
 40
0.0
  9
$DIMAZIN
 70
     0
  9
$DIMDSEP
 70
    46
  9
$DIMATFIT
 70
     3
  9
$DIMFRAC
 70
     0
  9
$DIMLDRBLK
  1

  9
$DIMLUNIT
 70
     2
  9
$DIMLWD
 70
    -2
  9
$DIMLWE
 70
    -2
  9
$DIMTMOVE
 70
     0
  9
$LUNITS
 70
     2
  9
$LUPREC
 70
     4
  9
$SKETCHINC
 40
0.1
  9
$FILLETRAD
 40
0.0
  9
$AUNITS
 70
     0
  9
$AUPREC
 70
     0
  9
$MENU
  1
ACAD
  9
$ELEVATION
 40
0.0
  9
$PELEVATION
 40
0.0
  9
$THICKNESS
 40
0.0
  9
$LIMCHECK
 70
     0
  9
$CHAMFERA
 40
0.0
  9
$CHAMFERB
 40
0.0
  9
$CHAMFERC
 40
0.0
  9
$CHAMFERD
 40
0.0
  9
$SKPOLY
 70
     0
  9
$TDCREATE
 40
2449270.545578588
  9
$TDUCREATE
 40
2449270.753911922
  9
$TDUPDATE
 40
2453641.584414178
  9
$TDUUPDATE
 40
2453641.792747512
  9
$TDINDWG
 40
0.4465068981
  9
$TDUSRTIMER
 40
0.4465068981
  9
$USRTIMER
 70
     1
  9
$ANGBASE
 50
0.0
  9
$ANGDIR
 70
     0
  9
$PDMODE
 70
     3
  9
$PDSIZE
 40
0.1
  9
$PLINEWID
 40
0.01
  9
$SPLFRAME
 70
     0
  9
$SPLINETYPE
 70
     6
  9
$SPLINESEGS
 70
     8
  9
$HANDSEED
  5
A15
  9
$SURFTAB1
 70
     6
  9
$SURFTAB2
 70
     6
  9
$SURFTYPE
 70
     6
  9
$SURFU
 70
     6
  9
$SURFV
 70
     6
  9
$UCSBASE
  2

  9
$UCSNAME
  2

  9
$UCSORG
 10
0.0
 20
0.0
 30
0.0
  9
$UCSXDIR
 10
1.0
 20
0.0
 30
0.0
  9
$UCSYDIR
 10
0.0
 20
1.0
 30
0.0
  9
$UCSORTHOREF
  2

  9
$UCSORTHOVIEW
 70
     0
  9
$UCSORGTOP
 10
0.0
 20
0.0
 30
0.0
  9
$UCSORGBOTTOM
 10
0.0
 20
0.0
 30
0.0
  9
$UCSORGLEFT
 10
0.0
 20
0.0
 30
0.0
  9
$UCSORGRIGHT
 10
0.0
 20
0.0
 30
0.0
  9
$UCSORGFRONT
 10
0.0
 20
0.0
 30
0.0
  9
$UCSORGBACK
 10
0.0
 20
0.0
 30
0.0
  9
$PUCSBASE
  2

  9
$PUCSNAME
  2

  9
$PUCSORG
 10
0.0
 20
0.0
 30
0.0
  9
$PUCSXDIR
 10
1.0
 20
0.0
 30
0.0
  9
$PUCSYDIR
 10
0.0
 20
1.0
 30
0.0
  9
$PUCSORTHOREF
  2

  9
$PUCSORTHOVIEW
 70
     0
  9
$PUCSORGTOP
 10
0.0
 20
0.0
 30
0.0
  9
$PUCSORGBOTTOM
 10
0.0
 20
0.0
 30
0.0
  9
$PUCSORGLEFT
 10
0.0
 20
0.0
 30
0.0
  9
$PUCSORGRIGHT
 10
0.0
 20
0.0
 30
0.0
  9
$PUCSORGFRONT
 10
0.0
 20
0.0
 30
0.0
  9
$PUCSORGBACK
 10
0.0
 20
0.0
 30
0.0
  9
$USERI1
 70
     0
  9
$USERI2
 70
     0
  9
$USERI3
 70
     0
  9
$USERI4
 70
     0
  9
$USERI5
 70
     0
  9
$USERR1
 40
0.0
  9
$USERR2
 40
0.0
  9
$USERR3
 40
0.0
  9
$USERR4
 40
0.0
  9
$USERR5
 40
0.0
  9
$WORLDVIEW
 70
     1
  9
$SHADEDGE
 70
     3
  9
$SHADEDIF
 70
    70
  9
$TILEMODE
 70
     1
  9
$MAXACTVP
 70
    16
  9
$PINSBASE
 10
0.0
 20
0.0
 30
0.0
  9
$PLIMCHECK
 70
     0
  9
$PEXTMIN
 10
1.000000000000000E+20
 20
1.000000000000000E+20
 30
1.000000000000000E+20
  9
$PEXTMAX
 10
-1.000000000000000E+20
 20
-1.000000000000000E+20
 30
-1.000000000000000E+20
  9
$PLIMMIN
 10
0.0
 20
0.0
  9
$PLIMMAX
 10
12.0
 20
9.0
  9
$UNITMODE
 70
     0
  9
$VISRETAIN
 70
     0
  9
$PLINEGEN
 70
     0
  9
$PSLTSCALE
 70
     0
  9
$TREEDEPTH
 70
  3020
  9
$CMLSTYLE
  2
STANDARD
  9
$CMLJUST
 70
     0
  9
$CMLSCALE
 40
1.0
  9
$PROXYGRAPHICS
 70
     1
  9
$MEASUREMENT
 70
     0
  9
$CELWEIGHT
370
    -1
  9
$ENDCAPS
280
     0
  9
$JOINSTYLE
280
     0
  9
$LWDISPLAY
290
     0
  9
$INSUNITS
 70
     0
  9
$HYPERLINKBASE
  1

  9
$STYLESHEET
  1

  9
$XEDIT
290
     1
  9
$CEPSNTYPE
380
     0
  9
$PSTYLEMODE
290
     1
  9
$FINGERPRINTGUID
  2
{6FA84937-2915-44B8-8AD6-3F2540AF6134}
  9
$VERSIONGUID
  2
{F163104A-7427-418B-B7F3-89D71DF605DB}
  9
$EXTNAMES
290
     1
  9
$PSVPSCALE
 40
0.0
  9
$OLESTARTUP
290
     0
  0
ENDSEC
  0
SECTION
  2
CLASSES
  0
CLASS
  1
ACDBDICTIONARYWDFLT
  2
AcDbDictionaryWithDefault
  3
ObjectDBX Classes
 90
        0
280
     0
281
     0
  0
CLASS
  1
TABLESTYLE
  2
AcDbTableStyle
  3
ObjectDBX Classes
 90
     2047
280
     0
281
     0
  0
CLASS
  1
DICTIONARYVAR
  2
AcDbDictionaryVar
  3
ObjectDBX Classes
 90
        0
280
     0
281
     0
  0
CLASS
  1
ACDBPLACEHOLDER
  2
AcDbPlaceHolder
  3
ObjectDBX Classes
 90
        0
280
     0
281
     0
  0
CLASS
  1
LAYOUT
  2
AcDbLayout
  3
ObjectDBX Classes
 90
        0
280
     0
281
     0
  0
ENDSEC
  0
SECTION
  2
TABLES
  0
TABLE
  2
VPORT
  5
8
330
0
100
AcDbSymbolTable
 70
     2
  0
VPORT
  5
A0E
330
8
100
AcDbSymbolTableRecord
100
AcDbViewportTableRecord
  2
*Active
 70
     0
 10
0.0
 20
0.0
 11
1.0
 21
1.0
 12
5.507043131094473
 22
9.765206002234837
 13
0.0
 23
0.0
 14
0.001
 24
0.001
 15
1.0
 25
1.0
 16
0.0
 26
0.0
 36
1.0
 17
0.0
 27
0.0
 37
0.0
 40
11.35591050807268
 41
1.385395537525355
 42
50.0
 43
0.0
 44
0.0
 50
0.0
 51
0.0
 71
     0
 72
   100
 73
     1
 74
     0
 75
     1
 76
     0
 77
     0
 78
     0
281
     0
 65
     1
110
0.0
120
0.0
130
0.0
111
1.0
121
0.0
131
0.0
112
0.0
122
1.0
132
0.0
 79
     0
146
0.0
  0
ENDTAB
  0
TABLE
  2
LTYPE
  5
5
330
0
100
AcDbSymbolTable
 70
     2
  0
LTYPE
  5
12
330
5
100
AcDbSymbolTableRecord
100
AcDbLinetypeTableRecord
  2
BYBLOCK
 70
     0
  3

 72
    65
 73
     0
 40
0.0
  0
LTYPE
  5
13
330
5
100
AcDbSymbolTableRecord
100
AcDbLinetypeTableRecord
  2
BYLAYER
 70
     0
  3

 72
    65
 73
     0
 40
0.0
  0
LTYPE
  5
14
330
5
100
AcDbSymbolTableRecord
100
AcDbLinetypeTableRecord
  2
CONTINUOUS
 70
     0
  3
Solid line
 72
    65
 73
     0
 40
0.0
  0
LTYPE
  5
23
330
5
100
AcDbSymbolTableRecord
100
AcDbLinetypeTableRecord
  2
DASHED
 70
     0
  3
__ __ __ __ __ __ __ __ __ __ __ __ __ __ __ __
 72
    65
 73
     2
 40
0.75
 49
0.5
 74
     0
 49
-0.25
 74
     0
  0
ENDTAB
  0
TABLE
  2
LAYER
  5
2
330
0
100
AcDbSymbolTable
 70
     3
  0
LAYER
  5
F
330
2
100
AcDbSymbolTableRecord
100
AcDbLayerTableRecord
  2
0
 70
     0
 62
     7
  6
CONTINUOUS
370
    -3
390
9FE
  0
LAYER
  5
2A
330
2
100
AcDbSymbolTableRecord
100
AcDbLayerTableRecord
  2
TEXT
 70
     0
 62
     2
  6
CONTINUOUS
370
    -3
390
9FE
  0
LAYER
  5
30
330
2
100
AcDbSymbolTableRecord
100
AcDbLayerTableRecord
  2
DASH
 70
     0
 62
     2
  6
DASHED
370
    -3
390
9FE
  0
ENDTAB
  0
TABLE
  2
STYLE
  5
3
330
0
100
AcDbSymbolTable
 70
     2
  0
STYLE
  5
10
330
3
100
AcDbSymbolTableRecord
100
AcDbTextStyleTableRecord
  2
STANDARD
 70
     0
 40
0.0
 41
1.0
 50
0.0
 71
     0
 42
0.2
  3
txt
  4

  0
STYLE
  5
1D
330
3
100
AcDbSymbolTableRecord
100
AcDbTextStyleTableRecord
  2
ROMANS
 70
     0
 40
0.0
 41
0.8
 50
0.0
 71
     0
 42
0.125
  3
ROMANS
  4

  0
ENDTAB
  0
TABLE
  2
VIEW
  5
6
330
0
100
AcDbSymbolTable
 70
     0
  0
ENDTAB
  0
TABLE
  2
UCS
  5
7
330
0
100
AcDbSymbolTable
 70
     0
  0
ENDTAB
  0
TABLE
  2
APPID
  5
9
330
0
100
AcDbSymbolTable
 70
     1
  0
APPID
  5
11
330
9
100
AcDbSymbolTableRecord
100
AcDbRegAppTableRecord
  2
ACAD
 70
     0
  0
ENDTAB
  0
TABLE
  2
DIMSTYLE
  5
A
330
0
100
AcDbSymbolTable
 70
     1
100
AcDbDimStyleTable
 71
     0
  0
DIMSTYLE
105
26C
330
A
100
AcDbSymbolTableRecord
100
AcDbDimStyleTableRecord
  2
STANDARD
 70
     0
340
10
  0
ENDTAB
  0
TABLE
  2
BLOCK_RECORD
  5
1
330
0
100
AcDbSymbolTable
 70
     0
  0
BLOCK_RECORD
  5
18
330
1
100
AcDbSymbolTableRecord
100
AcDbBlockTableRecord
  2
*MODEL_SPACE
340
A05
  0
BLOCK_RECORD
  5
15
330
1
100
AcDbSymbolTableRecord
100
AcDbBlockTableRecord
  2
*PAPER_SPACE
340
A06
  0
ENDTAB
  0
ENDSEC
  0
SECTION
  2
BLOCKS
  0
BLOCK
  5
33
330
18
100
AcDbEntity
  8
0
100
AcDbBlockBegin
  2
*MODEL_SPACE
 70
     0
 10
0.0
 20
0.0
 30
0.0
  3
*MODEL_SPACE
  1

  0
ENDBLK
  5
34
330
18
100
AcDbEntity
  8
0
100
AcDbBlockEnd
  0
BLOCK
  5
31
330
15
100
AcDbEntity
 67
     1
  8
0
100
AcDbBlockBegin
  2
*PAPER_SPACE
 70
     0
 10
0.0
 20
0.0
 30
0.0
  3
*PAPER_SPACE
  1

  0
ENDBLK
  5
32
330
15
100
AcDbEntity
 67
     1
  8
0
100
AcDbBlockEnd
  0
ENDSEC
  0
SECTION
  2
ENTITIES
  0
LINE
  5
3C
330
18
100
AcDbEntity
  8
DASH
100
AcDbLine
 10
1.709687499999999
 20
14.8125
 30
0.0
 11
3.256562499999999
 21
14.8125
 31
0.0
  0
LINE
  5
3D
330
18
100
AcDbEntity
  8
0
100
AcDbLine
 10
1.709687499999999
 20
4.156249999999994
 30
0.0
 11
1.709687499999999
 21
14.8125
 31
0.0
  0
LINE
  5
3F
330
18
100
AcDbEntity
  8
0
100
AcDbLine
 10
3.256562499999999
 20
14.8125
 30
0.0
 11
3.256562500000001
 21
4.156249999999994
 31
0.0
  0
LINE
  5
9E
330
18
100
AcDbEntity
  8
0
100
AcDbLine
 10
8.194062499999999
 20
10.5625
 30
0.0
 11
8.194062499999997
 21
5.656249999999996
 31
0.0
  0
TEXT
  5
A0
330
18
100
AcDbEntity
  8
TEXT
100
AcDbText
 10
1.923229166666666
 20
15.25
 30
0.0
 40
0.125
  1
BLOCK OUTPUT
 41
0.8
  7
ROMANS
 72
     4
 11
2.506562499999999
 21
15.3125
 31
0.0
100
AcDbText
  0
TEXT
  5
A1
330
18
100
AcDbEntity
  8
TEXT
100
AcDbText
 10
1.930372023809523
 20
15.047619
 30
0.0
 40
0.125
  1
24VDC OUTPUT
 41
0.8
  7
ROMANS
 72
     4
 11
2.506562499999999
 21
15.110119
 31
0.0
100
AcDbText
  0
TEXT
  5
A2
330
18
100
AcDbEntity
  8
TEXT
100
AcDbText
 10
1.920848214285713
 20
14.845238
 30
0.0
 40
0.125
  1
503-25908-01
 41
0.8
  7
ROMANS
 72
     4
 11
2.506562499999999
 21
14.907738
 31
0.0
100
AcDbText
  0
TEXT
  5
2F0
330
18
100
AcDbEntity
  8
0
100
AcDbText
 10
19.525
 20
8.125
 30
0.0
 40
0.1
  1

 72
     1
 11
19.525
 21
8.125
 31
0.0
100
AcDbText
  0
TEXT
  5
2F1
330
18
100
AcDbEntity
  8
0
100
AcDbText
 10
25.67403808143782
 20
4.985374999999998
 30
0.0
 40
0.075
  1

100
AcDbText
  0
TEXT
  5
2F2
330
18
100
AcDbEntity
  8
0
100
AcDbText
 10
25.32633053740864
 20
4.985374999999998
 30
0.0
 40
0.075
  1

100
AcDbText
  0
TEXT
  5
2F3
330
18
100
AcDbEntity
  8
0
100
AcDbText
 10
25.23520532397234
 20
14.51631030265525
 30
0.0
 40
0.1
  1

 72
     1
 11
25.23520532397234
 21
14.51631030265525
 31
0.0
100
AcDbText
  0
TEXT
  5
2F4
330
18
100
AcDbEntity
  8
0
100
AcDbText
 10
31.38424340541015
 20
11.37668530265524
 30
0.0
 40
0.075
  1

100
AcDbText
  0
TEXT
  5
2F5
330
18
100
AcDbEntity
  8
0
100
AcDbText
 10
31.03653586138097
 20
11.37668530265524
 30
0.0
 40
0.075
  1

100
AcDbText
  0
TEXT
  5
2F6
330
18
100
AcDbEntity
  8
0
100
AcDbText
 10
31.1135
 20
8.158374999999999
 30
0.0
 40
0.1
  1

 72
     1
 11
31.1135
 21
8.158374999999999
 31
0.0
100
AcDbText
  0
TEXT
  5
2F7
330
18
100
AcDbEntity
  8
0
100
AcDbText
 10
37.26253808143782
 20
5.018749999999998
 30
0.0
 40
0.075
  1

100
AcDbText
  0
TEXT
  5
2F8
330
18
100
AcDbEntity
  8
0
100
AcDbText
 10
36.91483053740864
 20
5.018749999999998
 30
0.0
 40
0.075
  1

100
AcDbText
  0
TEXT
  5
2F9
330
18
100
AcDbEntity
  8
0
100
AcDbText
 10
36.82370532397233
 20
14.54968530265525
 30
0.0
 40
0.1
  1

 72
     1
 11
36.82370532397233
 21
14.54968530265525
 31
0.0
100
AcDbText
  0
TEXT
  5
2FA
330
18
100
AcDbEntity
  8
0
100
AcDbText
 10
42.97274340541014
 20
11.41006030265524
 30
0.0
 40
0.075
  1

100
AcDbText
  0
TEXT
  5
2FB
330
18
100
AcDbEntity
  8
0
100
AcDbText
 10
42.62503586138096
 20
11.41006030265524
 30
0.0
 40
0.075
  1

100
AcDbText
  0
TEXT
  5
2FC
330
18
100
AcDbEntity
  8
0
100
AcDbText
 10
23.50535810065158
 20
14.98561286894363
 30
0.0
 40
0.075
  1

 72
     1
 11
23.50535810065158
 21
14.98561286894363
 31
0.0
100
AcDbText
  0
TEXT
  5
2FD
330
18
100
AcDbEntity
  8
0
100
AcDbText
 10
23.50535810065158
 20
14.48561286894363
 30
0.0
 40
0.075
  1

 72
     1
 11
23.50535810065158
 21
14.48561286894363
 31
0.0
100
AcDbText
  0
TEXT
  5
2FE
330
18
100
AcDbEntity
  8
0
100
AcDbText
 10
23.50535810065158
 20
13.98561286894363
 30
0.0
 40
0.1
  1

 72
     1
 11
23.50535810065158
 21
13.98561286894363
 31
0.0
100
AcDbText
  0
TEXT
  5
2FF
330
18
100
AcDbEntity
  8
0
100
AcDbText
 10
23.31785810065159
 20
7.985612868943633
 30
0.0
 40
0.1
  1

100
AcDbText
  0
TEXT
  5
300
330
18
100
AcDbEntity
  8
0
100
AcDbText
 10
23.31785810065158
 20
13.48561286894363
 30
0.0
 40
0.1
  1

100
AcDbText
  0
TEXT
  5
301
330
18
100
AcDbEntity
  8
0
100
AcDbText
 10
33.83149085518776
 20
14.98561286894363
 30
0.0
 40
0.075
  1

 72
     1
 11
33.83149085518776
 21
14.98561286894363
 31
0.0
100
AcDbText
  0
TEXT
  5
302
330
18
100
AcDbEntity
  8
0
100
AcDbText
 10
33.83149085518776
 20
14.48561286894363
 30
0.0
 40
0.075
  1

 72
     1
 11
33.83149085518776
 21
14.48561286894363
 31
0.0
100
AcDbText
  0
TEXT
  5
303
330
18
100
AcDbEntity
  8
0
100
AcDbText
 10
33.83149085518776
 20
13.98561286894363
 30
0.0
 40
0.1
  1

 72
     1
 11
33.83149085518776
 21
13.98561286894363
 31
0.0
100
AcDbText
  0
TEXT
  5
304
330
18
100
AcDbEntity
  8
0
100
AcDbText
 10
33.64399085518776
 20
7.985612868943633
 30
0.0
 40
0.1
  1

100
AcDbText
  0
TEXT
  5
305
330
18
100
AcDbEntity
  8
0
100
AcDbText
 10
33.64399085518775
 20
13.48561286894363
 30
0.0
 40
0.1
  1

100
AcDbText
  0
LINE
  5
488
330
18
100
AcDbEntity
  8
DASH
100
AcDbLine
 10
7.342462499999998
 20
10.15625
 30
0.0
 11
7.342462499999998
 21
6.656249999999998
 31
0.0
  0
LINE
  5
4A3
330
18
100
AcDbEntity
  8
DASH
100
AcDbLine
 10
1.709687499999999
 20
11.40625
 30
0.0
 11
3.256562499999999
 21
11.40625
 31
0.0
  0
LINE
  5
50B
330
18
100
AcDbEntity
  8
DASH
100
AcDbLine
 10
1.709687499999999
 20
14.40625
 30
0.0
 11
3.256562499999999
 21
14.40625
 31
0.0
  0
TEXT
  5
672
330
18
100
AcDbEntity
  8
TEXT
100
AcDbText
 10
1.827886904761903
 20
14.64583333333333
 30
0.0
 40
0.1
  1
INTERNAL ADDRESSES
 41
0.8
  7
ROMANS
 72
     1
 11
2.483124999999999
 21
14.6125
 31
0.0
100
AcDbText
 73
     1
  0
TEXT
  5
673
330
18
100
AcDbEntity
  8
TEXT
100
AcDbText
 10
2.050744047619046
 20
14.49583333333333
 30
0.0
 40
0.1
  1
LISTED BELOW
 41
0.8
  7
ROMANS
 72
     1
 11
2.483124999999999
 21
14.4625
 31
0.0
100
AcDbText
 73
     1
  0
LINE
  5
71C
330
18
100
AcDbEntity
  8
0
100
AcDbLine
 10
4.631562499999999
 20
9.656249999999998
 30
0.0
 11
7.1049625
 21
9.65625
 31
0.0
  0
LINE
  5
71D
330
18
100
AcDbEntity
  8
0
100
AcDbLine
 10
4.631562499999999
 20
8.656249999999998
 30
0.0
 11
7.104962499999999
 21
8.656249999999998
 31
0.0
  0
LINE
  5
71E
330
18
100
AcDbEntity
  8
0
100
AcDbLine
 10
4.631562499999999
 20
9.156249999999998
 30
0.0
 11
7.104962499999999
 21
9.156249999999998
 31
0.0
  0
LINE
  5
71F
330
18
100
AcDbEntity
  8
0
100
AcDbLine
 10
4.631562499999999
 20
10.15625
 30
0.0
 11
7.104962499999999
 21
10.15625
 31
0.0
  0
TEXT
  5
720
330
18
100
AcDbEntity
  8
TEXT
100
AcDbText
 10
4.891800595238094
 20
10.37291666666666
 30
0.0
 40
0.1
  1
+24 VDC Sourcing Outputs:
 41
0.8
  7
ROMANS
 72
     4
 11
5.756562499999999
 21
10.40625
 31
0.0
100
AcDbText
  0
LINE
  5
721
330
18
100
AcDbEntity
  8
0
100
AcDbLine
 10
3.506562499999999
 20
10.65625
 30
0.0
 11
8.006562499999997
 21
10.65624999999999
 31
0.0
  0
TEXT
  5
722
330
18
100
AcDbEntity
  8
TEXT
100
AcDbText
 10
5.230848214285713
 20
11.10624999999999
 30
0.0
 40
0.1
  1
+24 VDC Source
 41
0.8
  7
ROMANS
 72
     4
 11
5.756562499999999
 21
11.15625
 31
0.0
100
AcDbText
  0
LINE
  5
723
330
18
100
AcDbEntity
  8
0
100
AcDbLine
 10
4.631562499999999
 20
8.156249999999996
 30
0.0
 11
7.104962499999999
 21
8.156249999999996
 31
0.0
  0
LINE
  5
724
330
18
100
AcDbEntity
  8
0
100
AcDbLine
 10
4.631562499999999
 20
7.156249999999996
 30
0.0
 11
7.104962499999999
 21
7.156249999999996
 31
0.0
  0
LINE
  5
725
330
18
100
AcDbEntity
  8
0
100
AcDbLine
 10
4.631562499999999
 20
6.656249999999996
 30
0.0
 11
7.104962499999999
 21
6.656249999999996
 31
0.0
  0
LINE
  5
726
330
18
100
AcDbEntity
  8
0
100
AcDbLine
 10
4.631562499999999
 20
7.656249999999996
 30
0.0
 11
7.1049625
 21
7.656249999999998
 31
0.0
  0
TEXT
  5
727
330
18
100
AcDbEntity
  8
TEXT
100
AcDbText
 10
1.911473214285713
 20
6.593749999999996
 30
0.0
 40
0.125
  1
_._._
 41
0.8
 51
10.0
  7
ROMANS
100
AcDbText
  0
TEXT
  5
728
330
18
100
AcDbEntity
  8
TEXT
100
AcDbText
 10
1.911473214285713
 20
7.593749999999996
 30
0.0
 40
0.125
  1
_._._
 41
0.8
 51
10.0
  7
ROMANS
100
AcDbText
  0
TEXT
  5
729
330
18
100
AcDbEntity
  8
TEXT
100
AcDbText
 10
1.911473214285713
 20
7.093749999999996
 30
0.0
 40
0.125
  1
_._._
 41
0.8
 51
10.0
  7
ROMANS
100
AcDbText
  0
LINE
  5
72A
330
18
100
AcDbEntity
  8
0
100
AcDbLine
 10
3.506562499999999
 20
7.656249999999996
 30
0.0
 11
4.256562499999999
 21
7.656249999999996
 31
0.0
  0
LINE
  5
72B
330
18
100
AcDbEntity
  8
0
100
AcDbLine
 10
3.506562499999999
 20
7.156249999999996
 30
0.0
 11
4.256562499999999
 21
7.156249999999996
 31
0.0
  0
LINE
  5
72C
330
18
100
AcDbEntity
  8
0
100
AcDbLine
 10
3.506562499999999
 20
6.656249999999996
 30
0.0
 11
4.256562499999999
 21
6.656249999999996
 31
0.0
  0
TEXT
  5
72D
330
18
100
AcDbEntity
  8
TEXT
100
AcDbText
 10
2.664300595238094
 20
7.593749999999996
 30
0.0
 40
0.125
  1
OUT14
 41
0.8
 51
10.0
  7
ROMANS
100
AcDbText
  0
TEXT
  5
72E
330
18
100
AcDbEntity
  8
TEXT
100
AcDbText
 10
2.664300595238094
 20
7.093749999999996
 30
0.0
 40
0.125
  1
OUT15
 41
0.8
 51
10.0
  7
ROMANS
100
AcDbText
  0
TEXT
  5
72F
330
18
100
AcDbEntity
  8
TEXT
100
AcDbText
 10
2.659538690476189
 20
6.593749999999996
 30
0.0
 40
0.125
  1
OUT16
 41
0.8
 51
10.0
  7
ROMANS
100
AcDbText
  0
TEXT
  5
730
330
18
100
AcDbEntity
  8
TEXT
100
AcDbText
 10
3.286324404761904
 20
6.593749999999998
 30
0.0
 40
0.125
  1
22
 41
0.8
  7
ROMANS
 72
     4
 11
3.381562499999999
 21
6.656249999999998
 31
0.0
100
AcDbText
  0
LINE
  5
731
330
18
100
AcDbEntity
  8
0
100
AcDbLine
 10
3.506562499999999
 20
6.781249999999998
 30
0.0
 11
3.506562499999999
 21
6.531249999999998
 31
0.0
  0
LINE
  5
732
330
18
100
AcDbEntity
  8
0
100
AcDbLine
 10
3.256562499999999
 20
6.531249999999998
 30
0.0
 11
3.506562499999999
 21
6.531249999999998
 31
0.0
  0
LINE
  5
733
330
18
100
AcDbEntity
  8
0
100
AcDbLine
 10
3.256562499999999
 20
7.281249999999998
 30
0.0
 11
3.506562499999999
 21
7.281249999999998
 31
0.0
  0
LINE
  5
734
330
18
100
AcDbEntity
  8
0
100
AcDbLine
 10
3.256562499999999
 20
6.781249999999998
 30
0.0
 11
3.506562499999999
 21
6.781249999999998
 31
0.0
  0
LINE
  5
735
330
18
100
AcDbEntity
  8
0
100
AcDbLine
 10
3.256562499999999
 20
7.031249999999998
 30
0.0
 11
3.506562499999999
 21
7.031249999999998
 31
0.0
  0
TEXT
  5
736
330
18
100
AcDbEntity
  8
TEXT
100
AcDbText
 10
3.279181547619046
 20
7.093749999999998
 30
0.0
 40
0.125
  1
10
 41
0.8
  7
ROMANS
 72
     4
 11
3.381562499999999
 21
7.156249999999998
 31
0.0
100
AcDbText
  0
LINE
  5
737
330
18
100
AcDbEntity
  8
0
100
AcDbLine
 10
3.506562499999999
 20
7.281249999999998
 30
0.0
 11
3.506562499999999
 21
7.031249999999998
 31
0.0
  0
LINE
  5
738
330
18
100
AcDbEntity
  8
0
100
AcDbLine
 10
3.256562499999999
 20
7.531249999999998
 30
0.0
 11
3.506562499999999
 21
7.531249999999998
 31
0.0
  0
LINE
  5
739
330
18
100
AcDbEntity
  8
0
100
AcDbLine
 10
3.256562499999999
 20
7.781249999999998
 30
0.0
 11
3.506562499999999
 21
7.781249999999998
 31
0.0
  0
TEXT
  5
73A
330
18
100
AcDbEntity
  8
TEXT
100
AcDbText
 10
3.300610119047618
 20
7.593749999999998
 30
0.0
 40
0.125
  1
21
 41
0.8
  7
ROMANS
 72
     4
 11
3.381562499999999
 21
7.656249999999998
 31
0.0
100
AcDbText
  0
LINE
  5
73B
330
18
100
AcDbEntity
  8
0
100
AcDbLine
 10
3.506562499999999
 20
7.781249999999998
 30
0.0
 11
3.506562499999999
 21
7.531249999999998
 31
0.0
  0
LINE
  5
73C
330
18
100
AcDbEntity
  8
0
100
AcDbLine
 10
4.631562499999999
 20
7.749999999999996
 30
0.0
 11
4.256562499999999
 21
7.749999999999996
 31
0.0
  0
TEXT
  5
73D
330
18
100
AcDbEntity
  8
TEXT
100
AcDbText
 10
4.260729166666665
 20
7.606249999999995
 30
0.0
 40
0.1
  1
____
 72
     1
 11
4.444062499999999
 21
7.606249999999995
 31
0.0
100
AcDbText
  0
LINE
  5
73E
330
18
100
AcDbEntity
  8
0
100
AcDbLine
 10
4.631562499999999
 20
7.562499999999996
 30
0.0
 11
4.256562499999999
 21
7.562499999999996
 31
0.0
  0
LINE
  5
73F
330
18
100
AcDbEntity
  8
0
100
AcDbLine
 10
4.631562499999999
 20
7.249999999999996
 30
0.0
 11
4.256562499999999
 21
7.249999999999996
 31
0.0
  0
TEXT
  5
740
330
18
100
AcDbEntity
  8
TEXT
100
AcDbText
 10
4.260729166666665
 20
7.106249999999995
 30
0.0
 40
0.1
  1
____
 72
     1
 11
4.444062499999999
 21
7.106249999999995
 31
0.0
100
AcDbText
  0
LINE
  5
741
330
18
100
AcDbEntity
  8
0
100
AcDbLine
 10
4.631562499999999
 20
7.062499999999996
 30
0.0
 11
4.256562499999999
 21
7.062499999999996
 31
0.0
  0
TEXT
  5
742
330
18
100
AcDbEntity
  8
TEXT
100
AcDbText
 10
4.260729166666665
 20
6.606249999999993
 30
0.0
 40
0.1
  1
____
 72
     1
 11
4.444062499999999
 21
6.606249999999993
 31
0.0
100
AcDbText
  0
LINE
  5
743
330
18
100
AcDbEntity
  8
0
100
AcDbLine
 10
4.631562499999999
 20
6.562499999999994
 30
0.0
 11
4.256562499999999
 21
6.562499999999994
 31
0.0
  0
LINE
  5
744
330
18
100
AcDbEntity
  8
0
100
AcDbLine
 10
4.631562499999999
 20
6.749999999999994
 30
0.0
 11
4.256562499999999
 21
6.749999999999994
 31
0.0
  0
LINE
  5
745
330
18
100
AcDbEntity
  8
0
100
AcDbLine
 10
4.256562499999999
 20
6.749999999999994
 30
0.0
 11
4.256562499999999
 21
6.562499999999994
 31
0.0
  0
LINE
  5
746
330
18
100
AcDbEntity
  8
0
100
AcDbLine
 10
4.256562499999999
 20
7.249999999999996
 30
0.0
 11
4.256562499999999
 21
7.062499999999996
 31
0.0
  0
LINE
  5
747
330
18
100
AcDbEntity
  8
0
100
AcDbLine
 10
4.256562499999999
 20
7.749999999999996
 30
0.0
 11
4.256562499999999
 21
7.562499999999996
 31
0.0
  0
LINE
  5
748
330
18
100
AcDbEntity
  8
0
100
AcDbLine
 10
4.631562499999999
 20
6.749999999999994
 30
0.0
 11
4.631562499999999
 21
6.562499999999994
 31
0.0
  0
LINE
  5
749
330
18
100
AcDbEntity
  8
0
100
AcDbLine
 10
4.631562499999999
 20
7.249999999999996
 30
0.0
 11
4.631562499999999
 21
7.062499999999996
 31
0.0
  0
LINE
  5
74A
330
18
100
AcDbEntity
  8
0
100
AcDbLine
 10
4.631562499999999
 20
7.749999999999996
 30
0.0
 11
4.631562499999999
 21
7.562499999999996
 31
0.0
  0
TEXT
  5
74B
330
18
100
AcDbEntity
  8
TEXT
100
AcDbText
 10
1.911473214285713
 20
9.093749999999998
 30
0.0
 40
0.125
  1
_._._
 41
0.8
 51
10.0
  7
ROMANS
100
AcDbText
  0
TEXT
  5
74C
330
18
100
AcDbEntity
  8
TEXT
100
AcDbText
 10
1.911473214285713
 20
9.593749999999998
 30
0.0
 40
0.125
  1
_._._
 41
0.8
 51
10.0
  7
ROMANS
100
AcDbText
  0
TEXT
  5
74D
330
18
100
AcDbEntity
  8
TEXT
100
AcDbText
 10
1.911473214285713
 20
10.09375
 30
0.0
 40
0.125
  1
_._._
 41
0.8
 51
10.0
  7
ROMANS
100
AcDbText
  0
TEXT
  5
74E
330
18
100
AcDbEntity
  8
TEXT
100
AcDbText
 10
1.911473214285713
 20
8.593749999999998
 30
0.0
 40
0.125
  1
_._._
 41
0.8
 51
10.0
  7
ROMANS
100
AcDbText
  0
TEXT
  5
74F
330
18
100
AcDbEntity
  8
TEXT
100
AcDbText
 10
1.911473214285713
 20
8.093749999999996
 30
0.0
 40
0.125
  1
_._._
 41
0.8
 51
10.0
  7
ROMANS
100
AcDbText
  0
LINE
  5
750
330
18
100
AcDbEntity
  8
0
100
AcDbLine
 10
3.506562499999999
 20
8.656249999999998
 30
0.0
 11
4.256562499999999
 21
8.656249999999998
 31
0.0
  0
LINE
  5
751
330
18
100
AcDbEntity
  8
0
100
AcDbLine
 10
3.506562499999999
 20
9.156249999999998
 30
0.0
 11
4.256562499999999
 21
9.156249999999998
 31
0.0
  0
LINE
  5
752
330
18
100
AcDbEntity
  8
0
100
AcDbLine
 10
3.506562499999999
 20
9.656249999999998
 30
0.0
 11
4.256562499999999
 21
9.656249999999998
 31
0.0
  0
LINE
  5
753
330
18
100
AcDbEntity
  8
0
100
AcDbLine
 10
3.506562499999999
 20
10.15625
 30
0.0
 11
4.256562499999999
 21
10.15625
 31
0.0
  0
LINE
  5
754
330
18
100
AcDbEntity
  8
0
100
AcDbLine
 10
3.506562499999999
 20
11.15625
 30
0.0
 11
4.256562499999999
 21
11.15625
 31
0.0
  0
LINE
  5
755
330
18
100
AcDbEntity
  8
0
100
AcDbLine
 10
3.506562499999999
 20
8.156249999999996
 30
0.0
 11
4.256562499999999
 21
8.156249999999996
 31
0.0
  0
TEXT
  5
756
330
18
100
AcDbEntity
  8
TEXT
100
AcDbText
 10
2.664300595238094
 20
9.593749999999998
 30
0.0
 40
0.125
  1
OUT10
 41
0.8
 51
10.0
  7
ROMANS
100
AcDbText
  0
TEXT
  5
757
330
18
100
AcDbEntity
  8
TEXT
100
AcDbText
 10
2.664300595238094
 20
9.093749999999998
 30
0.0
 40
0.125
  1
OUT11
 41
0.8
 51
10.0
  7
ROMANS
100
AcDbText
  0
TEXT
  5
758
330
18
100
AcDbEntity
  8
TEXT
100
AcDbText
 10
2.659538690476189
 20
8.593749999999998
 30
0.0
 40
0.125
  1
OUT12
 41
0.8
 51
10.0
  7
ROMANS
100
AcDbText
  0
TEXT
  5
759
330
18
100
AcDbEntity
  8
TEXT
100
AcDbText
 10
3.333943452380951
 20
9.09375
 30
0.0
 40
0.125
  1
8
 41
0.8
  7
ROMANS
 72
     4
 11
3.381562499999999
 21
9.15625
 31
0.0
100
AcDbText
  0
LINE
  5
75A
330
18
100
AcDbEntity
  8
0
100
AcDbLine
 10
3.506562499999999
 20
9.28125
 30
0.0
 11
3.506562499999999
 21
9.03125
 31
0.0
  0
TEXT
  5
75B
330
18
100
AcDbEntity
  8
TEXT
100
AcDbText
 10
2.692872023809522
 20
8.093749999999996
 30
0.0
 40
0.125
  1
OUT13
 41
0.8
 51
10.0
  7
ROMANS
100
AcDbText
  0
LINE
  5
75C
330
18
100
AcDbEntity
  8
0
100
AcDbLine
 10
3.506562499999999
 20
8.78125
 30
0.0
 11
3.506562499999999
 21
8.53125
 31
0.0
  0
LINE
  5
75D
330
18
100
AcDbEntity
  8
0
100
AcDbLine
 10
3.256562499999999
 20
8.53125
 30
0.0
 11
3.506562499999999
 21
8.53125
 31
0.0
  0
LINE
  5
75E
330
18
100
AcDbEntity
  8
0
100
AcDbLine
 10
3.256562499999999
 20
8.281249999999998
 30
0.0
 11
3.506562499999999
 21
8.281249999999998
 31
0.0
  0
LINE
  5
75F
330
18
100
AcDbEntity
  8
0
100
AcDbLine
 10
3.256562499999999
 20
8.031249999999998
 30
0.0
 11
3.506562499999999
 21
8.031249999999998
 31
0.0
  0
TEXT
  5
760
330
18
100
AcDbEntity
  8
TEXT
100
AcDbText
 10
3.336324404761904
 20
8.093749999999998
 30
0.0
 40
0.125
  1
9
 41
0.8
  7
ROMANS
 72
     4
 11
3.381562499999999
 21
8.156249999999998
 31
0.0
100
AcDbText
  0
LINE
  5
761
330
18
100
AcDbEntity
  8
0
100
AcDbLine
 10
3.506562499999999
 20
8.281249999999998
 30
0.0
 11
3.506562499999999
 21
8.031249999999998
 31
0.0
  0
LINE
  5
762
330
18
100
AcDbEntity
  8
0
100
AcDbLine
 10
3.256562499999999
 20
9.03125
 30
0.0
 11
3.506562499999999
 21
9.03125
 31
0.0
  0
LINE
  5
763
330
18
100
AcDbEntity
  8
0
100
AcDbLine
 10
3.256562499999999
 20
8.78125
 30
0.0
 11
3.506562499999999
 21
8.78125
 31
0.0
  0
TEXT
  5
764
330
18
100
AcDbEntity
  8
TEXT
100
AcDbText
 10
3.286324404761904
 20
8.59375
 30
0.0
 40
0.125
  1
20
 41
0.8
  7
ROMANS
 72
     4
 11
3.381562499999999
 21
8.65625
 31
0.0
100
AcDbText
  0
TEXT
  5
765
330
18
100
AcDbEntity
  8
TEXT
100
AcDbText
 10
2.692872023809522
 20
10.09375
 30
0.0
 40
0.125
  1
OUT9
 41
0.8
 51
10.0
  7
ROMANS
100
AcDbText
  0
LINE
  5
766
330
18
100
AcDbEntity
  8
0
100
AcDbLine
 10
3.256562499999999
 20
9.78125
 30
0.0
 11
3.506562499999999
 21
9.78125
 31
0.0
  0
LINE
  5
767
330
18
100
AcDbEntity
  8
0
100
AcDbLine
 10
3.256562499999999
 20
9.53125
 30
0.0
 11
3.506562499999999
 21
9.53125
 31
0.0
  0
LINE
  5
768
330
18
100
AcDbEntity
  8
0
100
AcDbLine
 10
3.256562499999999
 20
9.28125
 30
0.0
 11
3.506562499999999
 21
9.28125
 31
0.0
  0
TEXT
  5
769
330
18
100
AcDbEntity
  8
TEXT
100
AcDbText
 10
3.281562499999999
 20
9.59375
 30
0.0
 40
0.125
  1
19
 41
0.8
  7
ROMANS
 72
     4
 11
3.381562499999999
 21
9.65625
 31
0.0
100
AcDbText
  0
LINE
  5
76A
330
18
100
AcDbEntity
  8
0
100
AcDbLine
 10
3.506562499999999
 20
9.78125
 30
0.0
 11
3.506562499999999
 21
9.53125
 31
0.0
  0
LINE
  5
76B
330
18
100
AcDbEntity
  8
0
100
AcDbLine
 10
3.256562499999999
 20
10.03125
 30
0.0
 11
3.506562499999999
 21
10.03125
 31
0.0
  0
LINE
  5
76C
330
18
100
AcDbEntity
  8
0
100
AcDbLine
 10
3.256562499999999
 20
10.28125
 30
0.0
 11
3.506562499999999
 21
10.28125
 31
0.0
  0
TEXT
  5
76D
330
18
100
AcDbEntity
  8
TEXT
100
AcDbText
 10
3.333943452380951
 20
10.09375
 30
0.0
 40
0.125
  1
7
 41
0.8
  7
ROMANS
 72
     4
 11
3.381562499999999
 21
10.15625
 31
0.0
100
AcDbText
  0
LINE
  5
76E
330
18
100
AcDbEntity
  8
0
100
AcDbLine
 10
3.506562499999999
 20
10.28125
 30
0.0
 11
3.506562499999999
 21
10.03125
 31
0.0
  0
TEXT
  5
76F
330
18
100
AcDbEntity
  8
TEXT
100
AcDbText
 10
2.664300595238094
 20
10.59375
 30
0.0
 40
0.125
  1
COM2
 41
0.8
 51
10.0
  7
ROMANS
100
AcDbText
  0
TEXT
  5
770
330
18
100
AcDbEntity
  8
TEXT
100
AcDbText
 10
2.692872023809522
 20
11.09375
 30
0.0
 40
0.125
  1
LINE2
 41
0.8
 51
10.0
  7
ROMANS
100
AcDbText
  0
LINE
  5
771
330
18
100
AcDbEntity
  8
0
100
AcDbLine
 10
3.506562499999999
 20
11.28125
 30
0.0
 11
3.506562499999999
 21
11.03125
 31
0.0
  0
LINE
  5
772
330
18
100
AcDbEntity
  8
0
100
AcDbLine
 10
3.506562499999999
 20
11.28125
 30
0.0
 11
3.506562499999999
 21
11.03125
 31
0.0
  0
LINE
  5
773
330
18
100
AcDbEntity
  8
0
100
AcDbLine
 10
3.256562499999999
 20
11.03125
 30
0.0
 11
3.506562499999999
 21
11.03125
 31
0.0
  0
LINE
  5
774
330
18
100
AcDbEntity
  8
0
100
AcDbLine
 10
3.256562499999999
 20
11.03125
 30
0.0
 11
3.506562499999999
 21
11.03125
 31
0.0
  0
LINE
  5
775
330
18
100
AcDbEntity
  8
0
100
AcDbLine
 10
3.256562499999999
 20
10.53125
 30
0.0
 11
3.506562499999999
 21
10.53125
 31
0.0
  0
LINE
  5
776
330
18
100
AcDbEntity
  8
0
100
AcDbLine
 10
3.256562499999999
 20
10.78125
 30
0.0
 11
3.506562499999999
 21
10.78125
 31
0.0
  0
TEXT
  5
777
330
18
100
AcDbEntity
  8
TEXT
100
AcDbText
 10
3.279181547619046
 20
10.59375
 30
0.0
 40
0.125
  1
18
 41
0.8
  7
ROMANS
 72
     4
 11
3.381562499999999
 21
10.65625
 31
0.0
100
AcDbText
  0
LINE
  5
778
330
18
100
AcDbEntity
  8
0
100
AcDbLine
 10
3.506562499999999
 20
10.78125
 30
0.0
 11
3.506562499999999
 21
10.53125
 31
0.0
  0
LINE
  5
779
330
18
100
AcDbEntity
  8
0
100
AcDbLine
 10
3.256562499999999
 20
11.28125
 30
0.0
 11
3.506562499999999
 21
11.28125
 31
0.0
  0
LINE
  5
77A
330
18
100
AcDbEntity
  8
0
100
AcDbLine
 10
3.256562499999999
 20
11.28125
 30
0.0
 11
3.506562499999999
 21
11.28125
 31
0.0
  0
TEXT
  5
77B
330
18
100
AcDbEntity
  8
TEXT
100
AcDbText
 10
3.331562499999999
 20
11.09375
 30
0.0
 40
0.125
  1
6
 41
0.8
  7
ROMANS
 72
     4
 11
3.381562499999999
 21
11.15625
 31
0.0
100
AcDbText
  0
LINE
  5
77C
330
18
100
AcDbEntity
  8
0
100
AcDbLine
 10
4.631562499999999
 20
8.749999999999996
 30
0.0
 11
4.256562499999999
 21
8.749999999999996
 31
0.0
  0
LINE
  5
77D
330
18
100
AcDbEntity
  8
0
100
AcDbLine
 10
4.631562499999999
 20
8.562499999999996
 30
0.0
 11
4.256562499999999
 21
8.562499999999996
 31
0.0
  0
TEXT
  5
77E
330
18
100
AcDbEntity
  8
TEXT
100
AcDbText
 10
4.260729166666665
 20
8.606249999999995
 30
0.0
 40
0.1
  1
____
 72
     1
 11
4.444062499999999
 21
8.606249999999995
 31
0.0
100
AcDbText
  0
LINE
  5
77F
330
18
100
AcDbEntity
  8
0
100
AcDbLine
 10
4.631562499999999
 20
9.062499999999998
 30
0.0
 11
4.256562499999999
 21
9.062499999999998
 31
0.0
  0
TEXT
  5
780
330
18
100
AcDbEntity
  8
TEXT
100
AcDbText
 10
4.260729166666665
 20
9.106249999999997
 30
0.0
 40
0.1
  1
____
 72
     1
 11
4.444062499999999
 21
9.106249999999997
 31
0.0
100
AcDbText
  0
LINE
  5
781
330
18
100
AcDbEntity
  8
0
100
AcDbLine
 10
4.631562499999999
 20
9.249999999999998
 30
0.0
 11
4.256562499999999
 21
9.249999999999998
 31
0.0
  0
LINE
  5
782
330
18
100
AcDbEntity
  8
0
100
AcDbLine
 10
4.631562499999999
 20
9.562499999999998
 30
0.0
 11
4.256562499999999
 21
9.562499999999998
 31
0.0
  0
TEXT
  5
783
330
18
100
AcDbEntity
  8
TEXT
100
AcDbText
 10
4.260729166666665
 20
9.606249999999997
 30
0.0
 40
0.1
  1
____
 72
     1
 11
4.444062499999999
 21
9.606249999999997
 31
0.0
100
AcDbText
  0
LINE
  5
784
330
18
100
AcDbEntity
  8
0
100
AcDbLine
 10
4.631562499999999
 20
9.749999999999998
 30
0.0
 11
4.256562499999999
 21
9.749999999999998
 31
0.0
  0
LINE
  5
785
330
18
100
AcDbEntity
  8
0
100
AcDbLine
 10
4.631562499999999
 20
10.24999999999999
 30
0.0
 11
4.256562499999999
 21
10.24999999999999
 31
0.0
  0
LINE
  5
786
330
18
100
AcDbEntity
  8
0
100
AcDbLine
 10
4.631562499999999
 20
10.06249999999999
 30
0.0
 11
4.256562499999999
 21
10.06249999999999
 31
0.0
  0
TEXT
  5
787
330
18
100
AcDbEntity
  8
TEXT
100
AcDbText
 10
4.260729166666665
 20
10.10624999999999
 30
0.0
 40
0.1
  1
____
 72
     1
 11
4.444062499999999
 21
10.10624999999999
 31
0.0
100
AcDbText
  0
TEXT
  5
788
330
18
100
AcDbEntity
  8
TEXT
100
AcDbText
 10
4.260729166666665
 20
8.106249999999993
 30
0.0
 40
0.1
  1
____
 72
     1
 11
4.444062499999999
 21
8.106249999999993
 31
0.0
100
AcDbText
  0
LINE
  5
789
330
18
100
AcDbEntity
  8
0
100
AcDbLine
 10
4.631562499999999
 20
8.062499999999994
 30
0.0
 11
4.256562499999999
 21
8.062499999999994
 31
0.0
  0
LINE
  5
78A
330
18
100
AcDbEntity
  8
0
100
AcDbLine
 10
4.631562499999999
 20
8.249999999999994
 30
0.0
 11
4.256562499999999
 21
8.249999999999994
 31
0.0
  0
LINE
  5
78B
330
18
100
AcDbEntity
  8
0
100
AcDbLine
 10
4.256562499999999
 20
9.249999999999998
 30
0.0
 11
4.256562499999999
 21
9.062499999999998
 31
0.0
  0
LINE
  5
78C
330
18
100
AcDbEntity
  8
0
100
AcDbLine
 10
4.256562499999999
 20
8.249999999999994
 30
0.0
 11
4.256562499999999
 21
8.062499999999994
 31
0.0
  0
LINE
  5
78D
330
18
100
AcDbEntity
  8
0
100
AcDbLine
 10
4.256562499999999
 20
8.749999999999996
 30
0.0
 11
4.256562499999999
 21
8.562499999999996
 31
0.0
  0
LINE
  5
78E
330
18
100
AcDbEntity
  8
0
100
AcDbLine
 10
4.256562499999999
 20
9.749999999999998
 30
0.0
 11
4.256562499999999
 21
9.562499999999998
 31
0.0
  0
LINE
  5
78F
330
18
100
AcDbEntity
  8
0
100
AcDbLine
 10
4.256562499999999
 20
10.24999999999999
 30
0.0
 11
4.256562499999999
 21
10.06249999999999
 31
0.0
  0
LINE
  5
790
330
18
100
AcDbEntity
  8
0
100
AcDbLine
 10
4.631562499999999
 20
9.249999999999998
 30
0.0
 11
4.631562499999999
 21
9.062499999999998
 31
0.0
  0
LINE
  5
791
330
18
100
AcDbEntity
  8
0
100
AcDbLine
 10
4.631562499999999
 20
8.249999999999994
 30
0.0
 11
4.631562499999999
 21
8.062499999999994
 31
0.0
  0
LINE
  5
792
330
18
100
AcDbEntity
  8
0
100
AcDbLine
 10
4.631562499999999
 20
8.749999999999996
 30
0.0
 11
4.631562499999999
 21
8.562499999999996
 31
0.0
  0
LINE
  5
793
330
18
100
AcDbEntity
  8
0
100
AcDbLine
 10
4.631562499999999
 20
9.749999999999998
 30
0.0
 11
4.631562499999999
 21
9.562499999999998
 31
0.0
  0
LINE
  5
794
330
18
100
AcDbEntity
  8
0
100
AcDbLine
 10
4.631562499999999
 20
10.24999999999999
 30
0.0
 11
4.631562499999999
 21
10.06249999999999
 31
0.0
  0
TEXT
  5
795
330
18
100
AcDbEntity
  8
TEXT
100
AcDbText
 10
4.260729166666665
 20
11.10624999999999
 30
0.0
 40
0.1
  1
____
 72
     1
 11
4.444062499999999
 21
11.10624999999999
 31
0.0
100
AcDbText
  0
LINE
  5
796
330
18
100
AcDbEntity
  8
0
100
AcDbLine
 10
4.631562499999999
 20
11.0625
 30
0.0
 11
4.256562499999999
 21
11.0625
 31
0.0
  0
LINE
  5
797
330
18
100
AcDbEntity
  8
0
100
AcDbLine
 10
4.631562499999999
 20
11.25
 30
0.0
 11
4.256562499999999
 21
11.25
 31
0.0
  0
LINE
  5
798
330
18
100
AcDbEntity
  8
0
100
AcDbLine
 10
4.256562499999999
 20
11.25
 30
0.0
 11
4.256562499999999
 21
11.0625
 31
0.0
  0
LINE
  5
799
330
18
100
AcDbEntity
  8
0
100
AcDbLine
 10
4.631562499999999
 20
11.25
 30
0.0
 11
4.631562499999999
 21
11.0625
 31
0.0
  0
LINE
  5
79A
330
18
100
AcDbEntity
  8
0
100
AcDbLine
 10
7.5799625
 20
7.656249999999998
 30
0.0
 11
8.194062499999999
 21
7.656249999999998
 31
0.0
  0
LINE
  5
79B
330
18
100
AcDbEntity
  8
0
100
AcDbLine
 10
7.579962499999998
 20
7.156249999999996
 30
0.0
 11
8.194062499999999
 21
7.156249999999998
 31
0.0
  0
LINE
  5
79C
330
18
100
AcDbEntity
  8
0
100
AcDbLine
 10
7.579962499999998
 20
6.65625
 30
0.0
 11
8.194062499999999
 21
6.65625
 31
0.0
  0
TEXT
  5
79D
330
18
100
AcDbEntity
  8
TEXT
100
AcDbText
 10
8.387068452380951
 20
6.593749999999992
 30
0.0
 40
0.125
  1
*
 41
0.8
 51
10.0
  7
ROMANS
100
AcDbText
  0
LINE
  5
79E
330
18
100
AcDbEntity
  8
0
100
AcDbLine
 10
8.194062500000001
 20
6.65525
 30
0.0
 11
8.194062500000001
 21
6.657249999999999
 31
0.0
  0
LINE
  5
79F
330
18
100
AcDbEntity
  8
0
100
AcDbLine
 10
8.1950625
 20
6.65625
 30
0.0
 11
8.193062500000001
 21
6.65625
 31
0.0
  0
CIRCLE
  5
7A0
330
18
100
AcDbEntity
  8
0
100
AcDbCircle
 10
8.194062500000001
 20
6.65625
 30
0.0
 40
0.0113
  0
CIRCLE
  5
7A1
330
18
100
AcDbEntity
  8
0
100
AcDbCircle
 10
8.194062500000001
 20
6.65625
 30
0.0
 40
0.0213
  0
LINE
  5
7A2
330
18
100
AcDbEntity
  8
0
100
AcDbLine
 10
8.194062500000001
 20
7.155249999999998
 30
0.0
 11
8.194062500000001
 21
7.157249999999997
 31
0.0
  0
LINE
  5
7A3
330
18
100
AcDbEntity
  8
0
100
AcDbLine
 10
8.1950625
 20
7.156249999999998
 30
0.0
 11
8.193062500000001
 21
7.156249999999998
 31
0.0
  0
CIRCLE
  5
7A4
330
18
100
AcDbEntity
  8
0
100
AcDbCircle
 10
8.194062500000001
 20
7.156249999999998
 30
0.0
 40
0.0113
  0
CIRCLE
  5
7A5
330
18
100
AcDbEntity
  8
0
100
AcDbCircle
 10
8.194062500000001
 20
7.156249999999998
 30
0.0
 40
0.0213
  0
LINE
  5
7A6
330
18
100
AcDbEntity
  8
0
100
AcDbLine
 10
8.194062500000002
 20
7.655249999999998
 30
0.0
 11
8.194062500000002
 21
7.657249999999997
 31
0.0
  0
LINE
  5
7A7
330
18
100
AcDbEntity
  8
0
100
AcDbLine
 10
8.1950625
 20
7.656249999999998
 30
0.0
 11
8.193062500000001
 21
7.656249999999998
 31
0.0
  0
CIRCLE
  5
7A8
330
18
100
AcDbEntity
  8
0
100
AcDbCircle
 10
8.194062500000002
 20
7.656249999999998
 30
0.0
 40
0.0113
  0
CIRCLE
  5
7A9
330
18
100
AcDbEntity
  8
0
100
AcDbCircle
 10
8.194062500000002
 20
7.656249999999998
 30
0.0
 40
0.0213
  0
TEXT
  5
7AA
330
18
100
AcDbEntity
  8
TEXT
100
AcDbText
 10
8.387068452380951
 20
7.093749999999994
 30
0.0
 40
0.125
  1
*
 41
0.8
 51
10.0
  7
ROMANS
100
AcDbText
  0
TEXT
  5
7AB
330
18
100
AcDbEntity
  8
TEXT
100
AcDbText
 10
8.387068452380951
 20
7.593749999999994
 30
0.0
 40
0.125
  1
*
 41
0.8
 51
10.0
  7
ROMANS
100
AcDbText
  0
LINE
  5
7AC
330
18
100
AcDbEntity
  8
0
100
AcDbLine
 10
7.579962499999998
 20
8.656250000000001
 30
0.0
 11
8.194062499999999
 21
8.656250000000001
 31
0.0
  0
LINE
  5
7AD
330
18
100
AcDbEntity
  8
0
100
AcDbLine
 10
7.579962499999998
 20
9.156249999999998
 30
0.0
 11
8.194062499999999
 21
9.15625
 31
0.0
  0
LINE
  5
7AE
330
18
100
AcDbEntity
  8
0
100
AcDbLine
 10
7.5799625
 20
9.65625
 30
0.0
 11
8.194062499999999
 21
9.65625
 31
0.0
  0
LINE
  5
7AF
330
18
100
AcDbEntity
  8
0
100
AcDbLine
 10
7.579962499999998
 20
10.15625
 30
0.0
 11
8.194062499999999
 21
10.15625
 31
0.0
  0
LINE
  5
7B0
330
18
100
AcDbEntity
  8
0
100
AcDbLine
 10
7.579962499999998
 20
8.156249999999996
 30
0.0
 11
8.194062499999999
 21
8.156249999999998
 31
0.0
  0
TEXT
  5
7B1
330
18
100
AcDbEntity
  8
TEXT
100
AcDbText
 10
8.387068452380951
 20
9.093749999999996
 30
0.0
 40
0.125
  1
*
 41
0.8
 51
10.0
  7
ROMANS
100
AcDbText
  0
LINE
  5
7B2
330
18
100
AcDbEntity
  8
0
100
AcDbLine
 10
8.194062500000001
 20
8.155249999999998
 30
0.0
 11
8.194062500000001
 21
8.157249999999997
 31
0.0
  0
LINE
  5
7B3
330
18
100
AcDbEntity
  8
0
100
AcDbLine
 10
8.1950625
 20
8.156249999999998
 30
0.0
 11
8.193062500000001
 21
8.156249999999998
 31
0.0
  0
CIRCLE
  5
7B4
330
18
100
AcDbEntity
  8
0
100
AcDbCircle
 10
8.194062500000001
 20
8.156249999999998
 30
0.0
 40
0.0113
  0
CIRCLE
  5
7B5
330
18
100
AcDbEntity
  8
0
100
AcDbCircle
 10
8.194062500000001
 20
8.156249999999998
 30
0.0
 40
0.0213
  0
CIRCLE
  5
7B6
330
18
100
AcDbEntity
  8
0
100
AcDbCircle
 10
8.194062500000001
 20
8.656250000000001
 30
0.0
 40
0.0213
  0
CIRCLE
  5
7B7
330
18
100
AcDbEntity
  8
0
100
AcDbCircle
 10
8.194062500000001
 20
8.656250000000001
 30
0.0
 40
0.0113
  0
LINE
  5
7B8
330
18
100
AcDbEntity
  8
0
100
AcDbLine
 10
8.1950625
 20
8.656250000000001
 30
0.0
 11
8.193062500000001
 21
8.656250000000001
 31
0.0
  0
LINE
  5
7B9
330
18
100
AcDbEntity
  8
0
100
AcDbLine
 10
8.194062500000001
 20
8.655250000000002
 30
0.0
 11
8.194062500000001
 21
8.657250000000001
 31
0.0
  0
CIRCLE
  5
7BA
330
18
100
AcDbEntity
  8
0
100
AcDbCircle
 10
8.194062500000001
 20
9.15625
 30
0.0
 40
0.0213
  0
CIRCLE
  5
7BB
330
18
100
AcDbEntity
  8
0
100
AcDbCircle
 10
8.194062500000001
 20
9.15625
 30
0.0
 40
0.0113
  0
LINE
  5
7BC
330
18
100
AcDbEntity
  8
0
100
AcDbLine
 10
8.1950625
 20
9.15625
 30
0.0
 11
8.193062500000001
 21
9.15625
 31
0.0
  0
LINE
  5
7BD
330
18
100
AcDbEntity
  8
0
100
AcDbLine
 10
8.194062500000001
 20
9.15525
 30
0.0
 11
8.194062500000001
 21
9.157249999999999
 31
0.0
  0
TEXT
  5
7BE
330
18
100
AcDbEntity
  8
TEXT
100
AcDbText
 10
8.387068452380951
 20
8.093749999999992
 30
0.0
 40
0.125
  1
*
 41
0.8
 51
10.0
  7
ROMANS
100
AcDbText
  0
TEXT
  5
7BF
330
18
100
AcDbEntity
  8
TEXT
100
AcDbText
 10
8.387068452380951
 20
8.593749999999994
 30
0.0
 40
0.125
  1
*
 41
0.8
 51
10.0
  7
ROMANS
100
AcDbText
  0
CIRCLE
  5
7C0
330
18
100
AcDbEntity
  8
0
100
AcDbCircle
 10
8.194062500000002
 20
9.65625
 30
0.0
 40
0.0213
  0
CIRCLE
  5
7C1
330
18
100
AcDbEntity
  8
0
100
AcDbCircle
 10
8.194062500000002
 20
9.65625
 30
0.0
 40
0.0113
  0
LINE
  5
7C2
330
18
100
AcDbEntity
  8
0
100
AcDbLine
 10
8.1950625
 20
9.65625
 30
0.0
 11
8.193062500000001
 21
9.65625
 31
0.0
  0
LINE
  5
7C3
330
18
100
AcDbEntity
  8
0
100
AcDbLine
 10
8.194062500000002
 20
9.65525
 30
0.0
 11
8.194062500000002
 21
9.657249999999999
 31
0.0
  0
CIRCLE
  5
7C4
330
18
100
AcDbEntity
  8
0
100
AcDbCircle
 10
8.194062500000001
 20
10.15625
 30
0.0
 40
0.0213
  0
CIRCLE
  5
7C5
330
18
100
AcDbEntity
  8
0
100
AcDbCircle
 10
8.194062500000001
 20
10.15625
 30
0.0
 40
0.0113
  0
LINE
  5
7C6
330
18
100
AcDbEntity
  8
0
100
AcDbLine
 10
8.1950625
 20
10.15625
 30
0.0
 11
8.193062500000001
 21
10.15625
 31
0.0
  0
LINE
  5
7C7
330
18
100
AcDbEntity
  8
0
100
AcDbLine
 10
8.194062500000001
 20
10.15525
 30
0.0
 11
8.194062500000001
 21
10.15725
 31
0.0
  0
TEXT
  5
7C8
330
18
100
AcDbEntity
  8
TEXT
100
AcDbText
 10
8.387068452380951
 20
9.593749999999996
 30
0.0
 40
0.125
  1
*
 41
0.8
 51
10.0
  7
ROMANS
100
AcDbText
  0
TEXT
  5
7C9
330
18
100
AcDbEntity
  8
TEXT
100
AcDbText
 10
8.387068452380951
 20
10.09374999999999
 30
0.0
 40
0.125
  1
*
 41
0.8
 51
10.0
  7
ROMANS
100
AcDbText
  0
TEXT
  5
7CA
330
18
100
AcDbEntity
  8
TEXT
100
AcDbText
 10
8.010729166666665
 20
10.60624999999999
 30
0.0
 40
0.1
  1
____
 72
     1
 11
8.194062499999999
 21
10.60624999999999
 31
0.0
100
AcDbText
  0
LINE
  5
7CB
330
18
100
AcDbEntity
  8
0
100
AcDbLine
 10
8.381562499999999
 20
10.75
 30
0.0
 11
8.006562499999999
 21
10.75
 31
0.0
  0
LINE
  5
7CC
330
18
100
AcDbEntity
  8
0
100
AcDbLine
 10
8.381562499999999
 20
10.5625
 30
0.0
 11
8.006562499999999
 21
10.5625
 31
0.0
  0
LINE
  5
7CD
330
18
100
AcDbEntity
  8
0
100
AcDbLine
 10
8.006562499999999
 20
10.75
 30
0.0
 11
8.006562499999999
 21
10.5625
 31
0.0
  0
LINE
  5
7CE
330
18
100
AcDbEntity
  8
0
100
AcDbLine
 10
8.381562499999999
 20
10.75
 30
0.0
 11
8.381562499999999
 21
10.5625
 31
0.0
  0
LINE
  5
7DB
330
18
100
AcDbEntity
  8
0
100
AcDbLine
 10
8.194062499999997
 20
10.5625
 30
0.0
 11
8.194062499999999
 21
6.65625
 31
0.0
  0
LINE
  5
987
330
18
100
AcDbEntity
  8
0
100
AcDbLine
 10
4.631562499999999
 20
5.249999999999994
 30
0.0
 11
4.256562499999999
 21
5.249999999999994
 31
0.0
  0
TEXT
  5
988
330
18
100
AcDbEntity
  8
TEXT
100
AcDbText
 10
4.260729166666665
 20
5.106249999999993
 30
0.0
 40
0.1
  1
____
 72
     1
 11
4.444062499999999
 21
5.106249999999993
 31
0.0
100
AcDbText
  0
LINE
  5
989
330
18
100
AcDbEntity
  8
0
100
AcDbLine
 10
4.631562499999999
 20
5.062499999999994
 30
0.0
 11
4.256562499999999
 21
5.062499999999994
 31
0.0
  0
TEXT
  5
98A
330
18
100
AcDbEntity
  8
TEXT
100
AcDbText
 10
4.310729166666665
 20
4.606249999999992
 30
0.0
 40
0.1
  1
SPG
 72
     1
 11
4.444062499999999
 21
4.606249999999992
 31
0.0
100
AcDbText
  0
LINE
  5
98B
330
18
100
AcDbEntity
  8
0
100
AcDbLine
 10
4.631562499999999
 20
4.562499999999992
 30
0.0
 11
4.256562499999999
 21
4.562499999999992
 31
0.0
  0
LINE
  5
98C
330
18
100
AcDbEntity
  8
0
100
AcDbLine
 10
4.631562499999999
 20
4.749999999999992
 30
0.0
 11
4.256562499999999
 21
4.749999999999992
 31
0.0
  0
LINE
  5
98D
330
18
100
AcDbEntity
  8
0
100
AcDbLine
 10
4.631562499999999
 20
5.749999999999994
 30
0.0
 11
4.256562499999999
 21
5.749999999999994
 31
0.0
  0
TEXT
  5
98E
330
18
100
AcDbEntity
  8
TEXT
100
AcDbText
 10
4.260729166666665
 20
5.606249999999993
 30
0.0
 40
0.1
  1
____
 72
     1
 11
4.444062499999999
 21
5.606249999999993
 31
0.0
100
AcDbText
  0
LINE
  5
98F
330
18
100
AcDbEntity
  8
0
100
AcDbLine
 10
4.631562499999999
 20
5.562499999999994
 30
0.0
 11
4.256562499999999
 21
5.562499999999994
 31
0.0
  0
LINE
  5
990
330
18
100
AcDbEntity
  8
0
100
AcDbLine
 10
4.256562499999999
 20
4.749999999999992
 30
0.0
 11
4.256562499999999
 21
4.562499999999992
 31
0.0
  0
TEXT
  5
991
330
18
100
AcDbEntity
  8
TEXT
100
AcDbText
 10
3.283943452380951
 20
4.593749999999996
 30
0.0
 40
0.125
  1
24
 41
0.8
  7
ROMANS
 72
     4
 11
3.381562499999999
 21
4.656249999999996
 31
0.0
100
AcDbText
  0
LINE
  5
992
330
18
100
AcDbEntity
  8
0
100
AcDbLine
 10
3.506562499999999
 20
4.781249999999996
 30
0.0
 11
3.506562499999999
 21
4.531249999999996
 31
0.0
  0
TEXT
  5
993
330
18
100
AcDbEntity
  8
TEXT
100
AcDbText
 10
2.659538690476189
 20
4.593749999999994
 30
0.0
 40
0.125
  1
Chasis
 41
0.8
 51
10.0
  7
ROMANS
100
AcDbText
  0
LINE
  5
994
330
18
100
AcDbEntity
  8
0
100
AcDbLine
 10
3.256562499999999
 20
4.531249999999996
 30
0.0
 11
3.506562499999999
 21
4.531249999999996
 31
0.0
  0
LINE
  5
995
330
18
100
AcDbEntity
  8
0
100
AcDbLine
 10
3.506562499999999
 20
5.156249999999994
 30
0.0
 11
4.256562499999999
 21
5.156249999999994
 31
0.0
  0
LINE
  5
996
330
18
100
AcDbEntity
  8
0
100
AcDbLine
 10
3.506562499999999
 20
4.656249999999994
 30
0.0
 11
4.256562499999999
 21
4.656249999999994
 31
0.0
  0
LINE
  5
997
330
18
100
AcDbEntity
  8
0
100
AcDbLine
 10
3.506562499999999
 20
5.656249999999994
 30
0.0
 11
4.256562499999999
 21
5.656249999999994
 31
0.0
  0
TEXT
  5
998
330
18
100
AcDbEntity
  8
TEXT
100
AcDbText
 10
2.664300595238094
 20
5.093749999999994
 30
0.0
 40
0.125
  1
24 Volt
 41
0.8
 51
10.0
  7
ROMANS
100
AcDbText
  0
LINE
  5
999
330
18
100
AcDbEntity
  8
0
100
AcDbLine
 10
3.256562499999999
 20
4.781249999999996
 30
0.0
 11
3.506562499999999
 21
4.781249999999996
 31
0.0
  0
LINE
  5
99A
330
18
100
AcDbEntity
  8
0
100
AcDbLine
 10
3.256562499999999
 20
5.281249999999996
 30
0.0
 11
3.506562499999999
 21
5.281249999999996
 31
0.0
  0
LINE
  5
99B
330
18
100
AcDbEntity
  8
0
100
AcDbLine
 10
3.256562499999999
 20
5.031249999999996
 30
0.0
 11
3.506562499999999
 21
5.031249999999996
 31
0.0
  0
TEXT
  5
99C
330
18
100
AcDbEntity
  8
TEXT
100
AcDbText
 10
3.279181547619046
 20
5.093749999999996
 30
0.0
 40
0.125
  1
12
 41
0.8
  7
ROMANS
 72
     4
 11
3.381562499999999
 21
5.156249999999996
 31
0.0
100
AcDbText
  0
LINE
  5
99D
330
18
100
AcDbEntity
  8
0
100
AcDbLine
 10
3.506562499999999
 20
5.281249999999996
 30
0.0
 11
3.506562499999999
 21
5.031249999999996
 31
0.0
  0
TEXT
  5
99E
330
18
100
AcDbEntity
  8
TEXT
100
AcDbText
 10
2.664300595238094
 20
5.593749999999994
 30
0.0
 40
0.125
  1
0 Volt
 41
0.8
 51
10.0
  7
ROMANS
100
AcDbText
  0
TEXT
  5
99F
330
18
100
AcDbEntity
  8
TEXT
100
AcDbText
 10
3.286324404761904
 20
5.593749999999996
 30
0.0
 40
0.125
  1
23
 41
0.8
  7
ROMANS
 72
     4
 11
3.381562499999999
 21
5.656249999999996
 31
0.0
100
AcDbText
  0
LINE
  5
9A0
330
18
100
AcDbEntity
  8
0
100
AcDbLine
 10
3.506562499999999
 20
5.781249999999996
 30
0.0
 11
3.506562499999999
 21
5.531249999999996
 31
0.0
  0
LINE
  5
9A1
330
18
100
AcDbEntity
  8
0
100
AcDbLine
 10
3.256562499999999
 20
5.531249999999996
 30
0.0
 11
3.506562499999999
 21
5.531249999999996
 31
0.0
  0
LINE
  5
9A2
330
18
100
AcDbEntity
  8
0
100
AcDbLine
 10
3.256562499999999
 20
5.781249999999996
 30
0.0
 11
3.506562499999999
 21
5.781249999999996
 31
0.0
  0
LINE
  5
9A3
330
18
100
AcDbEntity
  8
0
100
AcDbLine
 10
4.256562499999999
 20
5.249999999999994
 30
0.0
 11
4.256562499999999
 21
5.062499999999994
 31
0.0
  0
LINE
  5
9A4
330
18
100
AcDbEntity
  8
0
100
AcDbLine
 10
4.256562499999999
 20
5.749999999999994
 30
0.0
 11
4.256562499999999
 21
5.562499999999994
 31
0.0
  0
LINE
  5
9A7
330
18
100
AcDbEntity
  8
0
100
AcDbLine
 10
4.631562499999999
 20
5.656249999999994
 30
0.0
 11
8.194062499999995
 21
5.656249999999995
 31
0.0
  0
LINE
  5
9A8
330
18
100
AcDbEntity
  8
0
100
AcDbLine
 10
4.631562499999999
 20
4.749999999999992
 30
0.0
 11
4.631562499999999
 21
4.562499999999992
 31
0.0
  0
LINE
  5
9A9
330
18
100
AcDbEntity
  8
0
100
AcDbLine
 10
4.631562499999999
 20
5.249999999999994
 30
0.0
 11
4.631562499999999
 21
5.062499999999994
 31
0.0
  0
LINE
  5
9AA
330
18
100
AcDbEntity
  8
0
100
AcDbLine
 10
4.631562499999999
 20
5.749999999999994
 30
0.0
 11
4.631562499999999
 21
5.562499999999994
 31
0.0
  0
TEXT
  5
9BC
330
18
100
AcDbEntity
  8
TEXT
100
AcDbText
 10
8.387068452380951
 20
5.593749999999992
 30
0.0
 40
0.125
  1
*
 41
0.8
 51
10.0
  7
ROMANS
100
AcDbText
  0
LINE
  5
9C2
330
18
100
AcDbEntity
  8
0
100
AcDbLine
 10
3.506562499999999
 20
6.281249999999996
 30
0.0
 11
3.506562499999999
 21
6.031249999999996
 31
0.0
  0
LINE
  5
9C3
330
18
100
AcDbEntity
  8
0
100
AcDbLine
 10
3.256562499999999
 20
6.031249999999996
 30
0.0
 11
3.506562499999999
 21
6.031249999999996
 31
0.0
  0
TEXT
  5
9C4
330
18
100
AcDbEntity
  8
TEXT
100
AcDbText
 10
3.293467261904761
 20
6.093749999999996
 30
0.0
 40
0.125
  1
11
 41
0.8
  7
ROMANS
 72
     4
 11
3.381562499999999
 21
6.156249999999996
 31
0.0
100
AcDbText
  0
LINE
  5
9C5
330
18
100
AcDbEntity
  8
0
100
AcDbLine
 10
3.256562499999999
 20
6.281249999999996
 30
0.0
 11
3.506562499999999
 21
6.281249999999996
 31
0.0
  0
LINE
  5
9D1
330
18
100
AcDbEntity
  8
0
100
AcDbLine
 10
1.709687499999999
 20
4.156249999999994
 30
0.0
 11
3.256562500000001
 21
4.156249999999994
 31
0.0
  0
TEXT
  5
9D4
330
18
100
AcDbEntity
  8
TEXT
100
AcDbText
 10
5.230848214285713
 20
5.106249999999993
 30
0.0
 40
0.1
  1
+24 VDC Source
 41
0.8
  7
ROMANS
 72
     4
 11
5.756562499999999
 21
5.156249999999992
 31
0.0
100
AcDbText
  0
TEXT
  5
9E4
330
18
100
AcDbEntity
  8
TEXT
100
AcDbText
 10
4.249324404761907
 20
12.61339285714285
 30
0.0
 40
0.1
  1
NOTE: See the previous Sheet for Communications and Group #1 Output Detail.
 41
0.8
  7
ROMANS
 72
     4
 11
6.784562499999998
 21
12.65625
 31
0.0
100
AcDbText
  0
ENDSEC
  0
SECTION
  2
OBJECTS
  0
DICTIONARY
  5
C
330
0
100
AcDbDictionary
281
     1
  3
ACAD_COLOR
350
A00
  3
ACAD_GROUP
350
D
  3
ACAD_LAYOUT
350
A03
  3
ACAD_MATERIAL
350
9FF
  3
ACAD_MLINESTYLE
350
E
  3
ACAD_PLOTSETTINGS
350
A04
  3
ACAD_PLOTSTYLENAME
350
9FD
  3
ACAD_TABLESTYLE
350
A01
  3
ACDBHEADERROUNDTRIPXREC
350
A10
  3
AcDbVariableDictionary
350
A0A
  3
DWGPROPS
350
A0F
  0
DICTIONARY
  5
A00
102
{ACAD_REACTORS
330
C
102
}
330
C
100
AcDbDictionary
281
     1
  0
DICTIONARY
  5
D
102
{ACAD_REACTORS
330
C
102
}
330
C
100
AcDbDictionary
281
     1
  0
DICTIONARY
  5
A03
102
{ACAD_REACTORS
330
C
102
}
330
C
100
AcDbDictionary
281
     1
  3
Layout1
350
A06
  3
Model
350
A05
  0
DICTIONARY
  5
9FF
102
{ACAD_REACTORS
330
C
102
}
330
C
100
AcDbDictionary
281
     1
  0
DICTIONARY
  5
E
102
{ACAD_REACTORS
330
C
102
}
330
C
100
AcDbDictionary
281
     1
  3
STANDARD
350
1B
  0
DICTIONARY
  5
A04
102
{ACAD_REACTORS
330
C
102
}
330
C
100
AcDbDictionary
281
     1
  0
ACDBDICTIONARYWDFLT
  5
9FD
102
{ACAD_REACTORS
330
C
102
}
330
C
100
AcDbDictionary
281
     1
  3
Normal
350
9FE
100
AcDbDictionaryWithDefault
340
9FE
  0
DICTIONARY
  5
A01
102
{ACAD_REACTORS
330
C
102
}
330
C
100
AcDbDictionary
281
     1
  3
Standard
350
A02
  0
DICTIONARY
  5
A10
102
{ACAD_REACTORS
330
C
102
}
330
C
100
AcDbDictionary
281
     1
  0
DICTIONARY
  5
A0A
102
{ACAD_REACTORS
330
C
102
}
330
C
100
AcDbDictionary
281
     1
  3
CTABLESTYLE
350
A0B
  3
DIMASSOC
350
A0C
  3
PROJECTNAME
350
A0D
  0
XRECORD
  5
A0F
102
{ACAD_REACTORS
330
C
102
}
330
C
100
AcDbXrecord
280
     1
  1
DWGPROPS COOKIE
  2

  3

  4

  6

  7

  8
gregory.mumm
  9

300
=
301
=
302
=
303
=
304
=
305
=
306
=
307
=
308
=
309
=
 40
0.4465067245370371
 41
2449270.545578588
 42
2453641.584414178
  1

 90
        0
  0
LAYOUT
  5
A06
102
{ACAD_XDICTIONARY
360
A13
102
}
102
{ACAD_REACTORS
330
A03
102
}
330
A03
100
AcDbPlotSettings
  1

  2
\\Fdlfs06\Engineering - Digital PrintServer 17/600 C
  4

  6

 40
0.0
 41
0.0
 42
0.0
 43
0.0
 44
0.0
 45
0.0
 46
0.0
 47
0.0
 48
0.0
 49
0.0
140
0.0
141
0.0
142
1.0
143
1.0
 70
   688
 72
     0
 73
     0
 74
     5
  7

 75
    16
147
1.0
148
0.0
149
0.0
100
AcDbLayout
  1
Layout1
 70
     0
 71
     1
 10
0.0
 20
0.0
 11
12.0
 21
9.0
 12
0.0
 22
0.0
 32
0.0
 14
1.000000000000000E+20
 24
1.000000000000000E+20
 34
1.000000000000000E+20
 15
-1.000000000000000E+20
 25
-1.000000000000000E+20
 35
-1.000000000000000E+20
146
0.0
 13
0.0
 23
0.0
 33
0.0
 16
1.0
 26
0.0
 36
0.0
 17
0.0
 27
1.0
 37
0.0
 76
     0
330
15
  0
LAYOUT
  5
A05
102
{ACAD_XDICTIONARY
360
A11
102
}
102
{ACAD_REACTORS
330
A03
102
}
330
A03
100
AcDbPlotSettings
  1

  2
\\Fdlfs06\Engineering - Digital PrintServer 17/600 C
  4

  6

 40
0.0
 41
0.0
 42
0.0
 43
0.0
 44
0.0
 45
0.0
 46
0.0
 47
0.0
 48
0.0
 49
0.0
140
0.0
141
0.0
142
1.0
143
1.0
 70
  1712
 72
     0
 73
     0
 74
     0
  7

 75
     0
147
1.0
148
0.0
149
0.0
100
AcDbLayout
  1
Model
 70
     1
 71
     0
 10
0.0
 20
0.0
 11
12.0
 21
9.0
 12
0.0
 22
0.0
 32
0.0
 14
0.0
 24
0.0
 34
0.0
 15
0.0
 25
0.0
 35
0.0
146
0.0
 13
0.0
 23
0.0
 33
0.0
 16
1.0
 26
0.0
 36
0.0
 17
0.0
 27
1.0
 37
0.0
 76
     0
330
18
  0
MLINESTYLE
  5
1B
102
{ACAD_REACTORS
330
E
102
}
330
E
100
AcDbMlineStyle
  2
STANDARD
 70
     0
  3

 62
     0
 51
90.0
 52
90.0
 71
     2
 49
0.5
 62
   256
  6
BYLAYER
 49
-0.5
 62
   256
  6
BYLAYER
  0
ACDBPLACEHOLDER
  5
9FE
102
{ACAD_REACTORS
330
9FD
102
}
330
9FD
  0
TABLESTYLE
  5
A02
102
{ACAD_REACTORS
330
A01
102
}
330
A01
100
AcDbTableStyle
  3
Standard
 70
     0
 71
     0
 40
0.06
 41
0.06
280
     0
281
     0
  7
STANDARD
140
0.18
170
     2
 62
     0
 63
     7
283
     0
274
    -2
284
     1
 64
     0
275
    -2
285
     1
 65
     0
276
    -2
286
     1
 66
     0
277
    -2
287
     1
 67
     0
278
    -2
288
     1
 68
     0
279
    -2
289
     1
 69
     0
  7
STANDARD
140
0.25
170
     5
 62
     0
 63
     7
283
     0
274
    -2
284
     1
 64
     0
275
    -2
285
     1
 65
     0
276
    -2
286
     1
 66
     0
277
    -2
287
     1
 67
     0
278
    -2
288
     1
 68
     0
279
    -2
289
     1
 69
     0
  7
STANDARD
140
0.18
170
     5
 62
     0
 63
     7
283
     0
274
    -2
284
     1
 64
     0
275
    -2
285
     1
 65
     0
276
    -2
286
     1
 66
     0
277
    -2
287
     1
 67
     0
278
    -2
288
     1
 68
     0
279
    -2
289
     1
 69
     0
  0
DICTIONARYVAR
  5
A0B
102
{ACAD_REACTORS
330
A0A
102
}
330
A0A
100
DictionaryVariables
280
     0
  1
STANDARD
  0
DICTIONARYVAR
  5
A0C
102
{ACAD_REACTORS
330
A0A
102
}
330
A0A
100
DictionaryVariables
280
     0
  1
1
  0
DICTIONARYVAR
  5
A0D
102
{ACAD_REACTORS
330
A0A
102
}
330
A0A
100
DictionaryVariables
280
     0
  1

  0
DICTIONARY
  5
A13
330
A06
100
AcDbDictionary
280
     1
281
     1
  3
ACAD_XREC_ROUNDTRIP
360
A14
  0
DICTIONARY
  5
A11
330
A05
100
AcDbDictionary
280
     1
281
     1
  3
ACAD_XREC_ROUNDTRIP
360
A12
  0
XRECORD
  5
A14
102
{ACAD_REACTORS
330
A13
102
}
330
A13
100
AcDbXrecord
280
     1
102
SHADEPLOT
 70
     0
102
SHADEPLOTRESLEVEL
 70
     2
102
SHADEPLOTCUSTOMDPI
 70
   300
  0
XRECORD
  5
A12
102
{ACAD_REACTORS
330
A11
102
}
330
A11
100
AcDbXrecord
280
     1
102
SHADEPLOT
 70
     0
102
SHADEPLOTRESLEVEL
 70
     2
102
SHADEPLOTCUSTOMDPI
 70
   300
  0
ENDSEC
  0
EOF
