  0
SECTION
  2
HEADER
  9
$ACADVER
  1
AC1018
  9
$ACADMAINTVER
 70
    76
  9
$DWGCODEPAGE
  3
ANSI_1252
  9
$INSBASE
 10
0.0
 20
0.0
 30
0.0
  9
$EXTMIN
 10
4.948427568828265
 20
-10.02044451891038
 30
-0.0000000000000053
  9
$EXTMAX
 10
426.7547624613562
 20
335.7055680194235
 30
0.0000000000000099
  9
$LIMMIN
 10
-150.0
 20
-150.0
  9
$LIMMAX
 10
750.0
 20
750.0
  9
$ORTHOMODE
 70
     0
  9
$REGENMODE
 70
     1
  9
$FILLMODE
 70
     1
  9
$QTEXTMODE
 70
     0
  9
$MIRRTEXT
 70
     1
  9
$LTSCALE
 40
10.0
  9
$ATTMODE
 70
     1
  9
$TEXTSIZE
 40
4.0
  9
$TRACEWID
 40
0.05
  9
$TEXTSTYLE
  7
STANDARD
  9
$CLAYER
  8
NORMAL
  9
$CELTYPE
  6
BYBLOCK
  9
$CECOLOR
 62
   256
  9
$CELTSCALE
 40
1.0
  9
$DISPSILH
 70
     0
  9
$DIMSCALE
 40
0.0
  9
$DIMASZ
 40
5.0
  9
$DIMEXO
 40
0.0
  9
$DIMDLI
 40
10.0
  9
$DIMRND
 40
0.0
  9
$DIMDLE
 40
0.0
  9
$DIMEXE
 40
1.0
  9
$DIMTP
 40
0.0
  9
$DIMTM
 40
0.0
  9
$DIMTXT
 40
4.0
  9
$DIMCEN
 40
5.0
  9
$DIMTSZ
 40
0.0
  9
$DIMTOL
 70
     0
  9
$DIMLIM
 70
     0
  9
$DIMTIH
 70
     0
  9
$DIMTOH
 70
     0
  9
$DIMSE1
 70
     0
  9
$DIMSE2
 70
     0
  9
$DIMTAD
 70
     1
  9
$DIMZIN
 70
     8
  9
$DIMBLK
  1

  9
$DIMASO
 70
     0
  9
$DIMSHO
 70
     0
  9
$DIMPOST
  1

  9
$DIMAPOST
  1

  9
$DIMALT
 70
     0
  9
$DIMALTD
 70
     2
  9
$DIMALTF
 40
25.4
  9
$DIMLFAC
 40
1.0
  9
$DIMTOFL
 70
     0
  9
$DIMTVP
 40
0.0
  9
$DIMTIX
 70
     0
  9
$DIMSOXD
 70
     0
  9
$DIMSAH
 70
     0
  9
$DIMBLK1
  1

  9
$DIMBLK2
  1

  9
$DIMSTYLE
  2
STANDARD
  9
$DIMCLRD
 70
     0
  9
$DIMCLRE
 70
     0
  9
$DIMCLRT
 70
     0
  9
$DIMTFAC
 40
1.0
  9
$DIMGAP
 40
1.5
  9
$DIMJUST
 70
     0
  9
$DIMSD1
 70
     0
  9
$DIMSD2
 70
     0
  9
$DIMTOLJ
 70
     1
  9
$DIMTZIN
 70
     8
  9
$DIMALTZ
 70
     0
  9
$DIMALTTZ
 70
     0
  9
$DIMUPT
 70
     0
  9
$DIMDEC
 70
     2
  9
$DIMTDEC
 70
     2
  9
$DIMALTU
 70
     2
  9
$DIMALTTD
 70
     2
  9
$DIMTXSTY
  7
STANDARD
  9
$DIMAUNIT
 70
     0
  9
$DIMADEC
 70
     0
  9
$DIMALTRND
 40
0.0
  9
$DIMAZIN
 70
     0
  9
$DIMDSEP
 70
    44
  9
$DIMATFIT
 70
     0
  9
$DIMFRAC
 70
     0
  9
$DIMLDRBLK
  1

  9
$DIMLUNIT
 70
     2
  9
$DIMLWD
 70
    -2
  9
$DIMLWE
 70
    -2
  9
$DIMTMOVE
 70
     0
  9
$LUNITS
 70
     2
  9
$LUPREC
 70
     2
  9
$SKETCHINC
 40
0.1
  9
$FILLETRAD
 40
15.0
  9
$AUNITS
 70
     0
  9
$AUPREC
 70
     0
  9
$MENU
  1
C:\ACADWIN\SUPPORT\ACAD
  9
$ELEVATION
 40
0.0
  9
$PELEVATION
 40
0.0
  9
$THICKNESS
 40
0.0
  9
$LIMCHECK
 70
     0
  9
$CHAMFERA
 40
0.0
  9
$CHAMFERB
 40
0.0
  9
$CHAMFERC
 40
0.0
  9
$CHAMFERD
 40
0.0
  9
$SKPOLY
 70
     0
  9
$TDCREATE
 40
2453613.284579896
  9
$TDUCREATE
 40
2453613.534579896
  9
$TDUPDATE
 40
2455252.345231007
  9
$TDUUPDATE
 40
2455252.595231007
  9
$TDINDWG
 40
0.0239744907
  9
$TDUSRTIMER
 40
0.0239743056
  9
$USRTIMER
 70
     1
  9
$ANGBASE
 50
0.0
  9
$ANGDIR
 70
     0
  9
$PDMODE
 70
     0
  9
$PDSIZE
 40
0.0
  9
$PLINEWID
 40
0.7
  9
$SPLFRAME
 70
     0
  9
$SPLINETYPE
 70
     6
  9
$SPLINESEGS
 70
     8
  9
$HANDSEED
  5
AA2
  9
$SURFTAB1
 70
     6
  9
$SURFTAB2
 70
     6
  9
$SURFTYPE
 70
     6
  9
$SURFU
 70
     6
  9
$SURFV
 70
     6
  9
$UCSBASE
  2

  9
$UCSNAME
  2

  9
$UCSORG
 10
0.0
 20
0.0
 30
0.0
  9
$UCSXDIR
 10
1.0
 20
0.0
 30
0.0
  9
$UCSYDIR
 10
0.0
 20
1.0
 30
0.0
  9
$UCSORTHOREF
  2

  9
$UCSORTHOVIEW
 70
     0
  9
$UCSORGTOP
 10
0.0
 20
0.0
 30
0.0
  9
$UCSORGBOTTOM
 10
0.0
 20
0.0
 30
0.0
  9
$UCSORGLEFT
 10
0.0
 20
0.0
 30
0.0
  9
$UCSORGRIGHT
 10
0.0
 20
0.0
 30
0.0
  9
$UCSORGFRONT
 10
0.0
 20
0.0
 30
0.0
  9
$UCSORGBACK
 10
0.0
 20
0.0
 30
0.0
  9
$PUCSBASE
  2

  9
$PUCSNAME
  2

  9
$PUCSORG
 10
0.0
 20
0.0
 30
0.0
  9
$PUCSXDIR
 10
1.0
 20
0.0
 30
0.0
  9
$PUCSYDIR
 10
0.0
 20
1.0
 30
0.0
  9
$PUCSORTHOREF
  2

  9
$PUCSORTHOVIEW
 70
     0
  9
$PUCSORGTOP
 10
0.0
 20
0.0
 30
0.0
  9
$PUCSORGBOTTOM
 10
0.0
 20
0.0
 30
0.0
  9
$PUCSORGLEFT
 10
0.0
 20
0.0
 30
0.0
  9
$PUCSORGRIGHT
 10
0.0
 20
0.0
 30
0.0
  9
$PUCSORGFRONT
 10
0.0
 20
0.0
 30
0.0
  9
$PUCSORGBACK
 10
0.0
 20
0.0
 30
0.0
  9
$USERI1
 70
     0
  9
$USERI2
 70
     0
  9
$USERI3
 70
     0
  9
$USERI4
 70
     0
  9
$USERI5
 70
     0
  9
$USERR1
 40
0.0
  9
$USERR2
 40
0.0
  9
$USERR3
 40
0.0
  9
$USERR4
 40
0.0
  9
$USERR5
 40
0.0
  9
$WORLDVIEW
 70
     1
  9
$SHADEDGE
 70
     3
  9
$SHADEDIF
 70
    70
  9
$TILEMODE
 70
     1
  9
$MAXACTVP
 70
    16
  9
$PINSBASE
 10
0.0
 20
0.0
 30
0.0
  9
$PLIMCHECK
 70
     0
  9
$PEXTMIN
 10
1.000000000000000E+20
 20
1.000000000000000E+20
 30
1.000000000000000E+20
  9
$PEXTMAX
 10
-1.000000000000000E+20
 20
-1.000000000000000E+20
 30
-1.000000000000000E+20
  9
$PLIMMIN
 10
0.0
 20
0.0
  9
$PLIMMAX
 10
12.0
 20
9.0
  9
$UNITMODE
 70
     0
  9
$VISRETAIN
 70
     0
  9
$PLINEGEN
 70
     1
  9
$PSLTSCALE
 70
     0
  9
$TREEDEPTH
 70
  3020
  9
$CMLSTYLE
  2
STANDARD
  9
$CMLJUST
 70
     0
  9
$CMLSCALE
 40
1.0
  9
$PROXYGRAPHICS
 70
     1
  9
$MEASUREMENT
 70
     1
  9
$CELWEIGHT
370
    -1
  9
$ENDCAPS
280
     0
  9
$JOINSTYLE
280
     0
  9
$LWDISPLAY
290
     0
  9
$INSUNITS
 70
     0
  9
$HYPERLINKBASE
  1

  9
$STYLESHEET
  1
monochrome.ctb
  9
$XEDIT
290
     1
  9
$CEPSNTYPE
380
     0
  9
$PSTYLEMODE
290
     1
  9
$FINGERPRINTGUID
  2
{5CFF957F-32CE-11D4-BBB0-0060087DD5EC}
  9
$VERSIONGUID
  2
{B8AC510A-B69F-4537-8CAF-0B7B94A97571}
  9
$EXTNAMES
290
     1
  9
$PSVPSCALE
 40
0.0
  9
$OLESTARTUP
290
     0
  9
$SORTENTS
280
   127
  9
$INDEXCTL
280
     0
  9
$HIDETEXT
280
     0
  9
$XCLIPFRAME
290
     0
  9
$HALOGAP
280
     0
  9
$OBSCOLOR
 70
   257
  9
$OBSLTYPE
280
     0
  9
$INTERSECTIONDISPLAY
280
     0
  9
$INTERSECTIONCOLOR
 70
   257
  9
$DIMASSOC
280
     0
  9
$PROJECTNAME
  1

  0
ENDSEC
  0
SECTION
  2
CLASSES
  0
CLASS
  1
DICTIONARYVAR
  2
AcDbDictionaryVar
  3
ObjectDBX Classes
 90
        0
 91
        3
280
     0
281
     0
  0
CLASS
  1
ACDBDICTIONARYWDFLT
  2
AcDbDictionaryWithDefault
  3
ObjectDBX Classes
 90
        0
 91
        1
280
     0
281
     0
  0
CLASS
  1
TABLESTYLE
  2
AcDbTableStyle
  3
ObjectDBX Classes
 90
     2047
 91
        1
280
     0
281
     0
  0
ENDSEC
  0
SECTION
  2
TABLES
  0
TABLE
  2
VPORT
  5
8
330
0
100
AcDbSymbolTable
 70
     5
  0
VPORT
  5
AA1
330
8
100
AcDbSymbolTableRecord
100
AcDbViewportTableRecord
  2
*Active
 70
     0
 10
0.0
 20
0.0
 11
1.0
 21
1.0
 12
215.8515950150922
 22
162.8425617502565
 13
0.0
 23
0.0
 14
5.0
 24
5.0
 15
10.0
 25
10.0
 16
0.0
 26
0.0
 36
1.0
 17
0.0
 27
0.0
 37
0.0
 40
349.0503011204332
 41
1.730337078651685
 42
50.0
 43
0.0
 44
0.0
 50
0.0
 51
0.0
 71
     0
 72
   100
 73
     1
 74
     0
 75
     0
 76
     0
 77
     0
 78
     0
281
     0
 65
     1
110
0.0
120
0.0
130
0.0
111
1.0
121
0.0
131
0.0
112
0.0
122
1.0
132
0.0
 79
     0
146
0.0
  0
ENDTAB
  0
TABLE
  2
LTYPE
  5
5
330
0
100
AcDbSymbolTable
 70
     8
  0
LTYPE
  5
11
330
5
100
AcDbSymbolTableRecord
100
AcDbLinetypeTableRecord
  2
BYBLOCK
 70
     0
  3

 72
    65
 73
     0
 40
0.0
  0
LTYPE
  5
12
330
5
100
AcDbSymbolTableRecord
100
AcDbLinetypeTableRecord
  2
BYLAYER
 70
     0
  3

 72
    65
 73
     0
 40
0.0
  0
LTYPE
  5
13
330
5
100
AcDbSymbolTableRecord
100
AcDbLinetypeTableRecord
  2
CONTINUOUS
 70
     0
  3
Solid line
 72
    65
 73
     0
 40
0.0
  0
LTYPE
  5
22
330
5
100
AcDbSymbolTableRecord
100
AcDbLinetypeTableRecord
  2
HIDDEN
 70
     0
  3
__ __ __ __ __ __ __ __ __ __ __ __ __ __ __ __
 72
    65
 73
     2
 40
0.375
 49
0.25
 74
     0
 49
-0.125
 74
     0
  0
LTYPE
  5
2AC
330
5
100
AcDbSymbolTableRecord
100
AcDbLinetypeTableRecord
  2
DASHDOT
 70
     0
  3
Dash dot __ . __ . __ . __ . __ . __ . __ . __
 72
    65
 73
     4
 40
1.0
 49
0.5
 74
     0
 49
-0.25
 74
     0
 49
0.0
 74
     0
 49
-0.25
 74
     0
  0
LTYPE
  5
2AD
330
5
100
AcDbSymbolTableRecord
100
AcDbLinetypeTableRecord
  2
DOT2
 70
     0
  3
Dot (.5x) .....................................
 72
    65
 73
     2
 40
0.125
 49
0.0
 74
     0
 49
-0.125
 74
     0
  0
LTYPE
  5
9E2
330
5
100
AcDbSymbolTableRecord
100
AcDbLinetypeTableRecord
  2
HIDDEN2
 70
     0
  3
_ _ _ _ _ _ _ _ _ _ _ _ _ _ _ _ _ _ _ _ _ _ _ _
 72
    65
 73
     2
 40
0.1875
 49
0.125
 74
     0
 49
-0.0625
 74
     0
  0
LTYPE
  5
9E3
330
5
100
AcDbSymbolTableRecord
100
AcDbLinetypeTableRecord
  2
DASHDOT2
 70
     0
  3
_._._._._._._._._._._._._._._._._._._._._._._._
 72
    65
 73
     4
 40
0.5
 49
0.25
 74
     0
 49
-0.125
 74
     0
 49
0.0
 74
     0
 49
-0.125
 74
     0
  0
LTYPE
  5
9E4
330
5
100
AcDbSymbolTableRecord
100
AcDbLinetypeTableRecord
  2
CENTER2
 70
     0
  3
___ _ ___ _ ___ _ ___ _ ___ _ ___ _ ___ _ ___ _
 72
    65
 73
     4
 40
1.125
 49
0.75
 74
     0
 49
-0.125
 74
     0
 49
0.125
 74
     0
 49
-0.125
 74
     0
  0
LTYPE
  5
9E5
330
5
100
AcDbSymbolTableRecord
100
AcDbLinetypeTableRecord
  2
CENTER
 70
     0
  3
____ _ ____ _ ____ _ ____ _ ____ _ ____ _ ____
 72
    65
 73
     4
 40
2.0
 49
1.25
 74
     0
 49
-0.25
 74
     0
 49
0.25
 74
     0
 49
-0.25
 74
     0
  0
ENDTAB
  0
TABLE
  2
LAYER
  5
2
330
0
100
AcDbSymbolTable
 70
     5
  0
LAYER
  5
E
330
2
100
AcDbSymbolTableRecord
100
AcDbLayerTableRecord
  2
0
 70
     0
 62
     2
  6
CONTINUOUS
370
    -3
390
632
  0
LAYER
  5
29
330
2
100
AcDbSymbolTableRecord
100
AcDbLayerTableRecord
  2
NORMAL
 70
     0
 62
     2
  6
CONTINUOUS
370
    -3
390
632
  0
LAYER
  5
9E6
330
2
100
AcDbSymbolTableRecord
100
AcDbLayerTableRecord
  2
HIDDEN
 70
     0
 62
     2
  6
HIDDEN2
370
    -3
390
632
  0
LAYER
  5
9E7
330
2
100
AcDbSymbolTableRecord
100
AcDbLayerTableRecord
  2
CENTER
 70
     0
 62
     2
  6
DASHDOT2
370
    -3
390
632
  0
LAYER
  5
9EA
330
2
100
AcDbSymbolTableRecord
100
AcDbLayerTableRecord
  2
Defpoints
 70
     0
 62
     7
  6
CONTINUOUS
290
     0
370
    -3
390
632
  0
ENDTAB
  0
TABLE
  2
STYLE
  5
3
330
0
100
AcDbSymbolTable
 70
     5
  0
STYLE
  5
F
330
3
100
AcDbSymbolTableRecord
100
AcDbTextStyleTableRecord
  2
STANDARD
 70
     0
 40
0.0
 41
1.0
 50
0.0
 71
     0
 42
4.0
  3
simplex
  4

  0
STYLE
  5
1E
330
3
100
AcDbSymbolTableRecord
100
AcDbTextStyleTableRecord
  2
ROMAND
 70
     0
 40
0.0
 41
1.0
 50
0.0
 71
     0
 42
2.0
  3
romand.shx
  4

  0
STYLE
  5
8A9
330
3
100
AcDbSymbolTableRecord
100
AcDbTextStyleTableRecord
  2
Arial
 70
     0
 40
0.0
 41
1.0
 50
0.0
 71
     0
 42
4.0
  3

  4

1001
ACAD
1000
Arial
1071
       34
  0
ENDTAB
  0
TABLE
  2
VIEW
  5
6
330
0
100
AcDbSymbolTable
 70
     0
  0
ENDTAB
  0
TABLE
  2
UCS
  5
7
330
0
100
AcDbSymbolTable
 70
     0
  0
ENDTAB
  0
TABLE
  2
APPID
  5
9
330
0
100
AcDbSymbolTable
 70
     4
  0
APPID
  5
10
330
9
100
AcDbSymbolTableRecord
100
AcDbRegAppTableRecord
  2
ACAD
 70
     0
  0
APPID
  5
2B3
330
9
100
AcDbSymbolTableRecord
100
AcDbRegAppTableRecord
  2
CONTENTBLOCKDESCRIPTION
 70
     0
  0
APPID
  5
A8A
330
9
100
AcDbSymbolTableRecord
100
AcDbRegAppTableRecord
  2
DCO15
 70
     0
  0
APPID
  5
A97
330
9
100
AcDbSymbolTableRecord
100
AcDbRegAppTableRecord
  2
ACAD_PSEXT
 70
     0
  0
ENDTAB
  0
TABLE
  2
DIMSTYLE
  5
A
330
0
100
AcDbSymbolTable
 70
     3
100
AcDbDimStyleTable
 71
     1
340
297
  0
DIMSTYLE
105
297
330
A
100
AcDbSymbolTableRecord
100
AcDbDimStyleTableRecord
  2
STANDARD
 70
     0
340
F
  0
ENDTAB
  0
TABLE
  2
BLOCK_RECORD
  5
1
330
0
100
AcDbSymbolTable
 70
     2
  0
BLOCK_RECORD
  5
17
330
1
100
AcDbSymbolTableRecord
100
AcDbBlockTableRecord
  2
*MODEL_SPACE
340
635
  0
BLOCK_RECORD
  5
14
330
1
100
AcDbSymbolTableRecord
100
AcDbBlockTableRecord
  2
*PAPER_SPACE
340
636
  0
ENDTAB
  0
ENDSEC
  0
SECTION
  2
BLOCKS
  0
BLOCK
  5
2C
330
17
100
AcDbEntity
  8
0
100
AcDbBlockBegin
  2
*MODEL_SPACE
 70
     0
 10
0.0
 20
0.0
 30
0.0
  3
*MODEL_SPACE
  1

  0
ENDBLK
  5
2D
330
17
100
AcDbEntity
  8
0
100
AcDbBlockEnd
  0
BLOCK
  5
2A
330
14
100
AcDbEntity
 67
     1
  8
0
100
AcDbBlockBegin
  2
*PAPER_SPACE
 70
     0
 10
0.0
 20
0.0
 30
0.0
  3
*PAPER_SPACE
  1

  0
ENDBLK
  5
2B
330
14
100
AcDbEntity
 67
     1
  8
0
100
AcDbBlockEnd
  0
ENDSEC
  0
SECTION
  2
ENTITIES
  0
LWPOLYLINE
  5
A0E
330
17
100
AcDbEntity
  8
0
100
AcDbPolyline
 90
        5
 70
   128
 43
0.0
 10
39.99999999999997
 20
21.49570798780008
 10
395.5042920122
 20
21.49570798780008
 10
395.5042920122
 20
300.0
 10
39.99999999999997
 20
300.0
 10
39.99999999999997
 20
21.49570798780008
  0
TEXT
  5
A1B
330
17
100
AcDbEntity
  8
NORMAL
100
AcDbText
 10
185.4275097019939
 20
212.1517701026827
 30
0.0
 40
5.0
  1
SCALE 1:1 (if A3 copy)
  7
Arial
 72
     4
 11
221.3381509025396
 21
213.9594099389719
 31
0.0
100
AcDbText
  0
TEXT
  5
A1C
330
17
100
AcDbEntity
  8
NORMAL
100
AcDbText
 10
154.1737579966733
 20
228.7073635542516
 30
0.0
 40
6.0
  1
PANEL CUT OUT FOR 15.1" Touch
  7
Arial
 72
     4
 11
221.3381509025396
 21
231.7094099389719
 31
0.0
100
AcDbText
  0
TEXT
  5
A1D
330
17
100
AcDbEntity
  8
NORMAL
100
AcDbText
 10
205.2296925123623
 20
220.2503376333785
 30
0.0
 40
5.0
  1
Front view
  7
Arial
 72
     4
 11
221.3381509025396
 21
222.7094099389719
 31
0.0
100
AcDbText
  0
LINE
  5
A1E
330
17
100
AcDbEntity
  8
NORMAL
100
AcDbLine
 10
415.8171458782412
 20
335.6828535511086
 30
0.0
 11
425.8171458782411
 21
335.6828535511086
 31
0.0
  0
LINE
  5
A1F
330
17
100
AcDbEntity
  8
NORMAL
100
AcDbLine
 10
425.8171458782411
 20
335.6828535511086
 30
0.0
 11
425.8171458782411
 21
325.6828535511086
 31
0.0
  0
LWPOLYLINE
  5
A22
330
17
100
AcDbEntity
  8
NORMAL
100
AcDbPolyline
 90
        4
 70
     1
 43
0.5
 10
40.0
 20
300.0
 10
395.5042920122
 20
300.0
 10
395.5042920122
 20
21.49570798780008
 10
39.99999999999997
 20
21.49570798780008
  0
LINE
  5
A23
330
17
100
AcDbEntity
  8
NORMAL
100
AcDbLine
 10
40.0
 20
21.49570798780008
 30
0.0
 11
40.0
 21
76.0
 31
0.0
  0
LINE
  5
A24
330
17
100
AcDbEntity
  8
NORMAL
100
AcDbLine
 10
395.5042920122
 20
21.49570798780008
 30
0.0
 11
395.5042920122
 21
76.0
 31
0.0
  0
LINE
  5
A25
330
17
100
AcDbEntity
  8
NORMAL
100
AcDbLine
 10
45.0
 20
75.0
 30
0.0
 11
390.5042920122
 21
75.0
 31
0.0
  0
SOLID
  5
A26
330
17
100
AcDbEntity
  8
NORMAL
100
AcDbTrace
 10
45.0
 20
75.83333333333333
 30
0.0
 11
45.0
 21
74.16666666666667
 31
0.0
 12
40.0
 22
75.0
 32
0.0
 13
40.0
 23
75.0
 33
0.0
  0
SOLID
  5
A27
330
17
100
AcDbEntity
  8
NORMAL
100
AcDbTrace
 10
390.5042920122
 20
75.83333333333333
 30
0.0
 11
390.5042920122
 21
74.16666666666667
 31
0.0
 12
395.5042920122
 22
75.0
 32
0.0
 13
395.5042920122
 23
75.0
 33
0.0
  0
MTEXT
  5
A28
330
17
100
AcDbEntity
  8
NORMAL
100
AcDbMText
 10
217.7521460061
 20
79.54761904761905
 30
0.0
 40
4.0
 41
0.0
 71
     5
 72
     1
  1
\A1;355,5%%p1 (14%%p0.04)
 73
     1
 44
1.0
  0
LINE
  5
A29
330
17
100
AcDbEntity
  8
NORMAL
100
AcDbLine
 10
395.5042920122
 20
300.0
 30
0.0
 11
349.0
 21
300.0
 31
0.0
  0
LINE
  5
A2A
330
17
100
AcDbEntity
  8
NORMAL
100
AcDbLine
 10
395.5042920122
 20
21.49570798780008
 30
0.0
 11
348.9999999999999
 21
21.49570798780009
 31
0.0
  0
LINE
  5
A2B
330
17
100
AcDbEntity
  8
NORMAL
100
AcDbLine
 10
334.0
 20
295.0000000000001
 30
0.0
 11
333.9999999999999
 21
26.49570798780008
 31
0.0
  0
SOLID
  5
A2C
330
17
100
AcDbEntity
  8
NORMAL
100
AcDbTrace
 10
333.1666666666667
 20
295.0000000000001
 30
0.0
 11
334.8333333333333
 21
295.0000000000001
 31
0.0
 12
334.0
 22
300.0
 32
0.0
 13
334.0
 23
300.0
 33
0.0
  0
SOLID
  5
A2D
330
17
100
AcDbEntity
  8
NORMAL
100
AcDbTrace
 10
333.1666666666666
 20
26.49570798780008
 30
0.0
 11
334.8333333333333
 21
26.49570798780008
 31
0.0
 12
333.9999999999999
 22
21.49570798780008
 32
0.0
 13
333.9999999999999
 23
21.49570798780008
 33
0.0
  0
MTEXT
  5
A2E
330
17
100
AcDbEntity
  8
NORMAL
100
AcDbMText
 10
329.4523809523809
 20
160.7478539939001
 30
0.0
 40
4.0
 41
0.0
 71
     5
 72
     1
  1
\A1;278,5%%p1 (10.96%%p0.04)
 11
0.0000000000000001
 21
1.0
 31
0.0
 73
     1
 44
1.0
  0
LINE
  5
A34
330
17
100
AcDbEntity
  8
NORMAL
100
AcDbLine
 10
33.75
 20
9.245707987800074
 30
0.0
 11
401.7499999999999
 21
9.245707987800074
 31
0.0
  0
LINE
  5
A35
330
17
100
AcDbEntity
  8
NORMAL
100
AcDbLine
 10
416.7499999999999
 20
24.24570798780008
 30
0.0
 11
416.7499999999999
 21
298.2457079878001
 31
0.0
  0
LINE
  5
A36
330
17
100
AcDbEntity
  8
NORMAL
100
AcDbLine
 10
401.7499999999999
 20
313.2457079878001
 30
0.0
 11
33.75
 21
313.2457079878001
 31
0.0
  0
LINE
  5
A37
330
17
100
AcDbEntity
  8
NORMAL
100
AcDbLine
 10
18.75
 20
298.2457079878001
 30
0.0
 11
18.75
 21
24.24570798780008
 31
0.0
  0
ARC
  5
A38
330
17
100
AcDbEntity
  8
NORMAL
100
AcDbCircle
 10
33.75
 20
24.24570798780008
 30
0.0
 40
15.0
100
AcDbArc
 50
180.0
 51
270.0
  0
ARC
  5
A39
330
17
100
AcDbEntity
  8
NORMAL
100
AcDbCircle
 10
33.75
 20
298.2457079878001
 30
0.0
 40
15.0
100
AcDbArc
 50
90.0
 51
180.0
  0
ARC
  5
A3A
330
17
100
AcDbEntity
  8
NORMAL
100
AcDbCircle
 10
401.7499999999999
 20
298.2457079878001
 30
0.0
 40
15.0
100
AcDbArc
 50
0.0
 51
90.0
  0
ARC
  5
A3B
330
17
100
AcDbEntity
  8
NORMAL
100
AcDbCircle
 10
401.7499999999999
 20
24.24570798780008
 30
0.0
 40
15.0
100
AcDbArc
 50
270.0
 51
0.0
  0
LINE
  5
A3C
330
17
100
AcDbEntity
  8
NORMAL
100
AcDbLine
 10
5.0
 20
-5.0
 30
0.0
 11
5.0
 21
-10.0
 31
0.0
  0
LINE
  5
A3D
330
17
100
AcDbEntity
  8
NORMAL
100
AcDbLine
 10
5.0
 20
-10.0
 30
0.0
 11
10.0
 21
-10.0
 31
0.0
  0
LINE
  5
A41
330
17
100
AcDbEntity
  8
NORMAL
100
AcDbLine
 10
18.75
 20
87.5
 30
0.0
 11
18.75
 21
88.49999999999999
 31
0.0
  0
LINE
  5
A42
330
17
100
AcDbEntity
  8
NORMAL
100
AcDbLine
 10
40.0
 20
87.5
 30
0.0
 11
40.0
 21
88.49999999999999
 31
0.0
  0
LINE
  5
A43
330
17
100
AcDbEntity
  8
NORMAL
100
AcDbLine
 10
13.75
 20
87.5
 30
0.0
 11
8.75
 21
87.5
 31
0.0
  0
LINE
  5
A44
330
17
100
AcDbEntity
  8
NORMAL
100
AcDbLine
 10
45.0
 20
87.5
 30
0.0
 11
90.33333333333331
 21
87.5
 31
0.0
  0
SOLID
  5
A45
330
17
100
AcDbEntity
  8
NORMAL
100
AcDbTrace
 10
13.75
 20
88.33333333333333
 30
0.0
 11
13.75
 21
86.66666666666667
 31
0.0
 12
18.75
 22
87.5
 32
0.0
 13
18.75
 23
87.5
 33
0.0
  0
SOLID
  5
A46
330
17
100
AcDbEntity
  8
NORMAL
100
AcDbTrace
 10
45.0
 20
88.33333333333333
 30
0.0
 11
45.0
 21
86.66666666666667
 31
0.0
 12
40.0
 22
87.5
 32
0.0
 13
40.0
 23
87.5
 33
0.0
  0
MTEXT
  5
A47
330
17
100
AcDbEntity
  8
NORMAL
100
AcDbMText
 10
70.16666666666665
 20
92.04761904761905
 30
0.0
 40
4.0
 41
0.0
 71
     5
 72
     1
  1
\A1;21,25 (0.84)
 73
     1
 44
1.0
  0
LINE
  5
A48
330
17
100
AcDbEntity
  8
NORMAL
100
AcDbLine
 10
416.75
 20
91.0
 30
0.0
 11
416.75
 21
86.75
 31
0.0
  0
LINE
  5
A49
330
17
100
AcDbEntity
  8
NORMAL
100
AcDbLine
 10
395.5
 20
91.0
 30
0.0
 11
395.5
 21
86.75
 31
0.0
  0
LINE
  5
A4A
330
17
100
AcDbEntity
  8
NORMAL
100
AcDbLine
 10
421.75
 20
87.75
 30
0.0
 11
426.75
 21
87.75
 31
0.0
  0
LINE
  5
A4B
330
17
100
AcDbEntity
  8
NORMAL
100
AcDbLine
 10
390.5
 20
87.75
 30
0.0
 11
345.1666666666667
 21
87.75
 31
0.0
  0
SOLID
  5
A4C
330
17
100
AcDbEntity
  8
NORMAL
100
AcDbTrace
 10
421.75
 20
88.58333333333332
 30
0.0
 11
421.75
 21
86.91666666666668
 31
0.0
 12
416.75
 22
87.75
 32
0.0
 13
416.75
 23
87.75
 33
0.0
  0
SOLID
  5
A4D
330
17
100
AcDbEntity
  8
NORMAL
100
AcDbTrace
 10
390.5
 20
88.58333333333332
 30
0.0
 11
390.5
 21
86.91666666666668
 31
0.0
 12
395.5
 22
87.75
 32
0.0
 13
395.5
 23
87.75
 33
0.0
  0
MTEXT
  5
A4E
330
17
100
AcDbEntity
  8
NORMAL
100
AcDbMText
 10
365.3333333333333
 20
92.29761904761906
 30
0.0
 40
4.0
 41
0.0
 71
     5
 72
     1
  1
\A1;21,25 (0.84)
 73
     1
 44
1.0
  0
LINE
  5
A4F
330
17
100
AcDbEntity
  8
NORMAL
100
AcDbLine
 10
317.25
 20
9.25
 30
0.0
 11
316.25
 21
9.25
 31
0.0
  0
LINE
  5
A50
330
17
100
AcDbEntity
  8
NORMAL
100
AcDbLine
 10
317.25
 20
21.5
 30
0.0
 11
316.25
 21
21.5
 31
0.0
  0
LINE
  5
A51
330
17
100
AcDbEntity
  8
NORMAL
100
AcDbLine
 10
317.25
 20
4.25
 30
0.0
 11
317.25
 21
-0.7499999999999993
 31
0.0
  0
LINE
  5
A52
330
17
100
AcDbEntity
  8
NORMAL
100
AcDbLine
 10
317.25
 20
26.5
 30
0.0
 11
317.25
 21
71.83333333333331
 31
0.0
  0
SOLID
  5
A53
330
17
100
AcDbEntity
  8
NORMAL
100
AcDbTrace
 10
316.4166666666667
 20
4.25
 30
0.0
 11
318.0833333333333
 21
4.25
 31
0.0
 12
317.25
 22
9.25
 32
0.0
 13
317.25
 23
9.25
 33
0.0
  0
SOLID
  5
A54
330
17
100
AcDbEntity
  8
NORMAL
100
AcDbTrace
 10
316.4166666666667
 20
26.5
 30
0.0
 11
318.0833333333333
 21
26.5
 31
0.0
 12
317.25
 22
21.5
 32
0.0
 13
317.25
 23
21.5
 33
0.0
  0
MTEXT
  5
A55
330
17
100
AcDbEntity
  8
NORMAL
100
AcDbMText
 10
312.702380952381
 20
51.66666666666671
 30
0.0
 40
4.0
 41
0.0
 71
     5
 72
     1
  1
\A1;12,25 (0.48)
 11
0.0000000000000001
 21
1.0
 31
0.0
 73
     1
 44
1.0
  0
LINE
  5
A56
330
17
100
AcDbEntity
  8
NORMAL
100
AcDbLine
 10
327.25
 20
313.25
 30
0.0
 11
316.25
 21
313.25
 31
0.0
  0
LINE
  5
A57
330
17
100
AcDbEntity
  8
NORMAL
100
AcDbLine
 10
327.25
 20
300.0
 30
0.0
 11
316.25
 21
300.0
 31
0.0
  0
LINE
  5
A58
330
17
100
AcDbEntity
  8
NORMAL
100
AcDbLine
 10
317.25
 20
318.25
 30
0.0
 11
317.25
 21
323.25
 31
0.0
  0
LINE
  5
A59
330
17
100
AcDbEntity
  8
NORMAL
100
AcDbLine
 10
317.25
 20
295.0
 30
0.0
 11
317.25
 21
249.6666666666667
 31
0.0
  0
SOLID
  5
A5A
330
17
100
AcDbEntity
  8
NORMAL
100
AcDbTrace
 10
316.4166666666667
 20
318.25
 30
0.0
 11
318.0833333333333
 21
318.25
 31
0.0
 12
317.25
 22
313.25
 32
0.0
 13
317.25
 23
313.25
 33
0.0
  0
SOLID
  5
A5B
330
17
100
AcDbEntity
  8
NORMAL
100
AcDbTrace
 10
316.4166666666667
 20
295.0
 30
0.0
 11
318.0833333333333
 21
295.0
 31
0.0
 12
317.25
 22
300.0
 32
0.0
 13
317.25
 23
300.0
 33
0.0
  0
MTEXT
  5
A5C
330
17
100
AcDbEntity
  8
NORMAL
100
AcDbMText
 10
312.7023809523809
 20
269.8333333333334
 30
0.0
 40
4.0
 41
0.0
 71
     5
 72
     1
  1
\A1;13,25 (0.52)
 11
0.0000000000000001
 21
1.0
 31
0.0
 73
     1
 44
1.0
  0
LEADER
  5
A5E
330
17
100
AcDbEntity
  8
NORMAL
100
AcDbLeader
  3
STANDARD
 73
     0
 75
     1
 40
4.0
 41
22.66666666666666
 76
     3
 10
267.75
 20
21.5
 30
0.0
 10
255.0
 20
36.5
 30
0.0
 10
250.0
 20
36.5
 30
0.0
340
A5F
213
0.0
223
2.0
233
0.0
1001
ACAD
1000
DSTYLE
1002
{
1070
    41
1040
5.0
1070
    42
1040
0.0
1070
    43
1040
10.0
1070
    44
1040
1.0
1070
    73
1070
     0
1070
    74
1070
     0
1070
    78
1070
     8
1070
   140
1040
4.0
1070
   141
1040
5.0
1070
   147
1040
1.5
1070
   271
1070
     2
1070
   272
1070
     2
1070
   278
1070
    44
1070
   284
1070
     8
1070
   289
1070
     0
1002
}
  0
MTEXT
  5
A5F
102
{ACAD_REACTORS
330
A5E
102
}
330
17
100
AcDbEntity
  8
NORMAL
100
AcDbMText
 10
248.5
 20
34.5
 30
0.0
 40
4.0
 41
0.0
 71
     9
 72
     1
  1
Cut out
 73
     1
 44
1.0
  0
LEADER
  5
A60
330
17
100
AcDbEntity
  8
NORMAL
100
AcDbLeader
  3
STANDARD
 73
     0
 75
     1
 40
4.0
 41
47.80952380952379
 76
     3
 10
267.5
 20
9.25
 30
0.0
 10
260.0
 20
16.25
 30
0.0
 10
255.0
 20
16.25
 30
0.0
340
A61
213
0.0
223
2.0
233
0.0
1001
ACAD
1000
DSTYLE
1002
{
1070
    41
1040
5.0
1070
    42
1040
0.0
1070
    43
1040
10.0
1070
    44
1040
1.0
1070
    73
1070
     0
1070
    74
1070
     0
1070
    78
1070
     8
1070
   140
1040
4.0
1070
   141
1040
5.0
1070
   147
1040
1.5
1070
   271
1070
     2
1070
   272
1070
     2
1070
   278
1070
    44
1070
   284
1070
     8
1070
   289
1070
     0
1002
}
  0
MTEXT
  5
A61
102
{ACAD_REACTORS
330
A60
102
}
330
17
100
AcDbEntity
  8
NORMAL
100
AcDbMText
 10
253.5
 20
14.25
 30
0.0
 40
4.0
 41
0.0
 71
     9
 72
     1
  1
Terminal outline
 73
     1
 44
1.0
  0
LINE
  5
A67
330
17
100
AcDbEntity
  8
NORMAL
  6
DASHDOT2
100
AcDbLine
 10
217.75
 20
161.2457079878
 30
0.0
 11
217.75
 21
181.2457079878001
 31
0.0
  0
LINE
  5
A68
330
17
100
AcDbEntity
  8
NORMAL
  6
DASHDOT2
100
AcDbLine
 10
217.75
 20
161.2457079878
 30
0.0
 11
237.75
 21
161.2457079878
 31
0.0
  0
LINE
  5
A69
330
17
100
AcDbEntity
  8
NORMAL
  6
DASHDOT2
100
AcDbLine
 10
217.75
 20
161.2457079878
 30
0.0
 11
217.75
 21
141.2457079878
 31
0.0
  0
LINE
  5
A6A
330
17
100
AcDbEntity
  8
NORMAL
  6
DASHDOT2
100
AcDbLine
 10
217.75
 20
161.2457079878
 30
0.0
 11
197.75
 21
161.2457079878
 31
0.0
  0
LEADER
  5
A6C
330
17
100
AcDbEntity
  8
NORMAL
  6
ByBlock
100
AcDbLeader
  3
STANDARD
 73
     0
 74
     0
 75
     1
 40
4.0
 41
47.04761904761904
 76
     3
 10
218.5
 20
160.25
 30
0.0
 10
230.25
 20
144.75
 30
0.0
 10
235.25
 20
144.75
 30
0.0
340
A6D
213
0.0
223
-2.0
233
0.0
1001
ACAD
1000
DSTYLE
1002
{
1070
    41
1040
5.0
1070
    42
1040
0.0
1070
    43
1040
10.0
1070
    44
1040
1.0
1070
    73
1070
     0
1070
    74
1070
     0
1070
    78
1070
     8
1070
   140
1040
4.0
1070
   141
1040
5.0
1070
   147
1040
1.5
1070
   271
1070
     2
1070
   272
1070
     2
1070
   278
1070
    44
1070
   284
1070
     8
1070
   289
1070
     0
1002
}
  0
MTEXT
  5
A6D
102
{ACAD_REACTORS
330
A6C
102
}
330
17
100
AcDbEntity
  8
NORMAL
  6
ByBlock
100
AcDbMText
 10
236.75
 20
146.75
 30
0.0
 40
4.0
 41
0.0
 71
     1
 72
     1
  1
Terminal center
 73
     1
 44
1.0
  0
ENDSEC
  0
SECTION
  2
OBJECTS
  0
DICTIONARY
  5
C
330
0
100
AcDbDictionary
281
     1
  3
ACAD_COLOR
350
A73
  3
ACAD_GROUP
350
D
  3
ACAD_LAYOUT
350
633
  3
ACAD_MATERIAL
350
A72
  3
ACAD_MLINESTYLE
350
1A
  3
ACAD_PLOTSETTINGS
350
634
  3
ACAD_PLOTSTYLENAME
350
631
  3
ACAD_TABLESTYLE
350
A74
  3
AcadDim
350
A6B
  3
ACDBVARIABLEDICTIONARY
350
2E
  3
ASE_INDEX_DICTIONARY
350
A89
  0
DICTIONARY
  5
A73
102
{ACAD_REACTORS
330
C
102
}
330
C
100
AcDbDictionary
281
     1
  0
DICTIONARY
  5
D
102
{ACAD_REACTORS
330
C
102
}
330
C
100
AcDbDictionary
281
     1
  0
DICTIONARY
  5
633
102
{ACAD_REACTORS
330
C
102
}
330
C
100
AcDbDictionary
281
     1
  3
Layout1
350
636
  3
Model
350
635
  0
DICTIONARY
  5
A72
102
{ACAD_REACTORS
330
C
102
}
330
C
100
AcDbDictionary
281
     1
  0
DICTIONARY
  5
1A
102
{ACAD_REACTORS
330
C
102
}
330
C
100
AcDbDictionary
281
     1
  3
STANDARD
350
1B
  0
DICTIONARY
  5
634
102
{ACAD_REACTORS
330
C
102
}
330
C
100
AcDbDictionary
281
     1
  0
ACDBDICTIONARYWDFLT
  5
631
102
{ACAD_REACTORS
330
C
102
}
330
C
100
AcDbDictionary
281
     1
  3
Normal
350
632
100
AcDbDictionaryWithDefault
340
632
  0
DICTIONARY
  5
A74
102
{ACAD_REACTORS
330
C
102
}
330
C
100
AcDbDictionary
281
     1
  3
Standard
350
A75
  0
XRECORD
  5
A6B
102
{ACAD_REACTORS
330
C
102
}
330
C
100
AcDbXrecord
280
     1
 90
   990106
  3

 60
     0
 61
     0
 62
     1
 63
     3
 64
     0
 65
     0
 66
     0
 67
     3
 68
     1
 69
     0
 70
     0
 71
     0
 72
     0
 40
0.0
170
     0
340
A6D
  0
DICTIONARY
  5
2E
102
{ACAD_REACTORS
330
C
102
}
330
C
100
AcDbDictionary
281
     1
  3
CTABLESTYLE
350
A79
  3
DIMADEC
350
2F
  3
DIMASSOC
350
A3F
  0
DICTIONARY
  5
A89
102
{ACAD_REACTORS
330
C
102
}
330
C
100
AcDbDictionary
281
     1
  3
ASEBlockHierarchyIndexRecord
350
A8B
1001
DCO15
1040
1680405123.959
  0
LAYOUT
  5
636
102
{ACAD_REACTORS
330
633
102
}
330
633
100
AcDbPlotSettings
  1

  2
\\BEIJERS\LASER_12
  4

  6

 40
0.0
 41
0.0
 42
0.0
 43
0.0
 44
0.0
 45
0.0
 46
0.0
 47
0.0
 48
0.0
 49
0.0
140
0.0
141
0.0
142
1.0
143
1.0
 70
   688
 72
     0
 73
     0
 74
     5
  7
monochrome.ctb
 75
    16
147
1.0
 76
     0
 77
     2
 78
   300
148
0.0
149
0.0
100
AcDbLayout
  1
Layout1
 70
     0
 71
     1
 10
0.0
 20
0.0
 11
12.0
 21
9.0
 12
0.0
 22
0.0
 32
0.0
 14
1.000000000000000E+20
 24
1.000000000000000E+20
 34
1.000000000000000E+20
 15
-1.000000000000000E+20
 25
-1.000000000000000E+20
 35
-1.000000000000000E+20
146
0.0
 13
0.0
 23
0.0
 33
0.0
 16
1.0
 26
0.0
 36
0.0
 17
0.0
 27
1.0
 37
0.0
 76
     0
330
14
  0
LAYOUT
  5
635
102
{ACAD_REACTORS
330
633
102
}
330
633
100
AcDbPlotSettings
  1

  2
\\fdlsv03\FDLPR01-PCL
  4
Letter
  6

 40
6.297083377838134
 41
6.297093868255615
 42
6.297073364257812
 43
6.297088623046875
 44
215.8999938964844
 45
279.3999938964844
 46
0.0
 47
9.380288192950745
 48
0.0
 49
0.0
140
0.0
141
0.0
142
1.0
143
43.19325426847013
 70
 11956
 72
     0
 73
     1
 74
     1
  7
monochrome.ctb
 75
     0
147
0.0231517633236071
 76
     0
 77
     2
 78
   300
148
-125.6900602482379
149
254.5192907803237
100
AcDbLayout
  1
Model
 70
     1
 71
     0
 10
0.0
 20
0.0
 11
12.0
 21
9.0
 12
0.0
 22
0.0
 32
0.0
 14
0.0
 24
0.0
 34
0.0
 15
0.0
 25
0.0
 35
0.0
146
0.0
 13
0.0
 23
0.0
 33
0.0
 16
1.0
 26
0.0
 36
0.0
 17
0.0
 27
1.0
 37
0.0
 76
     0
330
17
1001
ACAD_PSEXT
1000
\\fdlsv03\FDLPR01-PCL
1000
Canon iR C5870 PCL5c
1000
FDL Color - 4th floor
1000
Color Canon iR 5870u
1070
     0
  0
MLINESTYLE
  5
1B
102
{ACAD_REACTORS
330
1A
102
}
330
1A
100
AcDbMlineStyle
  2
STANDARD
 70
     0
  3

 62
   256
 51
90.0
 52
90.0
 71
     2
 49
0.5
 62
   256
  6
BYLAYER
 49
-0.5
 62
   256
  6
BYLAYER
  0
ACDBPLACEHOLDER
  5
632
102
{ACAD_REACTORS
330
631
102
}
330
631
  0
TABLESTYLE
  5
A75
102
{ACAD_REACTORS
330
A74
102
}
330
A74
100
AcDbTableStyle
  3
Standard
 70
     0
 71
     8
 40
1.5
 41
1.5
280
     0
281
     0
  7
STANDARD
140
4.5
170
     2
 62
     0
 63
     7
283
     0
274
    -2
284
     1
 64
     0
275
    -2
285
     1
 65
     0
276
    -2
286
     1
 66
     0
277
    -2
287
     1
 67
     0
278
    -2
288
     1
 68
     0
279
    -2
289
     1
 69
     0
  7
STANDARD
140
6.0
170
     5
 62
     0
 63
     7
283
     0
274
    -2
284
     1
 64
     0
275
    -2
285
     1
 65
     0
276
    -2
286
     1
 66
     0
277
    -2
287
     1
 67
     0
278
    -2
288
     1
 68
     0
279
    -2
289
     1
 69
     0
  7
STANDARD
140
4.5
170
     5
 62
     0
 63
     7
283
     0
274
    -2
284
     1
 64
     0
275
    -2
285
     1
 65
     0
276
    -2
286
     1
 66
     0
277
    -2
287
     1
 67
     0
278
    -2
288
     1
 68
     0
279
    -2
289
     1
 69
     0
  0
DICTIONARYVAR
  5
A79
102
{ACAD_REACTORS
330
2E
102
}
330
2E
100
DictionaryVariables
280
     0
  1
STANDARD
  0
DICTIONARYVAR
  5
2F
102
{ACAD_REACTORS
330
2E
102
}
330
2E
100
DictionaryVariables
280
     0
  1
0
  0
DICTIONARYVAR
  5
A3F
102
{ACAD_REACTORS
330
2E
102
}
330
2E
100
DictionaryVariables
280
     0
  1
0
  0
XRECORD
  5
A8B
102
{ACAD_REACTORS
330
A89
102
}
330
A89
100
AcDbXrecord
280
     1
  0
ENDSEC
  0
EOF
