  0
SECTION
  2
HEADER
  9
$ACADVER
  1
AC1018
  9
$ACADMAINTVER
 70
    76
  9
$DWGCODEPAGE
  3
ANSI_1252
  9
$INSBASE
 10
0.0
 20
0.0
 30
0.0
  9
$EXTMIN
 10
37.99743808107155
 20
25.45471345709484
 30
-0.0000000000000129
  9
$EXTMAX
 10
207.003785235579
 20
157.5195322482841
 30
0.0000000000000023
  9
$LIMMIN
 10
-100.0
 20
-100.0
  9
$LIMMAX
 10
500.0
 20
500.0
  9
$ORTHOMODE
 70
     1
  9
$REGENMODE
 70
     1
  9
$FILLMODE
 70
     1
  9
$QTEXTMODE
 70
     0
  9
$MIRRTEXT
 70
     0
  9
$LTSCALE
 40
10.0
  9
$ATTMODE
 70
     1
  9
$TEXTSIZE
 40
4.0
  9
$TRACEWID
 40
0.05
  9
$TEXTSTYLE
  7
STANDARD
  9
$CLAYER
  8
NORMAL
  9
$CELTYPE
  6
BYLAYER
  9
$CECOLOR
 62
   256
  9
$CELTSCALE
 40
1.0
  9
$DISPSILH
 70
     0
  9
$DIMSCALE
 40
0.0
  9
$DIMASZ
 40
3.0
  9
$DIMEXO
 40
0.0
  9
$DIMDLI
 40
7.5
  9
$DIMRND
 40
0.0
  9
$DIMDLE
 40
0.0
  9
$DIMEXE
 40
1.0
  9
$DIMTP
 40
0.0
  9
$DIMTM
 40
0.0
  9
$DIMTXT
 40
2.399999999999999
  9
$DIMCEN
 40
3.0
  9
$DIMTSZ
 40
0.0
  9
$DIMTOL
 70
     0
  9
$DIMLIM
 70
     0
  9
$DIMTIH
 70
     0
  9
$DIMTOH
 70
     0
  9
$DIMSE1
 70
     0
  9
$DIMSE2
 70
     0
  9
$DIMTAD
 70
     1
  9
$DIMZIN
 70
     8
  9
$DIMBLK
  1

  9
$DIMASO
 70
     0
  9
$DIMSHO
 70
     0
  9
$DIMPOST
  1

  9
$DIMAPOST
  1

  9
$DIMALT
 70
     0
  9
$DIMALTD
 70
     2
  9
$DIMALTF
 40
25.4
  9
$DIMLFAC
 40
1.0
  9
$DIMTOFL
 70
     0
  9
$DIMTVP
 40
0.0
  9
$DIMTIX
 70
     0
  9
$DIMSOXD
 70
     0
  9
$DIMSAH
 70
     0
  9
$DIMBLK1
  1

  9
$DIMBLK2
  1

  9
$DIMSTYLE
  2
STANDARD
  9
$DIMCLRD
 70
     0
  9
$DIMCLRE
 70
     0
  9
$DIMCLRT
 70
     0
  9
$DIMTFAC
 40
1.0
  9
$DIMGAP
 40
1.0
  9
$DIMJUST
 70
     0
  9
$DIMSD1
 70
     0
  9
$DIMSD2
 70
     0
  9
$DIMTOLJ
 70
     1
  9
$DIMTZIN
 70
     8
  9
$DIMALTZ
 70
     0
  9
$DIMALTTZ
 70
     0
  9
$DIMUPT
 70
     0
  9
$DIMDEC
 70
     2
  9
$DIMTDEC
 70
     2
  9
$DIMALTU
 70
     2
  9
$DIMALTTD
 70
     2
  9
$DIMTXSTY
  7
STANDARD
  9
$DIMAUNIT
 70
     0
  9
$DIMADEC
 70
     0
  9
$DIMALTRND
 40
0.0
  9
$DIMAZIN
 70
     0
  9
$DIMDSEP
 70
    44
  9
$DIMATFIT
 70
     0
  9
$DIMFRAC
 70
     0
  9
$DIMLDRBLK
  1

  9
$DIMLUNIT
 70
     2
  9
$DIMLWD
 70
    -2
  9
$DIMLWE
 70
    -2
  9
$DIMTMOVE
 70
     0
  9
$LUNITS
 70
     2
  9
$LUPREC
 70
     2
  9
$SKETCHINC
 40
0.1
  9
$FILLETRAD
 40
8.0
  9
$AUNITS
 70
     0
  9
$AUPREC
 70
     0
  9
$MENU
  1
C:\ACADWIN\SUPPORT\ACAD
  9
$ELEVATION
 40
0.0
  9
$PELEVATION
 40
0.0
  9
$THICKNESS
 40
0.0
  9
$LIMCHECK
 70
     1
  9
$CHAMFERA
 40
0.0
  9
$CHAMFERB
 40
0.0
  9
$CHAMFERC
 40
0.0
  9
$CHAMFERD
 40
0.0
  9
$SKPOLY
 70
     0
  9
$TDCREATE
 40
2451716.416741690
  9
$TDUCREATE
 40
2451716.666741690
  9
$TDUPDATE
 40
2455247.335877095
  9
$TDUUPDATE
 40
2455247.585877095
  9
$TDINDWG
 40
0.0904757639
  9
$TDUSRTIMER
 40
0.0904755324
  9
$USRTIMER
 70
     1
  9
$ANGBASE
 50
0.0
  9
$ANGDIR
 70
     0
  9
$PDMODE
 70
     0
  9
$PDSIZE
 40
0.0
  9
$PLINEWID
 40
0.5
  9
$SPLFRAME
 70
     0
  9
$SPLINETYPE
 70
     6
  9
$SPLINESEGS
 70
     8
  9
$HANDSEED
  5
BC3
  9
$SURFTAB1
 70
     6
  9
$SURFTAB2
 70
     6
  9
$SURFTYPE
 70
     6
  9
$SURFU
 70
     6
  9
$SURFV
 70
     6
  9
$UCSBASE
  2

  9
$UCSNAME
  2

  9
$UCSORG
 10
0.0
 20
0.0
 30
0.0
  9
$UCSXDIR
 10
1.0
 20
0.0
 30
0.0
  9
$UCSYDIR
 10
0.0
 20
1.0
 30
0.0
  9
$UCSORTHOREF
  2

  9
$UCSORTHOVIEW
 70
     0
  9
$UCSORGTOP
 10
0.0
 20
0.0
 30
0.0
  9
$UCSORGBOTTOM
 10
0.0
 20
0.0
 30
0.0
  9
$UCSORGLEFT
 10
0.0
 20
0.0
 30
0.0
  9
$UCSORGRIGHT
 10
0.0
 20
0.0
 30
0.0
  9
$UCSORGFRONT
 10
0.0
 20
0.0
 30
0.0
  9
$UCSORGBACK
 10
0.0
 20
0.0
 30
0.0
  9
$PUCSBASE
  2

  9
$PUCSNAME
  2

  9
$PUCSORG
 10
0.0
 20
0.0
 30
0.0
  9
$PUCSXDIR
 10
1.0
 20
0.0
 30
0.0
  9
$PUCSYDIR
 10
0.0
 20
1.0
 30
0.0
  9
$PUCSORTHOREF
  2

  9
$PUCSORTHOVIEW
 70
     0
  9
$PUCSORGTOP
 10
0.0
 20
0.0
 30
0.0
  9
$PUCSORGBOTTOM
 10
0.0
 20
0.0
 30
0.0
  9
$PUCSORGLEFT
 10
0.0
 20
0.0
 30
0.0
  9
$PUCSORGRIGHT
 10
0.0
 20
0.0
 30
0.0
  9
$PUCSORGFRONT
 10
0.0
 20
0.0
 30
0.0
  9
$PUCSORGBACK
 10
0.0
 20
0.0
 30
0.0
  9
$USERI1
 70
     0
  9
$USERI2
 70
     0
  9
$USERI3
 70
     0
  9
$USERI4
 70
     0
  9
$USERI5
 70
     0
  9
$USERR1
 40
0.0
  9
$USERR2
 40
0.0
  9
$USERR3
 40
0.0
  9
$USERR4
 40
0.0
  9
$USERR5
 40
0.0
  9
$WORLDVIEW
 70
     1
  9
$SHADEDGE
 70
     3
  9
$SHADEDIF
 70
    70
  9
$TILEMODE
 70
     1
  9
$MAXACTVP
 70
    16
  9
$PINSBASE
 10
0.0
 20
0.0
 30
0.0
  9
$PLIMCHECK
 70
     0
  9
$PEXTMIN
 10
1.000000000000000E+20
 20
1.000000000000000E+20
 30
1.000000000000000E+20
  9
$PEXTMAX
 10
-1.000000000000000E+20
 20
-1.000000000000000E+20
 30
-1.000000000000000E+20
  9
$PLIMMIN
 10
0.0
 20
0.0
  9
$PLIMMAX
 10
12.0
 20
9.0
  9
$UNITMODE
 70
     0
  9
$VISRETAIN
 70
     0
  9
$PLINEGEN
 70
     0
  9
$PSLTSCALE
 70
     0
  9
$TREEDEPTH
 70
  3020
  9
$CMLSTYLE
  2
STANDARD
  9
$CMLJUST
 70
     0
  9
$CMLSCALE
 40
1.0
  9
$PROXYGRAPHICS
 70
     1
  9
$MEASUREMENT
 70
     1
  9
$CELWEIGHT
370
    -1
  9
$ENDCAPS
280
     0
  9
$JOINSTYLE
280
     0
  9
$LWDISPLAY
290
     0
  9
$INSUNITS
 70
     0
  9
$HYPERLINKBASE
  1

  9
$STYLESHEET
  1
monochrome.ctb
  9
$XEDIT
290
     1
  9
$CEPSNTYPE
380
     0
  9
$PSTYLEMODE
290
     1
  9
$FINGERPRINTGUID
  2
{5CFF9579-32CE-11D4-BBB0-0060087DD5EC}
  9
$VERSIONGUID
  2
{491827E5-A004-4F53-B3F6-654A832F3A55}
  9
$EXTNAMES
290
     1
  9
$PSVPSCALE
 40
0.0
  9
$OLESTARTUP
290
     0
  9
$SORTENTS
280
   127
  9
$INDEXCTL
280
     0
  9
$HIDETEXT
280
     0
  9
$XCLIPFRAME
290
     0
  9
$HALOGAP
280
     0
  9
$OBSCOLOR
 70
   257
  9
$OBSLTYPE
280
     0
  9
$INTERSECTIONDISPLAY
280
     0
  9
$INTERSECTIONCOLOR
 70
   257
  9
$DIMASSOC
280
     0
  9
$PROJECTNAME
  1

  0
ENDSEC
  0
SECTION
  2
CLASSES
  0
CLASS
  1
DICTIONARYVAR
  2
AcDbDictionaryVar
  3
ObjectDBX Classes
 90
        0
 91
        3
280
     0
281
     0
  0
CLASS
  1
ACDBDICTIONARYWDFLT
  2
AcDbDictionaryWithDefault
  3
ObjectDBX Classes
 90
        0
 91
        1
280
     0
281
     0
  0
CLASS
  1
TABLESTYLE
  2
AcDbTableStyle
  3
ObjectDBX Classes
 90
     2047
 91
        1
280
     0
281
     0
  0
ENDSEC
  0
SECTION
  2
TABLES
  0
TABLE
  2
VPORT
  5
8
330
0
100
AcDbSymbolTable
 70
     7
  0
VPORT
  5
BC2
330
8
100
AcDbSymbolTableRecord
100
AcDbViewportTableRecord
  2
*Active
 70
     0
 10
0.0
 20
0.0
 11
1.0
 21
1.0
 12
113.4826673118895
 22
78.73840457612937
 13
0.0
 23
0.0
 14
0.5
 24
0.5
 15
10.0
 25
10.0
 16
0.0
 26
0.0
 36
1.0
 17
0.0
 27
0.0
 37
0.0
 40
159.1454910425673
 41
1.730337078651685
 42
50.0
 43
0.0
 44
0.0
 50
0.0
 51
0.0
 71
     0
 72
   100
 73
     1
 74
     0
 75
     1
 76
     0
 77
     0
 78
     0
281
     0
 65
     1
110
0.0
120
0.0
130
0.0
111
1.0
121
0.0
131
0.0
112
0.0
122
1.0
132
0.0
 79
     0
146
0.0
  0
ENDTAB
  0
TABLE
  2
LTYPE
  5
5
330
0
100
AcDbSymbolTable
 70
     3
  0
LTYPE
  5
11
330
5
100
AcDbSymbolTableRecord
100
AcDbLinetypeTableRecord
  2
BYBLOCK
 70
     0
  3

 72
    65
 73
     0
 40
0.0
  0
LTYPE
  5
12
330
5
100
AcDbSymbolTableRecord
100
AcDbLinetypeTableRecord
  2
BYLAYER
 70
     0
  3

 72
    65
 73
     0
 40
0.0
  0
LTYPE
  5
13
330
5
100
AcDbSymbolTableRecord
100
AcDbLinetypeTableRecord
  2
CONTINUOUS
 70
     0
  3
Solid line
 72
    65
 73
     0
 40
0.0
  0
LTYPE
  5
3EC
330
5
100
AcDbSymbolTableRecord
100
AcDbLinetypeTableRecord
  2
DASHDOT
 70
     0
  3
Dash dot __ . __ . __ . __ . __ . __ . __ . __
 72
    65
 73
     4
 40
1.0
 49
0.5
 74
     0
 49
-0.25
 74
     0
 49
0.0
 74
     0
 49
-0.25
 74
     0
  0
LTYPE
  5
3ED
330
5
100
AcDbSymbolTableRecord
100
AcDbLinetypeTableRecord
  2
HIDDEN
 70
     0
  3
Hidden __ __ __ __ __ __ __ __ __ __ __ __ __ _
 72
    65
 73
     2
 40
0.375
 49
0.25
 74
     0
 49
-0.125
 74
     0
  0
ENDTAB
  0
TABLE
  2
LAYER
  5
2
330
0
100
AcDbSymbolTable
 70
     2
  0
LAYER
  5
E
330
2
100
AcDbSymbolTableRecord
100
AcDbLayerTableRecord
  2
0
 70
     0
 62
     2
  6
CONTINUOUS
370
    -3
390
893
  0
LAYER
  5
29
330
2
100
AcDbSymbolTableRecord
100
AcDbLayerTableRecord
  2
NORMAL
 70
     0
 62
     2
  6
CONTINUOUS
370
    -3
390
893
  0
ENDTAB
  0
TABLE
  2
STYLE
  5
3
330
0
100
AcDbSymbolTable
 70
     5
  0
STYLE
  5
F
330
3
100
AcDbSymbolTableRecord
100
AcDbTextStyleTableRecord
  2
STANDARD
 70
     0
 40
0.0
 41
1.0
 50
0.0
 71
     0
 42
4.0
  3
simplex
  4

  0
STYLE
  5
1E
330
3
100
AcDbSymbolTableRecord
100
AcDbTextStyleTableRecord
  2
ROMAND
 70
     0
 40
0.0
 41
1.0
 50
0.0
 71
     0
 42
3.0
  3
romand.shx
  4

  0
STYLE
  5
A8C
330
3
100
AcDbSymbolTableRecord
100
AcDbTextStyleTableRecord
  2
Arial
 70
     0
 40
0.0
 41
1.0
 50
0.0
 71
     0
 42
3.0
  3
ARIAL.TTF
  4

1001
ACAD
1000
Arial
1071
       34
  0
ENDTAB
  0
TABLE
  2
VIEW
  5
6
330
0
100
AcDbSymbolTable
 70
     0
  0
ENDTAB
  0
TABLE
  2
UCS
  5
7
330
0
100
AcDbSymbolTable
 70
     0
  0
ENDTAB
  0
TABLE
  2
APPID
  5
9
330
0
100
AcDbSymbolTable
 70
     5
  0
APPID
  5
10
330
9
100
AcDbSymbolTableRecord
100
AcDbRegAppTableRecord
  2
ACAD
 70
     0
  0
APPID
  5
2E6
330
9
100
AcDbSymbolTableRecord
100
AcDbRegAppTableRecord
  2
CONTENTTABDATA
 70
     0
  0
APPID
  5
2E7
330
9
100
AcDbSymbolTableRecord
100
AcDbRegAppTableRecord
  2
CONTENTCURRENTTAB
 70
     0
  0
APPID
  5
337
330
9
100
AcDbSymbolTableRecord
100
AcDbRegAppTableRecord
  2
CONTENTBLOCKDESCRIPTION
 70
     0
  0
APPID
  5
BA5
330
9
100
AcDbSymbolTableRecord
100
AcDbRegAppTableRecord
  2
ACAD_PSEXT
 70
     0
  0
ENDTAB
  0
TABLE
  2
DIMSTYLE
  5
A
330
0
100
AcDbSymbolTable
 70
     3
100
AcDbDimStyleTable
 71
     1
340
298
  0
DIMSTYLE
105
298
330
A
100
AcDbSymbolTableRecord
100
AcDbDimStyleTableRecord
  2
STANDARD
 70
     0
340
F
  0
ENDTAB
  0
TABLE
  2
BLOCK_RECORD
  5
1
330
0
100
AcDbSymbolTable
 70
     2
  0
BLOCK_RECORD
  5
17
330
1
100
AcDbSymbolTableRecord
100
AcDbBlockTableRecord
  2
*MODEL_SPACE
340
896
  0
BLOCK_RECORD
  5
14
330
1
100
AcDbSymbolTableRecord
100
AcDbBlockTableRecord
  2
*PAPER_SPACE
340
897
  0
ENDTAB
  0
ENDSEC
  0
SECTION
  2
BLOCKS
  0
BLOCK
  5
2C
330
17
100
AcDbEntity
  8
0
100
AcDbBlockBegin
  2
*MODEL_SPACE
 70
     0
 10
0.0
 20
0.0
 30
0.0
  3
*MODEL_SPACE
  1

  0
ENDBLK
  5
2D
330
17
100
AcDbEntity
  8
0
100
AcDbBlockEnd
  0
BLOCK
  5
2A
330
14
100
AcDbEntity
 67
     1
  8
0
100
AcDbBlockBegin
  2
*PAPER_SPACE
 70
     0
 10
0.0
 20
0.0
 30
0.0
  3
*PAPER_SPACE
  1

  0
ENDBLK
  5
2B
330
14
100
AcDbEntity
 67
     1
  8
0
100
AcDbBlockEnd
  0
ENDSEC
  0
SECTION
  2
ENTITIES
  0
LEADER
  5
B02
330
17
100
AcDbEntity
  8
NORMAL
 62
     7
100
AcDbLeader
  3
STANDARD
 73
     0
 75
     1
 40
2.399999999999999
 41
13.59999999999999
 76
     3
 10
162.5
 20
39.5
 30
0.0
 10
157.0
 20
46.5
 30
0.0
 10
154.0
 20
46.5
 30
0.0
340
B03
213
0.0
223
1.199999999999999
233
0.0
1001
ACAD
1000
DSTYLE
1002
{
1070
    41
1040
3.0
1070
    42
1040
0.0
1070
    43
1040
7.5
1070
    44
1040
1.0
1070
    73
1070
     0
1070
    74
1070
     0
1070
    78
1070
     8
1070
   140
1040
2.399999999999999
1070
   141
1040
3.0
1070
   147
1040
1.0
1070
   271
1070
     2
1070
   272
1070
     2
1070
   278
1070
    44
1070
   284
1070
     8
1070
   289
1070
     0
1002
}
  0
MTEXT
  5
B03
102
{ACAD_REACTORS
330
B02
102
}
330
17
100
AcDbEntity
  8
NORMAL
 62
     7
100
AcDbMText
 10
153.0
 20
45.3
 30
0.0
 40
2.399999999999999
 41
0.0
 71
     9
 72
     1
  1
Cut out
 73
     1
 44
1.0
  0
LEADER
  5
B04
330
17
100
AcDbEntity
  8
NORMAL
 62
     7
100
AcDbLeader
  3
STANDARD
 73
     0
 75
     1
 40
2.399999999999999
 41
28.68571428571428
 76
     3
 10
162.5
 20
31.5
 30
0.0
 10
158.5
 20
36.5
 30
0.0
 10
155.5
 20
36.5
 30
0.0
340
B05
213
0.0
223
1.199999999999999
233
0.0
1001
ACAD
1000
DSTYLE
1002
{
1070
    41
1040
3.0
1070
    42
1040
0.0
1070
    43
1040
7.5
1070
    44
1040
1.0
1070
    73
1070
     0
1070
    74
1070
     0
1070
    78
1070
     8
1070
   140
1040
2.399999999999999
1070
   141
1040
3.0
1070
   147
1040
1.0
1070
   271
1070
     2
1070
   272
1070
     2
1070
   278
1070
    44
1070
   284
1070
     8
1070
   289
1070
     0
1002
}
  0
MTEXT
  5
B05
102
{ACAD_REACTORS
330
B04
102
}
330
17
100
AcDbEntity
  8
NORMAL
 62
     7
100
AcDbMText
 10
154.5
 20
35.3
 30
0.0
 40
2.399999999999999
 41
0.0
 71
     9
 72
     1
  1
Terminal outline
 73
     1
 44
1.0
  0
TEXT
  5
B06
330
17
100
AcDbEntity
  8
NORMAL
 62
     7
100
AcDbText
 10
89.52796725784446
 20
128.0
 30
0.0
 40
4.0
  1
Panel cut out for 3.5" display
  7
Arial
 72
     1
 11
125.0
 21
130.0
 31
0.0
100
AcDbText
 73
     2
  0
TEXT
  5
B07
330
17
100
AcDbEntity
  8
NORMAL
 62
     7
100
AcDbText
 10
111.6466575716234
 20
118.0
 30
0.0
 40
4.0
  1
Front View
  7
Arial
 72
     1
 11
125.0
 21
120.0
 31
0.0
100
AcDbText
 73
     2
  0
TEXT
  5
B08
330
17
100
AcDbEntity
  8
NORMAL
 62
     7
100
AcDbText
 10
113.3506139154161
 20
108.0
 30
0.0
 40
4.0
  1
Scale 1:1
  7
Arial
 72
     1
 11
125.0
 21
110.0
 31
0.0
100
AcDbText
 73
     2
  0
LINE
  5
B0D
330
17
100
AcDbEntity
  8
NORMAL
  6
DASHDOT
 62
     7
100
AcDbLine
 10
122.5
 20
91.5
 30
0.0
 11
122.5
 21
101.5
 31
0.0
  0
LINE
  5
B0E
330
17
100
AcDbEntity
  8
NORMAL
  6
DASHDOT
 62
     7
100
AcDbLine
 10
122.5
 20
91.5
 30
0.0
 11
132.5
 21
91.5
 31
0.0
  0
LINE
  5
B0F
330
17
100
AcDbEntity
  8
NORMAL
  6
DASHDOT
 62
     7
100
AcDbLine
 10
122.5
 20
91.5
 30
0.0
 11
122.5
 21
81.5
 31
0.0
  0
LINE
  5
B10
330
17
100
AcDbEntity
  8
NORMAL
  6
DASHDOT
 62
     7
100
AcDbLine
 10
122.5
 20
91.5
 30
0.0
 11
112.5
 21
91.5
 31
0.0
  0
LEADER
  5
B12
330
17
100
AcDbEntity
  8
NORMAL
 62
     7
100
AcDbLeader
  3
STANDARD
 73
     0
 74
     0
 75
     1
 40
2.4
 41
28.22857142857142
 76
     3
 10
123.5
 20
90.5
 30
0.0
 10
127.0
 20
85.49999999999998
 30
0.0
 10
130.0
 20
85.49999999999998
 30
0.0
340
B13
213
0.0
223
-1.199999999999999
233
0.0
1001
ACAD
1000
DSTYLE
1002
{
1070
    41
1040
3.0
1070
    42
1040
0.0
1070
    43
1040
7.5
1070
    44
1040
1.0
1070
    73
1070
     0
1070
    74
1070
     0
1070
    78
1070
     8
1070
   140
1040
2.399999999999999
1070
   141
1040
3.0
1070
   147
1040
1.0
1070
   271
1070
     2
1070
   272
1070
     2
1070
   278
1070
    44
1070
   284
1070
     8
1070
   289
1070
     0
1002
}
  0
MTEXT
  5
B13
102
{ACAD_REACTORS
330
B12
102
}
330
17
100
AcDbEntity
  8
NORMAL
 62
     7
100
AcDbMText
 10
131.0
 20
86.69999999999999
 30
0.0
 40
2.399999999999999
 41
0.0
 71
     1
 72
     1
  1
Terminal center
 73
     1
 44
1.0
  0
LWPOLYLINE
  5
B38
330
17
100
AcDbEntity
  8
NORMAL
 62
     7
100
AcDbPolyline
 90
        4
 70
     1
 43
0.5
 10
53.0
 20
39.0
 10
192.0
 20
39.0
 10
192.0
 20
144.0
 10
53.0
 20
144.0
  0
LINE
  5
B3D
330
17
100
AcDbEntity
  8
NORMAL
 62
     7
100
AcDbLine
 10
52.0
 20
31.5
 30
0.0
 11
193.0
 21
31.5
 31
0.0
  0
LINE
  5
B3E
330
17
100
AcDbEntity
  8
NORMAL
 62
     7
100
AcDbLine
 10
201.0
 20
39.5
 30
0.0
 11
201.0
 21
143.5
 31
0.0
  0
LINE
  5
B3F
330
17
100
AcDbEntity
  8
NORMAL
 62
     7
100
AcDbLine
 10
193.0
 20
151.5
 30
0.0
 11
52.0
 21
151.5
 31
0.0
  0
LINE
  5
B40
330
17
100
AcDbEntity
  8
NORMAL
 62
     7
100
AcDbLine
 10
44.0
 20
143.5
 30
0.0
 11
44.0
 21
39.5
 31
0.0
  0
ARC
  5
B42
330
17
100
AcDbEntity
  8
NORMAL
 62
     7
100
AcDbCircle
 10
193.0
 20
143.5
 30
0.0
 40
8.0
100
AcDbArc
 50
0.0
 51
90.0
  0
ARC
  5
B43
330
17
100
AcDbEntity
  8
NORMAL
 62
     7
100
AcDbCircle
 10
52.0
 20
143.5
 30
0.0
 40
8.0
100
AcDbArc
 50
90.0
 51
180.0
  0
ARC
  5
B44
330
17
100
AcDbEntity
  8
NORMAL
 62
     7
100
AcDbCircle
 10
52.0
 20
39.5
 30
0.0
 40
8.0
100
AcDbArc
 50
180.0
 51
270.0
  0
ARC
  5
B45
330
17
100
AcDbEntity
  8
NORMAL
 62
     7
100
AcDbCircle
 10
193.0
 20
39.5
 30
0.0
 40
8.0
100
AcDbArc
 50
270.0
 51
0.0
  0
LINE
  5
B46
330
17
100
AcDbEntity
  8
NORMAL
 62
     7
100
AcDbLine
 10
53.0
 20
65.5
 30
0.0
 11
53.0
 21
63.5
 31
0.0
  0
LINE
  5
B47
330
17
100
AcDbEntity
  8
NORMAL
 62
     7
100
AcDbLine
 10
192.0
 20
64.0
 30
0.0
 11
192.0
 21
65.5
 31
0.0
  0
LINE
  5
B48
330
17
100
AcDbEntity
  8
NORMAL
 62
     7
100
AcDbLine
 10
56.0
 20
64.5
 30
0.0
 11
189.0
 21
64.5
 31
0.0
  0
SOLID
  5
B49
330
17
100
AcDbEntity
  8
NORMAL
 62
     7
100
AcDbTrace
 10
56.0
 20
65.0
 30
0.0
 11
56.0
 21
64.0
 31
0.0
 12
53.0
 22
64.5
 32
0.0
 13
53.0
 23
64.5
 33
0.0
  0
SOLID
  5
B4A
330
17
100
AcDbEntity
  8
NORMAL
 62
     7
100
AcDbTrace
 10
189.0
 20
65.0
 30
0.0
 11
189.0
 21
64.0
 31
0.0
 12
192.0
 22
64.5
 32
0.0
 13
192.0
 23
64.5
 33
0.0
  0
MTEXT
  5
B4B
330
17
100
AcDbEntity
  8
NORMAL
 62
     7
100
AcDbMText
 10
122.5
 20
67.32857142857142
 30
0.0
 40
2.399999999999999
 41
0.0
 71
     5
 72
     1
  1
139%%p1 (5.47%%p0.04)
 73
     1
 44
1.0
  0
LINE
  5
B4C
330
17
100
AcDbEntity
  8
NORMAL
 62
     7
100
AcDbLine
 10
201.0
 20
70.5
 30
0.0
 11
201.0
 21
71.5
 31
0.0
  0
LINE
  5
B4D
330
17
100
AcDbEntity
  8
NORMAL
 62
     7
100
AcDbLine
 10
192.0
 20
70.5
 30
0.0
 11
192.0
 21
71.5
 31
0.0
  0
LINE
  5
B4E
330
17
100
AcDbEntity
  8
NORMAL
 62
     7
100
AcDbLine
 10
204.0
 20
70.5
 30
0.0
 11
207.0
 21
70.5
 31
0.0
  0
LINE
  5
B4F
330
17
100
AcDbEntity
  8
NORMAL
 62
     7
100
AcDbLine
 10
189.0
 20
70.5
 30
0.0
 11
173.1428571428571
 21
70.5
 31
0.0
  0
SOLID
  5
B50
330
17
100
AcDbEntity
  8
NORMAL
 62
     7
100
AcDbTrace
 10
204.0
 20
71.0
 30
0.0
 11
204.0
 21
70.0
 31
0.0
 12
201.0
 22
70.5
 32
0.0
 13
201.0
 23
70.5
 33
0.0
  0
SOLID
  5
B51
330
17
100
AcDbEntity
  8
NORMAL
 62
     7
100
AcDbTrace
 10
189.0
 20
71.0
 30
0.0
 11
189.0
 21
70.0
 31
0.0
 12
192.0
 22
70.5
 32
0.0
 13
192.0
 23
70.5
 33
0.0
  0
MTEXT
  5
B52
330
17
100
AcDbEntity
  8
NORMAL
 62
     7
100
AcDbMText
 10
181.5714285714286
 20
73.32857142857142
 30
0.0
 40
2.399999999999999
 41
0.0
 71
     5
 72
     1
  1
\A1;9 (0.35)
 73
     1
 44
1.0
  0
LINE
  5
B53
330
17
100
AcDbEntity
  8
NORMAL
 62
     7
100
AcDbLine
 10
44.0
 20
70.0
 30
0.0
 11
44.0
 21
71.5
 31
0.0
  0
LINE
  5
B54
330
17
100
AcDbEntity
  8
NORMAL
 62
     7
100
AcDbLine
 10
53.0
 20
70.0
 30
0.0
 11
53.0
 21
71.5
 31
0.0
  0
LINE
  5
B55
330
17
100
AcDbEntity
  8
NORMAL
 62
     7
100
AcDbLine
 10
41.0
 20
70.5
 30
0.0
 11
38.0
 21
70.5
 31
0.0
  0
LINE
  5
B56
330
17
100
AcDbEntity
  8
NORMAL
 62
     7
100
AcDbLine
 10
56.0
 20
70.5
 30
0.0
 11
75.85714285714286
 21
70.5
 31
0.0
  0
SOLID
  5
B57
330
17
100
AcDbEntity
  8
NORMAL
 62
     7
100
AcDbTrace
 10
41.0
 20
71.0
 30
0.0
 11
41.0
 21
70.0
 31
0.0
 12
44.0
 22
70.5
 32
0.0
 13
44.0
 23
70.5
 33
0.0
  0
SOLID
  5
B58
330
17
100
AcDbEntity
  8
NORMAL
 62
     7
100
AcDbTrace
 10
56.0
 20
71.0
 30
0.0
 11
56.0
 21
70.0
 31
0.0
 12
53.0
 22
70.5
 32
0.0
 13
53.0
 23
70.5
 33
0.0
  0
MTEXT
  5
B59
330
17
100
AcDbEntity
  8
NORMAL
 62
     7
100
AcDbMText
 10
67.42857142857143
 20
73.32857142857142
 30
0.0
 40
2.399999999999999
 41
0.0
 71
     5
 72
     1
  1
\A1;9 (0.35)
 73
     1
 44
1.0
  0
LINE
  5
B5A
330
17
100
AcDbEntity
  8
NORMAL
 62
     7
100
AcDbLine
 10
192.0
 20
144.0
 30
0.0
 11
170.5
 21
144.0
 31
0.0
  0
LINE
  5
B5B
330
17
100
AcDbEntity
  8
NORMAL
 62
     7
100
AcDbLine
 10
192.0
 20
39.0
 30
0.0
 11
170.5
 21
39.00000000000001
 31
0.0
  0
LINE
  5
B5C
330
17
100
AcDbEntity
  8
NORMAL
 62
     7
100
AcDbLine
 10
171.5
 20
141.0
 30
0.0
 11
171.5
 21
42.00000000000001
 31
0.0
  0
SOLID
  5
B5D
330
17
100
AcDbEntity
  8
NORMAL
 62
     7
100
AcDbTrace
 10
171.0
 20
141.0
 30
0.0
 11
172.0
 21
141.0
 31
0.0
 12
171.5
 22
144.0
 32
0.0
 13
171.5
 23
144.0
 33
0.0
  0
SOLID
  5
B5E
330
17
100
AcDbEntity
  8
NORMAL
 62
     7
100
AcDbTrace
 10
171.0
 20
42.00000000000001
 30
0.0
 11
172.0
 21
42.00000000000001
 31
0.0
 12
171.5
 22
39.00000000000001
 32
0.0
 13
171.5
 23
39.00000000000001
 33
0.0
  0
MTEXT
  5
B5F
330
17
100
AcDbEntity
  8
NORMAL
 62
     7
100
AcDbMText
 10
168.6714285714286
 20
91.50000000000003
 30
0.0
 40
2.399999999999999
 41
0.0
 71
     5
 72
     1
  1
105±1 (4.13±0.04)
 11
0.0000000000000001
 21
1.0
 31
0.0
 73
     1
 44
1.0
  0
LINE
  5
B60
330
17
100
AcDbEntity
  8
NORMAL
 62
     7
100
AcDbLine
 10
179.5
 20
151.5
 30
0.0
 11
178.5
 21
151.5
 31
0.0
  0
LINE
  5
B61
330
17
100
AcDbEntity
  8
NORMAL
 62
     7
100
AcDbLine
 10
179.5
 20
144.0
 30
0.0
 11
178.5
 21
144.0
 31
0.0
  0
LINE
  5
B62
330
17
100
AcDbEntity
  8
NORMAL
 62
     7
100
AcDbLine
 10
179.5
 20
154.5
 30
0.0
 11
179.5
 21
157.5
 31
0.0
  0
LINE
  5
B63
330
17
100
AcDbEntity
  8
NORMAL
 62
     7
100
AcDbLine
 10
179.5
 20
141.0
 30
0.0
 11
179.5
 21
122.2142857142857
 31
0.0
  0
SOLID
  5
B64
330
17
100
AcDbEntity
  8
NORMAL
 62
     7
100
AcDbTrace
 10
179.0
 20
154.5
 30
0.0
 11
180.0
 21
154.5
 31
0.0
 12
179.5
 22
151.5
 32
0.0
 13
179.5
 23
151.5
 33
0.0
  0
SOLID
  5
B65
330
17
100
AcDbEntity
  8
NORMAL
 62
     7
100
AcDbTrace
 10
179.0
 20
141.0
 30
0.0
 11
180.0
 21
141.0
 31
0.0
 12
179.5
 22
144.0
 32
0.0
 13
179.5
 23
144.0
 33
0.0
  0
MTEXT
  5
B66
330
17
100
AcDbEntity
  8
NORMAL
 62
     7
100
AcDbMText
 10
176.6714285714285
 20
132.3571428571429
 30
0.0
 40
2.399999999999999
 41
0.0
 71
     5
 72
     1
  1
\A1;7,5 (0.30)
 11
0.0000000000000001
 21
1.0
 31
0.0
 73
     1
 44
1.0
  0
LINE
  5
B67
330
17
100
AcDbEntity
  8
NORMAL
 62
     7
100
AcDbLine
 10
179.5
 20
31.5
 30
0.0
 11
178.5
 21
31.5
 31
0.0
  0
LINE
  5
B68
330
17
100
AcDbEntity
  8
NORMAL
 62
     7
100
AcDbLine
 10
179.5
 20
39.0
 30
0.0
 11
178.5
 21
39.0
 31
0.0
  0
LINE
  5
B69
330
17
100
AcDbEntity
  8
NORMAL
 62
     7
100
AcDbLine
 10
179.5
 20
28.5
 30
0.0
 11
179.5
 21
25.5
 31
0.0
  0
LINE
  5
B6A
330
17
100
AcDbEntity
  8
NORMAL
 62
     7
100
AcDbLine
 10
179.5
 20
42.0
 30
0.0
 11
179.5
 21
62.28571428571429
 31
0.0
  0
SOLID
  5
B6B
330
17
100
AcDbEntity
  8
NORMAL
 62
     7
100
AcDbTrace
 10
179.0
 20
28.5
 30
0.0
 11
180.0
 21
28.5
 31
0.0
 12
179.5
 22
31.5
 32
0.0
 13
179.5
 23
31.5
 33
0.0
  0
SOLID
  5
B6C
330
17
100
AcDbEntity
  8
NORMAL
 62
     7
100
AcDbTrace
 10
179.0
 20
42.0
 30
0.0
 11
180.0
 21
42.0
 31
0.0
 12
179.5
 22
39.0
 32
0.0
 13
179.5
 23
39.0
 33
0.0
  0
MTEXT
  5
B6D
330
17
100
AcDbEntity
  8
NORMAL
 62
     7
100
AcDbMText
 10
176.6714285714286
 20
52.14285714285717
 30
0.0
 40
2.399999999999999
 41
0.0
 71
     5
 72
     1
  1
\A1;7,5 (0.30)
 11
0.0000000000000001
 21
1.0
 31
0.0
 73
     1
 44
1.0
  0
ENDSEC
  0
SECTION
  2
OBJECTS
  0
DICTIONARY
  5
C
330
0
100
AcDbDictionary
281
     1
  3
ACAD_COLOR
350
B7C
  3
ACAD_GROUP
350
D
  3
ACAD_LAYOUT
350
894
  3
ACAD_MATERIAL
350
B7B
  3
ACAD_MLINESTYLE
350
1A
  3
ACAD_PLOTSETTINGS
350
895
  3
ACAD_PLOTSTYLENAME
350
892
  3
ACAD_TABLESTYLE
350
B7D
  3
AcadDim
350
B11
  3
ACDBVARIABLEDICTIONARY
350
2E
  3
CONTENTDICTIONARY
350
2E5
  0
DICTIONARY
  5
B7C
102
{ACAD_REACTORS
330
C
102
}
330
C
100
AcDbDictionary
281
     1
  0
DICTIONARY
  5
D
102
{ACAD_REACTORS
330
C
102
}
330
C
100
AcDbDictionary
281
     1
  0
DICTIONARY
  5
894
102
{ACAD_REACTORS
330
C
102
}
330
C
100
AcDbDictionary
281
     1
  3
Layout1
350
897
  3
Model
350
896
  0
DICTIONARY
  5
B7B
102
{ACAD_REACTORS
330
C
102
}
330
C
100
AcDbDictionary
281
     1
  0
DICTIONARY
  5
1A
102
{ACAD_REACTORS
330
C
102
}
330
C
100
AcDbDictionary
281
     1
  3
STANDARD
350
1B
  0
DICTIONARY
  5
895
102
{ACAD_REACTORS
330
C
102
}
330
C
100
AcDbDictionary
281
     1
  0
ACDBDICTIONARYWDFLT
  5
892
102
{ACAD_REACTORS
330
C
102
}
330
C
100
AcDbDictionary
281
     1
  3
Normal
350
893
100
AcDbDictionaryWithDefault
340
893
  0
DICTIONARY
  5
B7D
102
{ACAD_REACTORS
330
C
102
}
330
C
100
AcDbDictionary
281
     1
  3
Standard
350
B7E
  0
XRECORD
  5
B11
102
{ACAD_REACTORS
330
C
102
}
330
C
100
AcDbXrecord
280
     1
 90
   990106
  3

 60
     0
 61
     0
 62
     1
 63
     3
 64
     0
 65
     0
 66
     0
 67
     3
 68
     1
 69
     0
 70
     0
 71
     0
 72
     0
 40
0.0
170
     0
340
B13
  0
DICTIONARY
  5
2E
102
{ACAD_REACTORS
330
C
102
}
330
C
100
AcDbDictionary
281
     1
  3
CTABLESTYLE
350
B82
  3
DIMADEC
350
2F
  3
DIMASSOC
350
B15
  0
DICTIONARY
  5
2E5
102
{ACAD_REACTORS
330
C
102
}
330
C
100
AcDbDictionary
281
     1
  0
LAYOUT
  5
897
102
{ACAD_REACTORS
330
894
102
}
330
894
100
AcDbPlotSettings
  1

  2
\\BEIJERS\LASER_12
  4

  6

 40
0.0
 41
0.0
 42
0.0
 43
0.0
 44
0.0
 45
0.0
 46
0.0
 47
0.0
 48
0.0
 49
0.0
140
0.0
141
0.0
142
1.0
143
1.0
 70
   688
 72
     0
 73
     0
 74
     5
  7
monochrome.ctb
 75
    16
147
1.0
 76
     0
 77
     2
 78
   300
148
0.0
149
0.0
100
AcDbLayout
  1
Layout1
 70
     0
 71
     1
 10
0.0
 20
0.0
 11
12.0
 21
9.0
 12
0.0
 22
0.0
 32
0.0
 14
1.000000000000000E+20
 24
1.000000000000000E+20
 34
1.000000000000000E+20
 15
-1.000000000000000E+20
 25
-1.000000000000000E+20
 35
-1.000000000000000E+20
146
0.0
 13
0.0
 23
0.0
 33
0.0
 16
1.0
 26
0.0
 36
0.0
 17
0.0
 27
1.0
 37
0.0
 76
     0
330
14
  0
LAYOUT
  5
896
102
{ACAD_REACTORS
330
894
102
}
330
894
100
AcDbPlotSettings
  1

  2
\\fdlsv03\FDLPR01-PCL
  4
Letter
  6

 40
6.297083377838134
 41
6.297093868255615
 42
6.297073364257812
 43
6.297088623046875
 44
215.8999938964844
 45
279.3999938964844
 46
0.0
 47
3.31535775774545
 48
0.0
 49
0.0
140
0.0
141
0.0
142
1.0
143
16.49950854460157
 70
 11956
 72
     0
 73
     1
 74
     1
  7
monochrome.ctb
 75
     0
147
0.0606078658219906
 76
     0
 77
     2
 78
   300
148
-965.1349272592172
149
-646.5497218102089
100
AcDbLayout
  1
Model
 70
     1
 71
     0
 10
0.0
 20
0.0
 11
12.0
 21
9.0
 12
0.0
 22
0.0
 32
0.0
 14
0.0
 24
0.0
 34
0.0
 15
0.0
 25
0.0
 35
0.0
146
0.0
 13
0.0
 23
0.0
 33
0.0
 16
1.0
 26
0.0
 36
0.0
 17
0.0
 27
1.0
 37
0.0
 76
     0
330
17
1001
ACAD_PSEXT
1000
\\fdlsv03\FDLPR01-PCL
1000
Canon iR C5870 PCL5c
1000
FDL Color - 4th floor
1000
Color Canon iR 5870u
1070
     0
  0
MLINESTYLE
  5
1B
102
{ACAD_REACTORS
330
1A
102
}
330
1A
100
AcDbMlineStyle
  2
STANDARD
 70
     0
  3

 62
   256
 51
90.0
 52
90.0
 71
     2
 49
0.5
 62
   256
  6
BYLAYER
 49
-0.5
 62
   256
  6
BYLAYER
  0
ACDBPLACEHOLDER
  5
893
102
{ACAD_REACTORS
330
892
102
}
330
892
  0
TABLESTYLE
  5
B7E
102
{ACAD_REACTORS
330
B7D
102
}
330
B7D
100
AcDbTableStyle
  3
Standard
 70
     0
 71
     8
 40
1.5
 41
1.5
280
     0
281
     0
  7
STANDARD
140
4.5
170
     2
 62
     0
 63
     7
283
     0
274
    -2
284
     1
 64
     0
275
    -2
285
     1
 65
     0
276
    -2
286
     1
 66
     0
277
    -2
287
     1
 67
     0
278
    -2
288
     1
 68
     0
279
    -2
289
     1
 69
     0
  7
STANDARD
140
6.0
170
     5
 62
     0
 63
     7
283
     0
274
    -2
284
     1
 64
     0
275
    -2
285
     1
 65
     0
276
    -2
286
     1
 66
     0
277
    -2
287
     1
 67
     0
278
    -2
288
     1
 68
     0
279
    -2
289
     1
 69
     0
  7
STANDARD
140
4.5
170
     5
 62
     0
 63
     7
283
     0
274
    -2
284
     1
 64
     0
275
    -2
285
     1
 65
     0
276
    -2
286
     1
 66
     0
277
    -2
287
     1
 67
     0
278
    -2
288
     1
 68
     0
279
    -2
289
     1
 69
     0
  0
DICTIONARYVAR
  5
B82
102
{ACAD_REACTORS
330
2E
102
}
330
2E
100
DictionaryVariables
280
     0
  1
STANDARD
  0
DICTIONARYVAR
  5
2F
102
{ACAD_REACTORS
330
2E
102
}
330
2E
100
DictionaryVariables
280
     0
  1
0
  0
DICTIONARYVAR
  5
B15
102
{ACAD_REACTORS
330
2E
102
}
330
2E
100
DictionaryVariables
280
     0
  1
0
  0
ENDSEC
  0
EOF
