  0
SECTION
  2
HEADER
  9
$ACADVER
  1
AC1018
  9
$ACADMAINTVER
 70
    76
  9
$DWGCODEPAGE
  3
ANSI_1252
  9
$INSBASE
 10
0.0
 20
0.0
 30
0.0
  9
$EXTMIN
 10
0.0
 20
0.0
 30
0.0
  9
$EXTMAX
 10
240.0
 20
180.0
 30
0.0
  9
$LIMMIN
 10
-100.0
 20
-100.0
  9
$LIMMAX
 10
500.0
 20
500.0
  9
$ORTHOMODE
 70
     0
  9
$REGENMODE
 70
     1
  9
$FILLMODE
 70
     1
  9
$QTEXTMODE
 70
     0
  9
$MIRRTEXT
 70
     0
  9
$LTSCALE
 40
10.0
  9
$ATTMODE
 70
     1
  9
$TEXTSIZE
 40
4.0
  9
$TRACEWID
 40
0.05
  9
$TEXTSTYLE
  7
STANDARD
  9
$CLAYER
  8
NORMAL
  9
$CELTYPE
  6
BYLAYER
  9
$CECOLOR
 62
   256
  9
$CELTSCALE
 40
1.0
  9
$DISPSILH
 70
     0
  9
$DIMSCALE
 40
0.0
  9
$DIMASZ
 40
3.0
  9
$DIMEXO
 40
0.0
  9
$DIMDLI
 40
7.5
  9
$DIMRND
 40
0.0
  9
$DIMDLE
 40
0.0
  9
$DIMEXE
 40
1.0
  9
$DIMTP
 40
0.0
  9
$DIMTM
 40
0.0
  9
$DIMTXT
 40
2.399999999999999
  9
$DIMCEN
 40
3.0
  9
$DIMTSZ
 40
0.0
  9
$DIMTOL
 70
     0
  9
$DIMLIM
 70
     0
  9
$DIMTIH
 70
     0
  9
$DIMTOH
 70
     0
  9
$DIMSE1
 70
     0
  9
$DIMSE2
 70
     0
  9
$DIMTAD
 70
     1
  9
$DIMZIN
 70
     8
  9
$DIMBLK
  1

  9
$DIMASO
 70
     0
  9
$DIMSHO
 70
     0
  9
$DIMPOST
  1

  9
$DIMAPOST
  1

  9
$DIMALT
 70
     0
  9
$DIMALTD
 70
     2
  9
$DIMALTF
 40
25.4
  9
$DIMLFAC
 40
1.0
  9
$DIMTOFL
 70
     0
  9
$DIMTVP
 40
0.0
  9
$DIMTIX
 70
     0
  9
$DIMSOXD
 70
     0
  9
$DIMSAH
 70
     0
  9
$DIMBLK1
  1

  9
$DIMBLK2
  1

  9
$DIMSTYLE
  2
STANDARD
  9
$DIMCLRD
 70
     0
  9
$DIMCLRE
 70
     0
  9
$DIMCLRT
 70
     0
  9
$DIMTFAC
 40
1.0
  9
$DIMGAP
 40
1.0
  9
$DIMJUST
 70
     0
  9
$DIMSD1
 70
     0
  9
$DIMSD2
 70
     0
  9
$DIMTOLJ
 70
     1
  9
$DIMTZIN
 70
     8
  9
$DIMALTZ
 70
     0
  9
$DIMALTTZ
 70
     0
  9
$DIMUPT
 70
     0
  9
$DIMDEC
 70
     2
  9
$DIMTDEC
 70
     2
  9
$DIMALTU
 70
     2
  9
$DIMALTTD
 70
     2
  9
$DIMTXSTY
  7
STANDARD
  9
$DIMAUNIT
 70
     0
  9
$DIMADEC
 70
     0
  9
$DIMALTRND
 40
0.0
  9
$DIMAZIN
 70
     0
  9
$DIMDSEP
 70
    44
  9
$DIMATFIT
 70
     0
  9
$DIMFRAC
 70
     0
  9
$DIMLDRBLK
  1

  9
$DIMLUNIT
 70
     2
  9
$DIMLWD
 70
    -2
  9
$DIMLWE
 70
    -2
  9
$DIMTMOVE
 70
     0
  9
$LUNITS
 70
     2
  9
$LUPREC
 70
     2
  9
$SKETCHINC
 40
0.1
  9
$FILLETRAD
 40
15.0
  9
$AUNITS
 70
     0
  9
$AUPREC
 70
     0
  9
$MENU
  1
C:\ACADWIN\SUPPORT\ACAD
  9
$ELEVATION
 40
0.0
  9
$PELEVATION
 40
0.0
  9
$THICKNESS
 40
0.0
  9
$LIMCHECK
 70
     1
  9
$CHAMFERA
 40
0.0
  9
$CHAMFERB
 40
0.0
  9
$CHAMFERC
 40
0.0
  9
$CHAMFERD
 40
0.0
  9
$SKPOLY
 70
     0
  9
$TDCREATE
 40
2451716.416741690
  9
$TDUCREATE
 40
2451716.666741690
  9
$TDUPDATE
 40
2455247.406094583
  9
$TDUUPDATE
 40
2455247.656094583
  9
$TDINDWG
 40
0.0368991898
  9
$TDUSRTIMER
 40
0.0368989583
  9
$USRTIMER
 70
     1
  9
$ANGBASE
 50
0.0
  9
$ANGDIR
 70
     0
  9
$PDMODE
 70
     0
  9
$PDSIZE
 40
0.0
  9
$PLINEWID
 40
0.5
  9
$SPLFRAME
 70
     0
  9
$SPLINETYPE
 70
     6
  9
$SPLINESEGS
 70
     8
  9
$HANDSEED
  5
B50
  9
$SURFTAB1
 70
     6
  9
$SURFTAB2
 70
     6
  9
$SURFTYPE
 70
     6
  9
$SURFU
 70
     6
  9
$SURFV
 70
     6
  9
$UCSBASE
  2

  9
$UCSNAME
  2

  9
$UCSORG
 10
0.0
 20
0.0
 30
0.0
  9
$UCSXDIR
 10
1.0
 20
0.0
 30
0.0
  9
$UCSYDIR
 10
0.0
 20
1.0
 30
0.0
  9
$UCSORTHOREF
  2

  9
$UCSORTHOVIEW
 70
     0
  9
$UCSORGTOP
 10
0.0
 20
0.0
 30
0.0
  9
$UCSORGBOTTOM
 10
0.0
 20
0.0
 30
0.0
  9
$UCSORGLEFT
 10
0.0
 20
0.0
 30
0.0
  9
$UCSORGRIGHT
 10
0.0
 20
0.0
 30
0.0
  9
$UCSORGFRONT
 10
0.0
 20
0.0
 30
0.0
  9
$UCSORGBACK
 10
0.0
 20
0.0
 30
0.0
  9
$PUCSBASE
  2

  9
$PUCSNAME
  2

  9
$PUCSORG
 10
0.0
 20
0.0
 30
0.0
  9
$PUCSXDIR
 10
1.0
 20
0.0
 30
0.0
  9
$PUCSYDIR
 10
0.0
 20
1.0
 30
0.0
  9
$PUCSORTHOREF
  2

  9
$PUCSORTHOVIEW
 70
     0
  9
$PUCSORGTOP
 10
0.0
 20
0.0
 30
0.0
  9
$PUCSORGBOTTOM
 10
0.0
 20
0.0
 30
0.0
  9
$PUCSORGLEFT
 10
0.0
 20
0.0
 30
0.0
  9
$PUCSORGRIGHT
 10
0.0
 20
0.0
 30
0.0
  9
$PUCSORGFRONT
 10
0.0
 20
0.0
 30
0.0
  9
$PUCSORGBACK
 10
0.0
 20
0.0
 30
0.0
  9
$USERI1
 70
     0
  9
$USERI2
 70
     0
  9
$USERI3
 70
     0
  9
$USERI4
 70
     0
  9
$USERI5
 70
     0
  9
$USERR1
 40
0.0
  9
$USERR2
 40
0.0
  9
$USERR3
 40
0.0
  9
$USERR4
 40
0.0
  9
$USERR5
 40
0.0
  9
$WORLDVIEW
 70
     1
  9
$SHADEDGE
 70
     3
  9
$SHADEDIF
 70
    70
  9
$TILEMODE
 70
     1
  9
$MAXACTVP
 70
    16
  9
$PINSBASE
 10
0.0
 20
0.0
 30
0.0
  9
$PLIMCHECK
 70
     0
  9
$PEXTMIN
 10
1.000000000000000E+20
 20
1.000000000000000E+20
 30
1.000000000000000E+20
  9
$PEXTMAX
 10
-1.000000000000000E+20
 20
-1.000000000000000E+20
 30
-1.000000000000000E+20
  9
$PLIMMIN
 10
0.0
 20
0.0
  9
$PLIMMAX
 10
12.0
 20
9.0
  9
$UNITMODE
 70
     0
  9
$VISRETAIN
 70
     0
  9
$PLINEGEN
 70
     0
  9
$PSLTSCALE
 70
     0
  9
$TREEDEPTH
 70
  3020
  9
$CMLSTYLE
  2
STANDARD
  9
$CMLJUST
 70
     0
  9
$CMLSCALE
 40
1.0
  9
$PROXYGRAPHICS
 70
     1
  9
$MEASUREMENT
 70
     1
  9
$CELWEIGHT
370
    -1
  9
$ENDCAPS
280
     0
  9
$JOINSTYLE
280
     0
  9
$LWDISPLAY
290
     0
  9
$INSUNITS
 70
     0
  9
$HYPERLINKBASE
  1

  9
$STYLESHEET
  1
Beijer_Standard_Plotstil.ctb
  9
$XEDIT
290
     1
  9
$CEPSNTYPE
380
     0
  9
$PSTYLEMODE
290
     1
  9
$FINGERPRINTGUID
  2
{5CFF9579-32CE-11D4-BBB0-0060087DD5EC}
  9
$VERSIONGUID
  2
{364C815B-3576-4A26-A3AC-7A60C66D545F}
  9
$EXTNAMES
290
     1
  9
$PSVPSCALE
 40
0.0
  9
$OLESTARTUP
290
     0
  9
$SORTENTS
280
   127
  9
$INDEXCTL
280
     0
  9
$HIDETEXT
280
     0
  9
$XCLIPFRAME
290
     0
  9
$HALOGAP
280
     0
  9
$OBSCOLOR
 70
   257
  9
$OBSLTYPE
280
     0
  9
$INTERSECTIONDISPLAY
280
     0
  9
$INTERSECTIONCOLOR
 70
   257
  9
$DIMASSOC
280
     0
  9
$PROJECTNAME
  1

  0
ENDSEC
  0
SECTION
  2
CLASSES
  0
CLASS
  1
DICTIONARYVAR
  2
AcDbDictionaryVar
  3
ObjectDBX Classes
 90
        0
 91
        3
280
     0
281
     0
  0
CLASS
  1
ACDBDICTIONARYWDFLT
  2
AcDbDictionaryWithDefault
  3
ObjectDBX Classes
 90
        0
 91
        1
280
     0
281
     0
  0
CLASS
  1
TABLESTYLE
  2
AcDbTableStyle
  3
ObjectDBX Classes
 90
     2047
 91
        1
280
     0
281
     0
  0
ENDSEC
  0
SECTION
  2
TABLES
  0
TABLE
  2
VPORT
  5
8
330
0
100
AcDbSymbolTable
 70
     2
  0
VPORT
  5
B4F
330
8
100
AcDbSymbolTableRecord
100
AcDbViewportTableRecord
  2
*Active
 70
     0
 10
0.0
 20
0.0
 11
1.0
 21
1.0
 12
119.9829114600818
 22
89.99939091736393
 13
0.0
 23
0.0
 14
1.0
 24
1.0
 15
10.0
 25
10.0
 16
0.0
 26
0.0
 36
1.0
 17
0.0
 27
0.0
 37
0.0
 40
181.8937716759359
 41
1.730337078651685
 42
50.0
 43
0.0
 44
0.0
 50
0.0
 51
0.0
 71
     0
 72
   100
 73
     1
 74
     0
 75
     1
 76
     0
 77
     0
 78
     0
281
     0
 65
     1
110
0.0
120
0.0
130
0.0
111
1.0
121
0.0
131
0.0
112
0.0
122
1.0
132
0.0
 79
     0
146
0.0
  0
ENDTAB
  0
TABLE
  2
LTYPE
  5
5
330
0
100
AcDbSymbolTable
 70
     3
  0
LTYPE
  5
11
330
5
100
AcDbSymbolTableRecord
100
AcDbLinetypeTableRecord
  2
BYBLOCK
 70
     0
  3

 72
    65
 73
     0
 40
0.0
  0
LTYPE
  5
12
330
5
100
AcDbSymbolTableRecord
100
AcDbLinetypeTableRecord
  2
BYLAYER
 70
     0
  3

 72
    65
 73
     0
 40
0.0
  0
LTYPE
  5
13
330
5
100
AcDbSymbolTableRecord
100
AcDbLinetypeTableRecord
  2
CONTINUOUS
 70
     0
  3
Solid line
 72
    65
 73
     0
 40
0.0
  0
LTYPE
  5
3EC
330
5
100
AcDbSymbolTableRecord
100
AcDbLinetypeTableRecord
  2
DASHDOT
 70
     0
  3
Dash dot __ . __ . __ . __ . __ . __ . __ . __
 72
    65
 73
     4
 40
1.0
 49
0.5
 74
     0
 49
-0.25
 74
     0
 49
0.0
 74
     0
 49
-0.25
 74
     0
  0
LTYPE
  5
3ED
330
5
100
AcDbSymbolTableRecord
100
AcDbLinetypeTableRecord
  2
HIDDEN
 70
     0
  3
Hidden __ __ __ __ __ __ __ __ __ __ __ __ __ _
 72
    65
 73
     2
 40
0.375
 49
0.25
 74
     0
 49
-0.125
 74
     0
  0
ENDTAB
  0
TABLE
  2
LAYER
  5
2
330
0
100
AcDbSymbolTable
 70
     2
  0
LAYER
  5
E
330
2
100
AcDbSymbolTableRecord
100
AcDbLayerTableRecord
  2
0
 70
     0
 62
     2
  6
CONTINUOUS
370
    -3
390
893
  0
LAYER
  5
29
330
2
100
AcDbSymbolTableRecord
100
AcDbLayerTableRecord
  2
NORMAL
 70
     0
 62
     2
  6
CONTINUOUS
370
    -3
390
893
  0
ENDTAB
  0
TABLE
  2
STYLE
  5
3
330
0
100
AcDbSymbolTable
 70
     3
  0
STYLE
  5
F
330
3
100
AcDbSymbolTableRecord
100
AcDbTextStyleTableRecord
  2
STANDARD
 70
     0
 40
0.0
 41
1.0
 50
0.0
 71
     0
 42
4.0
  3
simplex
  4

  0
STYLE
  5
1E
330
3
100
AcDbSymbolTableRecord
100
AcDbTextStyleTableRecord
  2
ROMAND
 70
     0
 40
0.0
 41
1.0
 50
0.0
 71
     0
 42
3.0
  3
romand.shx
  4

  0
STYLE
  5
A8C
330
3
100
AcDbSymbolTableRecord
100
AcDbTextStyleTableRecord
  2
Arial
 70
     0
 40
0.0
 41
1.0
 50
0.0
 71
     0
 42
3.0
  3
ARIAL.TTF
  4

1001
ACAD
1000
Arial
1071
       34
  0
ENDTAB
  0
TABLE
  2
VIEW
  5
6
330
0
100
AcDbSymbolTable
 70
     0
  0
ENDTAB
  0
TABLE
  2
UCS
  5
7
330
0
100
AcDbSymbolTable
 70
     0
  0
ENDTAB
  0
TABLE
  2
APPID
  5
9
330
0
100
AcDbSymbolTable
 70
     5
  0
APPID
  5
10
330
9
100
AcDbSymbolTableRecord
100
AcDbRegAppTableRecord
  2
ACAD
 70
     0
  0
APPID
  5
2E6
330
9
100
AcDbSymbolTableRecord
100
AcDbRegAppTableRecord
  2
CONTENTTABDATA
 70
     0
  0
APPID
  5
2E7
330
9
100
AcDbSymbolTableRecord
100
AcDbRegAppTableRecord
  2
CONTENTCURRENTTAB
 70
     0
  0
APPID
  5
337
330
9
100
AcDbSymbolTableRecord
100
AcDbRegAppTableRecord
  2
CONTENTBLOCKDESCRIPTION
 70
     0
  0
APPID
  5
B4D
330
9
100
AcDbSymbolTableRecord
100
AcDbRegAppTableRecord
  2
DCO15
 70
     0
  0
ENDTAB
  0
TABLE
  2
DIMSTYLE
  5
A
330
0
100
AcDbSymbolTable
 70
     1
100
AcDbDimStyleTable
 71
     1
340
298
  0
DIMSTYLE
105
298
330
A
100
AcDbSymbolTableRecord
100
AcDbDimStyleTableRecord
  2
STANDARD
 70
     0
340
F
  0
ENDTAB
  0
TABLE
  2
BLOCK_RECORD
  5
1
330
0
100
AcDbSymbolTable
 70
     0
  0
BLOCK_RECORD
  5
17
330
1
100
AcDbSymbolTableRecord
100
AcDbBlockTableRecord
  2
*MODEL_SPACE
340
896
  0
BLOCK_RECORD
  5
14
330
1
100
AcDbSymbolTableRecord
100
AcDbBlockTableRecord
  2
*PAPER_SPACE
340
897
  0
ENDTAB
  0
ENDSEC
  0
SECTION
  2
BLOCKS
  0
BLOCK
  5
2C
330
17
100
AcDbEntity
  8
0
100
AcDbBlockBegin
  2
*MODEL_SPACE
 70
     0
 10
0.0
 20
0.0
 30
0.0
  3
*MODEL_SPACE
  1

  0
ENDBLK
  5
2D
330
17
100
AcDbEntity
  8
0
100
AcDbBlockEnd
  0
BLOCK
  5
2A
330
14
100
AcDbEntity
 67
     1
  8
0
100
AcDbBlockBegin
  2
*PAPER_SPACE
 70
     0
 10
0.0
 20
0.0
 30
0.0
  3
*PAPER_SPACE
  1

  0
ENDBLK
  5
2B
330
14
100
AcDbEntity
 67
     1
  8
0
100
AcDbBlockEnd
  0
ENDSEC
  0
SECTION
  2
ENTITIES
  0
LWPOLYLINE
  5
AD1
330
17
100
AcDbEntity
  8
NORMAL
 62
     7
100
AcDbPolyline
 90
        4
 70
     1
 43
0.5
 10
212.0
 20
157.5
 10
212.0
 20
27.5
 10
32.0
 20
27.5
 10
32.0
 20
157.5
  0
LINE
  5
AD2
330
17
100
AcDbEntity
  8
NORMAL
 62
     7
100
AcDbLine
 10
224.0
 20
153.0
 30
0.0
 11
224.0
 21
31.0
 31
0.0
  0
LINE
  5
AD3
330
17
100
AcDbEntity
  8
NORMAL
 62
     7
100
AcDbLine
 10
209.0
 20
16.0
 30
0.0
 11
37.0
 21
16.0
 31
0.0
  0
LINE
  5
AD4
330
17
100
AcDbEntity
  8
NORMAL
 62
     7
100
AcDbLine
 10
22.0
 20
31.0
 30
0.0
 11
22.0
 21
153.0
 31
0.0
  0
LINE
  5
AD5
330
17
100
AcDbEntity
  8
NORMAL
 62
     7
100
AcDbLine
 10
37.0
 20
168.0
 30
0.0
 11
209.0
 21
168.0
 31
0.0
  0
ARC
  5
AD6
330
17
100
AcDbEntity
  8
NORMAL
 62
     7
100
AcDbCircle
 10
209.0
 20
153.0
 30
0.0
 40
15.0
100
AcDbArc
 50
0.0
 51
90.0
  0
ARC
  5
AD7
330
17
100
AcDbEntity
  8
NORMAL
 62
     7
100
AcDbCircle
 10
37.0
 20
153.0
 30
0.0
 40
15.0
100
AcDbArc
 50
90.0
 51
180.0
  0
ARC
  5
AD8
330
17
100
AcDbEntity
  8
NORMAL
 62
     7
100
AcDbCircle
 10
37.0
 20
31.0
 30
0.0
 40
15.0
100
AcDbArc
 50
180.0
 51
270.0
  0
ARC
  5
AD9
330
17
100
AcDbEntity
  8
NORMAL
 62
     7
100
AcDbCircle
 10
209.0
 20
31.0
 30
0.0
 40
15.0
100
AcDbArc
 50
270.0
 51
0.0
  0
LINE
  5
ADA
330
17
100
AcDbEntity
  8
NORMAL
 62
     7
100
AcDbLine
 10
32.0
 20
61.0
 30
0.0
 11
32.0
 21
62.0
 31
0.0
  0
LINE
  5
ADB
330
17
100
AcDbEntity
  8
NORMAL
 62
     7
100
AcDbLine
 10
212.0
 20
61.0
 30
0.0
 11
212.0
 21
62.0
 31
0.0
  0
LINE
  5
ADC
330
17
100
AcDbEntity
  8
NORMAL
 62
     7
100
AcDbLine
 10
35.0
 20
61.0
 30
0.0
 11
209.0
 21
61.0
 31
0.0
  0
SOLID
  5
ADD
330
17
100
AcDbEntity
  8
NORMAL
 62
     7
100
AcDbTrace
 10
35.0
 20
61.5
 30
0.0
 11
35.0
 21
60.5
 31
0.0
 12
32.0
 22
61.0
 32
0.0
 13
32.0
 23
61.0
 33
0.0
  0
SOLID
  5
ADE
330
17
100
AcDbEntity
  8
NORMAL
 62
     7
100
AcDbTrace
 10
209.0
 20
61.5
 30
0.0
 11
209.0
 21
60.5
 31
0.0
 12
212.0
 22
61.0
 32
0.0
 13
212.0
 23
61.0
 33
0.0
  0
MTEXT
  5
ADF
330
17
100
AcDbEntity
  8
NORMAL
 62
     7
100
AcDbMText
 10
122.0
 20
63.82857142857142
 30
0.0
 40
2.399999999999999
 41
0.0
 71
     5
 72
     1
  1
\A1;180%%p1 (7.09%%p0.04)
 73
     1
 44
1.0
  0
LINE
  5
AE0
330
17
100
AcDbEntity
  8
NORMAL
 62
     7
100
AcDbLine
 10
224.0
 20
74.0
 30
0.0
 11
224.0
 21
70.0
 31
0.0
  0
LINE
  5
AE1
330
17
100
AcDbEntity
  8
NORMAL
 62
     7
100
AcDbLine
 10
212.0
 20
74.0
 30
0.0
 11
212.0
 21
70.0
 31
0.0
  0
LINE
  5
AE2
330
17
100
AcDbEntity
  8
NORMAL
 62
     7
100
AcDbLine
 10
227.0
 20
71.0
 30
0.0
 11
230.0
 21
71.0
 31
0.0
  0
LINE
  5
AE3
330
17
100
AcDbEntity
  8
NORMAL
 62
     7
100
AcDbLine
 10
209.0
 20
71.0
 30
0.0
 11
187.3142857142857
 21
71.0
 31
0.0
  0
SOLID
  5
AE4
330
17
100
AcDbEntity
  8
NORMAL
 62
     7
100
AcDbTrace
 10
227.0
 20
71.5
 30
0.0
 11
227.0
 21
70.5
 31
0.0
 12
224.0
 22
71.0
 32
0.0
 13
224.0
 23
71.0
 33
0.0
  0
SOLID
  5
AE5
330
17
100
AcDbEntity
  8
NORMAL
 62
     7
100
AcDbTrace
 10
209.0
 20
71.5
 30
0.0
 11
209.0
 21
70.5
 31
0.0
 12
212.0
 22
71.0
 32
0.0
 13
212.0
 23
71.0
 33
0.0
  0
MTEXT
  5
AE6
330
17
100
AcDbEntity
  8
NORMAL
 62
     7
100
AcDbMText
 10
196.6571428571428
 20
73.82857142857142
 30
0.0
 40
2.399999999999999
 41
0.0
 71
     5
 72
     1
  1
\A1;12 (0.47)
 73
     1
 44
1.0
  0
LINE
  5
AE7
330
17
100
AcDbEntity
  8
NORMAL
 62
     7
100
AcDbLine
 10
22.0
 20
69.0
 30
0.0
 11
22.0
 21
72.0
 31
0.0
  0
LINE
  5
AE8
330
17
100
AcDbEntity
  8
NORMAL
 62
     7
100
AcDbLine
 10
32.0
 20
69.0
 30
0.0
 11
32.0
 21
72.0
 31
0.0
  0
LINE
  5
AE9
330
17
100
AcDbEntity
  8
NORMAL
 62
     7
100
AcDbLine
 10
19.0
 20
71.0
 30
0.0
 11
16.0
 21
71.0
 31
0.0
  0
LINE
  5
AEA
330
17
100
AcDbEntity
  8
NORMAL
 62
     7
100
AcDbLine
 10
35.0
 20
71.0
 30
0.0
 11
56.68571428571429
 21
71.0
 31
0.0
  0
SOLID
  5
AEB
330
17
100
AcDbEntity
  8
NORMAL
 62
     7
100
AcDbTrace
 10
19.0
 20
71.5
 30
0.0
 11
19.0
 21
70.5
 31
0.0
 12
22.0
 22
71.0
 32
0.0
 13
22.0
 23
71.0
 33
0.0
  0
SOLID
  5
AEC
330
17
100
AcDbEntity
  8
NORMAL
 62
     7
100
AcDbTrace
 10
35.0
 20
71.5
 30
0.0
 11
35.0
 21
70.5
 31
0.0
 12
32.0
 22
71.0
 32
0.0
 13
32.0
 23
71.0
 33
0.0
  0
MTEXT
  5
AED
330
17
100
AcDbEntity
  8
NORMAL
 62
     7
100
AcDbMText
 10
47.34285714285713
 20
73.82857142857142
 30
0.0
 40
2.399999999999999
 41
0.0
 71
     5
 72
     1
  1
\A1;10 (0.39)
 73
     1
 44
1.0
  0
LINE
  5
AEE
330
17
100
AcDbEntity
  8
NORMAL
 62
     7
100
AcDbLine
 10
212.0
 20
27.5
 30
0.0
 11
177.0
 21
27.5
 31
0.0
  0
LINE
  5
AEF
330
17
100
AcDbEntity
  8
NORMAL
 62
     7
100
AcDbLine
 10
212.0
 20
157.5
 30
0.0
 11
177.0
 21
157.5
 31
0.0
  0
LINE
  5
AF0
330
17
100
AcDbEntity
  8
NORMAL
 62
     7
100
AcDbLine
 10
178.0
 20
30.5
 30
0.0
 11
178.0
 21
154.5
 31
0.0
  0
SOLID
  5
AF1
330
17
100
AcDbEntity
  8
NORMAL
 62
     7
100
AcDbTrace
 10
177.5
 20
30.5
 30
0.0
 11
178.5
 21
30.5
 31
0.0
 12
178.0
 22
27.5
 32
0.0
 13
178.0
 23
27.5
 33
0.0
  0
SOLID
  5
AF2
330
17
100
AcDbEntity
  8
NORMAL
 62
     7
100
AcDbTrace
 10
177.5
 20
154.5
 30
0.0
 11
178.5
 21
154.5
 31
0.0
 12
178.0
 22
157.5
 32
0.0
 13
178.0
 23
157.5
 33
0.0
  0
MTEXT
  5
AF3
330
17
100
AcDbEntity
  8
NORMAL
 62
     7
100
AcDbMText
 10
175.1714285714285
 20
92.50000000000005
 30
0.0
 40
2.399999999999999
 41
0.0
 71
     5
 72
     1
  1
130±1 (5.12±0.04)
 11
0.0000000000000001
 21
1.0
 31
0.0
 73
     1
 44
1.0
  0
LINE
  5
AF4
330
17
100
AcDbEntity
  8
NORMAL
 62
     7
100
AcDbLine
 10
168.5
 20
168.0
 30
0.0
 11
167.5
 21
168.0
 31
0.0
  0
LINE
  5
AF5
330
17
100
AcDbEntity
  8
NORMAL
 62
     7
100
AcDbLine
 10
168.5
 20
157.5
 30
0.0
 11
167.5
 21
157.5
 31
0.0
  0
LINE
  5
AF6
330
17
100
AcDbEntity
  8
NORMAL
 62
     7
100
AcDbLine
 10
168.5
 20
171.0
 30
0.0
 11
168.5
 21
174.0
 31
0.0
  0
LINE
  5
AF7
330
17
100
AcDbEntity
  8
NORMAL
 62
     7
100
AcDbLine
 10
168.5
 20
154.5
 30
0.0
 11
168.5
 21
129.8428571428571
 31
0.0
  0
SOLID
  5
AF8
330
17
100
AcDbEntity
  8
NORMAL
 62
     7
100
AcDbTrace
 10
168.0
 20
171.0
 30
0.0
 11
169.0
 21
171.0
 31
0.0
 12
168.5
 22
168.0
 32
0.0
 13
168.5
 23
168.0
 33
0.0
  0
SOLID
  5
AF9
330
17
100
AcDbEntity
  8
NORMAL
 62
     7
100
AcDbTrace
 10
168.0
 20
154.5
 30
0.0
 11
169.0
 21
154.5
 31
0.0
 12
168.5
 22
157.5
 32
0.0
 13
168.5
 23
157.5
 33
0.0
  0
MTEXT
  5
AFA
330
17
100
AcDbEntity
  8
NORMAL
 62
     7
100
AcDbMText
 10
165.6714285714285
 20
140.6714285714286
 30
0.0
 40
2.399999999999999
 41
0.0
 71
     5
 72
     1
  1
\A1;10,5 (0.41)
 11
0.0000000000000001
 21
1.0
 31
0.0
 73
     1
 44
1.0
  0
LINE
  5
AFB
330
17
100
AcDbEntity
  8
NORMAL
 62
     7
100
AcDbLine
 10
169.0
 20
16.0
 30
0.0
 11
167.5
 21
16.0
 31
0.0
  0
LINE
  5
AFC
330
17
100
AcDbEntity
  8
NORMAL
 62
     7
100
AcDbLine
 10
169.0
 20
27.5
 30
0.0
 11
167.5
 21
27.5
 31
0.0
  0
LINE
  5
AFD
330
17
100
AcDbEntity
  8
NORMAL
 62
     7
100
AcDbLine
 10
168.5
 20
13.0
 30
0.0
 11
168.5
 21
10.0
 31
0.0
  0
LINE
  5
AFE
330
17
100
AcDbEntity
  8
NORMAL
 62
     7
100
AcDbLine
 10
168.5
 20
30.5
 30
0.0
 11
168.5
 21
55.15714285714285
 31
0.0
  0
SOLID
  5
AFF
330
17
100
AcDbEntity
  8
NORMAL
 62
     7
100
AcDbTrace
 10
168.0
 20
13.0
 30
0.0
 11
169.0
 21
13.0
 31
0.0
 12
168.5
 22
16.0
 32
0.0
 13
168.5
 23
16.0
 33
0.0
  0
SOLID
  5
B00
330
17
100
AcDbEntity
  8
NORMAL
 62
     7
100
AcDbTrace
 10
168.0
 20
30.5
 30
0.0
 11
169.0
 21
30.5
 31
0.0
 12
168.5
 22
27.5
 32
0.0
 13
168.5
 23
27.5
 33
0.0
  0
MTEXT
  5
B01
330
17
100
AcDbEntity
  8
NORMAL
 62
     7
100
AcDbMText
 10
165.6714285714285
 20
44.32857142857145
 30
0.0
 40
2.399999999999999
 41
0.0
 71
     5
 72
     1
  1
\A1;11,5 (0.45)
 11
0.0000000000000001
 21
1.0
 31
0.0
 73
     1
 44
1.0
  0
LEADER
  5
B02
330
17
100
AcDbEntity
  8
NORMAL
 62
     7
100
AcDbLeader
  3
STANDARD
 73
     0
 75
     1
 40
2.399999999999999
 41
13.59999999999999
 76
     3
 10
120.5
 20
27.5
 30
0.0
 10
115.0
 20
34.5
 30
0.0
 10
112.0
 20
34.5
 30
0.0
340
B03
213
0.0
223
1.199999999999999
233
0.0
1001
ACAD
1000
DSTYLE
1002
{
1070
    41
1040
3.0
1070
    42
1040
0.0
1070
    43
1040
7.5
1070
    44
1040
1.0
1070
    73
1070
     0
1070
    74
1070
     0
1070
    78
1070
     8
1070
   140
1040
2.399999999999999
1070
   141
1040
3.0
1070
   147
1040
1.0
1070
   271
1070
     2
1070
   272
1070
     2
1070
   278
1070
    44
1070
   284
1070
     8
1070
   289
1070
     0
1002
}
  0
MTEXT
  5
B03
102
{ACAD_REACTORS
330
B02
102
}
330
17
100
AcDbEntity
  8
NORMAL
 62
     7
100
AcDbMText
 10
111.0
 20
33.3
 30
0.0
 40
2.399999999999999
 41
0.0
 71
     9
 72
     1
  1
Cut out
 73
     1
 44
1.0
  0
LEADER
  5
B04
330
17
100
AcDbEntity
  8
NORMAL
 62
     7
100
AcDbLeader
  3
STANDARD
 73
     0
 75
     1
 40
2.399999999999999
 41
28.68571428571428
 76
     3
 10
120.5
 20
16.0
 30
0.0
 10
115.0
 20
22.5
 30
0.0
 10
112.0
 20
22.5
 30
0.0
340
B05
213
0.0
223
1.199999999999999
233
0.0
1001
ACAD
1000
DSTYLE
1002
{
1070
    41
1040
3.0
1070
    42
1040
0.0
1070
    43
1040
7.5
1070
    44
1040
1.0
1070
    73
1070
     0
1070
    74
1070
     0
1070
    78
1070
     8
1070
   140
1040
2.399999999999999
1070
   141
1040
3.0
1070
   147
1040
1.0
1070
   271
1070
     2
1070
   272
1070
     2
1070
   278
1070
    44
1070
   284
1070
     8
1070
   289
1070
     0
1002
}
  0
MTEXT
  5
B05
102
{ACAD_REACTORS
330
B04
102
}
330
17
100
AcDbEntity
  8
NORMAL
 62
     7
100
AcDbMText
 10
111.0
 20
21.3
 30
0.0
 40
2.399999999999999
 41
0.0
 71
     9
 72
     1
  1
Terminal outline
 73
     1
 44
1.0
  0
TEXT
  5
B06
330
17
100
AcDbEntity
  8
NORMAL
 62
     7
100
AcDbText
 10
89.52796725784446
 20
128.0
 30
0.0
 40
4.0
  1
Panel cut out for 5.7" display
  7
Arial
 72
     1
 11
125.0
 21
130.0
 31
0.0
100
AcDbText
 73
     2
  0
TEXT
  5
B07
330
17
100
AcDbEntity
  8
NORMAL
 62
     7
100
AcDbText
 10
111.6466575716234
 20
118.0
 30
0.0
 40
4.0
  1
Front View
  7
Arial
 72
     1
 11
125.0
 21
120.0
 31
0.0
100
AcDbText
 73
     2
  0
TEXT
  5
B08
330
17
100
AcDbEntity
  8
NORMAL
 62
     7
100
AcDbText
 10
113.3506139154161
 20
108.0
 30
0.0
 40
4.0
  1
Scale 1:1
  7
Arial
 72
     1
 11
125.0
 21
110.0
 31
0.0
100
AcDbText
 73
     2
  0
LINE
  5
B0D
330
17
100
AcDbEntity
  8
NORMAL
  6
DASHDOT
 62
     7
100
AcDbLine
 10
123.0
 20
92.0
 30
0.0
 11
123.0
 21
102.0
 31
0.0
  0
LINE
  5
B0E
330
17
100
AcDbEntity
  8
NORMAL
  6
DASHDOT
 62
     7
100
AcDbLine
 10
123.0
 20
92.0
 30
0.0
 11
133.0
 21
92.0
 31
0.0
  0
LINE
  5
B0F
330
17
100
AcDbEntity
  8
NORMAL
  6
DASHDOT
 62
     7
100
AcDbLine
 10
123.0
 20
92.0
 30
0.0
 11
123.0
 21
82.0
 31
0.0
  0
LINE
  5
B10
330
17
100
AcDbEntity
  8
NORMAL
  6
DASHDOT
 62
     7
100
AcDbLine
 10
123.0
 20
92.0
 30
0.0
 11
113.0
 21
92.0
 31
0.0
  0
LEADER
  5
B12
330
17
100
AcDbEntity
  8
NORMAL
 62
     7
100
AcDbLeader
  3
STANDARD
 73
     0
 74
     0
 75
     1
 40
2.4
 41
28.22857142857142
 76
     3
 10
124.0
 20
91.0
 30
0.0
 10
132.0
 20
80.99999999999999
 30
0.0
 10
135.0
 20
80.99999999999999
 30
0.0
340
B13
213
0.0
223
-1.199999999999999
233
0.0
1001
ACAD
1000
DSTYLE
1002
{
1070
    41
1040
3.0
1070
    42
1040
0.0
1070
    43
1040
7.5
1070
    44
1040
1.0
1070
    73
1070
     0
1070
    74
1070
     0
1070
    78
1070
     8
1070
   140
1040
2.399999999999999
1070
   141
1040
3.0
1070
   147
1040
1.0
1070
   271
1070
     2
1070
   272
1070
     2
1070
   278
1070
    44
1070
   284
1070
     8
1070
   289
1070
     0
1002
}
  0
MTEXT
  5
B13
102
{ACAD_REACTORS
330
B12
102
}
330
17
100
AcDbEntity
  8
NORMAL
 62
     7
100
AcDbMText
 10
136.0
 20
82.19999999999998
 30
0.0
 40
2.399999999999999
 41
0.0
 71
     1
 72
     1
  1
Terminal center
 73
     1
 44
1.0
  0
LINE
  5
B1F
330
17
100
AcDbEntity
  8
NORMAL
100
AcDbLine
 10
240.0
 20
180.0
 30
0.0
 11
238.0
 21
180.0
 31
0.0
  0
LINE
  5
B20
330
17
100
AcDbEntity
  8
NORMAL
100
AcDbLine
 10
240.0
 20
180.0
 30
0.0
 11
240.0
 21
178.0
 31
0.0
  0
LINE
  5
B21
330
17
100
AcDbEntity
  8
NORMAL
100
AcDbLine
 10
0.0
 20
0.0
 30
0.0
 11
0.0
 21
2.0
 31
0.0
  0
LINE
  5
B22
330
17
100
AcDbEntity
  8
NORMAL
100
AcDbLine
 10
0.0
 20
0.0
 30
0.0
 11
2.0
 21
0.0
 31
0.0
  0
ENDSEC
  0
SECTION
  2
OBJECTS
  0
DICTIONARY
  5
C
330
0
100
AcDbDictionary
281
     1
  3
ACAD_COLOR
350
B35
  3
ACAD_GROUP
350
D
  3
ACAD_LAYOUT
350
894
  3
ACAD_MATERIAL
350
B34
  3
ACAD_MLINESTYLE
350
1A
  3
ACAD_PLOTSETTINGS
350
895
  3
ACAD_PLOTSTYLENAME
350
892
  3
ACAD_TABLESTYLE
350
B36
  3
AcadDim
350
B11
  3
ACDBVARIABLEDICTIONARY
350
2E
  3
ASE_INDEX_DICTIONARY
350
B4C
  3
CONTENTDICTIONARY
350
2E5
  0
DICTIONARY
  5
B35
102
{ACAD_REACTORS
330
C
102
}
330
C
100
AcDbDictionary
281
     1
  0
DICTIONARY
  5
D
102
{ACAD_REACTORS
330
C
102
}
330
C
100
AcDbDictionary
281
     1
  0
DICTIONARY
  5
894
102
{ACAD_REACTORS
330
C
102
}
330
C
100
AcDbDictionary
281
     1
  3
Layout1
350
897
  3
Model
350
896
  0
DICTIONARY
  5
B34
102
{ACAD_REACTORS
330
C
102
}
330
C
100
AcDbDictionary
281
     1
  0
DICTIONARY
  5
1A
102
{ACAD_REACTORS
330
C
102
}
330
C
100
AcDbDictionary
281
     1
  3
STANDARD
350
1B
  0
DICTIONARY
  5
895
102
{ACAD_REACTORS
330
C
102
}
330
C
100
AcDbDictionary
281
     1
  0
ACDBDICTIONARYWDFLT
  5
892
102
{ACAD_REACTORS
330
C
102
}
330
C
100
AcDbDictionary
281
     1
  3
Normal
350
893
100
AcDbDictionaryWithDefault
340
893
  0
DICTIONARY
  5
B36
102
{ACAD_REACTORS
330
C
102
}
330
C
100
AcDbDictionary
281
     1
  3
Standard
350
B37
  0
XRECORD
  5
B11
102
{ACAD_REACTORS
330
C
102
}
330
C
100
AcDbXrecord
280
     1
 90
   990106
  3

 60
     0
 61
     0
 62
     1
 63
     3
 64
     0
 65
     0
 66
     0
 67
     3
 68
     1
 69
     0
 70
     0
 71
     0
 72
     0
 40
0.0
170
     0
340
B13
  0
DICTIONARY
  5
2E
102
{ACAD_REACTORS
330
C
102
}
330
C
100
AcDbDictionary
281
     1
  3
CTABLESTYLE
350
B3B
  3
DIMADEC
350
2F
  3
DIMASSOC
350
B15
  0
DICTIONARY
  5
B4C
102
{ACAD_REACTORS
330
C
102
}
330
C
100
AcDbDictionary
281
     1
  3
ASEBlockHierarchyIndexRecord
350
B4E
1001
DCO15
1040
1679978382.572
  0
DICTIONARY
  5
2E5
102
{ACAD_REACTORS
330
C
102
}
330
C
100
AcDbDictionary
281
     1
  0
LAYOUT
  5
897
102
{ACAD_REACTORS
330
894
102
}
330
894
100
AcDbPlotSettings
  1

  2
\\BEIJERS\LASER_12
  4

  6

 40
0.0
 41
0.0
 42
0.0
 43
0.0
 44
0.0
 45
0.0
 46
0.0
 47
0.0
 48
0.0
 49
0.0
140
0.0
141
0.0
142
1.0
143
1.0
 70
   688
 72
     0
 73
     0
 74
     5
  7
Beijer_Standard_Plotstil.ctb
 75
    16
147
1.0
 76
     0
 77
     2
 78
   300
148
0.0
149
0.0
100
AcDbLayout
  1
Layout1
 70
     0
 71
     1
 10
0.0
 20
0.0
 11
12.0
 21
9.0
 12
0.0
 22
0.0
 32
0.0
 14
1.000000000000000E+20
 24
1.000000000000000E+20
 34
1.000000000000000E+20
 15
-1.000000000000000E+20
 25
-1.000000000000000E+20
 35
-1.000000000000000E+20
146
0.0
 13
0.0
 23
0.0
 33
0.0
 16
1.0
 26
0.0
 36
0.0
 17
0.0
 27
1.0
 37
0.0
 76
     0
330
14
  0
LAYOUT
  5
896
102
{ACAD_REACTORS
330
894
102
}
330
894
100
AcDbPlotSettings
  1

  2
PDF___Acrobat PDFWriter (Liggande).pc3
  4
A4
  6

 40
7.143749713897705
 41
7.143741130828857
 42
7.143768310546875
 43
7.143753051757812
 44
297.0530090332031
 45
209.9733276367187
 46
10.96
 47
0.0
 48
0.0
 49
0.0
140
0.0
141
0.0
142
1.0
143
0.920272177336688
 70
 11956
 72
     1
 73
     0
 74
     1
  7
Beijer_Standard_Plotstil.ctb
 75
     0
147
1.086635046268646
 76
     0
 77
     2
 78
   300
148
0.0427230960253837
149
0.0427230960253837
100
AcDbLayout
  1
Model
 70
     1
 71
     0
 10
0.0
 20
0.0
 11
12.0
 21
9.0
 12
0.0
 22
0.0
 32
0.0
 14
0.0
 24
0.0
 34
0.0
 15
0.0
 25
0.0
 35
0.0
146
0.0
 13
0.0
 23
0.0
 33
0.0
 16
1.0
 26
0.0
 36
0.0
 17
0.0
 27
1.0
 37
0.0
 76
     0
330
17
  0
MLINESTYLE
  5
1B
102
{ACAD_REACTORS
330
1A
102
}
330
1A
100
AcDbMlineStyle
  2
STANDARD
 70
     0
  3

 62
   256
 51
90.0
 52
90.0
 71
     2
 49
0.5
 62
   256
  6
BYLAYER
 49
-0.5
 62
   256
  6
BYLAYER
  0
ACDBPLACEHOLDER
  5
893
102
{ACAD_REACTORS
330
892
102
}
330
892
  0
TABLESTYLE
  5
B37
102
{ACAD_REACTORS
330
B36
102
}
330
B36
100
AcDbTableStyle
  3
Standard
 70
     0
 71
     8
 40
1.5
 41
1.5
280
     0
281
     0
  7
STANDARD
140
4.5
170
     2
 62
     0
 63
     7
283
     0
274
    -2
284
     1
 64
     0
275
    -2
285
     1
 65
     0
276
    -2
286
     1
 66
     0
277
    -2
287
     1
 67
     0
278
    -2
288
     1
 68
     0
279
    -2
289
     1
 69
     0
  7
STANDARD
140
6.0
170
     5
 62
     0
 63
     7
283
     0
274
    -2
284
     1
 64
     0
275
    -2
285
     1
 65
     0
276
    -2
286
     1
 66
     0
277
    -2
287
     1
 67
     0
278
    -2
288
     1
 68
     0
279
    -2
289
     1
 69
     0
  7
STANDARD
140
4.5
170
     5
 62
     0
 63
     7
283
     0
274
    -2
284
     1
 64
     0
275
    -2
285
     1
 65
     0
276
    -2
286
     1
 66
     0
277
    -2
287
     1
 67
     0
278
    -2
288
     1
 68
     0
279
    -2
289
     1
 69
     0
  0
DICTIONARYVAR
  5
B3B
102
{ACAD_REACTORS
330
2E
102
}
330
2E
100
DictionaryVariables
280
     0
  1
STANDARD
  0
DICTIONARYVAR
  5
2F
102
{ACAD_REACTORS
330
2E
102
}
330
2E
100
DictionaryVariables
280
     0
  1
0
  0
DICTIONARYVAR
  5
B15
102
{ACAD_REACTORS
330
2E
102
}
330
2E
100
DictionaryVariables
280
     0
  1
0
  0
XRECORD
  5
B4E
102
{ACAD_REACTORS
330
B4C
102
}
330
B4C
100
AcDbXrecord
280
     1
  0
ENDSEC
  0
EOF
