  0
SECTION
  2
HEADER
  9
$ACADVER
  1
AC1018
  9
$ACADMAINTVER
 70
    76
  9
$DWGCODEPAGE
  3
ANSI_1252
  9
$INSBASE
 10
0.0
 20
0.0
 30
0.0
  9
$EXTMIN
 10
4.992677300461537
 20
7.464601131464178
 30
-0.000000000000013
  9
$EXTMAX
 10
245.0439464126759
 20
180.0415049307532
 30
0.0000000000000023
  9
$LIMMIN
 10
-100.0
 20
-100.0
  9
$LIMMAX
 10
500.0
 20
500.0
  9
$ORTHOMODE
 70
     1
  9
$REGENMODE
 70
     1
  9
$FILLMODE
 70
     1
  9
$QTEXTMODE
 70
     0
  9
$MIRRTEXT
 70
     0
  9
$LTSCALE
 40
10.0
  9
$ATTMODE
 70
     1
  9
$TEXTSIZE
 40
2.399999999999999
  9
$TRACEWID
 40
0.05
  9
$TEXTSTYLE
  7
STANDARD
  9
$CLAYER
  8
NORMAL
  9
$CELTYPE
  6
BYLAYER
  9
$CECOLOR
 62
   256
  9
$CELTSCALE
 40
1.0
  9
$DISPSILH
 70
     0
  9
$DIMSCALE
 40
0.0
  9
$DIMASZ
 40
3.0
  9
$DIMEXO
 40
0.0
  9
$DIMDLI
 40
7.5
  9
$DIMRND
 40
0.0
  9
$DIMDLE
 40
0.0
  9
$DIMEXE
 40
1.0
  9
$DIMTP
 40
0.0
  9
$DIMTM
 40
0.0
  9
$DIMTXT
 40
2.399999999999999
  9
$DIMCEN
 40
3.0
  9
$DIMTSZ
 40
0.0
  9
$DIMTOL
 70
     0
  9
$DIMLIM
 70
     0
  9
$DIMTIH
 70
     0
  9
$DIMTOH
 70
     0
  9
$DIMSE1
 70
     0
  9
$DIMSE2
 70
     0
  9
$DIMTAD
 70
     1
  9
$DIMZIN
 70
     8
  9
$DIMBLK
  1

  9
$DIMASO
 70
     0
  9
$DIMSHO
 70
     0
  9
$DIMPOST
  1

  9
$DIMAPOST
  1

  9
$DIMALT
 70
     0
  9
$DIMALTD
 70
     2
  9
$DIMALTF
 40
25.4
  9
$DIMLFAC
 40
1.0
  9
$DIMTOFL
 70
     0
  9
$DIMTVP
 40
0.0
  9
$DIMTIX
 70
     0
  9
$DIMSOXD
 70
     0
  9
$DIMSAH
 70
     0
  9
$DIMBLK1
  1

  9
$DIMBLK2
  1

  9
$DIMSTYLE
  2
STANDARD
  9
$DIMCLRD
 70
     0
  9
$DIMCLRE
 70
     0
  9
$DIMCLRT
 70
     0
  9
$DIMTFAC
 40
1.0
  9
$DIMGAP
 40
1.0
  9
$DIMJUST
 70
     0
  9
$DIMSD1
 70
     0
  9
$DIMSD2
 70
     0
  9
$DIMTOLJ
 70
     1
  9
$DIMTZIN
 70
     8
  9
$DIMALTZ
 70
     0
  9
$DIMALTTZ
 70
     0
  9
$DIMUPT
 70
     0
  9
$DIMDEC
 70
     2
  9
$DIMTDEC
 70
     2
  9
$DIMALTU
 70
     2
  9
$DIMALTTD
 70
     2
  9
$DIMTXSTY
  7
STANDARD
  9
$DIMAUNIT
 70
     0
  9
$DIMADEC
 70
     0
  9
$DIMALTRND
 40
0.0
  9
$DIMAZIN
 70
     0
  9
$DIMDSEP
 70
    46
  9
$DIMATFIT
 70
     0
  9
$DIMFRAC
 70
     0
  9
$DIMLDRBLK
  1

  9
$DIMLUNIT
 70
     6
  9
$DIMLWD
 70
    -2
  9
$DIMLWE
 70
    -2
  9
$DIMTMOVE
 70
     0
  9
$LUNITS
 70
     2
  9
$LUPREC
 70
     2
  9
$SKETCHINC
 40
0.1
  9
$FILLETRAD
 40
15.0
  9
$AUNITS
 70
     0
  9
$AUPREC
 70
     0
  9
$MENU
  1
C:\ACADWIN\SUPPORT\ACAD
  9
$ELEVATION
 40
0.0
  9
$PELEVATION
 40
0.0
  9
$THICKNESS
 40
0.0
  9
$LIMCHECK
 70
     1
  9
$CHAMFERA
 40
0.0
  9
$CHAMFERB
 40
0.0
  9
$CHAMFERC
 40
0.0
  9
$CHAMFERD
 40
0.0
  9
$SKPOLY
 70
     0
  9
$TDCREATE
 40
2451963.417154074
  9
$TDUCREATE
 40
2451963.667154074
  9
$TDUPDATE
 40
2455251.585804768
  9
$TDUUPDATE
 40
2455251.835804769
  9
$TDINDWG
 40
1.1475413542
  9
$TDUSRTIMER
 40
1.1475411227
  9
$USRTIMER
 70
     1
  9
$ANGBASE
 50
0.0
  9
$ANGDIR
 70
     0
  9
$PDMODE
 70
     0
  9
$PDSIZE
 40
0.0
  9
$PLINEWID
 40
0.5
  9
$SPLFRAME
 70
     0
  9
$SPLINETYPE
 70
     6
  9
$SPLINESEGS
 70
     8
  9
$HANDSEED
  5
304C
  9
$SURFTAB1
 70
     6
  9
$SURFTAB2
 70
     6
  9
$SURFTYPE
 70
     6
  9
$SURFU
 70
     6
  9
$SURFV
 70
     6
  9
$UCSBASE
  2

  9
$UCSNAME
  2

  9
$UCSORG
 10
0.0
 20
0.0
 30
0.0
  9
$UCSXDIR
 10
1.0
 20
0.0
 30
0.0
  9
$UCSYDIR
 10
0.0
 20
1.0
 30
0.0
  9
$UCSORTHOREF
  2

  9
$UCSORTHOVIEW
 70
     0
  9
$UCSORGTOP
 10
0.0
 20
0.0
 30
0.0
  9
$UCSORGBOTTOM
 10
0.0
 20
0.0
 30
0.0
  9
$UCSORGLEFT
 10
0.0
 20
0.0
 30
0.0
  9
$UCSORGRIGHT
 10
0.0
 20
0.0
 30
0.0
  9
$UCSORGFRONT
 10
0.0
 20
0.0
 30
0.0
  9
$UCSORGBACK
 10
0.0
 20
0.0
 30
0.0
  9
$PUCSBASE
  2

  9
$PUCSNAME
  2

  9
$PUCSORG
 10
0.0
 20
0.0
 30
0.0
  9
$PUCSXDIR
 10
1.0
 20
0.0
 30
0.0
  9
$PUCSYDIR
 10
0.0
 20
1.0
 30
0.0
  9
$PUCSORTHOREF
  2

  9
$PUCSORTHOVIEW
 70
     0
  9
$PUCSORGTOP
 10
0.0
 20
0.0
 30
0.0
  9
$PUCSORGBOTTOM
 10
0.0
 20
0.0
 30
0.0
  9
$PUCSORGLEFT
 10
0.0
 20
0.0
 30
0.0
  9
$PUCSORGRIGHT
 10
0.0
 20
0.0
 30
0.0
  9
$PUCSORGFRONT
 10
0.0
 20
0.0
 30
0.0
  9
$PUCSORGBACK
 10
0.0
 20
0.0
 30
0.0
  9
$USERI1
 70
     0
  9
$USERI2
 70
     0
  9
$USERI3
 70
     0
  9
$USERI4
 70
     0
  9
$USERI5
 70
     0
  9
$USERR1
 40
0.0
  9
$USERR2
 40
0.0
  9
$USERR3
 40
0.0
  9
$USERR4
 40
0.0
  9
$USERR5
 40
0.0
  9
$WORLDVIEW
 70
     1
  9
$SHADEDGE
 70
     3
  9
$SHADEDIF
 70
    70
  9
$TILEMODE
 70
     1
  9
$MAXACTVP
 70
    16
  9
$PINSBASE
 10
0.0
 20
0.0
 30
0.0
  9
$PLIMCHECK
 70
     0
  9
$PEXTMIN
 10
1.000000000000000E+20
 20
1.000000000000000E+20
 30
1.000000000000000E+20
  9
$PEXTMAX
 10
-1.000000000000000E+20
 20
-1.000000000000000E+20
 30
-1.000000000000000E+20
  9
$PLIMMIN
 10
0.0
 20
0.0
  9
$PLIMMAX
 10
12.0
 20
9.0
  9
$UNITMODE
 70
     0
  9
$VISRETAIN
 70
     0
  9
$PLINEGEN
 70
     0
  9
$PSLTSCALE
 70
     0
  9
$TREEDEPTH
 70
  3020
  9
$CMLSTYLE
  2
STANDARD
  9
$CMLJUST
 70
     0
  9
$CMLSCALE
 40
1.0
  9
$PROXYGRAPHICS
 70
     1
  9
$MEASUREMENT
 70
     1
  9
$CELWEIGHT
370
    -1
  9
$ENDCAPS
280
     0
  9
$JOINSTYLE
280
     0
  9
$LWDISPLAY
290
     0
  9
$INSUNITS
 70
     0
  9
$HYPERLINKBASE
  1

  9
$STYLESHEET
  1
monochrome.ctb
  9
$XEDIT
290
     1
  9
$CEPSNTYPE
380
     0
  9
$PSTYLEMODE
290
     1
  9
$FINGERPRINTGUID
  2
{5CFF958A-32CE-11D4-BBB0-0060087DD5EC}
  9
$VERSIONGUID
  2
{9FFE5401-9BD7-4D17-9106-2746CA5C19A2}
  9
$EXTNAMES
290
     1
  9
$PSVPSCALE
 40
0.0
  9
$OLESTARTUP
290
     0
  9
$SORTENTS
280
   127
  9
$INDEXCTL
280
     0
  9
$HIDETEXT
280
     0
  9
$XCLIPFRAME
290
     0
  9
$HALOGAP
280
     0
  9
$OBSCOLOR
 70
   257
  9
$OBSLTYPE
280
     0
  9
$INTERSECTIONDISPLAY
280
     0
  9
$INTERSECTIONCOLOR
 70
   257
  9
$DIMASSOC
280
     0
  9
$PROJECTNAME
  1

  0
ENDSEC
  0
SECTION
  2
CLASSES
  0
CLASS
  1
DICTIONARYVAR
  2
AcDbDictionaryVar
  3
ObjectDBX Classes
 90
        0
 91
        3
280
     0
281
     0
  0
CLASS
  1
ACDBDICTIONARYWDFLT
  2
AcDbDictionaryWithDefault
  3
ObjectDBX Classes
 90
        0
 91
        1
280
     0
281
     0
  0
CLASS
  1
TABLESTYLE
  2
AcDbTableStyle
  3
ObjectDBX Classes
 90
     2047
 91
        1
280
     0
281
     0
  0
ENDSEC
  0
SECTION
  2
TABLES
  0
TABLE
  2
VPORT
  5
8
330
0
100
AcDbSymbolTable
 70
     4
  0
VPORT
  5
304B
330
8
100
AcDbSymbolTableRecord
100
AcDbViewportTableRecord
  2
*Active
 70
     0
 10
0.0
 20
0.0
 11
1.0
 21
1.0
 12
125.0183118565687
 22
93.75305303110874
 13
0.0
 23
0.0
 14
1.0
 24
1.0
 15
10.0
 25
10.0
 16
0.0
 26
0.0
 36
1.0
 17
0.0
 27
0.0
 37
0.0
 40
174.2362971050515
 41
1.730337078651685
 42
50.0
 43
0.0
 44
0.0
 50
0.0
 51
0.0
 71
     0
 72
   100
 73
     1
 74
     0
 75
     1
 76
     0
 77
     0
 78
     0
281
     0
 65
     1
110
0.0
120
0.0
130
0.0
111
1.0
121
0.0
131
0.0
112
0.0
122
1.0
132
0.0
 79
     0
146
0.0
  0
ENDTAB
  0
TABLE
  2
LTYPE
  5
5
330
0
100
AcDbSymbolTable
 70
     4
  0
LTYPE
  5
11
330
5
100
AcDbSymbolTableRecord
100
AcDbLinetypeTableRecord
  2
BYBLOCK
 70
     0
  3

 72
    65
 73
     0
 40
0.0
  0
LTYPE
  5
12
330
5
100
AcDbSymbolTableRecord
100
AcDbLinetypeTableRecord
  2
BYLAYER
 70
     0
  3

 72
    65
 73
     0
 40
0.0
  0
LTYPE
  5
13
330
5
100
AcDbSymbolTableRecord
100
AcDbLinetypeTableRecord
  2
CONTINUOUS
 70
     0
  3
Solid line
 72
    65
 73
     0
 40
0.0
  0
LTYPE
  5
3EA
330
5
100
AcDbSymbolTableRecord
100
AcDbLinetypeTableRecord
  2
DOT2
 70
     0
  3
Dot (.5x) .....................................
 72
    65
 73
     2
 40
0.125
 49
0.0
 74
     0
 49
-0.125
 74
     0
  0
LTYPE
  5
3EC
330
5
100
AcDbSymbolTableRecord
100
AcDbLinetypeTableRecord
  2
DASHDOT
 70
     0
  3
Dash dot __ . __ . __ . __ . __ . __ . __ . __
 72
    65
 73
     4
 40
1.0
 49
0.5
 74
     0
 49
-0.25
 74
     0
 49
0.0
 74
     0
 49
-0.25
 74
     0
  0
LTYPE
  5
3ED
330
5
100
AcDbSymbolTableRecord
100
AcDbLinetypeTableRecord
  2
HIDDEN
 70
     0
  3
Hidden __ __ __ __ __ __ __ __ __ __ __ __ __ _
 72
    65
 73
     2
 40
0.375
 49
0.25
 74
     0
 49
-0.125
 74
     0
  0
ENDTAB
  0
TABLE
  2
LAYER
  5
2
330
0
100
AcDbSymbolTable
 70
     3
  0
LAYER
  5
E
330
2
100
AcDbSymbolTableRecord
100
AcDbLayerTableRecord
  2
0
 70
     0
 62
     2
  6
CONTINUOUS
370
    -3
390
B39
  0
LAYER
  5
29
330
2
100
AcDbSymbolTableRecord
100
AcDbLayerTableRecord
  2
NORMAL
 70
     0
 62
     2
  6
CONTINUOUS
370
    -3
390
B39
  0
LAYER
  5
2E80
330
2
100
AcDbSymbolTableRecord
100
AcDbLayerTableRecord
  2
test
 70
     0
 62
     2
  6
CONTINUOUS
370
    -3
390
B39
  0
ENDTAB
  0
TABLE
  2
STYLE
  5
3
330
0
100
AcDbSymbolTable
 70
     4
  0
STYLE
  5
F
330
3
100
AcDbSymbolTableRecord
100
AcDbTextStyleTableRecord
  2
STANDARD
 70
     0
 40
0.0
 41
1.0
 50
0.0
 71
     0
 42
2.399999999999999
  3
simplex
  4

  0
STYLE
  5
1E
330
3
100
AcDbSymbolTableRecord
100
AcDbTextStyleTableRecord
  2
ROMAND
 70
     0
 40
0.0
 41
1.0
 50
0.0
 71
     0
 42
3.0
  3
romand.shx
  4

  0
ENDTAB
  0
TABLE
  2
VIEW
  5
6
330
0
100
AcDbSymbolTable
 70
     0
  0
ENDTAB
  0
TABLE
  2
UCS
  5
7
330
0
100
AcDbSymbolTable
 70
     0
  0
ENDTAB
  0
TABLE
  2
APPID
  5
9
330
0
100
AcDbSymbolTable
 70
     6
  0
APPID
  5
10
330
9
100
AcDbSymbolTableRecord
100
AcDbRegAppTableRecord
  2
ACAD
 70
     0
  0
APPID
  5
2E6
330
9
100
AcDbSymbolTableRecord
100
AcDbRegAppTableRecord
  2
CONTENTTABDATA
 70
     0
  0
APPID
  5
2E7
330
9
100
AcDbSymbolTableRecord
100
AcDbRegAppTableRecord
  2
CONTENTCURRENTTAB
 70
     0
  0
APPID
  5
337
330
9
100
AcDbSymbolTableRecord
100
AcDbRegAppTableRecord
  2
CONTENTBLOCKDESCRIPTION
 70
     0
  0
APPID
  5
A90
330
9
100
AcDbSymbolTableRecord
100
AcDbRegAppTableRecord
  2
AUTOCAD_POSTSCRIPT_FIGURE
 70
     0
  0
APPID
  5
3041
330
9
100
AcDbSymbolTableRecord
100
AcDbRegAppTableRecord
  2
ACAD_PSEXT
 70
     0
  0
ENDTAB
  0
TABLE
  2
DIMSTYLE
  5
A
330
0
100
AcDbSymbolTable
 70
     3
100
AcDbDimStyleTable
 71
     1
340
298
  0
DIMSTYLE
105
298
330
A
100
AcDbSymbolTableRecord
100
AcDbDimStyleTableRecord
  2
STANDARD
 70
     0
340
F
  0
ENDTAB
  0
TABLE
  2
BLOCK_RECORD
  5
1
330
0
100
AcDbSymbolTable
 70
     6
  0
BLOCK_RECORD
  5
17
330
1
100
AcDbSymbolTableRecord
100
AcDbBlockTableRecord
  2
*MODEL_SPACE
340
B3C
  0
BLOCK_RECORD
  5
14
330
1
100
AcDbSymbolTableRecord
100
AcDbBlockTableRecord
  2
*PAPER_SPACE
340
B3D
  0
BLOCK_RECORD
  5
B4F
330
1
100
AcDbSymbolTableRecord
100
AcDbBlockTableRecord
  2
SCALE_BAR
340
0
310
2800000020000000200000000100080000000000000400000000000000000000000000000000000000000000000080000080000000808000800000008000800080800000C0C0C000C0DCC000F0CAA6000020400000206000002080000020A0000020C0000020E00000400000004020000040400000406000004080000040A0
310
000040C0000040E00000600000006020000060400000606000006080000060A0000060C0000060E00000800000008020000080400000806000008080000080A0000080C0000080E00000A0000000A0200000A0400000A0600000A0800000A0A00000A0C00000A0E00000C0000000C0200000C0400000C0600000C0800000C0
310
A00000C0C00000C0E00000E0000000E0200000E0400000E0600000E0800000E0A00000E0C00000E0E00040000000400020004000400040006000400080004000A0004000C0004000E00040200000402020004020400040206000402080004020A0004020C0004020E000404000004040200040404000404060004040800040
310
40A0004040C0004040E00040600000406020004060400040606000406080004060A0004060C0004060E00040800000408020004080400040806000408080004080A0004080C0004080E00040A0000040A0200040A0400040A0600040A0800040A0A00040A0C00040A0E00040C0000040C0200040C0400040C0600040C08000
310
40C0A00040C0C00040C0E00040E0000040E0200040E0400040E0600040E0800040E0A00040E0C00040E0E00080000000800020008000400080006000800080008000A0008000C0008000E00080200000802020008020400080206000802080008020A0008020C0008020E00080400000804020008040400080406000804080
310
008040A0008040C0008040E00080600000806020008060400080606000806080008060A0008060C0008060E00080800000808020008080400080806000808080008080A0008080C0008080E00080A0000080A0200080A0400080A0600080A0800080A0A00080A0C00080A0E00080C0000080C0200080C0400080C0600080C0
310
800080C0A00080C0C00080C0E00080E0000080E0200080E0400080E0600080E0800080E0A00080E0C00080E0E000C0000000C0002000C0004000C0006000C0008000C000A000C000C000C000E000C0200000C0202000C0204000C0206000C0208000C020A000C020C000C020E000C0400000C0402000C0404000C0406000C0
310
408000C040A000C040C000C040E000C0600000C0602000C0604000C0606000C0608000C060A000C060C000C060E000C0800000C0802000C0804000C0806000C0808000C080A000C080C000C080E000C0A00000C0A02000C0A04000C0A06000C0A08000C0A0A000C0A0C000C0A0E000C0C00000C0C02000C0C04000C0C06000
310
C0C08000C0C0A000F0FBFF00A4A0A000808080000000FF0000FF000000FFFF00FF000000FF00FF00FFFF0000FFFFFF0000000000000000000000000000000000000000000000000000000000000000000000000000000000000000000000000000000000000000000000000000000000000000000000000000000000000000
310
00000000000000000000000000000000000000000000000000000000000000000000000000000000000000000000000000000000000000000000000000000000000000000000000000000000000000000000000000000000000000000000000000000000000000000000000000000000000000000000000000000000000000
310
00000000000000000000000000000000000000000000000000000000000000000000000000000000000000000000000000000000000000000000000000000000000000000000000000000000000000000000000000000000000000000000000000000000000000000000000000000000000000000000000000000000000000
310
000000000000000000000000000000000000000000000000000000000000000000000000000000000000000000000000000000000000000000000000000000000000000000000000000000000000000000000000000000000000000000000000000000000000000000000000000000000000000000000000FB00000000FB00
310
00000000FB0000000000FB00000000FBFBFBFB0000FBFBFBFBFBFBFBFBFBFBFBFBFBFBFBFBFBFBFBFBFBFBFBFBFBFBFBFBFBFB0000FBFBFBFBFBFBFBFBFBFBFBFBFBFBFBFBFBFBFBFBFBFBFBFBFBFBFBFBFB00000000000000FB00FB00FBFBFBFB00FBFBFB00FB00FBFBFBFBFBFBFBFBFBFB00000000000000000000000000
310
00000000000000000000000000000000000000000000000000000000000000000000000000000000000000000000000000000000000000000000000000000000000000000000000000000000000000000000000000000000000000000000000000000000000000000000000000000000000000000000000000000000000000
310
00000000000000000000000000000000000000000000000000000000000000000000000000000000000000000000000000000000000000000000000000000000000000000000000000000000000000000000000000000000000000000000000000000000000000000000000000000000000000000000000000000000000000
310
00000000000000000000000000000000000000000000000000000000000000000000000000000000000000000000000000000000000000000000000000000000000000000000000000000000000000000000000000000000000000000000000000000000000000000000000000000000000000000000000000000000000000
310
0000000000000000000000000000000000000000000000000000000000000000000000000000000000000000000000000000000000000000
  0
BLOCK_RECORD
  5
BA9
330
1
100
AcDbSymbolTableRecord
100
AcDbBlockTableRecord
  2
Tollerans
340
0
310
2800000020000000200000000100080000000000000400000000000000000000000000000000000000000000000080000080000000808000800000008000800080800000C0C0C000C0DCC000F0CAA6000020400000206000002080000020A0000020C0000020E00000400000004020000040400000406000004080000040A0
310
000040C0000040E00000600000006020000060400000606000006080000060A0000060C0000060E00000800000008020000080400000806000008080000080A0000080C0000080E00000A0000000A0200000A0400000A0600000A0800000A0A00000A0C00000A0E00000C0000000C0200000C0400000C0600000C0800000C0
310
A00000C0C00000C0E00000E0000000E0200000E0400000E0600000E0800000E0A00000E0C00000E0E00040000000400020004000400040006000400080004000A0004000C0004000E00040200000402020004020400040206000402080004020A0004020C0004020E000404000004040200040404000404060004040800040
310
40A0004040C0004040E00040600000406020004060400040606000406080004060A0004060C0004060E00040800000408020004080400040806000408080004080A0004080C0004080E00040A0000040A0200040A0400040A0600040A0800040A0A00040A0C00040A0E00040C0000040C0200040C0400040C0600040C08000
310
40C0A00040C0C00040C0E00040E0000040E0200040E0400040E0600040E0800040E0A00040E0C00040E0E00080000000800020008000400080006000800080008000A0008000C0008000E00080200000802020008020400080206000802080008020A0008020C0008020E00080400000804020008040400080406000804080
310
008040A0008040C0008040E00080600000806020008060400080606000806080008060A0008060C0008060E00080800000808020008080400080806000808080008080A0008080C0008080E00080A0000080A0200080A0400080A0600080A0800080A0A00080A0C00080A0E00080C0000080C0200080C0400080C0600080C0
310
800080C0A00080C0C00080C0E00080E0000080E0200080E0400080E0600080E0800080E0A00080E0C00080E0E000C0000000C0002000C0004000C0006000C0008000C000A000C000C000C000E000C0200000C0202000C0204000C0206000C0208000C020A000C020C000C020E000C0400000C0402000C0404000C0406000C0
310
408000C040A000C040C000C040E000C0600000C0602000C0604000C0606000C0608000C060A000C060C000C060E000C0800000C0802000C0804000C0806000C0808000C080A000C080C000C080E000C0A00000C0A02000C0A04000C0A06000C0A08000C0A0A000C0A0C000C0A0E000C0C00000C0C02000C0C04000C0C06000
310
C0C08000C0C0A000F0FBFF00A4A0A000808080000000FF0000FF000000FFFF00FF000000FF00FF00FFFF0000FFFFFF0000000000000000000000000000000000000000000000000000000000000000000000000000000000000000000000000000000000000000000000000000000000000000000000000000000000000000
310
00000000000000000000000000000000000000000000000000000000000000000000000000000000000000000000000000000000000000000000000000000000000000000000000000000000000000000000000000000000000000000000000000000000000000000000000000000000000000000000000000000000000000
310
00000000000000000000000000000000000000000000FBFBFBFB00FBFBFBFBFBFB00FB00FBFB00FBFBFBFBFBFBFB0000000000000000FBFBFB0000FBFBFBFBFBFB00FBFBFBFB00FB00FBFBFBFBFB0000000000000000FB00000000FBFB000000000000000000000000000000000000000000000000FBFB00FBFBFBFBFBFBFB
310
FBFBFB00FBFBFBFBFBFBFBFBFBFBFBFB000000000000FBFB00FBFBFBFBFBFBFBFBFBFB00FBFBFBFBFBFBFBFBFBFBFBFB000000000000FBFB000000000000FB0000000000FB00FB00000000FB00000000000000000000000000000000000000000000000000000000000000FB0000000000000000000000000000000000FBFB
310
000000000000000000000000FBFB000000000000000000000000FBFBFBFB00FB00000000000000000000FBFBFB00FB0000000000000000FBFBFB0000000000FB0000000000000000FBFB00FBFB0000FB00000000000000FB00000000000000FB000000FBFB000000FB0000FBFBFB00FB0000000000FBFBFBFBFBFBFBFBFBFB
310
FBFBFB00FBFB00FBFBFBFBFBFBFBFBFBFBFBFBFB00000000FB00000000000000FB000000FB00000000FB0000FBFBFB00FB00000000000000FBFB000000000000FB000000FBFB000000FBFB00FBFB0000FB000000000000000000FBFBFBFB0000FB00000000000000000000FBFBFB00FB0000000000000000000000000000FB
310
FBFB000000000000000000000000FBFB000000000000000000000000000000000000000000000000000000000000FB00000000000000000000000000000000000000000000000000000000000000FB000000000000000000000000000000000000000000000000000000000000000000000000000000000000000000000000
310
00000000000000000000000000000000000000000000000000000000000000000000000000000000000000000000000000000000000000000000000000000000000000000000000000000000000000000000000000000000000000000000000000000000000000000000000000000000000000000000000000000000000000
310
0000000000000000000000000000000000000000000000000000000000000000000000000000000000000000000000000000000000000000
1001
ACAD
1000
DesignCenter Data
1002
{
1070
     1
1070
     4
1002
}
  0
BLOCK_RECORD
  5
C89
330
1
100
AcDbSymbolTableRecord
100
AcDbBlockTableRecord
  2
Logo_beijer_ny_A4L
340
0
1001
ACAD
1000
DesignCenter Data
1002
{
1070
     1
1070
     4
1002
}
  0
BLOCK_RECORD
  5
CE7
330
1
100
AcDbSymbolTableRecord
100
AcDbBlockTableRecord
  2
Ritram_A4L
340
0
310
2800000020000000200000000100080000000000000400000000000000000000000000000000000000000000000080000080000000808000800000008000800080800000C0C0C000C0DCC000F0CAA6000020400000206000002080000020A0000020C0000020E00000400000004020000040400000406000004080000040A0
310
000040C0000040E00000600000006020000060400000606000006080000060A0000060C0000060E00000800000008020000080400000806000008080000080A0000080C0000080E00000A0000000A0200000A0400000A0600000A0800000A0A00000A0C00000A0E00000C0000000C0200000C0400000C0600000C0800000C0
310
A00000C0C00000C0E00000E0000000E0200000E0400000E0600000E0800000E0A00000E0C00000E0E00040000000400020004000400040006000400080004000A0004000C0004000E00040200000402020004020400040206000402080004020A0004020C0004020E000404000004040200040404000404060004040800040
310
40A0004040C0004040E00040600000406020004060400040606000406080004060A0004060C0004060E00040800000408020004080400040806000408080004080A0004080C0004080E00040A0000040A0200040A0400040A0600040A0800040A0A00040A0C00040A0E00040C0000040C0200040C0400040C0600040C08000
310
40C0A00040C0C00040C0E00040E0000040E0200040E0400040E0600040E0800040E0A00040E0C00040E0E00080000000800020008000400080006000800080008000A0008000C0008000E00080200000802020008020400080206000802080008020A0008020C0008020E00080400000804020008040400080406000804080
310
008040A0008040C0008040E00080600000806020008060400080606000806080008060A0008060C0008060E00080800000808020008080400080806000808080008080A0008080C0008080E00080A0000080A0200080A0400080A0600080A0800080A0A00080A0C00080A0E00080C0000080C0200080C0400080C0600080C0
310
800080C0A00080C0C00080C0E00080E0000080E0200080E0400080E0600080E0800080E0A00080E0C00080E0E000C0000000C0002000C0004000C0006000C0008000C000A000C000C000C000E000C0200000C0202000C0204000C0206000C0208000C020A000C020C000C020E000C0400000C0402000C0404000C0406000C0
310
408000C040A000C040C000C040E000C0600000C0602000C0604000C0606000C0608000C060A000C060C000C060E000C0800000C0802000C0804000C0806000C0808000C080A000C080C000C080E000C0A00000C0A02000C0A04000C0A06000C0A08000C0A0A000C0A0C000C0A0E000C0C00000C0C02000C0C04000C0C06000
310
C0C08000C0C0A000F0FBFF00A4A0A000808080000000FF0000FF000000FFFF00FF000000FF00FF00FFFF0000FFFFFF0000000000000000000000000000000000000000000000000000000000000000000000000000000000000000000000000000000000000000000000000000000000000000000000000000000000000000
310
00000000000000000000000000000000000000000000000000000000000000000000000000000000000000000000000000000000000000000000000000000000000000000000000000000000000000000000FBFBFBFBFBFBFBFBFBFBFBFBFBFBFBFBFBFBFBFBFBFBFBFBFBFBFBFBFBFB0000FB000000000000000000000000
310
000000FBFBFBFBFBFBFBFBFBFBFBFBFBFB0000FB00000000000000000000000000000000FBFBFBFBFBFBFBFBFBFBFBFBFB0000FB00000000000000000000000000000000000000000000000000000000FB0000FB00000000000000000000000000000000000000000000000000000000FB0000FB0000000000000000000000
310
0000000000000000000000000000000000FB0000FB00000000000000000000000000000000000000000000000000000000FB0000FB00000000000000000000000000000000000000000000000000000000FB0000FB00000000000000000000000000000000000000000000000000000000FB0000FB00000000000000000000
310
000000000000000000000000000000000000FB0000FB00000000000000000000000000000000000000000000000000000000FB0000FB00000000000000000000000000000000000000000000000000000000FB0000FB00000000000000000000000000000000000000000000000000000000FB0000FB000000000000000000
310
00000000000000000000000000000000000000FB0000FB00000000000000000000000000000000000000000000000000000000FB0000FB00000000000000000000000000000000000000000000000000000000FB0000FB00000000000000000000000000000000000000000000000000000000FB0000FB0000000000000000
310
0000000000000000000000000000000000000000FB0000FB00000000000000000000000000000000000000000000000000000000FB0000FB00000000000000000000000000000000000000000000000000000000FB0000FB00000000000000000000000000000000000000000000000000000000FB0000FBFBFBFBFBFBFBFB
310
FBFBFBFBFBFBFBFBFBFBFBFBFBFBFBFBFBFBFBFBFBFB000000000000000000000000000000000000000000000000000000000000000000000000000000000000000000000000000000000000000000000000000000000000000000000000000000000000000000000000000000000000000000000000000000000000000000
310
0000000000000000000000000000000000000000000000000000000000000000000000000000000000000000000000000000000000000000
1001
ACAD
1000
DesignCenter Data
1002
{
1070
     1
1070
     4
1002
}
  0
ENDTAB
  0
ENDSEC
  0
SECTION
  2
BLOCKS
  0
BLOCK
  5
2C
330
17
100
AcDbEntity
  8
0
100
AcDbBlockBegin
  2
*MODEL_SPACE
 70
     0
 10
0.0
 20
0.0
 30
0.0
  3
*MODEL_SPACE
  1

  0
ENDBLK
  5
2D
330
17
100
AcDbEntity
  8
0
100
AcDbBlockEnd
  0
BLOCK
  5
2A
330
14
100
AcDbEntity
 67
     1
  8
0
100
AcDbBlockBegin
  2
*PAPER_SPACE
 70
     0
 10
0.0
 20
0.0
 30
0.0
  3
*PAPER_SPACE
  1

  0
ENDBLK
  5
2B
330
14
100
AcDbEntity
 67
     1
  8
0
100
AcDbBlockEnd
  0
BLOCK
  5
B74
330
B4F
100
AcDbEntity
  8
0
100
AcDbBlockBegin
  2
SCALE_BAR
 70
     0
 10
0.0
 20
0.0
 30
0.0
  3
SCALE_BAR
  1

  0
LWPOLYLINE
  5
B50
330
B4F
100
AcDbEntity
  8
NORMAL
100
AcDbPolyline
 90
        2
 70
     0
 43
0.25
 10
71.5
 20
81.0
 10
121.5
 20
81.0
  0
TEXT
  5
B51
330
B4F
100
AcDbEntity
  8
NORMAL
100
AcDbText
 10
56.5
 20
79.75
 30
0.0
 40
3.0
  1
Scale
 72
     1
 11
62.0
 21
81.25
 31
0.0
100
AcDbText
 73
     2
  0
TEXT
  5
B52
330
B4F
100
AcDbEntity
  8
NORMAL
100
AcDbText
 10
80.07142857142858
 20
84.25
 30
0.0
 40
2.0
  1
10
 72
     1
 11
81.5
 21
85.25
 31
0.0
100
AcDbText
 73
     2
  0
LWPOLYLINE
  5
B53
330
B4F
100
AcDbEntity
  8
NORMAL
100
AcDbPolyline
 90
        2
 70
     0
 43
0.25
 10
81.5
 20
81.0
 10
81.5
 20
83.0
  0
LWPOLYLINE
  5
B54
330
B4F
100
AcDbEntity
  8
NORMAL
100
AcDbPolyline
 90
        2
 70
     0
 43
0.25
 10
71.5
 20
83.49999999999999
 10
71.5
 20
78.5
  0
TEXT
  5
B55
330
B4F
100
AcDbEntity
  8
NORMAL
100
AcDbText
 10
70.7
 20
75.3
 30
0.0
 40
2.399999999999999
  1
0
 72
     1
 11
71.5
 21
76.5
 31
0.0
100
AcDbText
 73
     2
  0
TEXT
  5
B56
330
B4F
100
AcDbEntity
  8
NORMAL
100
AcDbText
 10
70.7
 20
84.29999999999999
 30
0.0
 40
2.399999999999999
  1
0
 72
     1
 11
71.5
 21
85.5
 31
0.0
100
AcDbText
 73
     2
  0
LWPOLYLINE
  5
B57
330
B4F
100
AcDbEntity
  8
NORMAL
100
AcDbPolyline
 90
        2
 70
     0
 43
0.25
 10
101.5
 20
81.0
 10
101.5
 20
83.0
  0
LWPOLYLINE
  5
B58
330
B4F
100
AcDbEntity
  8
NORMAL
100
AcDbPolyline
 90
        2
 70
     0
 43
0.25
 10
91.5
 20
81.0
 10
91.5
 20
83.0
  0
TEXT
  5
B59
330
B4F
100
AcDbEntity
  8
NORMAL
100
AcDbText
 10
96.26428571428572
 20
75.3
 30
0.0
 40
2.399999999999999
  1
1
 72
     1
 11
96.55000000000001
 21
76.5
 31
0.0
100
AcDbText
 73
     2
  0
LWPOLYLINE
  5
B5A
330
B4F
100
AcDbEntity
  8
NORMAL
100
AcDbPolyline
 90
        2
 70
     0
 43
0.25
 10
96.90000000000001
 20
81.0
 10
96.90000000000001
 20
79.0
  0
TEXT
  5
B5B
330
B4F
100
AcDbEntity
  8
NORMAL
100
AcDbText
 10
89.88095238095239
 20
84.25
 30
0.0
 40
2.0
  1
20
 72
     1
 11
91.5
 21
85.25
 31
0.0
100
AcDbText
 73
     2
  0
TEXT
  5
B5C
330
B4F
100
AcDbEntity
  8
NORMAL
100
AcDbText
 10
99.88095238095239
 20
84.25
 30
0.0
 40
2.0
  1
30
 72
     1
 11
101.5
 21
85.25
 31
0.0
100
AcDbText
 73
     2
  0
LWPOLYLINE
  5
B5D
330
B4F
100
AcDbEntity
  8
NORMAL
100
AcDbPolyline
 90
        2
 70
     0
 43
0.25
 10
121.5
 20
81.0
 10
171.5
 20
81.0
  0
LWPOLYLINE
  5
B5E
330
B4F
100
AcDbEntity
  8
NORMAL
100
AcDbPolyline
 90
        2
 70
     0
 43
0.25
 10
121.5
 20
81.0
 10
121.5
 20
83.49999999999999
  0
LWPOLYLINE
  5
B5F
330
B4F
100
AcDbEntity
  8
NORMAL
100
AcDbPolyline
 90
        2
 70
     0
 43
0.25
 10
111.5
 20
81.0
 10
111.5
 20
83.0
  0
TEXT
  5
B60
330
B4F
100
AcDbEntity
  8
NORMAL
100
AcDbText
 10
121.5
 20
75.3
 30
0.0
 40
2.399999999999999
  1
2
 72
     1
 11
122.3
 21
76.5
 31
0.0
100
AcDbText
 73
     2
  0
LWPOLYLINE
  5
B61
330
B4F
100
AcDbEntity
  8
NORMAL
100
AcDbPolyline
 90
        3
 70
     0
 43
0.25
 10
120.9
 20
81.0
 10
122.3
 20
81.0
 10
122.3
 20
78.5
  0
TEXT
  5
B62
330
B4F
100
AcDbEntity
  8
NORMAL
100
AcDbText
 10
109.8809523809524
 20
84.25
 30
0.0
 40
2.0
  1
40
 72
     1
 11
111.5
 21
85.25
 31
0.0
100
AcDbText
 73
     2
  0
TEXT
  5
B63
330
B4F
100
AcDbEntity
  8
NORMAL
100
AcDbText
 10
119.5571428571428
 20
84.29999999999999
 30
0.0
 40
2.399999999999999
  1
50
 72
     1
 11
121.5
 21
85.5
 31
0.0
100
AcDbText
 73
     2
  0
LWPOLYLINE
  5
B64
330
B4F
100
AcDbEntity
  8
NORMAL
100
AcDbPolyline
 90
        2
 70
     0
 43
0.25
 10
131.5
 20
81.0
 10
131.5
 20
83.0
  0
LWPOLYLINE
  5
B65
330
B4F
100
AcDbEntity
  8
NORMAL
100
AcDbPolyline
 90
        2
 70
     0
 43
0.25
 10
141.5
 20
81.0
 10
141.5
 20
83.0
  0
LWPOLYLINE
  5
B66
330
B4F
100
AcDbEntity
  8
NORMAL
100
AcDbPolyline
 90
        2
 70
     0
 43
0.25
 10
151.5
 20
81.0
 10
151.5
 20
83.0
  0
TEXT
  5
B67
330
B4F
100
AcDbEntity
  8
NORMAL
100
AcDbText
 10
146.75
 20
75.3
 30
0.0
 40
2.399999999999999
  1
3
 72
     1
 11
147.55
 21
76.5
 31
0.0
100
AcDbText
 73
     2
  0
LWPOLYLINE
  5
B68
330
B4F
100
AcDbEntity
  8
NORMAL
100
AcDbPolyline
 90
        2
 70
     0
 43
0.25
 10
147.7
 20
81.0
 10
147.7
 20
79.0
  0
TEXT
  5
B69
330
B4F
100
AcDbEntity
  8
NORMAL
100
AcDbText
 10
139.8809523809523
 20
84.25
 30
0.0
 40
2.0
  1
70
 72
     1
 11
141.5
 21
85.25
 31
0.0
100
AcDbText
 73
     2
  0
TEXT
  5
B6A
330
B4F
100
AcDbEntity
  8
NORMAL
100
AcDbText
 10
129.8809523809524
 20
84.25
 30
0.0
 40
2.0
  1
60
 72
     1
 11
131.5
 21
85.25
 31
0.0
100
AcDbText
 73
     2
  0
TEXT
  5
B6B
330
B4F
100
AcDbEntity
  8
NORMAL
100
AcDbText
 10
149.8809523809524
 20
84.25
 30
0.0
 40
2.0
  1
80
 72
     1
 11
151.5
 21
85.25
 31
0.0
100
AcDbText
 73
     2
  0
TEXT
  5
B6C
330
B4F
100
AcDbEntity
  8
NORMAL
100
AcDbText
 10
176.5285714285714
 20
84.29999999999999
 30
0.0
 40
2.399999999999999
  1
mm
 72
     1
 11
179.5
 21
85.5
 31
0.0
100
AcDbText
 73
     2
  0
TEXT
  5
B6D
330
B4F
100
AcDbEntity
  8
NORMAL
100
AcDbText
 10
176.55
 20
75.3
 30
0.0
 40
2.399999999999999
  1
inch
 72
     1
 11
179.75
 21
76.5
 31
0.0
100
AcDbText
 73
     2
  0
LWPOLYLINE
  5
B6E
330
B4F
100
AcDbEntity
  8
NORMAL
100
AcDbPolyline
 90
        2
 70
     0
 43
0.25
 10
161.5
 20
81.0
 10
161.5
 20
83.0
  0
LWPOLYLINE
  5
B6F
330
B4F
100
AcDbEntity
  8
NORMAL
100
AcDbPolyline
 90
        2
 70
     0
 43
0.25
 10
171.5
 20
81.0
 10
171.5
 20
83.49999999999999
  0
TEXT
  5
B70
330
B4F
100
AcDbEntity
  8
NORMAL
100
AcDbText
 10
172.1928571428571
 20
75.3
 30
0.0
 40
2.399999999999999
  1
4
 72
     1
 11
173.05
 21
76.5
 31
0.0
100
AcDbText
 73
     2
  0
LWPOLYLINE
  5
B71
330
B4F
100
AcDbEntity
  8
NORMAL
100
AcDbPolyline
 90
        3
 70
     0
 43
0.25
 10
171.7
 20
81.0
 10
173.1
 20
81.0
 10
173.1
 20
78.5
  0
TEXT
  5
B72
330
B4F
100
AcDbEntity
  8
NORMAL
100
AcDbText
 10
159.8809523809524
 20
84.25
 30
0.0
 40
2.0
  1
90
 72
     1
 11
161.5
 21
85.25
 31
0.0
100
AcDbText
 73
     2
  0
TEXT
  5
B73
330
B4F
100
AcDbEntity
  8
NORMAL
100
AcDbText
 10
168.6428571428571
 20
84.29999999999999
 30
0.0
 40
2.399999999999999
  1
100
 72
     1
 11
171.5
 21
85.5
 31
0.0
100
AcDbText
 73
     2
  0
ENDBLK
  5
B75
330
B4F
100
AcDbEntity
  8
0
100
AcDbBlockEnd
  0
BLOCK
  5
BAA
330
BA9
100
AcDbEntity
  8
0
100
AcDbBlockBegin
  2
Tollerans
 70
     0
 10
0.0
 20
0.0
 30
0.0
  3
Tollerans
  1

  4
Ej angivna tolleranser enligt ^M^JSMS 715 Medel. 
  0
TEXT
  5
BAC
330
BA9
100
AcDbEntity
  8
0
100
AcDbText
 10
-1.149624922449475
 20
2.259199653272373
 30
0.0
 40
2.52
  1
E
 72
     4
 11
-0.369624922449475
 21
3.519199653272373
 31
0.0
100
AcDbText
  0
LINE
  5
BAD
330
BA9
100
AcDbEntity
  8
0
100
AcDbLine
 10
-11.16962492244947
 20
1.719199653272372
 30
0.0
 11
-11.16962492244947
 21
5.319199653272374
 31
0.0
  0
LINE
  5
BAE
330
BA9
100
AcDbEntity
  8
0
100
AcDbLine
 10
-3.969624922449469
 20
7.119199653272374
 30
0.0
 11
-3.969624922449469
 21
-0.0808003467276279
 31
0.0
  0
LINE
  5
BAF
330
BA9
100
AcDbEntity
  8
0
100
AcDbLine
 10
6.830375077550513
 20
8.919199653272372
 30
0.0
 11
6.830375077550513
 21
-1.880800346727626
 31
0.0
  0
CIRCLE
  5
BB0
330
BA9
100
AcDbEntity
  8
0
100
AcDbCircle
 10
6.830375077550513
 20
3.519199653272373
 30
0.0
 40
3.6
  0
CIRCLE
  5
BB1
330
BA9
100
AcDbEntity
  8
0
100
AcDbCircle
 10
6.830375077550513
 20
3.519199653272373
 30
0.0
 40
1.8
  0
TEXT
  5
BB2
330
BA9
100
AcDbEntity
  8
0
100
AcDbText
 10
-11.99248206530663
 20
-3.800800346727627
 30
0.0
 40
1.44
  1
Ej angivna toleranser
 72
     4
 11
-0.369624922449475
 21
-3.320800346727627
 31
0.0
100
AcDbText
  0
TEXT
  5
BB3
330
BA9
100
AcDbEntity
  8
0
100
AcDbText
 10
-11.03248206530662
 20
-6.560800346727627
 30
0.0
 40
1.44
  1
enl. SMS 715 Medel
 72
     4
 11
-0.369624922449475
 21
-5.840800346727627
 31
0.0
100
AcDbText
  0
LINE
  5
BB4
330
BA9
100
AcDbEntity
  8
0
100
AcDbLine
 10
-3.969624922449469
 20
-0.0808003467276279
 30
0.0
 11
-11.16962492244947
 21
1.719199653272372
 31
0.0
  0
LINE
  5
BB5
330
BA9
100
AcDbEntity
  8
0
100
AcDbLine
 10
-12.96962492244947
 20
3.519199653272373
 30
0.0
 11
-2.169624922449486
 21
3.519199653272373
 31
0.0
  0
LINE
  5
BB6
330
BA9
100
AcDbEntity
  8
0
100
AcDbLine
 10
-11.16962492244947
 20
5.319199653272374
 30
0.0
 11
-3.969624922449469
 21
7.119199653272374
 31
0.0
  0
LINE
  5
BB7
330
BA9
100
AcDbEntity
  8
0
100
AcDbLine
 10
1.430375077550536
 20
3.519199653272373
 30
0.0
 11
12.23037507755052
 21
3.519199653272373
 31
0.0
  0
ENDBLK
  5
BAB
330
BA9
100
AcDbEntity
  8
0
100
AcDbBlockEnd
  0
BLOCK
  5
CCB
330
C89
100
AcDbEntity
  8
0
100
AcDbBlockBegin
  2
Logo_beijer_ny_A4L
 70
     0
 10
0.0
 20
0.0
 30
0.0
  3
Logo_beijer_ny_A4L
  1

  0
LWPOLYLINE
  5
D95
330
C89
100
AcDbEntity
  8
NORMAL
100
AcDbPolyline
 90
        2
 70
   128
 10
182.1715714118915
 20
12.66759208112059
 40
0.750804912
 41
1.001073216
 42
-0.4447821607629658
 10
184.1653755670915
 20
13.20149779632059
 40
1.001073216
 41
1.001073216
 42
0.2958927311573283
  0
LWPOLYLINE
  5
D96
330
C89
100
AcDbEntity
  8
NORMAL
100
AcDbPolyline
 90
        2
 70
   128
 43
1.001073216
 10
181.7461152950915
 20
12.23379368752056
 10
182.1131754742915
 20
12.80941078672059
  0
LWPOLYLINE
  5
D97
330
C89
100
AcDbEntity
  8
NORMAL
100
AcDbPolyline
 90
        2
 70
   128
 43
0.959361832
 10
161.9957749710915
 20
12.62588069712059
 10
162.9134254190915
 20
12.62588069712059
  0
LWPOLYLINE
  5
D98
330
C89
100
AcDbEntity
  8
NORMAL
100
AcDbPolyline
 90
        4
 70
   128
 10
162.8216603742915
 20
15.0367986923206
 40
0.959361832
 41
1.1929455824
 42
-0.3921100092104534
 10
164.1355689702915
 20
13.85636652512058
 40
1.1929455824
 41
1.1929455824
 42
-0.0457751607635921
 10
164.1355689702915
 20
13.73957464992057
 40
1.1929455824
 41
0.959361832
 42
-0.3880397409263962
 10
162.9134254190915
 20
12.62588069712059
 40
0.959361832
 41
0.959361832
 42
12.17936680305165
  0
LWPOLYLINE
  5
D99
330
C89
100
AcDbEntity
  8
NORMAL
100
AcDbPolyline
 90
       12
 70
   128
 10
179.9757403381634
 20
12.06694815152058
 40
1.1345496448
 41
0.9677041088000001
 42
0.3447757671032011
 10
178.4407614069634
 20
13.41005471632058
 40
0.9677041088000001
 41
0.9677041088000001
 42
0.0152103135368657
 10
178.2697447325635
 20
13.41422585472057
 40
0.9677041088000001
 41
0.9677041088000001
 42
-0.0030164452749489
 10
178.2071776565635
 20
13.41422585472057
 40
0.9677041088000001
 41
0.9677041088000001
 42
0.0286428489609886
 10
178.0445032589634
 20
13.40588357792057
 40
0.9677041088000001
 41
1.1345496448
 42
0.3850668063011274
 10
176.6972255557635
 20
11.89176033872057
 40
1.1345496448
 41
1.1345496448
 42
-0.0039895075305564
 10
176.6972255557635
 20
11.43710625312057
 40
1.1345496448
 41
1.1345496448
 42
0.0039895075305557
 10
176.6972255557635
 20
11.09090176592056
 40
1.1345496448
 41
0.9677041088000001
 42
0.3647447527679122
 10
177.9777650445635
 20
9.593463080320603
 40
0.9677041088000001
 41
0.9677041088000001
 42
0.0430535849437195
 10
178.2989427013635
 20
9.568436249920566
 40
0.9677041088000001
 41
0.9677041088000001
 42
-0.0041445668839299
 10
178.6117780813635
 20
9.568436249920566
 40
0.9677041088000001
 41
0.9677041088000001
 42
0.1717290438359381
 10
179.8464350477634
 20
9.993892366720601
 40
0.9677041088000001
 41
0.9677041088000001
  0
LWPOLYLINE
  5
D9A
330
C89
100
AcDbEntity
  8
NORMAL
100
AcDbPolyline
 90
        2
 70
   128
 43
1.1345496448
 10
161.4285001486915
 20
9.213889485920574
 10
161.4285001486915
 20
15.51230846992058
  0
LWPOLYLINE
  5
D9B
330
C89
100
AcDbEntity
  8
NORMAL
100
AcDbPolyline
 90
        2
 70
   128
 43
1.1345496448
 10
174.8136832742915
 20
10.76972410912057
 10
174.8136832742915
 20
13.76877261872059
  0
LWPOLYLINE
  5
D9C
330
C89
100
AcDbEntity
  8
NORMAL
100
AcDbPolyline
 90
        5
 70
   128
 10
162.9092542806915
 20
12.62588069712059
 40
0.959361832
 41
1.1929455824
 42
-0.3228561763130926
 10
164.4859445958915
 20
11.48715991392056
 40
1.1929455824
 41
1.1929455824
 42
-0.0837873378750166
 10
164.5401693950915
 20
11.13678428832058
 40
1.1929455824
 41
1.1929455824
 42
-0.0370400557393555
 10
164.5068002878915
 20
10.75721069392058
 40
1.1929455824
 41
0.959361832
 42
-0.3263654761369514
 10
162.8216603742915
 20
9.693570401920567
 40
0.959361832
 41
0.959361832
 42
-0.3999653590879674
  0
LWPOLYLINE
  5
D9D
330
C89
100
AcDbEntity
  8
NORMAL
100
AcDbPolyline
 90
       12
 70
   128
 10
169.5663911670915
 20
12.06694815152058
 40
1.1345496448
 41
0.9677041088000001
 42
0.3447757671032011
 10
168.0314122358915
 20
13.41005471632058
 40
0.9677041088000001
 41
0.9677041088000001
 42
0.0152103135368657
 10
167.8603955614915
 20
13.41422585472057
 40
0.9677041088000001
 41
0.9677041088000001
 42
-0.0030164452749489
 10
167.7978284854915
 20
13.41422585472057
 40
0.9677041088000001
 41
0.9677041088000001
 42
0.0286428489609886
 10
167.6351540878915
 20
13.40588357792057
 40
0.9677041088000001
 41
1.1345496448
 42
0.3850668063011274
 10
166.2878763846915
 20
11.89176033872057
 40
1.1345496448
 41
1.1345496448
 42
-0.0039895075305564
 10
166.2878763846915
 20
11.43710625312057
 40
1.1345496448
 41
1.1345496448
 42
0.0039895075305557
 10
166.2878763846915
 20
11.09090176592056
 40
1.1345496448
 41
0.9677041088000001
 42
0.3647447527679122
 10
167.5684158734915
 20
9.593463080320603
 40
0.9677041088000001
 41
0.9677041088000001
 42
0.0430535849437195
 10
167.8895935302915
 20
9.568436249920566
 40
0.9677041088000001
 41
0.9677041088000001
 42
-0.0041445668839299
 10
168.2024289102915
 20
9.568436249920566
 40
0.9677041088000001
 41
0.9677041088000001
 42
0.1717290438359381
 10
169.4370858766915
 20
9.993892366720601
 40
0.9677041088000001
 41
0.9677041088000001
  0
LWPOLYLINE
  5
D9E
330
C89
100
AcDbEntity
  8
NORMAL
100
AcDbPolyline
 90
        2
 70
   128
 43
1.1345496448
 10
171.7061851662915
 20
9.213889485920574
 10
171.7061851662915
 20
12.89700469312058
  0
LWPOLYLINE
  5
D9F
330
C89
100
AcDbEntity
  8
NORMAL
100
AcDbPolyline
 90
        2
 70
   128
 43
1.1345496448
 10
181.8086823710915
 20
9.213889485920574
 10
181.8086823710915
 20
13.76877261872059
  0
LWPOLYLINE
  5
DA0
330
C89
100
AcDbEntity
  8
NORMAL
100
AcDbPolyline
 90
        2
 70
   128
 43
0.3837447328000001
 10
175.7480182758915
 20
7.937521135520583
 10
176.5780748174915
 20
6.865538566720587
  0
LWPOLYLINE
  5
DA1
330
C89
100
AcDbEntity
  8
NORMAL
100
AcDbPolyline
 90
        2
 70
   128
 43
0.166845536
 10
176.4737963574915
 20
6.823827182720577
 10
176.5405345718915
 20
6.736233276320604
  0
LWPOLYLINE
  5
DA2
330
C89
100
AcDbEntity
  8
NORMAL
100
AcDbPolyline
 90
        2
 70
   128
 43
0.250268304
 10
176.5989305094915
 20
6.686179615520572
 10
176.5989305094915
 20
8.133564640320599
  0
LWPOLYLINE
  5
DA3
330
C89
100
AcDbEntity
  8
NORMAL
100
AcDbPolyline
 90
        2
 70
   128
 43
0.3587179024
 10
164.9781389270915
 20
8.129393501920574
 10
164.9781389270915
 20
6.686179615520572
  0
LWPOLYLINE
  5
DA4
330
C89
100
AcDbEntity
  8
NORMAL
100
AcDbPolyline
 90
        2
 70
   128
 43
0.4171138400000001
 10
164.8321490830915
 20
11.32031437792057
 42
-0.312467127625936
 10
164.5860519174915
 20
10.1607379027206
 42
-2.317145180057478
  0
LWPOLYLINE
  5
DA5
330
C89
100
AcDbEntity
  8
NORMAL
100
AcDbPolyline
 90
        2
 70
   128
 43
0.4171138400000001
 10
164.5902230558915
 20
11.37453917712058
 42
-0.312467127625936
 10
164.3441258902915
 20
10.21496270192058
 42
-2.317145180057478
  0
LWPOLYLINE
  5
DA6
330
C89
100
AcDbEntity
  8
NORMAL
100
AcDbPolyline
 90
        2
 70
   128
 43
0.250268304
 10
163.2512876294915
 20
6.811313767520573
 10
163.7893644830915
 20
6.811313767520573
  0
LWPOLYLINE
  5
DA7
330
C89
100
AcDbEntity
  8
NORMAL
100
AcDbPolyline
 90
        2
 70
   128
 43
0.3587179024
 10
163.0719286782915
 20
8.129393501920574
 10
163.0719286782915
 20
6.686179615520572
  0
LWPOLYLINE
  5
DA8
330
C89
100
AcDbEntity
  8
NORMAL
100
AcDbPolyline
 90
        2
 70
   128
 43
0.4171138400000001
 10
162.8425160662915
 20
10.17325131792057
 10
162.8425160662915
 20
9.222231762720582
  0
LWPOLYLINE
  5
DA9
330
C89
100
AcDbEntity
  8
NORMAL
100
AcDbPolyline
 90
        2
 70
   128
 43
0.250268304
 10
161.2199432286915
 20
8.004259349920573
 10
161.7580200822915
 20
8.004259349920573
  0
LWPOLYLINE
  5
DAA
330
C89
100
AcDbEntity
  8
NORMAL
100
AcDbPolyline
 90
        2
 70
   128
 43
0.250268304
 10
161.2199432286915
 20
6.811313767520573
 10
161.7580200822915
 20
6.811313767520573
  0
LWPOLYLINE
  5
DAB
330
C89
100
AcDbEntity
  8
NORMAL
100
AcDbPolyline
 90
        2
 70
   128
 43
0.250268304
 10
161.2199432286915
 20
7.407786558720601
 10
161.7580200822915
 20
7.407786558720601
  0
LWPOLYLINE
  5
DAC
330
C89
100
AcDbEntity
  8
NORMAL
100
AcDbPolyline
 90
        2
 70
   128
 43
0.3587179024
 10
161.0405842774915
 20
8.129393501920574
 10
161.0405842774915
 20
6.686179615520572
  0
LWPOLYLINE
  5
DAD
330
C89
100
AcDbEntity
  8
NORMAL
100
AcDbPolyline
 90
        2
 70
   128
 43
0.959361832
 10
161.9957749710915
 20
9.693570401920567
 10
162.8216603742915
 20
9.693570401920567
  0
LWPOLYLINE
  5
DAE
330
C89
100
AcDbEntity
  8
NORMAL
100
AcDbPolyline
 90
        2
 70
   128
 43
1.1345496448
 10
169.5562673419483
 20
12.17219521425409
 10
169.5562673419483
 20
12.12098826226152
  0
LWPOLYLINE
  5
DAF
330
C89
100
AcDbEntity
  8
NORMAL
100
AcDbPolyline
 90
        2
 70
   128
 43
1.1345496448
 10
169.5580488902915
 20
12.14202864272056
 42
-0.0379614740641753
 10
169.4954818142915
 20
11.21603591792058
 42
1.117704553307964
  0
LWPOLYLINE
  5
DB0
330
C89
100
AcDbEntity
  8
NORMAL
100
AcDbPolyline
 90
        2
 70
   128
 43
0.83422768
 10
166.7341881934915
 20
11.54972698992057
 10
170.0585854982915
 20
11.54972698992057
  0
LWPOLYLINE
  5
DB1
330
C89
100
AcDbEntity
  8
NORMAL
100
AcDbPolyline
 90
        2
 70
   128
 43
0.250268304
 10
168.8072439782915
 20
8.004259349920573
 10
169.9501358998915
 20
8.004259349920573
  0
LWPOLYLINE
  5
DB2
330
C89
100
AcDbEntity
  8
NORMAL
100
AcDbPolyline
 90
        2
 70
   128
 43
0.3587179024
 10
169.3786899390915
 20
8.129393501920574
 10
169.3786899390915
 20
6.686179615520572
  0
LWPOLYLINE
  5
DB3
330
C89
100
AcDbEntity
  8
NORMAL
100
AcDbPolyline
 90
        8
 70
   128
 10
167.8478821462915
 20
7.874954059520561
 40
0.250268304
 41
0.250268304
 42
0.2060676929024406
 10
167.6351540878915
 20
8.008430488320584
 40
0.250268304
 41
0.250268304
 42
0.0771092075690679
 10
167.4307683062915
 20
8.008430488320584
 40
0.250268304
 41
0.3837447328000001
 42
0.3635942882004129
 10
166.9886276358915
 20
7.503722741920554
 40
0.3837447328000001
 41
0.3837447328000001
 42
0.0109739963688091
 10
166.9886276358915
 20
7.257625576320592
 40
0.3837447328000001
 41
0.250268304
 42
0.4202599797360669
 10
167.4557951366915
 20
6.819656044320581
 40
0.250268304
 41
0.250268304
 42
-0.0105826127177899
 10
167.5608622543962
 20
6.821902954748281
 40
0.250268304
 41
0.250268304
 42
0.1530749569014945
 10
167.8599650128511
 20
6.938504190911288
 40
0.250268304
 41
0.250268304
 42
18.69384229876336
  0
LWPOLYLINE
  5
DB4
330
C89
100
AcDbEntity
  8
NORMAL
100
AcDbPolyline
 90
        2
 70
   128
 43
0.250268304
 10
165.1574978782915
 20
8.004259349920573
 10
165.6955747318915
 20
8.004259349920573
  0
LWPOLYLINE
  5
DB5
330
C89
100
AcDbEntity
  8
NORMAL
100
AcDbPolyline
 90
        2
 70
   128
 43
0.250268304
 10
165.1574978782915
 20
6.811313767520573
 10
165.6955747318915
 20
6.811313767520573
  0
LWPOLYLINE
  5
DB6
330
C89
100
AcDbEntity
  8
NORMAL
100
AcDbPolyline
 90
        2
 70
   128
 43
0.250268304
 10
165.1574978782915
 20
7.407786558720601
 10
165.6955747318915
 20
7.407786558720601
  0
LWPOLYLINE
  5
DB7
330
C89
100
AcDbEntity
  8
NORMAL
100
AcDbPolyline
 90
        2
 70
   128
 43
0.166845536
 10
175.7730451062915
 20
8.083510979520582
 10
175.8397833206915
 20
7.99591707312058
  0
LWPOLYLINE
  5
DB8
330
C89
100
AcDbEntity
  8
NORMAL
100
AcDbPolyline
 90
        2
 70
   128
 43
0.250268304
 10
175.7146491686915
 20
6.686179615520572
 10
175.7146491686915
 20
8.133564640320599
  0
LWPOLYLINE
  5
DB9
330
C89
100
AcDbEntity
  8
NORMAL
100
AcDbPolyline
 90
        2
 70
   128
 43
0.9677041088000001
 10
174.8929349038915
 20
10.85731801552059
 10
174.8929349038915
 20
10.68630134112059
  0
LWPOLYLINE
  5
DBA
330
C89
100
AcDbEntity
  8
NORMAL
100
AcDbPolyline
 90
        2
 70
   128
 43
0.083422768
 10
172.1036389286252
 20
6.871668688539983
 10
172.1036389286252
 20
6.715163435829879
  0
LWPOLYLINE
  5
DBB
330
C89
100
AcDbEntity
  8
NORMAL
100
AcDbPolyline
 90
        2
 70
   128
 43
0.041711384
 10
172.0549407436212
 20
6.969639510688523
 10
172.2349695322092
 20
6.711278014604957
  0
LWPOLYLINE
  5
DBC
330
C89
100
AcDbEntity
  8
NORMAL
100
AcDbPolyline
 90
        2
 70
   128
 43
0.166845536
 10
171.9791501057622
 20
6.835023561914283
 10
171.9791501057622
 20
6.715163435829879
  0
LWPOLYLINE
  5
DBD
330
C89
100
AcDbEntity
  8
NORMAL
100
AcDbPolyline
 90
        2
 70
   128
 43
0.062567076
 10
172.1135674469963
 20
6.815937560682726
 10
172.1868860545948
 20
6.707529056642982
  0
LWPOLYLINE
  5
DBE
330
C89
100
AcDbEntity
  8
NORMAL
100
AcDbPolyline
 90
        2
 70
   128
 43
0.3587179024
 10
171.1973062814915
 20
8.129393501920574
 10
171.1973062814915
 20
6.686179615520572
  0
LWPOLYLINE
  5
DBF
330
C89
100
AcDbEntity
  8
NORMAL
100
AcDbPolyline
 90
        2
 70
   128
 43
0.0375402456
 10
172.252307620533
 20
6.704672276532008
 10
171.8404943849095
 20
6.704672276532008
  0
LWPOLYLINE
  5
DC0
330
C89
100
AcDbEntity
  8
NORMAL
100
AcDbPolyline
 90
        2
 70
   128
 43
0.250268304
 10
171.6550105254919
 20
8.008232642154212
 42
-0.5611324460976983
 10
171.6631208459643
 20
7.418421588205646
 42
-0.5202209778681963
  0
LWPOLYLINE
  5
DC1
330
C89
100
AcDbEntity
  8
NORMAL
100
AcDbPolyline
 90
        5
 70
   128
 10
171.3672644854896
 20
7.387708299105426
 40
0.166845536
 41
0.3587179024
 42
0.2622557470497552
 10
171.8625839307404
 20
7.597295630524087
 40
0.3587179024
 41
0.3587179024
 42
0.3411546063707678
 10
171.8625839307404
 20
7.817044627975747
 40
0.3587179024
 41
0.250268304
 42
0.2657072613913866
 10
171.6204257994909
 20
7.998597121363687
 40
0.250268304
 41
0.250268304
 42
0.0620361190561305
 10
171.2797848645518
 20
7.998597121363687
 40
0.250268304
 41
0.250268304
 42
16.1196415123131
  0
LWPOLYLINE
  5
DC2
330
C89
100
AcDbEntity
  8
NORMAL
100
AcDbPolyline
 90
        2
 70
   128
 10
171.5781867338935
 20
7.400586766539447
 40
0.3336910720000001
 41
0.3587179024
 10
171.9895463743099
 20
6.785878677378136
 40
0.3587179024
 41
0.3587179024
  0
LWPOLYLINE
  5
DC3
330
C89
100
AcDbEntity
  8
NORMAL
100
AcDbPolyline
 90
        2
 70
   128
 43
0.250268304
 10
173.7792409510915
 20
6.811313767520573
 10
173.9002039646915
 20
6.811313767520573
  0
LWPOLYLINE
  5
DC4
330
C89
100
AcDbEntity
  8
NORMAL
100
AcDbPolyline
 90
        5
 70
   128
 10
173.8209523350915
 20
8.025115041920557
 40
0.250268304
 41
0.250268304
 10
173.8751771342915
 20
8.025115041920557
 40
0.250268304
 41
0.3837447328000001
 42
-0.3210953668463082
 10
174.2380661750915
 20
7.733135353920573
 40
0.3837447328000001
 41
0.3837447328000001
 42
-0.1166543979228078
 10
174.2380661750915
 20
7.094951178720592
 40
0.3837447328000001
 41
0.250268304
 42
-0.2968689102876843
 10
173.8751771342915
 20
6.811313767520573
 40
0.250268304
 41
0.250268304
 42
21.40308945287543
  0
LWPOLYLINE
  5
DC5
330
C89
100
AcDbEntity
  8
NORMAL
100
AcDbPolyline
 90
        5
 70
   128
 10
173.8501503038915
 20
8.025115041920557
 40
0.250268304
 41
0.250268304
 10
173.7959255046915
 20
8.025115041920557
 40
0.250268304
 41
0.3837447328000001
 42
0.3210953668463082
 10
173.4330364638915
 20
7.733135353920573
 40
0.3837447328000001
 41
0.3837447328000001
 42
0.1166543979228078
 10
173.4330364638915
 20
7.094951178720592
 40
0.3837447328000001
 41
0.250268304
 42
0.2968689102876843
 10
173.7959255046915
 20
6.811313767520573
 40
0.250268304
 41
0.250268304
 42
-21.40308945287543
  0
LWPOLYLINE
  5
DC6
330
C89
100
AcDbEntity
  8
NORMAL
100
AcDbPolyline
 90
        4
 70
   128
 10
174.8136832742915
 20
10.76972410912057
 40
1.1345496448
 41
0.9677041088000001
 42
-0.2531501389124158
 10
174.0879051926915
 20
9.793677723520588
 40
0.9677041088000001
 41
0.9677041088000001
 42
-0.1266841417469215
 10
173.3996673566915
 20
9.66437243312059
 40
0.9677041088000001
 41
0.9677041088000001
 10
172.8031945654915
 20
9.66437243312059
 40
0.9677041088000001
 41
0.9677041088000001
  0
LWPOLYLINE
  5
DC7
330
C89
100
AcDbEntity
  8
NORMAL
100
AcDbPolyline
 90
        2
 70
   128
 43
0.166845536
 10
182.2815909262695
 20
7.949907114370688
 42
1.140570395932477
 10
182.0964040031251
 20
7.502745018773552
 42
-0.0478546845855308
  0
LWPOLYLINE
  5
DC8
330
C89
100
AcDbEntity
  8
NORMAL
100
AcDbPolyline
 90
        2
 70
   128
 43
0.3336910720000001
 10
182.323680636479
 20
6.884393360130914
 42
0.0527019475305898
 10
182.352426228196
 20
6.916409177827191
 42
2.067551259329746
  0
LWPOLYLINE
  5
DC9
330
C89
100
AcDbEntity
  8
NORMAL
100
AcDbPolyline
 90
       10
 70
   128
 10
182.4685406997907
 20
7.880160538279
 40
0.250268304
 41
0.250268304
 42
0.1571156381666925
 10
182.2508164318165
 20
8.00678939134525
 40
0.250268304
 41
0.250268304
 42
0.1765859166580558
 10
181.9354103087721
 20
7.964119321111496
 40
0.250268304
 41
0.3587179024
 42
0.4559499112663765
 10
181.8500372335978
 20
7.601423937181834
 40
0.3587179024
 41
0.3587179024
 42
0.1144318555969924
 10
182.1227567395326
 20
7.366805663976251
 40
0.3587179024
 41
0.3587179024
 42
-0.1571145541218505
 10
182.343303890161
 20
7.136861443951474
 40
0.3587179024
 41
0.3587179024
 42
-0.2580771250511793
 10
182.3290749647762
 20
6.904479740773496
 40
0.3587179024
 41
0.250268304
 42
-0.1810361537059312
 10
182.0492410756713
 20
6.809657374312763
 40
0.250268304
 41
0.250268304
 42
-0.0270010957928879
 10
181.8002362333182
 20
6.83099240942964
 40
0.250268304
 41
0.250268304
 42
-0.0789102023636825
 10
181.6840339523475
 20
6.866550730271981
 40
0.250268304
 41
0.250268304
 42
-0.9198689015972581
  0
LWPOLYLINE
  5
DCA
330
C89
100
AcDbEntity
  8
NORMAL
100
AcDbPolyline
 90
        2
 70
   128
 43
0.83422768
 10
177.1435373645634
 20
11.54972698992057
 10
180.4679346693635
 20
11.54972698992057
  0
LWPOLYLINE
  5
DCB
330
C89
100
AcDbEntity
  8
NORMAL
100
AcDbPolyline
 90
        2
 70
   128
 43
1.1345496448
 10
179.9656165130202
 20
12.17219521425409
 10
179.9656165130202
 20
12.12098826226152
  0
LWPOLYLINE
  5
DCC
330
C89
100
AcDbEntity
  8
NORMAL
100
AcDbPolyline
 90
        2
 70
   128
 43
1.1345496448
 10
179.9673980613635
 20
12.14202864272056
 42
-0.0379614740641753
 10
179.9048309853634
 20
11.21603591792058
 42
1.117704553307964
  0
LWPOLYLINE
  5
DCD
330
C89
100
AcDbEntity
  8
NORMAL
100
AcDbPolyline
 90
        2
 70
   128
 43
0.166845536
 10
182.1057400007773
 20
7.290639933908934
 42
-1.140570395932477
 10
181.85899412514
 20
6.874269174730912
 42
0.0478546845855308
  0
LWPOLYLINE
  5
DCE
330
C89
100
AcDbEntity
  8
NORMAL
100
AcDbPolyline
 90
        2
 70
   128
 43
0.3587179024
 10
178.1631074094915
 20
8.129393501920574
 10
178.1631074094915
 20
6.686179615520572
  0
LWPOLYLINE
  5
DCF
330
C89
100
AcDbEntity
  8
NORMAL
100
AcDbPolyline
 90
        8
 70
   128
 10
180.5907099582915
 20
7.874954059520561
 40
0.250268304
 41
0.250268304
 42
0.2060676929024406
 10
180.3779818998915
 20
8.008430488320584
 40
0.250268304
 41
0.250268304
 42
0.0771092075690679
 10
180.1735961182914
 20
8.008430488320584
 40
0.250268304
 41
0.3837447328000001
 42
0.3635942882004129
 10
179.7314554478915
 20
7.503722741920554
 40
0.3837447328000001
 41
0.3837447328000001
 42
0.0109739963688091
 10
179.7314554478915
 20
7.257625576320592
 40
0.3837447328000001
 41
0.250268304
 42
0.4202599797360669
 10
180.1986229486915
 20
6.819656044320581
 40
0.250268304
 41
0.250268304
 42
-0.0105826127177899
 10
180.3036900663962
 20
6.821902954748281
 40
0.250268304
 41
0.250268304
 42
0.1530749569014945
 10
180.6027928248511
 20
6.938504190911288
 40
0.250268304
 41
0.250268304
 42
18.69384229876336
  0
LWPOLYLINE
  5
DD0
330
C89
100
AcDbEntity
  8
NORMAL
100
AcDbPolyline
 90
        2
 70
   128
 43
0.9677041088000001
 10
162.8300026510915
 20
14.55294663792057
 10
162.8300026510915
 20
15.42054342512058
  0
LWPOLYLINE
  5
DD1
330
C89
100
AcDbEntity
  8
NORMAL
100
AcDbPolyline
 90
        2
 70
   128
 43
0.959361832
 10
161.9957749710915
 20
15.03262755392057
 10
162.8216603742915
 20
15.03262755392057
  0
LWPOLYLINE
  5
DD2
330
C89
100
AcDbEntity
  8
NORMAL
100
AcDbPolyline
 90
        2
 70
   128
 43
0.9009658944000001
 10
172.2734599886915
 20
13.31411853312059
 10
170.5424375526915
 20
13.31411853312059
  0
LWPOLYLINE
  5
DD3
330
C89
100
AcDbEntity
  8
NORMAL
100
AcDbPolyline
 90
        2
 70
   128
 43
1.313908595999999
 10
174.7260893678915
 20
15.19530195152059
 10
174.7260893678915
 20
16.45498574832058
  0
CIRCLE
  5
DD4
330
C89
100
AcDbEntity
  8
NORMAL
100
AcDbCircle
 10
171.5935644294915
 20
14.87829543312058
 30
0.0
 40
0.7067341363663628
  0
LWPOLYLINE
  5
DD5
330
C89
100
AcDbEntity
  8
NORMAL
100
AcDbPolyline
 90
        2
 70
   128
 43
0.9510195552000004
 10
175.3809580966915
 20
14.24428239632061
 10
173.4121807718915
 20
14.24428239632061
  0
ENDBLK
  5
CCC
330
C89
100
AcDbEntity
  8
0
100
AcDbBlockEnd
  0
BLOCK
  5
CE8
330
CE7
100
AcDbEntity
  8
0
100
AcDbBlockBegin
  2
Ritram_A4L
 70
     0
 10
0.0
 20
0.0
 30
0.0
  3
Ritram_A4L
  1

  0
LWPOLYLINE
  5
CEA
330
CE7
100
AcDbEntity
  8
NORMAL
100
AcDbPolyline
 90
        5
 70
     0
 43
0.35
 10
-0.0000000000000003
 20
-0.1000000000000001
 10
271.5
 20
-0.1000000000000001
 10
271.5
 20
194.3999999999999
 10
-0.0000000000000003
 20
194.3999999999999
 10
-0.0000000000000003
 20
-0.1000000000000001
  0
TEXT
  5
CEB
330
CE7
100
AcDbEntity
  8
NORMAL
100
AcDbText
 10
154.825
 20
0.775
 30
0.0
 40
1.049999999999999
  1
A4L
100
AcDbText
  0
LWPOLYLINE
  5
CEC
330
CE7
100
AcDbEntity
  8
NORMAL
100
AcDbPolyline
 90
        3
 70
     0
 43
0.35
 10
160.9875
 20
17.53749999999998
 10
158.5375
 20
17.53749999999998
 10
158.5375
 20
-0.2375000000000065
  0
LWPOLYLINE
  5
CED
330
CE7
100
AcDbEntity
  8
NORMAL
100
AcDbPolyline
 90
        2
 70
     0
 43
0.35
 10
271.6375000000001
 20
17.53749999999998
 10
158.5375
 20
17.53749999999998
  0
LINE
  5
CEE
330
CE7
100
AcDbEntity
  8
NORMAL
100
AcDbLine
 10
271.5
 20
5.75
 30
0.0
 11
158.4
 21
5.75
 31
0.0
  0
TEXT
  5
CEF
330
CE7
100
AcDbEntity
  8
NORMAL
100
AcDbText
 10
159.275
 20
4.349999999999993
 30
0.0
 40
1.049999999999999
  1
Drawn
 11
159.275
 21
3.999999999999993
 31
0.0
100
AcDbText
 73
     1
  0
TEXT
  5
CF0
330
CE7
100
AcDbEntity
  8
NORMAL
100
AcDbText
 10
168.525
 20
4.349999999999993
 30
0.0
 40
1.049999999999999
  1
Date
 11
168.525
 21
3.999999999999993
 31
0.0
100
AcDbText
 73
     1
  0
TEXT
  5
CF1
330
CE7
100
AcDbEntity
  8
NORMAL
100
AcDbText
 10
186.95
 20
4.349999999999993
 30
0.0
 40
1.049999999999999
  1
App.
 11
186.95
 21
3.999999999999993
 31
0.0
100
AcDbText
 73
     1
  0
TEXT
  5
CF2
330
CE7
100
AcDbEntity
  8
NORMAL
100
AcDbText
 10
246.475
 20
4.349999999999993
 30
0.0
 40
1.049999999999999
  1
Drawing No.
 11
246.475
 21
3.999999999999993
 31
0.0
100
AcDbText
 73
     1
  0
TEXT
  5
CF3
330
CE7
100
AcDbEntity
  8
NORMAL
100
AcDbText
 10
210.85
 20
4.349999999999993
 30
0.0
 40
1.049999999999999
  1
Revision date
 11
210.85
 21
3.999999999999993
 31
0.0
100
AcDbText
 73
     1
  0
TEXT
  5
CF4
330
CE7
100
AcDbEntity
  8
NORMAL
100
AcDbText
 10
201.875
 20
4.349999999999993
 30
0.0
 40
1.049999999999999
  1
Revision
 11
201.875
 21
3.999999999999993
 31
0.0
100
AcDbText
 73
     1
  0
TEXT
  5
CF5
330
CE7
100
AcDbEntity
  8
NORMAL
100
AcDbText
 10
229.975
 20
4.349999999999993
 30
0.0
 40
1.049999999999999
  1
Page
 11
229.975
 21
3.999999999999993
 31
0.0
100
AcDbText
 73
     1
  0
TEXT
  5
CF6
330
CE7
100
AcDbEntity
  8
NORMAL
100
AcDbText
 10
236.125
 20
4.349999999999993
 30
0.0
 40
1.049999999999999
  1
Next page
 11
236.125
 21
3.999999999999993
 31
0.0
100
AcDbText
 73
     1
  0
LINE
  5
CF7
330
CE7
100
AcDbEntity
  8
NORMAL
100
AcDbLine
 10
167.75
 20
5.75
 30
0.0
 11
167.75
 21
-0.0999999999999997
 31
0.0
  0
LINE
  5
CF8
330
CE7
100
AcDbEntity
  8
NORMAL
100
AcDbLine
 10
186.25
 20
5.75
 30
0.0
 11
186.25
 21
-0.0999999999999997
 31
0.0
  0
LINE
  5
CF9
330
CE7
100
AcDbEntity
  8
NORMAL
100
AcDbLine
 10
186.25
 20
17.675
 30
0.0
 11
186.25
 21
5.749999999999999
 31
0.0
  0
LINE
  5
CFA
330
CE7
100
AcDbEntity
  8
NORMAL
100
AcDbLine
 10
201.0
 20
5.75
 30
0.0
 11
201.0
 21
-0.1000000000000001
 31
0.0
  0
LINE
  5
CFB
330
CE7
100
AcDbEntity
  8
NORMAL
100
AcDbLine
 10
228.5
 20
5.75
 30
0.0
 11
228.5
 21
-0.0999999999999997
 31
0.0
  0
LINE
  5
CFC
330
CE7
100
AcDbEntity
  8
NORMAL
100
AcDbLine
 10
245.5
 20
5.75
 30
0.0
 11
245.5
 21
-0.0999999999999997
 31
0.0
  0
ENDBLK
  5
CE9
330
CE7
100
AcDbEntity
  8
0
100
AcDbBlockEnd
  0
ENDSEC
  0
SECTION
  2
ENTITIES
  0
LINE
  5
E2E
330
17
100
AcDbEntity
  8
NORMAL
100
AcDbLine
 10
5.0
 20
180.0
 30
0.0
 11
5.0
 21
178.0
 31
0.0
  0
LINE
  5
E2F
330
17
100
AcDbEntity
  8
NORMAL
100
AcDbLine
 10
5.0
 20
180.0
 30
0.0
 11
7.0
 21
180.0
 31
0.0
  0
LINE
  5
E30
330
17
100
AcDbEntity
  8
NORMAL
100
AcDbLine
 10
5.0
 20
7.5
 30
0.0
 11
5.0
 21
9.5
 31
0.0
  0
LINE
  5
E31
330
17
100
AcDbEntity
  8
NORMAL
100
AcDbLine
 10
5.0
 20
7.5
 30
0.0
 11
7.0
 21
7.5
 31
0.0
  0
LINE
  5
E32
330
17
100
AcDbEntity
  8
NORMAL
100
AcDbLine
 10
245.0
 20
7.5
 30
0.0
 11
245.0
 21
9.5
 31
0.0
  0
LINE
  5
E33
330
17
100
AcDbEntity
  8
NORMAL
100
AcDbLine
 10
245.0
 20
7.5
 30
0.0
 11
243.0
 21
7.5
 31
0.0
  0
LWPOLYLINE
  5
2F3D
330
17
100
AcDbEntity
  8
test
100
AcDbPolyline
 90
        8
 70
   129
 43
0.0
 10
36.30000000000004
 20
160.0
 10
214.8
 20
160.0
 10
214.8
 20
22.50000000000001
 10
36.30000000000004
 20
22.50000000000001
 10
36.30000000000004
 20
27.50000000000002
 10
26.30000000000004
 20
27.50000000000002
 10
26.30000000000004
 20
155.0
 10
36.30000000000004
 20
155.0
  0
LWPOLYLINE
  5
2F3E
330
17
100
AcDbEntity
  8
NORMAL
100
AcDbPolyline
 90
        8
 70
     1
 43
0.5
 10
36.30000000000004
 20
160.0
 10
214.8
 20
160.0
 10
214.8
 20
22.50000000000001
 10
36.30000000000004
 20
22.50000000000001
 10
36.30000000000004
 20
27.50000000000002
 10
26.30000000000004
 20
27.50000000000002
 10
26.30000000000004
 20
155.0
 10
36.30000000000004
 20
155.0
  0
LINE
  5
2F69
330
17
100
AcDbEntity
  8
NORMAL
100
AcDbLine
 10
214.8
 20
160.0
 30
0.0
 11
214.8
 21
56.0
 31
0.0
  0
LINE
  5
2F6A
330
17
100
AcDbEntity
  8
NORMAL
100
AcDbLine
 10
26.30000000000004
 20
155.0
 30
0.0
 11
26.30000000000004
 21
56.0
 31
0.0
  0
LINE
  5
2F6B
330
17
100
AcDbEntity
  8
NORMAL
100
AcDbLine
 10
211.8
 20
55.0
 30
0.0
 11
29.30000000000004
 21
55.0
 31
0.0
  0
SOLID
  5
2F6C
330
17
100
AcDbEntity
  8
NORMAL
100
AcDbTrace
 10
211.8
 20
55.5
 30
0.0
 11
211.8
 21
54.5
 31
0.0
 12
214.8
 22
55.0
 32
0.0
 13
214.8
 23
55.0
 33
0.0
  0
SOLID
  5
2F6D
330
17
100
AcDbEntity
  8
NORMAL
100
AcDbTrace
 10
29.30000000000004
 20
55.5
 30
0.0
 11
29.30000000000004
 21
54.5
 31
0.0
 12
26.30000000000004
 22
55.0
 32
0.0
 13
26.30000000000004
 23
55.0
 33
0.0
  0
MTEXT
  5
2F6E
330
17
100
AcDbEntity
  8
NORMAL
100
AcDbMText
 10
120.55
 20
57.42857142857141
 30
0.0
 40
2.399999999999999
 41
0.0
 71
     5
 72
     1
  1
188,5±1 (7.42±0.04)
 73
     1
 44
1.0
  0
TEXT
  5
2F7B
330
17
100
AcDbEntity
  8
NORMAL
100
AcDbText
 10
101.1862667248295
 20
134.3574653210166
 30
0.0
 40
3.5
  1
Panel cut out for
 72
     4
 11
124.8529333914961
 21
136.1074653210166
 31
0.0
100
AcDbText
  0
TEXT
  5
2F7C
330
17
100
AcDbEntity
  8
NORMAL
100
AcDbText
 10
110.7696000581628
 20
126.0241319876832
 30
0.0
 40
3.5
  1
6.5" Touch
 72
     4
 11
124.8529333914961
 21
128.1074653210166
 31
0.0
100
AcDbText
  0
TEXT
  5
2F7D
330
17
100
AcDbEntity
  8
NORMAL
100
AcDbText
 10
112.0196000581628
 20
110.1074653210166
 30
0.0
 40
3.5
  1
SCALE 1:1
 72
     4
 11
124.8529333914961
 21
111.8574653210166
 31
0.0
100
AcDbText
  0
TEXT
  5
2F7E
330
17
100
AcDbEntity
  8
NORMAL
100
AcDbText
 10
111.3644508347469
 20
118.4607672463263
 30
0.0
 40
3.5
  1
Front view
 72
     4
 11
124.6977841680802
 21
120.2107672463262
 31
0.0
100
AcDbText
  0
LINE
  5
2F9B
330
17
100
AcDbEntity
  8
NORMAL
100
AcDbLine
 10
235.05
 20
92.5
 30
0.0
 11
235.05
 21
29.25
 31
0.0
  0
LINE
  5
2F9D
330
17
100
AcDbEntity
  8
NORMAL
100
AcDbLine
 10
220.05
 20
14.25
 30
0.0
 11
31.05000000000001
 21
14.25
 31
0.0
  0
LINE
  5
2F9E
330
17
100
AcDbEntity
  8
NORMAL
100
AcDbLine
 10
16.05000000000001
 20
29.25
 30
0.0
 11
16.05000000000001
 21
153.25
 31
0.0
  0
LINE
  5
2FA0
330
17
100
AcDbEntity
  8
NORMAL
100
AcDbLine
 10
235.05
 20
153.25
 30
0.0
 11
235.05
 21
75.09999999999999
 31
0.0
  0
LINE
  5
2FAA
330
17
100
AcDbEntity
  8
NORMAL
100
AcDbLine
 10
26.30000000000004
 20
155.0
 30
0.0
 11
26.30000000000004
 21
139.0
 31
0.0
  0
LINE
  5
2FAB
330
17
100
AcDbEntity
  8
NORMAL
100
AcDbLine
 10
36.30000000000004
 20
155.0
 30
0.0
 11
36.30000000000004
 21
139.0
 31
0.0
  0
LINE
  5
2FAC
330
17
100
AcDbEntity
  8
NORMAL
100
AcDbLine
 10
23.30000000000004
 20
140.0
 30
0.0
 11
20.30000000000004
 21
140.0
 31
0.0
  0
LINE
  5
2FAD
330
17
100
AcDbEntity
  8
NORMAL
100
AcDbLine
 10
39.30000000000004
 20
140.0
 30
0.0
 11
55.44698315322347
 21
140.0
 31
0.0
  0
SOLID
  5
2FAE
330
17
100
AcDbEntity
  8
NORMAL
100
AcDbTrace
 10
23.30000000000004
 20
140.5
 30
0.0
 11
23.30000000000004
 21
139.5
 31
0.0
 12
26.30000000000004
 22
140.0
 32
0.0
 13
26.30000000000004
 23
140.0
 33
0.0
  0
SOLID
  5
2FAF
330
17
100
AcDbEntity
  8
NORMAL
100
AcDbTrace
 10
39.30000000000004
 20
140.5
 30
0.0
 11
39.30000000000004
 21
139.5
 31
0.0
 12
36.30000000000004
 22
140.0
 32
0.0
 13
36.30000000000004
 23
140.0
 33
0.0
  0
MTEXT
  5
2FB0
330
17
100
AcDbEntity
  8
NORMAL
100
AcDbMText
 10
46.70835101371831
 20
142.8285714285714
 30
0.0
 40
2.399999999999999
 41
0.0
 71
     5
 72
     1
  1
\A1;10 (0.39)
 73
     1
 44
1.0
  0
LINE
  5
2FB1
330
17
100
AcDbEntity
  8
NORMAL
100
AcDbLine
 10
36.30000000000004
 20
160.0
 30
0.0
 11
66.0
 21
159.9999999999999
 31
0.0
  0
LINE
  5
2FB2
330
17
100
AcDbEntity
  8
NORMAL
100
AcDbLine
 10
36.30000000000004
 20
155.0
 30
0.0
 11
66.0
 21
155.0
 31
0.0
  0
LINE
  5
2FB3
330
17
100
AcDbEntity
  8
NORMAL
100
AcDbLine
 10
65.00000000000001
 20
162.9999999999999
 30
0.0
 11
65.00000000000001
 21
165.9999999999999
 31
0.0
  0
LINE
  5
2FB4
330
17
100
AcDbEntity
  8
NORMAL
100
AcDbLine
 10
65.0
 20
152.0
 30
0.0
 11
65.0
 21
132.5999999999999
 31
0.0
  0
SOLID
  5
2FB5
330
17
100
AcDbEntity
  8
NORMAL
100
AcDbTrace
 10
64.50000000000001
 20
162.9999999999999
 30
0.0
 11
65.50000000000001
 21
162.9999999999999
 31
0.0
 12
65.0
 22
159.9999999999999
 32
0.0
 13
65.0
 23
159.9999999999999
 33
0.0
  0
SOLID
  5
2FB6
330
17
100
AcDbEntity
  8
NORMAL
100
AcDbTrace
 10
64.5
 20
152.0
 30
0.0
 11
65.5
 21
152.0
 31
0.0
 12
65.0
 22
155.0
 32
0.0
 13
65.0
 23
155.0
 33
0.0
  0
MTEXT
  5
2FB7
330
17
100
AcDbEntity
  8
NORMAL
100
AcDbMText
 10
62.17142857142855
 20
140.8
 30
0.0
 40
2.399999999999999
 41
0.0
 71
     5
 72
     1
  1
\A1;5 (0.19)
 11
0.0000000000000001
 21
1.0
 31
0.0
 73
     1
 44
1.0
  0
LINE
  5
2FB8
330
17
100
AcDbEntity
  8
NORMAL
100
AcDbLine
 10
26.30000000000004
 20
27.50000000000002
 30
0.0
 11
26.30000000000004
 21
41.0
 31
0.0
  0
LINE
  5
2FB9
330
17
100
AcDbEntity
  8
NORMAL
100
AcDbLine
 10
36.30000000000004
 20
27.50000000000002
 30
0.0
 11
36.30000000000004
 21
41.0
 31
0.0
  0
LINE
  5
2FBA
330
17
100
AcDbEntity
  8
NORMAL
100
AcDbLine
 10
23.30000000000004
 20
40.0
 30
0.0
 11
20.30000000000004
 21
40.0
 31
0.0
  0
LINE
  5
2FBB
330
17
100
AcDbEntity
  8
NORMAL
100
AcDbLine
 10
39.30000000000004
 20
40.0
 30
0.0
 11
54.65504892822486
 21
40.0
 31
0.0
  0
SOLID
  5
2FBC
330
17
100
AcDbEntity
  8
NORMAL
100
AcDbTrace
 10
23.30000000000004
 20
40.49999999999999
 30
0.0
 11
23.30000000000004
 21
39.5
 31
0.0
 12
26.30000000000004
 22
40.0
 32
0.0
 13
26.30000000000004
 23
40.0
 33
0.0
  0
SOLID
  5
2FBD
330
17
100
AcDbEntity
  8
NORMAL
100
AcDbTrace
 10
39.30000000000004
 20
40.49999999999999
 30
0.0
 11
39.30000000000004
 21
39.5
 31
0.0
 12
36.30000000000004
 22
40.0
 32
0.0
 13
36.30000000000004
 23
40.0
 33
0.0
  0
MTEXT
  5
2FBE
330
17
100
AcDbEntity
  8
NORMAL
100
AcDbMText
 10
45.28389346267018
 20
42.82857142857142
 30
0.0
 40
2.399999999999999
 41
0.0
 71
     5
 72
     1
  1
\A1;10 (0.39)
 73
     1
 44
1.0
  0
LINE
  5
2FBF
330
17
100
AcDbEntity
  8
NORMAL
100
AcDbLine
 10
36.30000000000004
 20
22.50000000000001
 30
0.0
 11
66.0
 21
22.5
 31
0.0
  0
LINE
  5
2FC0
330
17
100
AcDbEntity
  8
NORMAL
100
AcDbLine
 10
36.30000000000004
 20
27.50000000000002
 30
0.0
 11
66.0
 21
27.5
 31
0.0
  0
LINE
  5
2FC1
330
17
100
AcDbEntity
  8
NORMAL
100
AcDbLine
 10
65.0
 20
19.50000000000001
 30
0.0
 11
65.0
 21
16.50000000000001
 31
0.0
  0
LINE
  5
2FC2
330
17
100
AcDbEntity
  8
NORMAL
100
AcDbLine
 10
65.0
 20
30.50000000000001
 30
0.0
 11
65.00000000000001
 21
49.9
 31
0.0
  0
SOLID
  5
2FC3
330
17
100
AcDbEntity
  8
NORMAL
100
AcDbTrace
 10
64.5
 20
19.50000000000001
 30
0.0
 11
65.5
 21
19.50000000000001
 31
0.0
 12
65.0
 22
22.50000000000001
 32
0.0
 13
65.0
 23
22.50000000000001
 33
0.0
  0
SOLID
  5
2FC4
330
17
100
AcDbEntity
  8
NORMAL
100
AcDbTrace
 10
64.5
 20
30.50000000000001
 30
0.0
 11
65.5
 21
30.50000000000001
 31
0.0
 12
65.0
 22
27.50000000000001
 32
0.0
 13
65.0
 23
27.50000000000001
 33
0.0
  0
MTEXT
  5
2FC5
330
17
100
AcDbEntity
  8
NORMAL
100
AcDbMText
 10
62.17142857142857
 20
41.7
 30
0.0
 40
2.399999999999999
 41
0.0
 71
     5
 72
     1
  1
\A1;5 (0.19)
 11
0.0000000000000001
 21
1.0
 31
0.0
 73
     1
 44
1.0
  0
LINE
  5
2FCC
330
17
100
AcDbEntity
  8
NORMAL
100
AcDbLine
 10
36.30000000000004
 20
160.0
 30
0.0
 11
76.00000000000003
 21
159.9999999999999
 31
0.0
  0
LINE
  5
2FCD
330
17
100
AcDbEntity
  8
NORMAL
100
AcDbLine
 10
36.30000000000004
 20
22.50000000000001
 30
0.0
 11
75.99999999999998
 21
22.5
 31
0.0
  0
LINE
  5
2FCE
330
17
100
AcDbEntity
  8
NORMAL
100
AcDbLine
 10
75.00000000000001
 20
157.0
 30
0.0
 11
74.99999999999999
 21
25.5
 31
0.0
  0
SOLID
  5
2FCF
330
17
100
AcDbEntity
  8
NORMAL
100
AcDbTrace
 10
74.50000000000001
 20
157.0
 30
0.0
 11
75.50000000000001
 21
157.0
 31
0.0
 12
75.00000000000003
 22
159.9999999999999
 32
0.0
 13
75.00000000000003
 23
159.9999999999999
 33
0.0
  0
SOLID
  5
2FD0
330
17
100
AcDbEntity
  8
NORMAL
100
AcDbTrace
 10
74.49999999999999
 20
25.5
 30
0.0
 11
75.49999999999998
 21
25.5
 31
0.0
 12
74.99999999999999
 22
22.5
 32
0.0
 13
74.99999999999999
 23
22.5
 33
0.0
  0
MTEXT
  5
2FD1
330
17
100
AcDbEntity
  8
NORMAL
100
AcDbMText
 10
72.17142857142857
 20
91.25000000000001
 30
0.0
 40
2.399999999999999
 41
0.0
 71
     5
 72
     1
  1
\A1;137,5%%p1 (5.41%%p0.04)
 11
0.0000000000000001
 21
1.0
 31
0.0
 73
     1
 44
1.0
  0
LINE
  5
2FD6
330
17
100
AcDbEntity
  8
NORMAL
100
AcDbLine
 10
31.05000000000001
 20
168.25
 30
0.0
 11
220.05
 21
168.25
 31
0.0
  0
ARC
  5
2FD7
330
17
100
AcDbEntity
  8
NORMAL
100
AcDbCircle
 10
220.05
 20
153.25
 30
0.0
 40
15.0
100
AcDbArc
 50
0.0
 51
90.0
  0
ARC
  5
2FD8
330
17
100
AcDbEntity
  8
NORMAL
100
AcDbCircle
 10
31.05000000000001
 20
153.25
 30
0.0
 40
15.0
100
AcDbArc
 50
90.00000000000003
 51
180.0
  0
ARC
  5
2FD9
330
17
100
AcDbEntity
  8
NORMAL
100
AcDbCircle
 10
220.05
 20
29.25
 30
0.0
 40
15.0
100
AcDbArc
 50
270.0
 51
0.0
  0
ARC
  5
2FDA
330
17
100
AcDbEntity
  8
NORMAL
100
AcDbCircle
 10
31.05000000000001
 20
29.25
 30
0.0
 40
15.0
100
AcDbArc
 50
180.0
 51
270.0
  0
LEADER
  5
2FDB
330
17
100
AcDbEntity
  8
NORMAL
100
AcDbLeader
  3
STANDARD
 73
     0
 74
     0
 75
     1
 40
2.399999999999999
 41
13.59999999999999
 76
     3
 10
105.0
 20
23.0
 30
0.0
 10
116.0
 20
43.0
 30
0.0
 10
119.0
 20
43.0
 30
0.0
340
2FDC
213
0.0
223
-1.199999999999999
233
0.0
1001
ACAD
1000
DSTYLE
1002
{
1070
    41
1040
3.0
1070
    42
1040
0.0
1070
    43
1040
7.5
1070
    44
1040
1.0
1070
    73
1070
     0
1070
    74
1070
     0
1070
    78
1070
     8
1070
   140
1040
2.399999999999999
1070
   141
1040
3.0
1070
   147
1040
1.0
1070
   271
1070
     2
1070
   272
1070
     2
1070
   277
1070
     6
1070
   284
1070
     8
1070
   289
1070
     0
1002
}
  0
MTEXT
  5
2FDC
102
{ACAD_REACTORS
330
2FDB
102
}
330
17
100
AcDbEntity
  8
NORMAL
100
AcDbMText
 10
120.0
 20
44.2
 30
0.0
 40
2.399999999999999
 41
0.0
 71
     1
 72
     1
  1
Cut out
 73
     1
 44
1.0
  0
LEADER
  5
2FDD
330
17
100
AcDbEntity
  8
NORMAL
100
AcDbLeader
  3
STANDARD
 73
     0
 74
     0
 75
     1
 40
2.399999999999999
 41
28.68571428571428
 76
     3
 10
109.0
 20
15.0
 30
0.0
 10
120.0
 20
34.0
 30
0.0
 10
123.0
 20
34.0
 30
0.0
340
2FDE
213
0.0
223
-1.199999999999999
233
0.0
1001
ACAD
1000
DSTYLE
1002
{
1070
    41
1040
3.0
1070
    42
1040
0.0
1070
    43
1040
7.5
1070
    44
1040
1.0
1070
    73
1070
     0
1070
    74
1070
     0
1070
    78
1070
     8
1070
   140
1040
2.399999999999999
1070
   141
1040
3.0
1070
   147
1040
1.0
1070
   271
1070
     2
1070
   272
1070
     2
1070
   277
1070
     6
1070
   284
1070
     8
1070
   289
1070
     0
1002
}
  0
MTEXT
  5
2FDE
102
{ACAD_REACTORS
330
2FDD
102
}
330
17
100
AcDbEntity
  8
NORMAL
100
AcDbMText
 10
124.0
 20
35.2
 30
0.0
 40
2.399999999999999
 41
0.0
 71
     1
 72
     1
  1
Terminal outline
 73
     1
 44
1.0
  0
LINE
  5
2FE6
330
17
100
AcDbEntity
  8
NORMAL
100
AcDbLine
 10
86.5
 20
14.25
 30
0.0
 11
83.99999999999998
 21
14.25
 31
0.0
  0
LINE
  5
2FE7
330
17
100
AcDbEntity
  8
NORMAL
100
AcDbLine
 10
86.5
 20
22.5
 30
0.0
 11
83.99999999999998
 21
22.5
 31
0.0
  0
LINE
  5
2FE8
330
17
100
AcDbEntity
  8
NORMAL
100
AcDbLine
 10
84.99999999999998
 20
11.25
 30
0.0
 11
84.99999999999998
 21
8.25
 31
0.0
  0
LINE
  5
2FE9
330
17
100
AcDbEntity
  8
NORMAL
100
AcDbLine
 10
84.99999999999998
 20
25.5
 30
0.0
 11
85.0
 21
51.07142857142856
 31
0.0
  0
SOLID
  5
2FEA
330
17
100
AcDbEntity
  8
NORMAL
100
AcDbTrace
 10
84.49999999999999
 20
11.25
 30
0.0
 11
85.49999999999998
 21
11.25
 31
0.0
 12
84.99999999999998
 22
14.25
 32
0.0
 13
84.99999999999998
 23
14.25
 33
0.0
  0
SOLID
  5
2FEB
330
17
100
AcDbEntity
  8
NORMAL
100
AcDbTrace
 10
84.49999999999999
 20
25.5
 30
0.0
 11
85.49999999999998
 21
25.5
 31
0.0
 12
84.99999999999998
 22
22.5
 32
0.0
 13
84.99999999999998
 23
22.5
 33
0.0
  0
MTEXT
  5
2FEC
330
17
100
AcDbEntity
  8
NORMAL
100
AcDbMText
 10
82.17142857142857
 20
39.78571428571429
 30
0.0
 40
2.399999999999999
 41
0.0
 71
     5
 72
     1
  1
\A1;8,25 (0.32)
 11
0.0000000000000001
 21
1.0
 31
0.0
 73
     1
 44
1.0
  0
LINE
  5
2FED
330
17
100
AcDbEntity
  8
NORMAL
100
AcDbLine
 10
82.5
 20
168.25
 30
0.0
 11
86.0
 21
168.25
 31
0.0
  0
LINE
  5
2FEE
330
17
100
AcDbEntity
  8
NORMAL
100
AcDbLine
 10
82.50000000000001
 20
160.0
 30
0.0
 11
86.0
 21
160.0
 31
0.0
  0
LINE
  5
2FEF
330
17
100
AcDbEntity
  8
NORMAL
100
AcDbLine
 10
85.0
 20
171.25
 30
0.0
 11
85.0
 21
174.25
 31
0.0
  0
LINE
  5
2FF0
330
17
100
AcDbEntity
  8
NORMAL
100
AcDbLine
 10
84.99999999999998
 20
157.0
 30
0.0
 11
84.99999999999998
 21
131.4285714285714
 31
0.0
  0
SOLID
  5
2FF1
330
17
100
AcDbEntity
  8
NORMAL
100
AcDbTrace
 10
84.50000000000001
 20
171.25
 30
0.0
 11
85.5
 21
171.25
 31
0.0
 12
85.0
 22
168.25
 32
0.0
 13
85.0
 23
168.25
 33
0.0
  0
SOLID
  5
2FF2
330
17
100
AcDbEntity
  8
NORMAL
100
AcDbTrace
 10
84.49999999999999
 20
157.0
 30
0.0
 11
85.49999999999998
 21
157.0
 31
0.0
 12
85.0
 22
160.0
 32
0.0
 13
85.0
 23
160.0
 33
0.0
  0
MTEXT
  5
2FF3
330
17
100
AcDbEntity
  8
NORMAL
100
AcDbMText
 10
82.17142857142855
 20
142.7142857142857
 30
0.0
 40
2.399999999999999
 41
0.0
 71
     5
 72
     1
  1
\A1;8,25 (0.32)
 11
0.0000000000000001
 21
1.0
 31
0.0
 73
     1
 44
1.0
  0
LINE
  5
2FFB
330
17
100
AcDbEntity
  8
NORMAL
100
AcDbLine
 10
16.05000000000001
 20
29.25
 30
0.0
 11
16.05000000000001
 21
66.0
 31
0.0
  0
LINE
  5
2FFC
330
17
100
AcDbEntity
  8
NORMAL
100
AcDbLine
 10
26.30000000000004
 20
27.50000000000002
 30
0.0
 11
26.30000000000004
 21
66.0
 31
0.0
  0
LINE
  5
2FFD
330
17
100
AcDbEntity
  8
NORMAL
100
AcDbLine
 10
13.05000000000001
 20
65.0
 30
0.0
 11
10.05000000000001
 21
65.0
 31
0.0
  0
LINE
  5
2FFE
330
17
100
AcDbEntity
  8
NORMAL
100
AcDbLine
 10
29.30000000000005
 20
65.0
 30
0.0
 11
56.70000000000004
 21
65.0
 31
0.0
  0
SOLID
  5
2FFF
330
17
100
AcDbEntity
  8
NORMAL
100
AcDbTrace
 10
13.05000000000001
 20
65.5
 30
0.0
 11
13.05000000000001
 21
64.5
 31
0.0
 12
16.05000000000001
 22
65.0
 32
0.0
 13
16.05000000000001
 23
65.0
 33
0.0
  0
SOLID
  5
3000
330
17
100
AcDbEntity
  8
NORMAL
100
AcDbTrace
 10
29.30000000000005
 20
65.5
 30
0.0
 11
29.30000000000005
 21
64.5
 31
0.0
 12
26.30000000000004
 22
65.0
 32
0.0
 13
26.30000000000004
 23
65.0
 33
0.0
  0
MTEXT
  5
3001
330
17
100
AcDbEntity
  8
NORMAL
100
AcDbMText
 10
44.50000000000004
 20
67.82857142857142
 30
0.0
 40
2.399999999999999
 41
0.0
 71
     5
 72
     1
  1
\A1;10,25 (0.40)
 73
     1
 44
1.0
  0
LINE
  5
3002
330
17
100
AcDbEntity
  8
NORMAL
100
AcDbLine
 10
235.05
 20
29.25
 30
0.0
 11
235.05
 21
66.0
 31
0.0
  0
LINE
  5
3003
330
17
100
AcDbEntity
  8
NORMAL
100
AcDbLine
 10
214.8
 20
22.50000000000001
 30
0.0
 11
214.8
 21
66.0
 31
0.0
  0
LINE
  5
3004
330
17
100
AcDbEntity
  8
NORMAL
100
AcDbLine
 10
238.05
 20
65.0
 30
0.0
 11
241.05
 21
65.0
 31
0.0
  0
LINE
  5
3005
330
17
100
AcDbEntity
  8
NORMAL
100
AcDbLine
 10
211.8
 20
65.0
 30
0.0
 11
183.9428571428572
 21
65.0
 31
0.0
  0
SOLID
  5
3006
330
17
100
AcDbEntity
  8
NORMAL
100
AcDbTrace
 10
238.05
 20
65.5
 30
0.0
 11
238.05
 21
64.5
 31
0.0
 12
235.05
 22
65.0
 32
0.0
 13
235.05
 23
65.0
 33
0.0
  0
SOLID
  5
3007
330
17
100
AcDbEntity
  8
NORMAL
100
AcDbTrace
 10
211.8
 20
65.5
 30
0.0
 11
211.8
 21
64.5
 31
0.0
 12
214.8
 22
65.0
 32
0.0
 13
214.8
 23
65.0
 33
0.0
  0
MTEXT
  5
3008
330
17
100
AcDbEntity
  8
NORMAL
100
AcDbMText
 10
196.3714285714286
 20
67.82857142857142
 30
0.0
 40
2.399999999999999
 41
0.0
 71
     5
 72
     1
  1
\A1;20,25 (0.80)
 73
     1
 44
1.0
  0
LINE
  5
3009
330
17
100
AcDbEntity
  8
NORMAL
  6
DASHDOT
100
AcDbLine
 10
115.55
 20
91.25000000000001
 30
0.0
 11
135.55
 21
91.25000000000001
 31
0.0
  0
LINE
  5
300E
330
17
100
AcDbEntity
  8
NORMAL
  6
DASHDOT
100
AcDbLine
 10
125.55
 20
101.25
 30
0.0
 11
125.55
 21
81.2
 31
0.0
  0
LEADER
  5
3010
330
17
100
AcDbEntity
  8
NORMAL
100
AcDbLeader
  3
STANDARD
 73
     0
 74
     0
 75
     1
 40
2.4
 41
28.22857142857142
 76
     3
 10
126.5
 20
90.0
 30
0.0
 10
132.5
 20
82.0
 30
0.0
 10
135.5
 20
82.0
 30
0.0
340
3011
213
0.0
223
-1.199999999999999
233
0.0
1001
ACAD
1000
DSTYLE
1002
{
1070
    41
1040
3.0
1070
    42
1040
0.0
1070
    43
1040
7.5
1070
    44
1040
1.0
1070
    73
1070
     0
1070
    74
1070
     0
1070
    78
1070
     8
1070
   140
1040
2.399999999999999
1070
   141
1040
3.0
1070
   147
1040
1.0
1070
   271
1070
     2
1070
   272
1070
     2
1070
   277
1070
     6
1070
   284
1070
     8
1070
   289
1070
     0
1002
}
  0
MTEXT
  5
3011
102
{ACAD_REACTORS
330
3010
102
}
330
17
100
AcDbEntity
  8
NORMAL
100
AcDbMText
 10
136.5
 20
83.2
 30
0.0
 40
2.399999999999999
 41
0.0
 71
     1
 72
     1
  1
Terminal center
 73
     1
 44
1.0
  0
LINE
  5
3013
330
17
100
AcDbEntity
  8
NORMAL
100
AcDbLine
 10
245.0
 20
177.5
 30
0.0
 11
245.0
 21
180.0
 31
0.0
  0
LINE
  5
3014
330
17
100
AcDbEntity
  8
NORMAL
100
AcDbLine
 10
245.0
 20
180.0
 30
0.0
 11
242.5
 21
180.0
 31
0.0
  0
ENDSEC
  0
SECTION
  2
OBJECTS
  0
DICTIONARY
  5
C
330
0
100
AcDbDictionary
281
     1
  3
ACAD_COLOR
350
3024
  3
ACAD_GROUP
350
D
  3
ACAD_LAYOUT
350
B3A
  3
ACAD_MATERIAL
350
3023
  3
ACAD_MLINESTYLE
350
1A
  3
ACAD_PLOTSETTINGS
350
B3B
  3
ACAD_PLOTSTYLENAME
350
B38
  3
ACAD_TABLESTYLE
350
3025
  3
AcadDim
350
300F
  3
ACDBVARIABLEDICTIONARY
350
2E
  3
CONTENTDICTIONARY
350
2E5
  0
DICTIONARY
  5
3024
102
{ACAD_REACTORS
330
C
102
}
330
C
100
AcDbDictionary
281
     1
  0
DICTIONARY
  5
D
102
{ACAD_REACTORS
330
C
102
}
330
C
100
AcDbDictionary
281
     1
  0
DICTIONARY
  5
B3A
102
{ACAD_REACTORS
330
C
102
}
330
C
100
AcDbDictionary
281
     1
  3
Layout1
350
B3D
  3
Model
350
B3C
  0
DICTIONARY
  5
3023
102
{ACAD_REACTORS
330
C
102
}
330
C
100
AcDbDictionary
281
     1
  0
DICTIONARY
  5
1A
102
{ACAD_REACTORS
330
C
102
}
330
C
100
AcDbDictionary
281
     1
  3
STANDARD
350
1B
  0
DICTIONARY
  5
B3B
102
{ACAD_REACTORS
330
C
102
}
330
C
100
AcDbDictionary
281
     1
  0
ACDBDICTIONARYWDFLT
  5
B38
102
{ACAD_REACTORS
330
C
102
}
330
C
100
AcDbDictionary
281
     1
  3
Normal
350
B39
100
AcDbDictionaryWithDefault
340
B39
  0
DICTIONARY
  5
3025
102
{ACAD_REACTORS
330
C
102
}
330
C
100
AcDbDictionary
281
     1
  3
Standard
350
3026
  0
XRECORD
  5
300F
102
{ACAD_REACTORS
330
C
102
}
330
C
100
AcDbXrecord
280
     1
 90
   990106
  3

 60
     0
 61
     0
 62
     1
 63
     3
 64
     0
 65
     0
 66
     0
 67
     3
 68
     1
 69
     0
 70
     0
 71
     0
 72
     0
 40
0.0
170
     0
340
3011
  0
DICTIONARY
  5
2E
102
{ACAD_REACTORS
330
C
102
}
330
C
100
AcDbDictionary
281
     1
  3
CTABLESTYLE
350
3029
  3
DIMADEC
350
2F
  3
DIMASSOC
350
E4E
  0
DICTIONARY
  5
2E5
102
{ACAD_REACTORS
330
C
102
}
330
C
100
AcDbDictionary
281
     1
  0
LAYOUT
  5
B3D
102
{ACAD_REACTORS
330
B3A
102
}
330
B3A
100
AcDbPlotSettings
  1

  2
\\BEIJERS\LASER_12
  4

  6

 40
0.0
 41
0.0
 42
0.0
 43
0.0
 44
0.0
 45
0.0
 46
0.0
 47
0.0
 48
0.0
 49
0.0
140
0.0
141
0.0
142
1.0
143
1.0
 70
   688
 72
     0
 73
     0
 74
     5
  7
monochrome.ctb
 75
    16
147
1.0
 76
     0
 77
     2
 78
   300
148
0.0
149
0.0
100
AcDbLayout
  1
Layout1
 70
     0
 71
     1
 10
0.0
 20
0.0
 11
12.0
 21
9.0
 12
0.0
 22
0.0
 32
0.0
 14
1.000000000000000E+20
 24
1.000000000000000E+20
 34
1.000000000000000E+20
 15
-1.000000000000000E+20
 25
-1.000000000000000E+20
 35
-1.000000000000000E+20
146
0.0
 13
0.0
 23
0.0
 33
0.0
 16
1.0
 26
0.0
 36
0.0
 17
0.0
 27
1.0
 37
0.0
 76
     0
330
14
  0
LAYOUT
  5
B3C
102
{ACAD_REACTORS
330
B3A
102
}
330
B3A
100
AcDbPlotSettings
  1

  2
\\fdlsv03\FDLPR01-PCL
  4
Letter
  6

 40
6.297083377838134
 41
6.297093868255615
 42
6.297073364257812
 43
6.297088623046875
 44
215.8999938964844
 45
279.3999938964844
 46
5.747320955797416
 47
0.0
 48
0.0
 49
0.0
140
0.0
141
0.0
142
1.0
143
22.85295887423772
 70
 11956
 72
     0
 73
     1
 74
     1
  7
monochrome.ctb
 75
     0
147
0.0437580098709803
 76
     0
 77
     2
 78
   300
148
-126.814003431723
149
-189.6008687391901
100
AcDbLayout
  1
Model
 70
     1
 71
     0
 10
0.0
 20
0.0
 11
12.0
 21
9.0
 12
0.0
 22
0.0
 32
0.0
 14
0.0
 24
0.0
 34
0.0
 15
0.0
 25
0.0
 35
0.0
146
0.0
 13
0.0
 23
0.0
 33
0.0
 16
1.0
 26
0.0
 36
0.0
 17
0.0
 27
1.0
 37
0.0
 76
     0
330
17
1001
ACAD_PSEXT
1000
\\fdlsv03\FDLPR01-PCL
1000
Canon iR C5870 PCL5c
1000
FDL Color - 4th floor
1000
Color Canon iR 5870u
1070
     0
  0
MLINESTYLE
  5
1B
102
{ACAD_REACTORS
330
1A
102
}
330
1A
100
AcDbMlineStyle
  2
STANDARD
 70
     0
  3

 62
   256
 51
90.0
 52
90.0
 71
     2
 49
0.5
 62
   256
  6
BYLAYER
 49
-0.5
 62
   256
  6
BYLAYER
  0
ACDBPLACEHOLDER
  5
B39
102
{ACAD_REACTORS
330
B38
102
}
330
B38
  0
TABLESTYLE
  5
3026
102
{ACAD_REACTORS
330
3025
102
}
330
3025
100
AcDbTableStyle
  3
Standard
 70
     0
 71
     8
 40
1.5
 41
1.5
280
     0
281
     0
  7
STANDARD
140
4.5
170
     2
 62
     0
 63
     7
283
     0
274
    -2
284
     1
 64
     0
275
    -2
285
     1
 65
     0
276
    -2
286
     1
 66
     0
277
    -2
287
     1
 67
     0
278
    -2
288
     1
 68
     0
279
    -2
289
     1
 69
     0
  7
STANDARD
140
6.0
170
     5
 62
     0
 63
     7
283
     0
274
    -2
284
     1
 64
     0
275
    -2
285
     1
 65
     0
276
    -2
286
     1
 66
     0
277
    -2
287
     1
 67
     0
278
    -2
288
     1
 68
     0
279
    -2
289
     1
 69
     0
  7
STANDARD
140
4.5
170
     5
 62
     0
 63
     7
283
     0
274
    -2
284
     1
 64
     0
275
    -2
285
     1
 65
     0
276
    -2
286
     1
 66
     0
277
    -2
287
     1
 67
     0
278
    -2
288
     1
 68
     0
279
    -2
289
     1
 69
     0
  0
DICTIONARYVAR
  5
3029
102
{ACAD_REACTORS
330
2E
102
}
330
2E
100
DictionaryVariables
280
     0
  1
STANDARD
  0
DICTIONARYVAR
  5
2F
102
{ACAD_REACTORS
330
2E
102
}
330
2E
100
DictionaryVariables
280
     0
  1
0
  0
DICTIONARYVAR
  5
E4E
102
{ACAD_REACTORS
330
2E
102
}
330
2E
100
DictionaryVariables
280
     0
  1
0
  0
ENDSEC
  0
EOF
