  0
SECTION
  2
HEADER
  9
$ACADVER
  1
AC1012
  9
$DWGCODEPAGE
  3
ANSI_1252
  9
$INSBASE
 10
0.359375
 20
0.0625
 30
0.0
  9
$EXTMIN
 10
0.980005
 20
1.90625
 30
0.0
  9
$EXTMAX
 10
9.386091
 20
14.907738
 30
0.0
  9
$LIMMIN
 10
0.0
 20
0.0
  9
$LIMMAX
 10
10.678
 20
15.95
  9
$ORTHOMODE
 70
     1
  9
$REGENMODE
 70
     1
  9
$FILLMODE
 70
     1
  9
$QTEXTMODE
 70
     0
  9
$MIRRTEXT
 70
     0
  9
$DRAGMODE
 70
     2
  9
$LTSCALE
 40
0.25
  9
$OSMODE
 70
     0
  9
$ATTMODE
 70
     1
  9
$TEXTSIZE
 40
0.075
  9
$TRACEWID
 40
0.05
  9
$TEXTSTYLE
  7
ROMANS
  9
$CLAYER
  8
0
  9
$CELTYPE
  6
BYLAYER
  9
$CECOLOR
 62
   256
  9
$CELTSCALE
 40
1.0
  9
$DELOBJ
 70
     1
  9
$DISPSILH
 70
     0
  9
$DIMSCALE
 40
1.0
  9
$DIMASZ
 40
0.18
  9
$DIMEXO
 40
0.0625
  9
$DIMDLI
 40
0.38
  9
$DIMRND
 40
0.0
  9
$DIMDLE
 40
0.0
  9
$DIMEXE
 40
0.18
  9
$DIMTP
 40
0.0
  9
$DIMTM
 40
0.0
  9
$DIMTXT
 40
0.18
  9
$DIMCEN
 40
0.09
  9
$DIMTSZ
 40
0.0
  9
$DIMTOL
 70
     0
  9
$DIMLIM
 70
     0
  9
$DIMTIH
 70
     1
  9
$DIMTOH
 70
     1
  9
$DIMSE1
 70
     0
  9
$DIMSE2
 70
     0
  9
$DIMTAD
 70
     0
  9
$DIMZIN
 70
     0
  9
$DIMBLK
  1

  9
$DIMASO
 70
     1
  9
$DIMSHO
 70
     0
  9
$DIMPOST
  1

  9
$DIMAPOST
  1

  9
$DIMALT
 70
     0
  9
$DIMALTD
 70
     2
  9
$DIMALTF
 40
25.4
  9
$DIMLFAC
 40
1.0
  9
$DIMTOFL
 70
     0
  9
$DIMTVP
 40
0.0
  9
$DIMTIX
 70
     0
  9
$DIMSOXD
 70
     0
  9
$DIMSAH
 70
     0
  9
$DIMBLK1
  1

  9
$DIMBLK2
  1

  9
$DIMSTYLE
  2
STANDARD
  9
$DIMCLRD
 70
     0
  9
$DIMCLRE
 70
     0
  9
$DIMCLRT
 70
     0
  9
$DIMTFAC
 40
1.0
  9
$DIMGAP
 40
0.09
  9
$DIMJUST
 70
     0
  9
$DIMSD1
 70
     0
  9
$DIMSD2
 70
     0
  9
$DIMTOLJ
 70
     1
  9
$DIMTZIN
 70
     0
  9
$DIMALTZ
 70
     0
  9
$DIMALTTZ
 70
     0
  9
$DIMFIT
 70
     3
  9
$DIMUPT
 70
     0
  9
$DIMUNIT
 70
     2
  9
$DIMDEC
 70
     4
  9
$DIMTDEC
 70
     4
  9
$DIMALTU
 70
     2
  9
$DIMALTTD
 70
     2
  9
$DIMTXSTY
  7
STANDARD
  9
$DIMAUNIT
 70
     0
  9
$LUNITS
 70
     2
  9
$LUPREC
 70
     4
  9
$SKETCHINC
 40
0.1
  9
$FILLETRAD
 40
0.0
  9
$AUNITS
 70
     0
  9
$AUPREC
 70
     0
  9
$MENU
  1
ACAD
  9
$ELEVATION
 40
0.0
  9
$PELEVATION
 40
0.0
  9
$THICKNESS
 40
0.0
  9
$LIMCHECK
 70
     0
  9
$BLIPMODE
 70
     0
  9
$CHAMFERA
 40
0.0
  9
$CHAMFERB
 40
0.0
  9
$CHAMFERC
 40
0.0
  9
$CHAMFERD
 40
0.0
  9
$SKPOLY
 70
     0
  9
$TDCREATE
 40
2449270.545578587
  9
$TDUPDATE
 40
2451087.616580555
  9
$TDINDWG
 40
0.4619525463
  9
$TDUSRTIMER
 40
0.4619525463
  9
$USRTIMER
 70
     1
  9
$ANGBASE
 50
0.0
  9
$ANGDIR
 70
     0
  9
$PDMODE
 70
     3
  9
$PDSIZE
 40
0.1
  9
$PLINEWID
 40
0.01
  9
$COORDS
 70
     2
  9
$SPLFRAME
 70
     0
  9
$SPLINETYPE
 70
     6
  9
$SPLINESEGS
 70
     8
  9
$ATTDIA
 70
     0
  9
$ATTREQ
 70
     1
  9
$HANDLING
 70
     1
  9
$HANDSEED
  5
C44
  9
$SURFTAB1
 70
     6
  9
$SURFTAB2
 70
     6
  9
$SURFTYPE
 70
     6
  9
$SURFU
 70
     6
  9
$SURFV
 70
     6
  9
$UCSNAME
  2

  9
$UCSORG
 10
0.0
 20
0.0
 30
0.0
  9
$UCSXDIR
 10
1.0
 20
0.0
 30
0.0
  9
$UCSYDIR
 10
0.0
 20
1.0
 30
0.0
  9
$PUCSNAME
  2

  9
$PUCSORG
 10
0.0
 20
0.0
 30
0.0
  9
$PUCSXDIR
 10
1.0
 20
0.0
 30
0.0
  9
$PUCSYDIR
 10
0.0
 20
1.0
 30
0.0
  9
$USERI1
 70
     0
  9
$USERI2
 70
     0
  9
$USERI3
 70
     0
  9
$USERI4
 70
     0
  9
$USERI5
 70
     0
  9
$USERR1
 40
0.0
  9
$USERR2
 40
0.0
  9
$USERR3
 40
0.0
  9
$USERR4
 40
0.0
  9
$USERR5
 40
0.0
  9
$WORLDVIEW
 70
     1
  9
$SHADEDGE
 70
     3
  9
$SHADEDIF
 70
    70
  9
$TILEMODE
 70
     1
  9
$MAXACTVP
 70
    16
  9
$PINSBASE
 10
0.0
 20
0.0
 30
0.0
  9
$PLIMCHECK
 70
     0
  9
$PEXTMIN
 10
1.000000E+20
 20
1.000000E+20
 30
1.000000E+20
  9
$PEXTMAX
 10
-1.000000E+20
 20
-1.000000E+20
 30
-1.000000E+20
  9
$PLIMMIN
 10
0.0
 20
0.0
  9
$PLIMMAX
 10
12.0
 20
9.0
  9
$UNITMODE
 70
     0
  9
$VISRETAIN
 70
     0
  9
$PLINEGEN
 70
     0
  9
$PSLTSCALE
 70
     0
  9
$TREEDEPTH
 70
  3020
  9
$PICKSTYLE
 70
     1
  9
$CMLSTYLE
  2
STANDARD
  9
$CMLJUST
 70
     0
  9
$CMLSCALE
 40
1.0
  9
$SAVEIMAGES
 70
     1
  0
ENDSEC
  0
SECTION
  2
CLASSES
  0
CLASS
  1
LWPOLYLINE
  2
AcDbPolyline
  3
"AutoCAD"
 90
    32768
280
     0
281
     1
  0
CLASS
  1
HATCH
  2
AcDbHatch
  3
"ACAD_SEDONA"
 90
    32768
280
     0
281
     1
  0
ENDSEC
  0
SECTION
  2
TABLES
  0
TABLE
  2
VPORT
  5
8
100
AcDbSymbolTable
 70
     2
  0
VPORT
  5
C43
100
AcDbSymbolTableRecord
100
AcDbViewportTableRecord
  2
*ACTIVE
 70
     0
 10
0.0
 20
0.0
 11
1.0
 21
1.0
 12
15.563073
 22
8.595605
 13
0.0
 23
0.0
 14
0.001
 24
0.001
 15
1.0
 25
1.0
 16
0.0
 26
0.0
 36
1.0
 17
0.0
 27
0.0
 37
0.0
 40
17.19121
 41
1.810585
 42
50.0
 43
0.0
 44
0.0
 50
0.0
 51
0.0
 71
     0
 72
   100
 73
     1
 74
     0
 75
     1
 76
     0
 77
     0
 78
     0
  0
ENDTAB
  0
TABLE
  2
LTYPE
  5
5
100
AcDbSymbolTable
 70
     2
  0
LTYPE
  5
12
100
AcDbSymbolTableRecord
100
AcDbLinetypeTableRecord
  2
BYBLOCK
 70
     0
  3

 72
    65
 73
     0
 40
0.0
  0
LTYPE
  5
13
100
AcDbSymbolTableRecord
100
AcDbLinetypeTableRecord
  2
BYLAYER
 70
     0
  3

 72
    65
 73
     0
 40
0.0
  0
LTYPE
  5
14
100
AcDbSymbolTableRecord
100
AcDbLinetypeTableRecord
  2
CONTINUOUS
 70
     0
  3
Solid line
 72
    65
 73
     0
 40
0.0
  0
LTYPE
  5
23
100
AcDbSymbolTableRecord
100
AcDbLinetypeTableRecord
  2
DASHED
 70
     0
  3
__ __ __ __ __ __ __ __ __ __ __ __ __ __ __ __
 72
    65
 73
     2
 40
0.75
 49
0.5
 74
     0
 49
-0.25
 74
     0
  0
ENDTAB
  0
TABLE
  2
LAYER
  5
2
100
AcDbSymbolTable
 70
     3
  0
LAYER
  5
F
100
AcDbSymbolTableRecord
100
AcDbLayerTableRecord
  2
0
 70
     0
 62
     7
  6
CONTINUOUS
  0
LAYER
  5
30
100
AcDbSymbolTableRecord
100
AcDbLayerTableRecord
  2
DASH
 70
     0
 62
     2
  6
DASHED
  0
LAYER
  5
27E
100
AcDbSymbolTableRecord
100
AcDbLayerTableRecord
  2
TEXT
 70
     0
 62
     2
  6
CONTINUOUS
  0
ENDTAB
  0
TABLE
  2
STYLE
  5
3
100
AcDbSymbolTable
 70
     2
  0
STYLE
  5
10
100
AcDbSymbolTableRecord
100
AcDbTextStyleTableRecord
  2
STANDARD
 70
     0
 40
0.0
 41
1.0
 50
0.0
 71
     0
 42
0.2
  3
txt
  4

  0
STYLE
  5
1D
100
AcDbSymbolTableRecord
100
AcDbTextStyleTableRecord
  2
ROMANS
 70
     0
 40
0.0
 41
0.8
 50
0.0
 71
     0
 42
0.075
  3
ROMANS
  4

  0
ENDTAB
  0
TABLE
  2
VIEW
  5
6
100
AcDbSymbolTable
 70
     0
  0
ENDTAB
  0
TABLE
  2
UCS
  5
7
100
AcDbSymbolTable
 70
     0
  0
ENDTAB
  0
TABLE
  2
APPID
  5
9
100
AcDbSymbolTable
 70
     1
  0
APPID
  5
11
100
AcDbSymbolTableRecord
100
AcDbRegAppTableRecord
  2
ACAD
 70
     0
  0
ENDTAB
  0
TABLE
  2
DIMSTYLE
  5
A
100
AcDbSymbolTable
 70
     1
  0
DIMSTYLE
105
26C
100
AcDbSymbolTableRecord
100
AcDbDimStyleTableRecord
  2
STANDARD
 70
     0
  3

  4

  5

  6

  7

 40
1.0
 41
0.18
 42
0.0625
 43
0.38
 44
0.18
 45
0.0
 46
0.0
 47
0.0
 48
0.0
140
0.18
141
0.09
142
0.0
143
25.4
144
1.0
145
0.0
146
1.0
147
0.09
 71
     0
 72
     0
 73
     1
 74
     1
 75
     0
 76
     0
 77
     0
 78
     0
170
     0
171
     2
172
     0
173
     0
174
     0
175
     0
176
     0
177
     0
178
     0
270
     2
271
     4
272
     4
273
     2
274
     2
340
10
275
     0
280
     0
281
     0
282
     0
283
     1
284
     0
285
     0
286
     0
287
     3
288
     0
  0
ENDTAB
  0
TABLE
  2
BLOCK_RECORD
  5
1
100
AcDbSymbolTable
 70
     1
  0
BLOCK_RECORD
  5
18
100
AcDbSymbolTableRecord
100
AcDbBlockTableRecord
  2
*MODEL_SPACE
  0
BLOCK_RECORD
  5
15
100
AcDbSymbolTableRecord
100
AcDbBlockTableRecord
  2
*PAPER_SPACE
  0
BLOCK_RECORD
  5
1C
100
AcDbSymbolTableRecord
100
AcDbBlockTableRecord
  2
TEMP5
  0
ENDTAB
  0
ENDSEC
  0
SECTION
  2
BLOCKS
  0
BLOCK
  5
33
100
AcDbEntity
  8
0
100
AcDbBlockBegin
  2
*MODEL_SPACE
 70
     0
 10
0.0
 20
0.0
 30
0.0
  3
*MODEL_SPACE
  1

  0
ENDBLK
  5
34
100
AcDbEntity
  8
0
100
AcDbBlockEnd
  0
BLOCK
  5
31
100
AcDbEntity
 67
     1
  8
0
100
AcDbBlockBegin
  2
*PAPER_SPACE
 70
     0
 10
0.0
 20
0.0
 30
0.0
  3
*PAPER_SPACE
  1

  0
ENDBLK
  5
32
100
AcDbEntity
 67
     1
  8
0
100
AcDbBlockEnd
  0
BLOCK
  5
35
100
AcDbEntity
  8
0
100
AcDbBlockBegin
  2
TEMP5
 70
     0
 10
0.0
 20
0.0
 30
0.0
  3
TEMP5
  1

  0
TEXT
  5
36
100
AcDbEntity
  8
0
100
AcDbText
 10
-1.467738
 20
-0.190625
 30
0.0
 40
0.1
  1
INTERNAL ADDRESSES
 41
0.8
  7
ROMANS
 72
     4
 11
-0.8125
 21
-0.140625
 31
0.0
100
AcDbText
  0
TEXT
  5
37
100
AcDbEntity
  8
0
100
AcDbText
 10
-1.281071
 20
-0.35253
 30
0.0
 40
0.1
  1
LISTED BELOW 
 41
0.8
  7
ROMANS
 72
     4
 11
-0.8125
 21
-0.30253
 31
0.0
100
AcDbText
  0
ENDBLK
  5
38
100
AcDbEntity
  8
0
100
AcDbBlockEnd
  0
ENDSEC
  0
SECTION
  2
ENTITIES
  0
LINE
  5
3C
100
AcDbEntity
  8
0
100
AcDbLine
 10
8.328125
 20
14.3125
 30
0.0
 11
6.78125
 21
14.3125
 31
0.0
  0
LINE
  5
3D
100
AcDbEntity
  8
0
100
AcDbLine
 10
8.328125
 20
1.90625
 30
0.0
 11
8.328125
 21
14.3125
 31
0.0
  0
LINE
  5
3E
100
AcDbEntity
  8
DASH
100
AcDbLine
 10
6.78125
 20
1.90625
 30
0.0
 11
8.328125
 21
1.90625
 31
0.0
  0
LINE
  5
3F
100
AcDbEntity
  8
0
100
AcDbLine
 10
6.78125
 20
14.3125
 30
0.0
 11
6.78125
 21
1.90625
 31
0.0
  0
LINE
  5
40
100
AcDbEntity
  8
0
100
AcDbLine
 10
6.53125
 20
13.78125
 30
0.0
 11
6.53125
 21
13.53125
 31
0.0
  0
LINE
  5
41
100
AcDbEntity
  8
0
100
AcDbLine
 10
6.78125
 20
13.78125
 30
0.0
 11
6.53125
 21
13.78125
 31
0.0
  0
LINE
  5
42
100
AcDbEntity
  8
0
100
AcDbLine
 10
6.78125
 20
13.53125
 30
0.0
 11
6.53125
 21
13.53125
 31
0.0
  0
LINE
  5
43
100
AcDbEntity
  8
0
100
AcDbLine
 10
6.78125
 20
13.03125
 30
0.0
 11
6.53125
 21
13.03125
 31
0.0
  0
LINE
  5
44
100
AcDbEntity
  8
0
100
AcDbLine
 10
6.78125
 20
13.28125
 30
0.0
 11
6.53125
 21
13.28125
 31
0.0
  0
LINE
  5
45
100
AcDbEntity
  8
0
100
AcDbLine
 10
6.53125
 20
13.28125
 30
0.0
 11
6.53125
 21
13.03125
 31
0.0
  0
LINE
  5
46
100
AcDbEntity
  8
0
100
AcDbLine
 10
6.78125
 20
12.53125
 30
0.0
 11
6.53125
 21
12.53125
 31
0.0
  0
LINE
  5
47
100
AcDbEntity
  8
0
100
AcDbLine
 10
6.78125
 20
12.78125
 30
0.0
 11
6.53125
 21
12.78125
 31
0.0
  0
LINE
  5
48
100
AcDbEntity
  8
0
100
AcDbLine
 10
6.53125
 20
12.78125
 30
0.0
 11
6.53125
 21
12.53125
 31
0.0
  0
LINE
  5
49
100
AcDbEntity
  8
0
100
AcDbLine
 10
6.78125
 20
12.03125
 30
0.0
 11
6.53125
 21
12.03125
 31
0.0
  0
LINE
  5
4A
100
AcDbEntity
  8
0
100
AcDbLine
 10
6.78125
 20
12.28125
 30
0.0
 11
6.53125
 21
12.28125
 31
0.0
  0
LINE
  5
4B
100
AcDbEntity
  8
0
100
AcDbLine
 10
6.53125
 20
12.28125
 30
0.0
 11
6.53125
 21
12.03125
 31
0.0
  0
LINE
  5
4C
100
AcDbEntity
  8
0
100
AcDbLine
 10
6.78125
 20
11.53125
 30
0.0
 11
6.53125
 21
11.53125
 31
0.0
  0
LINE
  5
4D
100
AcDbEntity
  8
0
100
AcDbLine
 10
6.78125
 20
11.78125
 30
0.0
 11
6.53125
 21
11.78125
 31
0.0
  0
LINE
  5
4E
100
AcDbEntity
  8
0
100
AcDbLine
 10
6.53125
 20
11.78125
 30
0.0
 11
6.53125
 21
11.53125
 31
0.0
  0
LINE
  5
4F
100
AcDbEntity
  8
0
100
AcDbLine
 10
6.78125
 20
11.03125
 30
0.0
 11
6.53125
 21
11.03125
 31
0.0
  0
LINE
  5
50
100
AcDbEntity
  8
0
100
AcDbLine
 10
6.78125
 20
11.28125
 30
0.0
 11
6.53125
 21
11.28125
 31
0.0
  0
LINE
  5
51
100
AcDbEntity
  8
0
100
AcDbLine
 10
6.53125
 20
11.28125
 30
0.0
 11
6.53125
 21
11.03125
 31
0.0
  0
LINE
  5
52
100
AcDbEntity
  8
0
100
AcDbLine
 10
6.78125
 20
9.53125
 30
0.0
 11
6.53125
 21
9.53125
 31
0.0
  0
LINE
  5
53
100
AcDbEntity
  8
0
100
AcDbLine
 10
6.78125
 20
9.78125
 30
0.0
 11
6.53125
 21
9.78125
 31
0.0
  0
LINE
  5
54
100
AcDbEntity
  8
0
100
AcDbLine
 10
6.53125
 20
9.78125
 30
0.0
 11
6.53125
 21
9.53125
 31
0.0
  0
LINE
  5
55
100
AcDbEntity
  8
0
100
AcDbLine
 10
6.78125
 20
9.03125
 30
0.0
 11
6.53125
 21
9.03125
 31
0.0
  0
LINE
  5
56
100
AcDbEntity
  8
0
100
AcDbLine
 10
6.78125
 20
9.28125
 30
0.0
 11
6.53125
 21
9.28125
 31
0.0
  0
LINE
  5
57
100
AcDbEntity
  8
0
100
AcDbLine
 10
6.53125
 20
9.28125
 30
0.0
 11
6.53125
 21
9.03125
 31
0.0
  0
LINE
  5
58
100
AcDbEntity
  8
0
100
AcDbLine
 10
6.78125
 20
8.53125
 30
0.0
 11
6.53125
 21
8.53125
 31
0.0
  0
LINE
  5
59
100
AcDbEntity
  8
0
100
AcDbLine
 10
6.78125
 20
8.78125
 30
0.0
 11
6.53125
 21
8.78125
 31
0.0
  0
LINE
  5
5A
100
AcDbEntity
  8
0
100
AcDbLine
 10
6.53125
 20
8.78125
 30
0.0
 11
6.53125
 21
8.53125
 31
0.0
  0
LINE
  5
5B
100
AcDbEntity
  8
0
100
AcDbLine
 10
6.78125
 20
8.03125
 30
0.0
 11
6.53125
 21
8.03125
 31
0.0
  0
LINE
  5
5C
100
AcDbEntity
  8
0
100
AcDbLine
 10
6.78125
 20
8.28125
 30
0.0
 11
6.53125
 21
8.28125
 31
0.0
  0
LINE
  5
5D
100
AcDbEntity
  8
0
100
AcDbLine
 10
6.53125
 20
8.28125
 30
0.0
 11
6.53125
 21
8.03125
 31
0.0
  0
LINE
  5
5E
100
AcDbEntity
  8
0
100
AcDbLine
 10
6.78125
 20
7.53125
 30
0.0
 11
6.53125
 21
7.53125
 31
0.0
  0
LINE
  5
5F
100
AcDbEntity
  8
0
100
AcDbLine
 10
6.78125
 20
7.78125
 30
0.0
 11
6.53125
 21
7.78125
 31
0.0
  0
LINE
  5
60
100
AcDbEntity
  8
0
100
AcDbLine
 10
6.53125
 20
7.78125
 30
0.0
 11
6.53125
 21
7.53125
 31
0.0
  0
LINE
  5
61
100
AcDbEntity
  8
0
100
AcDbLine
 10
6.78125
 20
7.03125
 30
0.0
 11
6.53125
 21
7.03125
 31
0.0
  0
LINE
  5
62
100
AcDbEntity
  8
0
100
AcDbLine
 10
6.78125
 20
7.28125
 30
0.0
 11
6.53125
 21
7.28125
 31
0.0
  0
LINE
  5
63
100
AcDbEntity
  8
0
100
AcDbLine
 10
6.53125
 20
7.28125
 30
0.0
 11
6.53125
 21
7.03125
 31
0.0
  0
LINE
  5
64
100
AcDbEntity
  8
0
100
AcDbLine
 10
6.78125
 20
6.53125
 30
0.0
 11
6.53125
 21
6.53125
 31
0.0
  0
LINE
  5
65
100
AcDbEntity
  8
0
100
AcDbLine
 10
6.78125
 20
6.78125
 30
0.0
 11
6.53125
 21
6.78125
 31
0.0
  0
LINE
  5
66
100
AcDbEntity
  8
0
100
AcDbLine
 10
6.53125
 20
6.78125
 30
0.0
 11
6.53125
 21
6.53125
 31
0.0
  0
LINE
  5
67
100
AcDbEntity
  8
0
100
AcDbLine
 10
6.78125
 20
6.03125
 30
0.0
 11
6.53125
 21
6.03125
 31
0.0
  0
LINE
  5
68
100
AcDbEntity
  8
0
100
AcDbLine
 10
6.78125
 20
6.28125
 30
0.0
 11
6.53125
 21
6.28125
 31
0.0
  0
LINE
  5
69
100
AcDbEntity
  8
0
100
AcDbLine
 10
6.53125
 20
6.28125
 30
0.0
 11
6.53125
 21
6.03125
 31
0.0
  0
LINE
  5
6A
100
AcDbEntity
  8
0
100
AcDbLine
 10
6.78125
 20
5.53125
 30
0.0
 11
6.53125
 21
5.53125
 31
0.0
  0
LINE
  5
6B
100
AcDbEntity
  8
0
100
AcDbLine
 10
6.78125
 20
5.78125
 30
0.0
 11
6.53125
 21
5.78125
 31
0.0
  0
LINE
  5
6C
100
AcDbEntity
  8
0
100
AcDbLine
 10
6.53125
 20
5.78125
 30
0.0
 11
6.53125
 21
5.53125
 31
0.0
  0
LINE
  5
6D
100
AcDbEntity
  8
0
100
AcDbLine
 10
6.78125
 20
5.03125
 30
0.0
 11
6.53125
 21
5.03125
 31
0.0
  0
LINE
  5
6E
100
AcDbEntity
  8
0
100
AcDbLine
 10
6.78125
 20
5.28125
 30
0.0
 11
6.53125
 21
5.28125
 31
0.0
  0
LINE
  5
6F
100
AcDbEntity
  8
0
100
AcDbLine
 10
6.53125
 20
5.28125
 30
0.0
 11
6.53125
 21
5.03125
 31
0.0
  0
LINE
  5
70
100
AcDbEntity
  8
0
100
AcDbLine
 10
6.78125
 20
4.53125
 30
0.0
 11
6.53125
 21
4.53125
 31
0.0
  0
LINE
  5
71
100
AcDbEntity
  8
0
100
AcDbLine
 10
6.78125
 20
4.78125
 30
0.0
 11
6.53125
 21
4.78125
 31
0.0
  0
LINE
  5
72
100
AcDbEntity
  8
0
100
AcDbLine
 10
6.53125
 20
4.78125
 30
0.0
 11
6.53125
 21
4.53125
 31
0.0
  0
LINE
  5
73
100
AcDbEntity
  8
0
100
AcDbLine
 10
6.78125
 20
4.03125
 30
0.0
 11
6.53125
 21
4.03125
 31
0.0
  0
LINE
  5
74
100
AcDbEntity
  8
0
100
AcDbLine
 10
6.78125
 20
4.28125
 30
0.0
 11
6.53125
 21
4.28125
 31
0.0
  0
LINE
  5
75
100
AcDbEntity
  8
0
100
AcDbLine
 10
6.53125
 20
4.28125
 30
0.0
 11
6.53125
 21
4.03125
 31
0.0
  0
LINE
  5
76
100
AcDbEntity
  8
0
100
AcDbLine
 10
6.78125
 20
3.53125
 30
0.0
 11
6.53125
 21
3.53125
 31
0.0
  0
LINE
  5
77
100
AcDbEntity
  8
0
100
AcDbLine
 10
6.78125
 20
3.78125
 30
0.0
 11
6.53125
 21
3.78125
 31
0.0
  0
LINE
  5
78
100
AcDbEntity
  8
0
100
AcDbLine
 10
6.53125
 20
3.78125
 30
0.0
 11
6.53125
 21
3.53125
 31
0.0
  0
TEXT
  5
79
100
AcDbEntity
  8
TEXT
100
AcDbText
 10
6.615774
 20
13.59375
 30
0.0
 40
0.125
  1
1
 41
0.8
 51
10.0
  7
ROMANS
 72
     1
 11
6.65625
 21
13.59375
 31
0.0
100
AcDbText
  0
TEXT
  5
7A
100
AcDbEntity
  8
TEXT
100
AcDbText
 10
6.608631
 20
13.09375
 30
0.0
 40
0.125
  1
2
 41
0.8
 51
10.0
  7
ROMANS
 72
     1
 11
6.65625
 21
13.09375
 31
0.0
100
AcDbText
  0
TEXT
  5
7B
100
AcDbEntity
  8
TEXT
100
AcDbText
 10
6.608631
 20
12.59375
 30
0.0
 40
0.125
  1
3
 41
0.8
 51
10.0
  7
ROMANS
 72
     1
 11
6.65625
 21
12.59375
 31
0.0
100
AcDbText
  0
TEXT
  5
7C
100
AcDbEntity
  8
TEXT
100
AcDbText
 10
6.60625
 20
12.09375
 30
0.0
 40
0.125
  1
4
 41
0.8
 51
10.0
  7
ROMANS
 72
     1
 11
6.65625
 21
12.09375
 31
0.0
100
AcDbText
  0
TEXT
  5
7D
100
AcDbEntity
  8
TEXT
100
AcDbText
 10
6.608631
 20
11.59375
 30
0.0
 40
0.125
  1
5
 41
0.8
 51
10.0
  7
ROMANS
 72
     1
 11
6.65625
 21
11.59375
 31
0.0
100
AcDbText
  0
TEXT
  5
7E
100
AcDbEntity
  8
TEXT
100
AcDbText
 10
6.60625
 20
11.09375
 30
0.0
 40
0.125
  1
6
 41
0.8
 51
10.0
  7
ROMANS
 72
     1
 11
6.65625
 21
11.09375
 31
0.0
100
AcDbText
  0
TEXT
  5
7F
100
AcDbEntity
  8
TEXT
100
AcDbText
 10
6.611012
 20
9.59375
 30
0.0
 40
0.125
  1
9
 41
0.8
 51
10.0
  7
ROMANS
 72
     1
 11
6.65625
 21
9.59375
 31
0.0
100
AcDbText
  0
TEXT
  5
80
100
AcDbEntity
  8
TEXT
100
AcDbText
 10
6.553869
 20
9.09375
 30
0.0
 40
0.125
  1
10
 41
0.8
 51
10.0
  7
ROMANS
 72
     1
 11
6.65625
 21
9.09375
 31
0.0
100
AcDbText
  0
TEXT
  5
81
100
AcDbEntity
  8
TEXT
100
AcDbText
 10
6.568155
 20
8.59375
 30
0.0
 40
0.125
  1
11
 41
0.8
 51
10.0
  7
ROMANS
 72
     1
 11
6.65625
 21
8.59375
 31
0.0
100
AcDbText
  0
TEXT
  5
82
100
AcDbEntity
  8
TEXT
100
AcDbText
 10
6.553869
 20
8.09375
 30
0.0
 40
0.125
  1
12
 41
0.8
 51
10.0
  7
ROMANS
 72
     1
 11
6.65625
 21
8.09375
 31
0.0
100
AcDbText
  0
TEXT
  5
83
100
AcDbEntity
  8
TEXT
100
AcDbText
 10
6.553869
 20
7.59375
 30
0.0
 40
0.125
  1
13
 41
0.8
 51
10.0
  7
ROMANS
 72
     1
 11
6.65625
 21
7.59375
 31
0.0
100
AcDbText
  0
TEXT
  5
84
100
AcDbEntity
  8
TEXT
100
AcDbText
 10
6.551488
 20
7.09375
 30
0.0
 40
0.125
  1
14
 41
0.8
 51
10.0
  7
ROMANS
 72
     1
 11
6.65625
 21
7.09375
 31
0.0
100
AcDbText
  0
TEXT
  5
85
100
AcDbEntity
  8
TEXT
100
AcDbText
 10
6.553869
 20
6.59375
 30
0.0
 40
0.125
  1
15
 41
0.8
 51
10.0
  7
ROMANS
 72
     1
 11
6.65625
 21
6.59375
 31
0.0
100
AcDbText
  0
TEXT
  5
86
100
AcDbEntity
  8
TEXT
100
AcDbText
 10
6.553869
 20
6.09375
 30
0.0
 40
0.125
  1
16
 41
0.8
 51
10.0
  7
ROMANS
 72
     1
 11
6.65625
 21
6.09375
 31
0.0
100
AcDbText
  0
TEXT
  5
87
100
AcDbEntity
  8
TEXT
100
AcDbText
 10
6.553869
 20
5.59375
 30
0.0
 40
0.125
  1
17
 41
0.8
 51
10.0
  7
ROMANS
 72
     1
 11
6.65625
 21
5.59375
 31
0.0
100
AcDbText
  0
TEXT
  5
88
100
AcDbEntity
  8
TEXT
100
AcDbText
 10
6.553869
 20
5.09375
 30
0.0
 40
0.125
  1
18
 41
0.8
 51
10.0
  7
ROMANS
 72
     1
 11
6.65625
 21
5.09375
 31
0.0
100
AcDbText
  0
TEXT
  5
89
100
AcDbEntity
  8
TEXT
100
AcDbText
 10
6.55625
 20
4.59375
 30
0.0
 40
0.125
  1
19
 41
0.8
 51
10.0
  7
ROMANS
 72
     1
 11
6.65625
 21
4.59375
 31
0.0
100
AcDbText
  0
TEXT
  5
8A
100
AcDbEntity
  8
TEXT
100
AcDbText
 10
6.561012
 20
4.09375
 30
0.0
 40
0.125
  1
20
 41
0.8
 51
10.0
  7
ROMANS
 72
     1
 11
6.65625
 21
4.09375
 31
0.0
100
AcDbText
  0
TEXT
  5
8B
100
AcDbEntity
  8
TEXT
100
AcDbText
 10
6.575298
 20
3.59375
 30
0.0
 40
0.125
  1
21
 41
0.8
 51
10.0
  7
ROMANS
 72
     1
 11
6.65625
 21
3.59375
 31
0.0
100
AcDbText
  0
TEXT
  5
8C
100
AcDbEntity
  8
TEXT
100
AcDbText
 10
6.84375
 20
12.59375
 30
0.0
 40
0.125
  1
DCIN2
 41
0.8
 51
10.0
  7
ROMANS
100
AcDbText
  0
TEXT
  5
8D
100
AcDbEntity
  8
TEXT
100
AcDbText
 10
6.84375
 20
12.09375
 30
0.0
 40
0.125
  1
DCIN3
 41
0.8
 51
10.0
  7
ROMANS
100
AcDbText
  0
LINE
  5
90
100
AcDbEntity
  8
0
100
AcDbLine
 10
6.53125
 20
12.15625
 30
0.0
 11
5.78125
 21
12.15625
 31
0.0
  0
LINE
  5
91
100
AcDbEntity
  8
0
100
AcDbLine
 10
6.53125
 20
11.65625
 30
0.0
 11
5.78125
 21
11.65625
 31
0.0
  0
LINE
  5
93
100
AcDbEntity
  8
0
100
AcDbLine
 10
6.53125
 20
11.15625
 30
0.0
 11
5.78125
 21
11.15625
 31
0.0
  0
LINE
  5
95
100
AcDbEntity
  8
0
100
AcDbLine
 10
6.53125
 20
9.65625
 30
0.0
 11
5.78125
 21
9.65625
 31
0.0
  0
LINE
  5
96
100
AcDbEntity
  8
0
100
AcDbLine
 10
6.53125
 20
9.15625
 30
0.0
 11
5.78125
 21
9.15625
 31
0.0
  0
LINE
  5
97
100
AcDbEntity
  8
0
100
AcDbLine
 10
6.53125
 20
8.15625
 30
0.0
 11
5.78125
 21
8.15625
 31
0.0
  0
LINE
  5
98
100
AcDbEntity
  8
0
100
AcDbLine
 10
6.53125
 20
7.65625
 30
0.0
 11
5.78125
 21
7.65625
 31
0.0
  0
LINE
  5
9A
100
AcDbEntity
  8
0
100
AcDbLine
 10
6.53125
 20
6.15625
 30
0.0
 11
5.78125
 21
6.15625
 31
0.0
  0
LINE
  5
9B
100
AcDbEntity
  8
0
100
AcDbLine
 10
6.53125
 20
5.65625
 30
0.0
 11
5.78125
 21
5.65625
 31
0.0
  0
LINE
  5
9C
100
AcDbEntity
  8
0
100
AcDbLine
 10
6.53125
 20
5.15625
 30
0.0
 11
5.78125
 21
5.15625
 31
0.0
  0
LINE
  5
9D
100
AcDbEntity
  8
0
100
AcDbLine
 10
6.53125
 20
4.65625
 30
0.0
 11
5.78125
 21
4.65625
 31
0.0
  0
LINE
  5
9E
100
AcDbEntity
  8
0
100
AcDbLine
 10
1.84375
 20
13.5625
 30
0.0
 11
1.84375
 21
4.75
 31
0.0
  0
TEXT
  5
9F
100
AcDbEntity
  8
TEXT
100
AcDbText
 10
8.4375
 20
13.09375
 30
0.0
 40
0.125
  1
*
 41
0.8
 51
10.0
  7
ROMANS
100
AcDbText
  0
TEXT
  5
A0
100
AcDbEntity
  8
TEXT
100
AcDbText
 10
7.066964
 20
14.758929
 30
0.0
 40
0.125
  1
CARD #--A
 41
0.8
  7
ROMANS
 72
     4
 11
7.53125
 21
14.8125
 31
0.0
100
AcDbText
  0
TEXT
  5
A1
100
AcDbEntity
  8
TEXT
100
AcDbText
 10
7.026488
 20
14.547619
 30
0.0
 40
0.125
  1
24VDC INPUT
 41
0.8
  7
ROMANS
 72
     4
 11
7.53125
 21
14.610119
 31
0.0
100
AcDbText
  0
TEXT
  5
A2
100
AcDbEntity
  8
TEXT
100
AcDbText
 10
6.93125
 20
14.345238
 30
0.0
 40
0.125
  1
502-03605-00
 41
0.8
  7
ROMANS
 72
     4
 11
7.53125
 21
14.407738
 31
0.0
100
AcDbText
  0
INSERT
  5
EE
100
AcDbEntity
  8
TEXT
100
AcDbBlockReference
  2
TEMP5
 10
8.34375
 20
14.3125
 30
0.0
  0
LINE
  5
106
100
AcDbEntity
  8
0
100
AcDbLine
 10
2.453125
 20
13.890625
 30
0.0
 11
3.390625
 21
13.890625
 31
0.0
  0
LINE
  5
107
100
AcDbEntity
  8
0
100
AcDbLine
 10
2.453125
 20
14.171875
 30
0.0
 11
3.390625
 21
14.171875
 31
0.0
  0
LINE
  5
108
100
AcDbEntity
  8
0
100
AcDbLine
 10
2.453125
 20
14.171875
 30
0.0
 11
2.453125
 21
13.890625
 31
0.0
  0
LINE
  5
109
100
AcDbEntity
  8
0
100
AcDbLine
 10
3.390625
 20
14.171875
 30
0.0
 11
3.390625
 21
13.890625
 31
0.0
  0
TEXT
  5
10A
100
AcDbEntity
  8
TEXT
100
AcDbText
 10
2.515625
 20
13.953125
 30
0.0
 40
0.0625
  1
From Sheet #--
100
AcDbText
  0
TEXT
  5
10B
100
AcDbEntity
  8
TEXT
100
AcDbText
 10
2.515625
 20
14.046875
 30
0.0
 40
0.0625
  1
+24 VDC
100
AcDbText
  0
LINE
  5
10C
100
AcDbEntity
  8
0
100
AcDbLine
 10
2.453125
 20
14.03125
 30
0.0
 11
2.3125
 21
14.03125
 31
0.0
  0
LINE
  5
10D
100
AcDbEntity
  8
0
100
AcDbLine
 10
2.3125
 20
14.03125
 30
0.0
 11
2.114114
 21
13.832864
 31
0.0
  0
LINE
  5
10E
100
AcDbEntity
  8
0
100
AcDbLine
 10
2.091807
 20
13.855082
 30
0.0
 11
2.13609
 21
13.810976
 31
0.0
  0
LINE
  5
10F
100
AcDbEntity
  8
0
100
AcDbLine
 10
2.13609
 20
13.810976
 30
0.0
 11
2.03125
 21
13.75
 31
0.0
  0
LINE
  5
110
100
AcDbEntity
  8
0
100
AcDbLine
 10
2.03125
 20
13.75
 30
0.0
 11
2.091807
 21
13.855082
 31
0.0
  0
TEXT
  5
111
100
AcDbEntity
  8
TEXT
100
AcDbText
 10
6.84375
 20
13.09375
 30
0.0
 40
0.125
  1
DCIN1
 41
0.8
 51
10.0
  7
ROMANS
100
AcDbText
  0
LINE
  5
117
100
AcDbEntity
  8
0
100
AcDbLine
 10
6.53125
 20
13.15625
 30
0.0
 11
5.78125
 21
13.15625
 31
0.0
  0
TEXT
  5
118
100
AcDbEntity
  8
TEXT
100
AcDbText
 10
6.84375
 20
11.59375
 30
0.0
 40
0.125
  1
DCIN4
 41
0.8
 51
10.0
  7
ROMANS
100
AcDbText
  0
TEXT
  5
119
100
AcDbEntity
  8
TEXT
100
AcDbText
 10
6.84375
 20
11.09375
 30
0.0
 40
0.125
  1
DCIN5
 41
0.8
 51
10.0
  7
ROMANS
100
AcDbText
  0
TEXT
  5
11A
100
AcDbEntity
  8
TEXT
100
AcDbText
 10
8.4375
 20
12.59375
 30
0.0
 40
0.125
  1
*
 41
0.8
 51
10.0
  7
ROMANS
100
AcDbText
  0
TEXT
  5
11B
100
AcDbEntity
  8
TEXT
100
AcDbText
 10
8.4375
 20
12.09375
 30
0.0
 40
0.125
  1
*
 41
0.8
 51
10.0
  7
ROMANS
100
AcDbText
  0
TEXT
  5
11C
100
AcDbEntity
  8
TEXT
100
AcDbText
 10
8.4375
 20
11.59375
 30
0.0
 40
0.125
  1
*
 41
0.8
 51
10.0
  7
ROMANS
100
AcDbText
  0
TEXT
  5
129
100
AcDbEntity
  8
TEXT
100
AcDbText
 10
0.953125
 20
12.59375
 30
0.0
 40
0.125
  1
*
 41
0.8
 51
10.0
  7
ROMANS
100
AcDbText
  0
TEXT
  5
12A
100
AcDbEntity
  8
TEXT
100
AcDbText
 10
0.953125
 20
13.09375
 30
0.0
 40
0.125
  1
*
 41
0.8
 51
10.0
  7
ROMANS
100
AcDbText
  0
LINE
  5
135
100
AcDbEntity
  8
0
100
AcDbLine
 10
6.53125
 20
10.15625
 30
0.0
 11
5.78125
 21
10.15625
 31
0.0
  0
LINE
  5
136
100
AcDbEntity
  8
0
100
AcDbLine
 10
6.53125
 20
10.65625
 30
0.0
 11
5.78125
 21
10.65625
 31
0.0
  0
TEXT
  5
141
100
AcDbEntity
  8
TEXT
100
AcDbText
 10
6.84375
 20
10.09375
 30
0.0
 40
0.125
  1
DCIN7
 41
0.8
 51
10.0
  7
ROMANS
100
AcDbText
  0
TEXT
  5
142
100
AcDbEntity
  8
TEXT
100
AcDbText
 10
6.84375
 20
10.59375
 30
0.0
 40
0.125
  1
DCIN6
 41
0.8
 51
10.0
  7
ROMANS
100
AcDbText
  0
TEXT
  5
143
100
AcDbEntity
  8
TEXT
100
AcDbText
 10
6.608631
 20
10.09375
 30
0.0
 40
0.125
  1
8
 41
0.8
 51
10.0
  7
ROMANS
 72
     1
 11
6.65625
 21
10.09375
 31
0.0
100
AcDbText
  0
LINE
  5
144
100
AcDbEntity
  8
0
100
AcDbLine
 10
6.53125
 20
10.28125
 30
0.0
 11
6.53125
 21
10.03125
 31
0.0
  0
LINE
  5
145
100
AcDbEntity
  8
0
100
AcDbLine
 10
6.78125
 20
10.03125
 30
0.0
 11
6.53125
 21
10.03125
 31
0.0
  0
LINE
  5
146
100
AcDbEntity
  8
0
100
AcDbLine
 10
6.78125
 20
10.28125
 30
0.0
 11
6.53125
 21
10.28125
 31
0.0
  0
LINE
  5
147
100
AcDbEntity
  8
0
100
AcDbLine
 10
6.78125
 20
10.78125
 30
0.0
 11
6.53125
 21
10.78125
 31
0.0
  0
LINE
  5
148
100
AcDbEntity
  8
0
100
AcDbLine
 10
6.78125
 20
10.53125
 30
0.0
 11
6.53125
 21
10.53125
 31
0.0
  0
LINE
  5
149
100
AcDbEntity
  8
0
100
AcDbLine
 10
6.53125
 20
10.78125
 30
0.0
 11
6.53125
 21
10.53125
 31
0.0
  0
TEXT
  5
14A
100
AcDbEntity
  8
TEXT
100
AcDbText
 10
6.608631
 20
10.59375
 30
0.0
 40
0.125
  1
7
 41
0.8
 51
10.0
  7
ROMANS
 72
     1
 11
6.65625
 21
10.59375
 31
0.0
100
AcDbText
  0
TEXT
  5
14C
100
AcDbEntity
  8
TEXT
100
AcDbText
 10
8.4375
 20
11.09375
 30
0.0
 40
0.125
  1
*
 41
0.8
 51
10.0
  7
ROMANS
100
AcDbText
  0
LINE
  5
14D
100
AcDbEntity
  8
0
100
AcDbLine
 10
6.53125
 20
7.15625
 30
0.0
 11
5.78125
 21
7.15625
 31
0.0
  0
LINE
  5
14E
100
AcDbEntity
  8
0
100
AcDbLine
 10
6.53125
 20
4.15625
 30
0.0
 11
5.78125
 21
4.15625
 31
0.0
  0
TEXT
  5
14F
100
AcDbEntity
  8
TEXT
100
AcDbText
 10
6.84375
 20
7.09375
 30
0.0
 40
0.125
  1
DCIN11
 41
0.8
 51
10.0
  7
ROMANS
100
AcDbText
  0
TEXT
  5
150
100
AcDbEntity
  8
TEXT
100
AcDbText
 10
6.84375
 20
7.59375
 30
0.0
 40
0.125
  1
DCIN10
 41
0.8
 51
10.0
  7
ROMANS
100
AcDbText
  0
TEXT
  5
151
100
AcDbEntity
  8
TEXT
100
AcDbText
 10
6.84375
 20
8.09375
 30
0.0
 40
0.125
  1
DCIN9
 41
0.8
 51
10.0
  7
ROMANS
100
AcDbText
  0
TEXT
  5
152
100
AcDbEntity
  8
TEXT
100
AcDbText
 10
6.84375
 20
9.09375
 30
0.0
 40
0.125
  1
DCSS1
 41
0.8
 51
10.0
  7
ROMANS
100
AcDbText
  0
TEXT
  5
153
100
AcDbEntity
  8
TEXT
100
AcDbText
 10
6.84375
 20
9.59375
 30
0.0
 40
0.125
  1
DCIN8
 41
0.8
 51
10.0
  7
ROMANS
100
AcDbText
  0
TEXT
  5
154
100
AcDbEntity
  8
TEXT
100
AcDbText
 10
8.4375
 20
8.09375
 30
0.0
 40
0.125
  1
*
 41
0.8
 51
10.0
  7
ROMANS
100
AcDbText
  0
TEXT
  5
155
100
AcDbEntity
  8
TEXT
100
AcDbText
 10
8.4375
 20
9.59375
 30
0.0
 40
0.125
  1
*
 41
0.8
 51
10.0
  7
ROMANS
100
AcDbText
  0
TEXT
  5
156
100
AcDbEntity
  8
TEXT
100
AcDbText
 10
8.4375
 20
10.09375
 30
0.0
 40
0.125
  1
*
 41
0.8
 51
10.0
  7
ROMANS
100
AcDbText
  0
TEXT
  5
17F
100
AcDbEntity
  8
TEXT
100
AcDbText
 10
6.84375
 20
4.59375
 30
0.0
 40
0.125
  1
DCIN16
 41
0.8
 51
10.0
  7
ROMANS
100
AcDbText
  0
TEXT
  5
180
100
AcDbEntity
  8
TEXT
100
AcDbText
 10
6.84375
 20
4.09375
 30
0.0
 40
0.125
  1
DCSS2
 41
0.8
 51
10.0
  7
ROMANS
100
AcDbText
  0
TEXT
  5
182
100
AcDbEntity
  8
TEXT
100
AcDbText
 10
8.4375
 20
5.59375
 30
0.0
 40
0.125
  1
*
 41
0.8
 51
10.0
  7
ROMANS
100
AcDbText
  0
TEXT
  5
183
100
AcDbEntity
  8
TEXT
100
AcDbText
 10
6.84375
 20
5.59375
 30
0.0
 40
0.125
  1
DCIN14
 41
0.8
 51
10.0
  7
ROMANS
100
AcDbText
  0
TEXT
  5
184
100
AcDbEntity
  8
TEXT
100
AcDbText
 10
6.84375
 20
5.09375
 30
0.0
 40
0.125
  1
DCIN15
 41
0.8
 51
10.0
  7
ROMANS
100
AcDbText
  0
TEXT
  5
185
100
AcDbEntity
  8
TEXT
100
AcDbText
 10
6.84375
 20
6.09375
 30
0.0
 40
0.125
  1
DCIN13
 41
0.8
 51
10.0
  7
ROMANS
100
AcDbText
  0
TEXT
  5
186
100
AcDbEntity
  8
TEXT
100
AcDbText
 10
6.84375
 20
6.59375
 30
0.0
 40
0.125
  1
DCIN12
 41
0.8
 51
10.0
  7
ROMANS
100
AcDbText
  0
TEXT
  5
187
100
AcDbEntity
  8
TEXT
100
AcDbText
 10
8.4375
 20
6.09375
 30
0.0
 40
0.125
  1
*
 41
0.8
 51
10.0
  7
ROMANS
100
AcDbText
  0
TEXT
  5
188
100
AcDbEntity
  8
TEXT
100
AcDbText
 10
8.4375
 20
6.59375
 30
0.0
 40
0.125
  1
*
 41
0.8
 51
10.0
  7
ROMANS
100
AcDbText
  0
TEXT
  5
189
100
AcDbEntity
  8
TEXT
100
AcDbText
 10
8.4375
 20
7.09375
 30
0.0
 40
0.125
  1
*
 41
0.8
 51
10.0
  7
ROMANS
100
AcDbText
  0
TEXT
  5
18A
100
AcDbEntity
  8
TEXT
100
AcDbText
 10
8.4375
 20
7.59375
 30
0.0
 40
0.125
  1
*
 41
0.8
 51
10.0
  7
ROMANS
100
AcDbText
  0
TEXT
  5
18C
100
AcDbEntity
  8
TEXT
100
AcDbText
 10
0.953125
 20
5.09375
 30
0.0
 40
0.125
  1
*
 41
0.8
 51
10.0
  7
ROMANS
100
AcDbText
  0
TEXT
  5
18D
100
AcDbEntity
  8
TEXT
100
AcDbText
 10
0.953125
 20
5.59375
 30
0.0
 40
0.125
  1
*
 41
0.8
 51
10.0
  7
ROMANS
100
AcDbText
  0
TEXT
  5
1A3
100
AcDbEntity
  8
TEXT
100
AcDbText
 10
0.953125
 20
6.09375
 30
0.0
 40
0.125
  1
*
 41
0.8
 51
10.0
  7
ROMANS
100
AcDbText
  0
TEXT
  5
1D0
100
AcDbEntity
  8
TEXT
100
AcDbText
 10
0.953125
 20
11.59375
 30
0.0
 40
0.125
  1
*
 41
0.8
 51
10.0
  7
ROMANS
100
AcDbText
  0
TEXT
  5
1D1
100
AcDbEntity
  8
TEXT
100
AcDbText
 10
0.953125
 20
10.59375
 30
0.0
 40
0.125
  1
*
 41
0.8
 51
10.0
  7
ROMANS
100
AcDbText
  0
TEXT
  5
1D2
100
AcDbEntity
  8
TEXT
100
AcDbText
 10
0.953125
 20
11.09375
 30
0.0
 40
0.125
  1
*
 41
0.8
 51
10.0
  7
ROMANS
100
AcDbText
  0
TEXT
  5
1D3
100
AcDbEntity
  8
TEXT
100
AcDbText
 10
0.953125
 20
9.59375
 30
0.0
 40
0.125
  1
*
 41
0.8
 51
10.0
  7
ROMANS
100
AcDbText
  0
TEXT
  5
1D4
100
AcDbEntity
  8
TEXT
100
AcDbText
 10
0.953125
 20
10.09375
 30
0.0
 40
0.125
  1
*
 41
0.8
 51
10.0
  7
ROMANS
100
AcDbText
  0
TEXT
  5
1F2
100
AcDbEntity
  8
TEXT
100
AcDbText
 10
0.953125
 20
7.59375
 30
0.0
 40
0.125
  1
*
 41
0.8
 51
10.0
  7
ROMANS
100
AcDbText
  0
TEXT
  5
1F3
100
AcDbEntity
  8
TEXT
100
AcDbText
 10
0.953125
 20
7.09375
 30
0.0
 40
0.125
  1
*
 41
0.8
 51
10.0
  7
ROMANS
100
AcDbText
  0
TEXT
  5
1F4
100
AcDbEntity
  8
TEXT
100
AcDbText
 10
0.953125
 20
8.09375
 30
0.0
 40
0.125
  1
*
 41
0.8
 51
10.0
  7
ROMANS
100
AcDbText
  0
TEXT
  5
215
100
AcDbEntity
  8
TEXT
100
AcDbText
 10
8.4375
 20
9.09375
 30
0.0
 40
0.125
  1
DC Common
 41
0.8
 51
10.0
  7
ROMANS
100
AcDbText
  0
TEXT
  5
217
100
AcDbEntity
  8
TEXT
100
AcDbText
 10
8.4375
 20
4.09375
 30
0.0
 40
0.125
  1
DC Common
 41
0.8
 51
10.0
  7
ROMANS
100
AcDbText
  0
TEXT
  5
21D
100
AcDbEntity
  8
TEXT
100
AcDbText
 10
7.640625
 20
13.09375
 30
0.0
 40
0.125
  1
I-.-.1
 41
0.8
 51
10.0
  7
ROMANS
100
AcDbText
  0
TEXT
  5
21E
100
AcDbEntity
  8
TEXT
100
AcDbText
 10
7.640625
 20
12.59375
 30
0.0
 40
0.125
  1
I-.-.2
 41
0.8
 51
10.0
  7
ROMANS
100
AcDbText
  0
TEXT
  5
21F
100
AcDbEntity
  8
TEXT
100
AcDbText
 10
7.640625
 20
12.09375
 30
0.0
 40
0.125
  1
I-.-.3
 41
0.8
 51
10.0
  7
ROMANS
100
AcDbText
  0
TEXT
  5
220
100
AcDbEntity
  8
TEXT
100
AcDbText
 10
7.640625
 20
11.59375
 30
0.0
 40
0.125
  1
I-.-.4
 41
0.8
 51
10.0
  7
ROMANS
100
AcDbText
  0
TEXT
  5
221
100
AcDbEntity
  8
TEXT
100
AcDbText
 10
7.640625
 20
11.09375
 30
0.0
 40
0.125
  1
I-.-.5
 41
0.8
 51
10.0
  7
ROMANS
100
AcDbText
  0
TEXT
  5
222
100
AcDbEntity
  8
TEXT
100
AcDbText
 10
7.640625
 20
10.59375
 30
0.0
 40
0.125
  1
I-.-.6
 41
0.8
 51
10.0
  7
ROMANS
100
AcDbText
  0
TEXT
  5
223
100
AcDbEntity
  8
TEXT
100
AcDbText
 10
7.640625
 20
10.09375
 30
0.0
 40
0.125
  1
I-.-.7
 41
0.8
 51
10.0
  7
ROMANS
100
AcDbText
  0
TEXT
  5
224
100
AcDbEntity
  8
TEXT
100
AcDbText
 10
7.640625
 20
9.59375
 30
0.0
 40
0.125
  1
I-.-.8
 41
0.8
 51
10.0
  7
ROMANS
100
AcDbText
  0
TEXT
  5
225
100
AcDbEntity
  8
TEXT
100
AcDbText
 10
7.640625
 20
4.59375
 30
0.0
 40
0.125
  1
I-.-.16
 41
0.8
 51
10.0
  7
ROMANS
100
AcDbText
  0
TEXT
  5
226
100
AcDbEntity
  8
TEXT
100
AcDbText
 10
7.640625
 20
5.09375
 30
0.0
 40
0.125
  1
I-.-.15
 41
0.8
 51
10.0
  7
ROMANS
100
AcDbText
  0
TEXT
  5
227
100
AcDbEntity
  8
TEXT
100
AcDbText
 10
7.640625
 20
6.09375
 30
0.0
 40
0.125
  1
I-.-.13
 41
0.8
 51
10.0
  7
ROMANS
100
AcDbText
  0
TEXT
  5
228
100
AcDbEntity
  8
TEXT
100
AcDbText
 10
7.640625
 20
5.59375
 30
0.0
 40
0.125
  1
I-.-.14
 41
0.8
 51
10.0
  7
ROMANS
100
AcDbText
  0
TEXT
  5
229
100
AcDbEntity
  8
TEXT
100
AcDbText
 10
7.640625
 20
6.59375
 30
0.0
 40
0.125
  1
I-.-.12
 41
0.8
 51
10.0
  7
ROMANS
100
AcDbText
  0
TEXT
  5
22A
100
AcDbEntity
  8
TEXT
100
AcDbText
 10
7.640625
 20
7.09375
 30
0.0
 40
0.125
  1
I-.-.11
 41
0.8
 51
10.0
  7
ROMANS
100
AcDbText
  0
TEXT
  5
22B
100
AcDbEntity
  8
TEXT
100
AcDbText
 10
7.640625
 20
7.59375
 30
0.0
 40
0.125
  1
I-.-.10
 41
0.8
 51
10.0
  7
ROMANS
100
AcDbText
  0
TEXT
  5
22C
100
AcDbEntity
  8
TEXT
100
AcDbText
 10
7.640625
 20
8.09375
 30
0.0
 40
0.125
  1
I-.-.9
 41
0.8
 51
10.0
  7
ROMANS
100
AcDbText
  0
TEXT
  5
242
100
AcDbEntity
  8
TEXT
100
AcDbText
 10
0.953125
 20
4.59375
 30
0.0
 40
0.125
  1
*
 41
0.8
 51
10.0
  7
ROMANS
100
AcDbText
  0
TEXT
  5
255
100
AcDbEntity
  8
TEXT
100
AcDbText
 10
0.953125
 20
12.09375
 30
0.0
 40
0.125
  1
*
 41
0.8
 51
10.0
  7
ROMANS
100
AcDbText
  0
TEXT
  5
26B
100
AcDbEntity
  8
TEXT
100
AcDbText
 10
0.953125
 20
6.59375
 30
0.0
 40
0.125
  1
*
 41
0.8
 51
10.0
  7
ROMANS
100
AcDbText
  0
TEXT
  5
2EF
100
AcDbEntity
  8
0
100
AcDbText
 10
19.525
 20
8.125
 30
0.0
 40
0.1
  1

 72
     1
 11
19.525
 21
8.125
 31
0.0
100
AcDbText
  0
TEXT
  5
2F0
100
AcDbEntity
  8
0
100
AcDbText
 10
25.674038
 20
4.985375
 30
0.0
 40
0.075
  1

100
AcDbText
  0
TEXT
  5
2F1
100
AcDbEntity
  8
0
100
AcDbText
 10
25.326331
 20
4.985375
 30
0.0
 40
0.075
  1

100
AcDbText
  0
TEXT
  5
2F2
100
AcDbEntity
  8
0
100
AcDbText
 10
25.235205
 20
14.51631
 30
0.0
 40
0.1
  1

 72
     1
 11
25.235205
 21
14.51631
 31
0.0
100
AcDbText
  0
TEXT
  5
2F3
100
AcDbEntity
  8
0
100
AcDbText
 10
31.384243
 20
11.376685
 30
0.0
 40
0.075
  1

100
AcDbText
  0
TEXT
  5
2F4
100
AcDbEntity
  8
0
100
AcDbText
 10
31.036536
 20
11.376685
 30
0.0
 40
0.075
  1

100
AcDbText
  0
TEXT
  5
2F5
100
AcDbEntity
  8
0
100
AcDbText
 10
31.1135
 20
8.158375
 30
0.0
 40
0.1
  1

 72
     1
 11
31.1135
 21
8.158375
 31
0.0
100
AcDbText
  0
TEXT
  5
2F6
100
AcDbEntity
  8
0
100
AcDbText
 10
37.262538
 20
5.01875
 30
0.0
 40
0.075
  1

100
AcDbText
  0
TEXT
  5
2F7
100
AcDbEntity
  8
0
100
AcDbText
 10
36.914831
 20
5.01875
 30
0.0
 40
0.075
  1

100
AcDbText
  0
TEXT
  5
2F8
100
AcDbEntity
  8
0
100
AcDbText
 10
36.823705
 20
14.549685
 30
0.0
 40
0.1
  1

 72
     1
 11
36.823705
 21
14.549685
 31
0.0
100
AcDbText
  0
TEXT
  5
2F9
100
AcDbEntity
  8
0
100
AcDbText
 10
42.972743
 20
11.41006
 30
0.0
 40
0.075
  1

100
AcDbText
  0
TEXT
  5
2FA
100
AcDbEntity
  8
0
100
AcDbText
 10
42.625036
 20
11.41006
 30
0.0
 40
0.075
  1

100
AcDbText
  0
TEXT
  5
2FB
100
AcDbEntity
  8
0
100
AcDbText
 10
23.505358
 20
14.985613
 30
0.0
 40
0.075
  1

 72
     1
 11
23.505358
 21
14.985613
 31
0.0
100
AcDbText
  0
TEXT
  5
2FC
100
AcDbEntity
  8
0
100
AcDbText
 10
23.505358
 20
14.485613
 30
0.0
 40
0.075
  1

 72
     1
 11
23.505358
 21
14.485613
 31
0.0
100
AcDbText
  0
TEXT
  5
2FD
100
AcDbEntity
  8
0
100
AcDbText
 10
23.505358
 20
13.985613
 30
0.0
 40
0.1
  1

 72
     1
 11
23.505358
 21
13.985613
 31
0.0
100
AcDbText
  0
TEXT
  5
2FE
100
AcDbEntity
  8
0
100
AcDbText
 10
23.317858
 20
7.985613
 30
0.0
 40
0.1
  1

100
AcDbText
  0
TEXT
  5
2FF
100
AcDbEntity
  8
0
100
AcDbText
 10
23.317858
 20
13.485613
 30
0.0
 40
0.1
  1

100
AcDbText
  0
TEXT
  5
300
100
AcDbEntity
  8
0
100
AcDbText
 10
33.831491
 20
14.985613
 30
0.0
 40
0.075
  1

 72
     1
 11
33.831491
 21
14.985613
 31
0.0
100
AcDbText
  0
TEXT
  5
301
100
AcDbEntity
  8
0
100
AcDbText
 10
33.831491
 20
14.485613
 30
0.0
 40
0.075
  1

 72
     1
 11
33.831491
 21
14.485613
 31
0.0
100
AcDbText
  0
TEXT
  5
302
100
AcDbEntity
  8
0
100
AcDbText
 10
33.831491
 20
13.985613
 30
0.0
 40
0.1
  1

 72
     1
 11
33.831491
 21
13.985613
 31
0.0
100
AcDbText
  0
TEXT
  5
303
100
AcDbEntity
  8
0
100
AcDbText
 10
33.643991
 20
7.985613
 30
0.0
 40
0.1
  1

100
AcDbText
  0
TEXT
  5
304
100
AcDbEntity
  8
0
100
AcDbText
 10
33.643991
 20
13.485613
 30
0.0
 40
0.1
  1

100
AcDbText
  0
LINE
  5
339
100
AcDbEntity
  8
0
100
AcDbLine
 10
6.53125
 20
6.65625
 30
0.0
 11
5.78125
 21
6.65625
 31
0.0
  0
TEXT
  5
43A
100
AcDbEntity
  8
0
100
AcDbText
 10
25.30625
 20
11.78125
 30
0.0
 40
0.1
  1

 72
     1
 11
25.30625
 21
11.78125
 31
0.0
100
AcDbText
  0
TEXT
  5
43B
100
AcDbEntity
  8
0
100
AcDbText
 10
31.455288
 20
8.641625
 30
0.0
 40
0.075
  1

100
AcDbText
  0
TEXT
  5
43C
100
AcDbEntity
  8
0
100
AcDbText
 10
31.107581
 20
8.641625
 30
0.0
 40
0.075
  1

100
AcDbText
  0
TEXT
  5
43D
100
AcDbEntity
  8
0
100
AcDbText
 10
31.016455
 20
18.17256
 30
0.0
 40
0.1
  1

 72
     1
 11
31.016455
 21
18.17256
 31
0.0
100
AcDbText
  0
TEXT
  5
43E
100
AcDbEntity
  8
0
100
AcDbText
 10
37.165493
 20
15.032935
 30
0.0
 40
0.075
  1

100
AcDbText
  0
TEXT
  5
43F
100
AcDbEntity
  8
0
100
AcDbText
 10
36.817786
 20
15.032935
 30
0.0
 40
0.075
  1

100
AcDbText
  0
TEXT
  5
440
100
AcDbEntity
  8
0
100
AcDbText
 10
36.89475
 20
11.814625
 30
0.0
 40
0.1
  1

 72
     1
 11
36.89475
 21
11.814625
 31
0.0
100
AcDbText
  0
TEXT
  5
441
100
AcDbEntity
  8
0
100
AcDbText
 10
43.043788
 20
8.675
 30
0.0
 40
0.075
  1

100
AcDbText
  0
TEXT
  5
442
100
AcDbEntity
  8
0
100
AcDbText
 10
42.696081
 20
8.675
 30
0.0
 40
0.075
  1

100
AcDbText
  0
TEXT
  5
443
100
AcDbEntity
  8
0
100
AcDbText
 10
42.604955
 20
18.205935
 30
0.0
 40
0.1
  1

 72
     1
 11
42.604955
 21
18.205935
 31
0.0
100
AcDbText
  0
TEXT
  5
444
100
AcDbEntity
  8
0
100
AcDbText
 10
48.753993
 20
15.06631
 30
0.0
 40
0.075
  1

100
AcDbText
  0
TEXT
  5
445
100
AcDbEntity
  8
0
100
AcDbText
 10
48.406286
 20
15.06631
 30
0.0
 40
0.075
  1

100
AcDbText
  0
TEXT
  5
446
100
AcDbEntity
  8
0
100
AcDbText
 10
29.286608
 20
18.641863
 30
0.0
 40
0.075
  1

 72
     1
 11
29.286608
 21
18.641863
 31
0.0
100
AcDbText
  0
TEXT
  5
447
100
AcDbEntity
  8
0
100
AcDbText
 10
29.286608
 20
18.141863
 30
0.0
 40
0.075
  1

 72
     1
 11
29.286608
 21
18.141863
 31
0.0
100
AcDbText
  0
TEXT
  5
448
100
AcDbEntity
  8
0
100
AcDbText
 10
29.286608
 20
17.641863
 30
0.0
 40
0.1
  1

 72
     1
 11
29.286608
 21
17.641863
 31
0.0
100
AcDbText
  0
TEXT
  5
449
100
AcDbEntity
  8
0
100
AcDbText
 10
29.099108
 20
11.641863
 30
0.0
 40
0.1
  1

100
AcDbText
  0
TEXT
  5
44A
100
AcDbEntity
  8
0
100
AcDbText
 10
29.099108
 20
17.141863
 30
0.0
 40
0.1
  1

100
AcDbText
  0
TEXT
  5
44B
100
AcDbEntity
  8
0
100
AcDbText
 10
39.612741
 20
18.641863
 30
0.0
 40
0.075
  1

 72
     1
 11
39.612741
 21
18.641863
 31
0.0
100
AcDbText
  0
TEXT
  5
44C
100
AcDbEntity
  8
0
100
AcDbText
 10
39.612741
 20
18.141863
 30
0.0
 40
0.075
  1

 72
     1
 11
39.612741
 21
18.141863
 31
0.0
100
AcDbText
  0
TEXT
  5
44D
100
AcDbEntity
  8
0
100
AcDbText
 10
39.612741
 20
17.641863
 30
0.0
 40
0.1
  1

 72
     1
 11
39.612741
 21
17.641863
 31
0.0
100
AcDbText
  0
TEXT
  5
44E
100
AcDbEntity
  8
0
100
AcDbText
 10
39.425241
 20
11.641863
 30
0.0
 40
0.1
  1

100
AcDbText
  0
TEXT
  5
44F
100
AcDbEntity
  8
0
100
AcDbText
 10
39.425241
 20
17.141863
 30
0.0
 40
0.1
  1

100
AcDbText
  0
TEXT
  5
505
100
AcDbEntity
  8
TEXT
100
AcDbText
 10
8.4375
 20
10.59375
 30
0.0
 40
0.125
  1
*
 41
0.8
 51
10.0
  7
ROMANS
100
AcDbText
  0
TEXT
  5
507
100
AcDbEntity
  8
TEXT
100
AcDbText
 10
8.4375
 20
5.09375
 30
0.0
 40
0.125
  1
*
 41
0.8
 51
10.0
  7
ROMANS
100
AcDbText
  0
TEXT
  5
509
100
AcDbEntity
  8
TEXT
100
AcDbText
 10
8.4375
 20
4.59375
 30
0.0
 40
0.125
  1
*
 41
0.8
 51
10.0
  7
ROMANS
100
AcDbText
  0
TEXT
  5
5F0
100
AcDbEntity
  8
0
100
AcDbText
 10
29.86875
 20
8.203125
 30
0.0
 40
0.1
  1

 72
     1
 11
29.86875
 21
8.203125
 31
0.0
100
AcDbText
  0
TEXT
  5
5F1
100
AcDbEntity
  8
0
100
AcDbText
 10
36.017788
 20
5.0635
 30
0.0
 40
0.075
  1

100
AcDbText
  0
TEXT
  5
5F2
100
AcDbEntity
  8
0
100
AcDbText
 10
35.670081
 20
5.0635
 30
0.0
 40
0.075
  1

100
AcDbText
  0
TEXT
  5
5F3
100
AcDbEntity
  8
0
100
AcDbText
 10
35.578955
 20
14.594435
 30
0.0
 40
0.1
  1

 72
     1
 11
35.578955
 21
14.594435
 31
0.0
100
AcDbText
  0
TEXT
  5
5F4
100
AcDbEntity
  8
0
100
AcDbText
 10
41.727993
 20
11.45481
 30
0.0
 40
0.075
  1

100
AcDbText
  0
TEXT
  5
5F5
100
AcDbEntity
  8
0
100
AcDbText
 10
41.380286
 20
11.45481
 30
0.0
 40
0.075
  1

100
AcDbText
  0
TEXT
  5
5F6
100
AcDbEntity
  8
0
100
AcDbText
 10
41.45725
 20
8.2365
 30
0.0
 40
0.1
  1

 72
     1
 11
41.45725
 21
8.2365
 31
0.0
100
AcDbText
  0
TEXT
  5
5F7
100
AcDbEntity
  8
0
100
AcDbText
 10
47.606288
 20
5.096875
 30
0.0
 40
0.075
  1

100
AcDbText
  0
TEXT
  5
5F8
100
AcDbEntity
  8
0
100
AcDbText
 10
47.258581
 20
5.096875
 30
0.0
 40
0.075
  1

100
AcDbText
  0
TEXT
  5
5F9
100
AcDbEntity
  8
0
100
AcDbText
 10
47.167455
 20
14.62781
 30
0.0
 40
0.1
  1

 72
     1
 11
47.167455
 21
14.62781
 31
0.0
100
AcDbText
  0
TEXT
  5
5FA
100
AcDbEntity
  8
0
100
AcDbText
 10
53.316493
 20
11.488185
 30
0.0
 40
0.075
  1

100
AcDbText
  0
TEXT
  5
5FB
100
AcDbEntity
  8
0
100
AcDbText
 10
52.968786
 20
11.488185
 30
0.0
 40
0.075
  1

100
AcDbText
  0
TEXT
  5
5FC
100
AcDbEntity
  8
0
100
AcDbText
 10
33.849108
 20
15.063738
 30
0.0
 40
0.075
  1

 72
     1
 11
33.849108
 21
15.063738
 31
0.0
100
AcDbText
  0
TEXT
  5
5FD
100
AcDbEntity
  8
0
100
AcDbText
 10
33.849108
 20
14.563738
 30
0.0
 40
0.075
  1

 72
     1
 11
33.849108
 21
14.563738
 31
0.0
100
AcDbText
  0
TEXT
  5
5FE
100
AcDbEntity
  8
0
100
AcDbText
 10
33.849108
 20
14.063738
 30
0.0
 40
0.1
  1

 72
     1
 11
33.849108
 21
14.063738
 31
0.0
100
AcDbText
  0
TEXT
  5
5FF
100
AcDbEntity
  8
0
100
AcDbText
 10
33.661608
 20
8.063738
 30
0.0
 40
0.1
  1

100
AcDbText
  0
TEXT
  5
600
100
AcDbEntity
  8
0
100
AcDbText
 10
33.661608
 20
13.563738
 30
0.0
 40
0.1
  1

100
AcDbText
  0
TEXT
  5
601
100
AcDbEntity
  8
0
100
AcDbText
 10
44.175241
 20
15.063738
 30
0.0
 40
0.075
  1

 72
     1
 11
44.175241
 21
15.063738
 31
0.0
100
AcDbText
  0
TEXT
  5
602
100
AcDbEntity
  8
0
100
AcDbText
 10
44.175241
 20
14.563738
 30
0.0
 40
0.075
  1

 72
     1
 11
44.175241
 21
14.563738
 31
0.0
100
AcDbText
  0
TEXT
  5
603
100
AcDbEntity
  8
0
100
AcDbText
 10
44.175241
 20
14.063738
 30
0.0
 40
0.1
  1

 72
     1
 11
44.175241
 21
14.063738
 31
0.0
100
AcDbText
  0
TEXT
  5
604
100
AcDbEntity
  8
0
100
AcDbText
 10
43.987741
 20
8.063738
 30
0.0
 40
0.1
  1

100
AcDbText
  0
TEXT
  5
605
100
AcDbEntity
  8
0
100
AcDbText
 10
43.987741
 20
13.563738
 30
0.0
 40
0.1
  1

100
AcDbText
  0
TEXT
  5
620
100
AcDbEntity
  8
0
100
AcDbText
 10
20.68125
 20
19.359375
 30
0.0
 40
0.1
  1

 72
     1
 11
20.68125
 21
19.359375
 31
0.0
100
AcDbText
  0
TEXT
  5
621
100
AcDbEntity
  8
0
100
AcDbText
 10
26.830288
 20
16.21975
 30
0.0
 40
0.075
  1

100
AcDbText
  0
TEXT
  5
622
100
AcDbEntity
  8
0
100
AcDbText
 10
26.482581
 20
16.21975
 30
0.0
 40
0.075
  1

100
AcDbText
  0
TEXT
  5
623
100
AcDbEntity
  8
0
100
AcDbText
 10
26.391455
 20
25.750685
 30
0.0
 40
0.1
  1

 72
     1
 11
26.391455
 21
25.750685
 31
0.0
100
AcDbText
  0
TEXT
  5
624
100
AcDbEntity
  8
0
100
AcDbText
 10
32.540493
 20
22.61106
 30
0.0
 40
0.075
  1

100
AcDbText
  0
TEXT
  5
625
100
AcDbEntity
  8
0
100
AcDbText
 10
32.192786
 20
22.61106
 30
0.0
 40
0.075
  1

100
AcDbText
  0
LINE
  5
641
100
AcDbEntity
  8
0
100
AcDbLine
 10
5.40625
 20
13.25
 30
0.0
 11
5.78125
 21
13.25
 31
0.0
  0
LINE
  5
642
100
AcDbEntity
  8
0
100
AcDbLine
 10
5.40625
 20
13.0625
 30
0.0
 11
5.78125
 21
13.0625
 31
0.0
  0
LINE
  5
643
100
AcDbEntity
  8
0
100
AcDbLine
 10
5.40625
 20
13.25
 30
0.0
 11
5.40625
 21
13.0625
 31
0.0
  0
LINE
  5
645
100
AcDbEntity
  8
0
100
AcDbLine
 10
5.78125
 20
13.25
 30
0.0
 11
5.78125
 21
13.0625
 31
0.0
  0
TEXT
  5
647
100
AcDbEntity
  8
TEXT
100
AcDbText
 10
5.460417
 20
13.10625
 30
0.0
 40
0.1
  1
---
 72
     1
 11
5.59375
 21
13.10625
 31
0.0
100
AcDbText
  0
TEXT
  5
64F
100
AcDbEntity
  8
TEXT
100
AcDbText
 10
5.460417
 20
12.10625
 30
0.0
 40
0.1
  1
---
 72
     1
 11
5.59375
 21
12.10625
 31
0.0
100
AcDbText
  0
LINE
  5
650
100
AcDbEntity
  8
0
100
AcDbLine
 10
5.40625
 20
12.0625
 30
0.0
 11
5.78125
 21
12.0625
 31
0.0
  0
LINE
  5
651
100
AcDbEntity
  8
0
100
AcDbLine
 10
5.40625
 20
12.25
 30
0.0
 11
5.78125
 21
12.25
 31
0.0
  0
LINE
  5
652
100
AcDbEntity
  8
0
100
AcDbLine
 10
5.40625
 20
12.25
 30
0.0
 11
5.40625
 21
12.0625
 31
0.0
  0
LINE
  5
653
100
AcDbEntity
  8
0
100
AcDbLine
 10
5.78125
 20
12.25
 30
0.0
 11
5.78125
 21
12.0625
 31
0.0
  0
TEXT
  5
654
100
AcDbEntity
  8
TEXT
100
AcDbText
 10
5.460417
 20
11.60625
 30
0.0
 40
0.1
  1
---
 72
     1
 11
5.59375
 21
11.60625
 31
0.0
100
AcDbText
  0
LINE
  5
655
100
AcDbEntity
  8
0
100
AcDbLine
 10
5.40625
 20
11.5625
 30
0.0
 11
5.78125
 21
11.5625
 31
0.0
  0
LINE
  5
656
100
AcDbEntity
  8
0
100
AcDbLine
 10
5.40625
 20
11.75
 30
0.0
 11
5.78125
 21
11.75
 31
0.0
  0
LINE
  5
657
100
AcDbEntity
  8
0
100
AcDbLine
 10
5.40625
 20
11.75
 30
0.0
 11
5.40625
 21
11.5625
 31
0.0
  0
LINE
  5
658
100
AcDbEntity
  8
0
100
AcDbLine
 10
5.78125
 20
11.75
 30
0.0
 11
5.78125
 21
11.5625
 31
0.0
  0
TEXT
  5
659
100
AcDbEntity
  8
TEXT
100
AcDbText
 10
5.460417
 20
11.10625
 30
0.0
 40
0.1
  1
---
 72
     1
 11
5.59375
 21
11.10625
 31
0.0
100
AcDbText
  0
LINE
  5
65A
100
AcDbEntity
  8
0
100
AcDbLine
 10
5.40625
 20
11.0625
 30
0.0
 11
5.78125
 21
11.0625
 31
0.0
  0
LINE
  5
65B
100
AcDbEntity
  8
0
100
AcDbLine
 10
5.40625
 20
11.25
 30
0.0
 11
5.78125
 21
11.25
 31
0.0
  0
LINE
  5
65C
100
AcDbEntity
  8
0
100
AcDbLine
 10
5.40625
 20
11.25
 30
0.0
 11
5.40625
 21
11.0625
 31
0.0
  0
LINE
  5
65D
100
AcDbEntity
  8
0
100
AcDbLine
 10
5.78125
 20
11.25
 30
0.0
 11
5.78125
 21
11.0625
 31
0.0
  0
TEXT
  5
65E
100
AcDbEntity
  8
TEXT
100
AcDbText
 10
5.460417
 20
10.60625
 30
0.0
 40
0.1
  1
---
 72
     1
 11
5.59375
 21
10.60625
 31
0.0
100
AcDbText
  0
LINE
  5
65F
100
AcDbEntity
  8
0
100
AcDbLine
 10
5.40625
 20
10.5625
 30
0.0
 11
5.78125
 21
10.5625
 31
0.0
  0
LINE
  5
660
100
AcDbEntity
  8
0
100
AcDbLine
 10
5.40625
 20
10.75
 30
0.0
 11
5.78125
 21
10.75
 31
0.0
  0
LINE
  5
661
100
AcDbEntity
  8
0
100
AcDbLine
 10
5.40625
 20
10.75
 30
0.0
 11
5.40625
 21
10.5625
 31
0.0
  0
LINE
  5
662
100
AcDbEntity
  8
0
100
AcDbLine
 10
5.78125
 20
10.75
 30
0.0
 11
5.78125
 21
10.5625
 31
0.0
  0
TEXT
  5
663
100
AcDbEntity
  8
TEXT
100
AcDbText
 10
5.460417
 20
10.10625
 30
0.0
 40
0.1
  1
---
 72
     1
 11
5.59375
 21
10.10625
 31
0.0
100
AcDbText
  0
LINE
  5
664
100
AcDbEntity
  8
0
100
AcDbLine
 10
5.40625
 20
10.0625
 30
0.0
 11
5.78125
 21
10.0625
 31
0.0
  0
LINE
  5
665
100
AcDbEntity
  8
0
100
AcDbLine
 10
5.40625
 20
10.25
 30
0.0
 11
5.78125
 21
10.25
 31
0.0
  0
LINE
  5
666
100
AcDbEntity
  8
0
100
AcDbLine
 10
5.40625
 20
10.25
 30
0.0
 11
5.40625
 21
10.0625
 31
0.0
  0
LINE
  5
667
100
AcDbEntity
  8
0
100
AcDbLine
 10
5.78125
 20
10.25
 30
0.0
 11
5.78125
 21
10.0625
 31
0.0
  0
TEXT
  5
668
100
AcDbEntity
  8
TEXT
100
AcDbText
 10
5.460417
 20
9.60625
 30
0.0
 40
0.1
  1
---
 72
     1
 11
5.59375
 21
9.60625
 31
0.0
100
AcDbText
  0
LINE
  5
669
100
AcDbEntity
  8
0
100
AcDbLine
 10
5.40625
 20
9.5625
 30
0.0
 11
5.78125
 21
9.5625
 31
0.0
  0
LINE
  5
66A
100
AcDbEntity
  8
0
100
AcDbLine
 10
5.40625
 20
9.75
 30
0.0
 11
5.78125
 21
9.75
 31
0.0
  0
LINE
  5
66B
100
AcDbEntity
  8
0
100
AcDbLine
 10
5.40625
 20
9.75
 30
0.0
 11
5.40625
 21
9.5625
 31
0.0
  0
LINE
  5
66C
100
AcDbEntity
  8
0
100
AcDbLine
 10
5.78125
 20
9.75
 30
0.0
 11
5.78125
 21
9.5625
 31
0.0
  0
TEXT
  5
66D
100
AcDbEntity
  8
TEXT
100
AcDbText
 10
5.460417
 20
9.10625
 30
0.0
 40
0.1
  1
---
 72
     1
 11
5.59375
 21
9.10625
 31
0.0
100
AcDbText
  0
LINE
  5
66E
100
AcDbEntity
  8
0
100
AcDbLine
 10
5.40625
 20
9.0625
 30
0.0
 11
5.78125
 21
9.0625
 31
0.0
  0
LINE
  5
66F
100
AcDbEntity
  8
0
100
AcDbLine
 10
5.40625
 20
9.25
 30
0.0
 11
5.78125
 21
9.25
 31
0.0
  0
LINE
  5
670
100
AcDbEntity
  8
0
100
AcDbLine
 10
5.40625
 20
9.25
 30
0.0
 11
5.40625
 21
9.0625
 31
0.0
  0
LINE
  5
671
100
AcDbEntity
  8
0
100
AcDbLine
 10
5.78125
 20
9.25
 30
0.0
 11
5.78125
 21
9.0625
 31
0.0
  0
LINE
  5
673
100
AcDbEntity
  8
0
100
AcDbLine
 10
1.65625
 20
13.75
 30
0.0
 11
2.03125
 21
13.75
 31
0.0
  0
LINE
  5
674
100
AcDbEntity
  8
0
100
AcDbLine
 10
1.65625
 20
13.5625
 30
0.0
 11
2.03125
 21
13.5625
 31
0.0
  0
LINE
  5
675
100
AcDbEntity
  8
0
100
AcDbLine
 10
1.65625
 20
13.75
 30
0.0
 11
1.65625
 21
13.5625
 31
0.0
  0
LINE
  5
677
100
AcDbEntity
  8
0
100
AcDbLine
 10
2.03125
 20
13.75
 30
0.0
 11
2.03125
 21
13.5625
 31
0.0
  0
TEXT
  5
679
100
AcDbEntity
  8
TEXT
100
AcDbText
 10
1.710417
 20
13.60625
 30
0.0
 40
0.1
  1
---
 72
     1
 11
1.84375
 21
13.60625
 31
0.0
100
AcDbText
  0
LINE
  5
67C
100
AcDbEntity
  8
0
100
AcDbLine
 10
5.40625
 20
4.25
 30
0.0
 11
5.78125
 21
4.25
 31
0.0
  0
LINE
  5
67D
100
AcDbEntity
  8
0
100
AcDbLine
 10
5.40625
 20
4.0625
 30
0.0
 11
5.78125
 21
4.0625
 31
0.0
  0
LINE
  5
67E
100
AcDbEntity
  8
0
100
AcDbLine
 10
5.40625
 20
4.75
 30
0.0
 11
5.78125
 21
4.75
 31
0.0
  0
LINE
  5
67F
100
AcDbEntity
  8
0
100
AcDbLine
 10
5.40625
 20
4.5625
 30
0.0
 11
5.78125
 21
4.5625
 31
0.0
  0
TEXT
  5
680
100
AcDbEntity
  8
TEXT
100
AcDbText
 10
5.460417
 20
4.60625
 30
0.0
 40
0.1
  1
---
 72
     1
 11
5.59375
 21
4.60625
 31
0.0
100
AcDbText
  0
LINE
  5
681
100
AcDbEntity
  8
0
100
AcDbLine
 10
5.40625
 20
5.25
 30
0.0
 11
5.78125
 21
5.25
 31
0.0
  0
LINE
  5
682
100
AcDbEntity
  8
0
100
AcDbLine
 10
5.40625
 20
5.0625
 30
0.0
 11
5.78125
 21
5.0625
 31
0.0
  0
TEXT
  5
683
100
AcDbEntity
  8
TEXT
100
AcDbText
 10
5.460417
 20
5.10625
 30
0.0
 40
0.1
  1
---
 72
     1
 11
5.59375
 21
5.10625
 31
0.0
100
AcDbText
  0
LINE
  5
684
100
AcDbEntity
  8
0
100
AcDbLine
 10
5.40625
 20
4.75
 30
0.0
 11
5.40625
 21
4.5625
 31
0.0
  0
TEXT
  5
685
100
AcDbEntity
  8
TEXT
100
AcDbText
 10
5.460417
 20
4.10625
 30
0.0
 40
0.1
  1
---
 72
     1
 11
5.59375
 21
4.10625
 31
0.0
100
AcDbText
  0
LINE
  5
686
100
AcDbEntity
  8
0
100
AcDbLine
 10
5.40625
 20
4.25
 30
0.0
 11
5.40625
 21
4.0625
 31
0.0
  0
LINE
  5
687
100
AcDbEntity
  8
0
100
AcDbLine
 10
5.40625
 20
5.25
 30
0.0
 11
5.40625
 21
5.0625
 31
0.0
  0
LINE
  5
688
100
AcDbEntity
  8
0
100
AcDbLine
 10
5.78125
 20
4.75
 30
0.0
 11
5.78125
 21
4.5625
 31
0.0
  0
LINE
  5
689
100
AcDbEntity
  8
0
100
AcDbLine
 10
5.78125
 20
4.25
 30
0.0
 11
5.78125
 21
4.0625
 31
0.0
  0
LINE
  5
68A
100
AcDbEntity
  8
0
100
AcDbLine
 10
5.78125
 20
5.25
 30
0.0
 11
5.78125
 21
5.0625
 31
0.0
  0
LINE
  5
68B
100
AcDbEntity
  8
0
100
AcDbLine
 10
5.78125
 20
6.75
 30
0.0
 11
5.78125
 21
6.5625
 31
0.0
  0
LINE
  5
68C
100
AcDbEntity
  8
0
100
AcDbLine
 10
5.40625
 20
6.75
 30
0.0
 11
5.40625
 21
6.5625
 31
0.0
  0
LINE
  5
68D
100
AcDbEntity
  8
0
100
AcDbLine
 10
5.40625
 20
5.75
 30
0.0
 11
5.78125
 21
5.75
 31
0.0
  0
LINE
  5
68E
100
AcDbEntity
  8
0
100
AcDbLine
 10
5.40625
 20
5.5625
 30
0.0
 11
5.78125
 21
5.5625
 31
0.0
  0
TEXT
  5
68F
100
AcDbEntity
  8
TEXT
100
AcDbText
 10
5.460417
 20
5.60625
 30
0.0
 40
0.1
  1
---
 72
     1
 11
5.59375
 21
5.60625
 31
0.0
100
AcDbText
  0
LINE
  5
690
100
AcDbEntity
  8
0
100
AcDbLine
 10
5.40625
 20
6.25
 30
0.0
 11
5.78125
 21
6.25
 31
0.0
  0
LINE
  5
691
100
AcDbEntity
  8
0
100
AcDbLine
 10
5.40625
 20
6.0625
 30
0.0
 11
5.78125
 21
6.0625
 31
0.0
  0
TEXT
  5
692
100
AcDbEntity
  8
TEXT
100
AcDbText
 10
5.460417
 20
6.10625
 30
0.0
 40
0.1
  1
---
 72
     1
 11
5.59375
 21
6.10625
 31
0.0
100
AcDbText
  0
LINE
  5
693
100
AcDbEntity
  8
0
100
AcDbLine
 10
5.40625
 20
6.5625
 30
0.0
 11
5.78125
 21
6.5625
 31
0.0
  0
LINE
  5
694
100
AcDbEntity
  8
0
100
AcDbLine
 10
5.40625
 20
5.75
 30
0.0
 11
5.40625
 21
5.5625
 31
0.0
  0
LINE
  5
695
100
AcDbEntity
  8
0
100
AcDbLine
 10
5.40625
 20
6.25
 30
0.0
 11
5.40625
 21
6.0625
 31
0.0
  0
LINE
  5
696
100
AcDbEntity
  8
0
100
AcDbLine
 10
5.78125
 20
5.75
 30
0.0
 11
5.78125
 21
5.5625
 31
0.0
  0
LINE
  5
697
100
AcDbEntity
  8
0
100
AcDbLine
 10
5.78125
 20
6.25
 30
0.0
 11
5.78125
 21
6.0625
 31
0.0
  0
LINE
  5
698
100
AcDbEntity
  8
0
100
AcDbLine
 10
5.40625
 20
6.75
 30
0.0
 11
5.78125
 21
6.75
 31
0.0
  0
TEXT
  5
699
100
AcDbEntity
  8
TEXT
100
AcDbText
 10
5.460417
 20
6.60625
 30
0.0
 40
0.1
  1
---
 72
     1
 11
5.59375
 21
6.60625
 31
0.0
100
AcDbText
  0
LINE
  5
69A
100
AcDbEntity
  8
0
100
AcDbLine
 10
5.40625
 20
7.25
 30
0.0
 11
5.78125
 21
7.25
 31
0.0
  0
LINE
  5
69B
100
AcDbEntity
  8
0
100
AcDbLine
 10
5.40625
 20
7.0625
 30
0.0
 11
5.78125
 21
7.0625
 31
0.0
  0
TEXT
  5
69C
100
AcDbEntity
  8
TEXT
100
AcDbText
 10
5.460417
 20
7.10625
 30
0.0
 40
0.1
  1
---
 72
     1
 11
5.59375
 21
7.10625
 31
0.0
100
AcDbText
  0
LINE
  5
69D
100
AcDbEntity
  8
0
100
AcDbLine
 10
5.40625
 20
7.75
 30
0.0
 11
5.78125
 21
7.75
 31
0.0
  0
LINE
  5
69E
100
AcDbEntity
  8
0
100
AcDbLine
 10
5.40625
 20
7.5625
 30
0.0
 11
5.78125
 21
7.5625
 31
0.0
  0
TEXT
  5
69F
100
AcDbEntity
  8
TEXT
100
AcDbText
 10
5.460417
 20
7.60625
 30
0.0
 40
0.1
  1
---
 72
     1
 11
5.59375
 21
7.60625
 31
0.0
100
AcDbText
  0
LINE
  5
6A0
100
AcDbEntity
  8
0
100
AcDbLine
 10
5.40625
 20
7.25
 30
0.0
 11
5.40625
 21
7.0625
 31
0.0
  0
LINE
  5
6A1
100
AcDbEntity
  8
0
100
AcDbLine
 10
5.40625
 20
7.75
 30
0.0
 11
5.40625
 21
7.5625
 31
0.0
  0
LINE
  5
6A2
100
AcDbEntity
  8
0
100
AcDbLine
 10
5.78125
 20
7.25
 30
0.0
 11
5.78125
 21
7.0625
 31
0.0
  0
LINE
  5
6A3
100
AcDbEntity
  8
0
100
AcDbLine
 10
5.78125
 20
7.75
 30
0.0
 11
5.78125
 21
7.5625
 31
0.0
  0
TEXT
  5
6A4
100
AcDbEntity
  8
TEXT
100
AcDbText
 10
5.460417
 20
8.10625
 30
0.0
 40
0.1
  1
---
 72
     1
 11
5.59375
 21
8.10625
 31
0.0
100
AcDbText
  0
LINE
  5
6A5
100
AcDbEntity
  8
0
100
AcDbLine
 10
5.40625
 20
8.0625
 30
0.0
 11
5.78125
 21
8.0625
 31
0.0
  0
LINE
  5
6A6
100
AcDbEntity
  8
0
100
AcDbLine
 10
5.40625
 20
8.25
 30
0.0
 11
5.78125
 21
8.25
 31
0.0
  0
LINE
  5
6A7
100
AcDbEntity
  8
0
100
AcDbLine
 10
5.40625
 20
8.25
 30
0.0
 11
5.40625
 21
8.0625
 31
0.0
  0
LINE
  5
6A8
100
AcDbEntity
  8
0
100
AcDbLine
 10
5.78125
 20
8.25
 30
0.0
 11
5.78125
 21
8.0625
 31
0.0
  0
LINE
  5
6A9
100
AcDbEntity
  8
0
100
AcDbLine
 10
1.640625
 20
4.5625
 30
0.0
 11
2.015625
 21
4.5625
 31
0.0
  0
LINE
  5
6AA
100
AcDbEntity
  8
0
100
AcDbLine
 10
1.640625
 20
4.75
 30
0.0
 11
2.015625
 21
4.75
 31
0.0
  0
TEXT
  5
6AB
100
AcDbEntity
  8
TEXT
100
AcDbText
 10
1.694792
 20
4.60625
 30
0.0
 40
0.1
  1
---
 72
     1
 11
1.828125
 21
4.60625
 31
0.0
100
AcDbText
  0
LINE
  5
6AC
100
AcDbEntity
  8
0
100
AcDbLine
 10
1.640625
 20
4.75
 30
0.0
 11
1.640625
 21
4.5625
 31
0.0
  0
LINE
  5
6AD
100
AcDbEntity
  8
0
100
AcDbLine
 10
2.015625
 20
4.75
 30
0.0
 11
2.015625
 21
4.5625
 31
0.0
  0
LINE
  5
C24
100
AcDbEntity
  8
0
100
AcDbLine
 10
5.40625
 20
12.75
 30
0.0
 11
5.78125
 21
12.75
 31
0.0
  0
LINE
  5
C25
100
AcDbEntity
  8
0
100
AcDbLine
 10
5.40625
 20
12.5625
 30
0.0
 11
5.78125
 21
12.5625
 31
0.0
  0
TEXT
  5
C26
100
AcDbEntity
  8
TEXT
100
AcDbText
 10
5.460417
 20
12.60625
 30
0.0
 40
0.1
  1
---
 72
     1
 11
5.59375
 21
12.60625
 31
0.0
100
AcDbText
  0
LINE
  5
C27
100
AcDbEntity
  8
0
100
AcDbLine
 10
5.40625
 20
12.75
 30
0.0
 11
5.40625
 21
12.5625
 31
0.0
  0
LINE
  5
C28
100
AcDbEntity
  8
0
100
AcDbLine
 10
5.78125
 20
12.75
 30
0.0
 11
5.78125
 21
12.5625
 31
0.0
  0
LINE
  5
C29
100
AcDbEntity
  8
0
100
AcDbLine
 10
6.53125
 20
12.65625
 30
0.0
 11
5.78125
 21
12.65625
 31
0.0
  0
ENDSEC
  0
SECTION
  2
OBJECTS
  0
DICTIONARY
  5
C
100
AcDbDictionary
  3
ACAD_GROUP
350
D
  3
ACAD_MLINESTYLE
350
E
  0
DICTIONARY
  5
D
102
{ACAD_REACTORS
330
C
102
}
100
AcDbDictionary
  0
DICTIONARY
  5
E
102
{ACAD_REACTORS
330
C
102
}
100
AcDbDictionary
  3
STANDARD
350
1B
  0
MLINESTYLE
  5
1B
102
{ACAD_REACTORS
330
E
102
}
100
AcDbMlineStyle
  2
STANDARD
 70
     0
  3

 62
     0
 51
90.0
 52
90.0
 71
     2
 49
0.5
 62
   256
  6
BYLAYER
 49
-0.5
 62
   256
  6
BYLAYER
  0
ENDSEC
  0
EOF
