  0
SECTION
  2
HEADER
  9
$ACADVER
  1
AC1012
  9
$DWGCODEPAGE
  3
ANSI_1252
  9
$INSBASE
 10
0.359375
 20
0.0625
 30
0.0
  9
$EXTMIN
 10
0.38488
 20
1.828125
 30
0.0
  9
$EXTMAX
 10
8.932966
 20
14.829613
 30
0.0
  9
$LIMMIN
 10
0.0
 20
0.0
  9
$LIMMAX
 10
10.586
 20
15.932
  9
$ORTHOMODE
 70
     0
  9
$REGENMODE
 70
     1
  9
$FILLMODE
 70
     1
  9
$QTEXTMODE
 70
     0
  9
$MIRRTEXT
 70
     0
  9
$DRAGMODE
 70
     2
  9
$LTSCALE
 40
0.25
  9
$OSMODE
 70
     0
  9
$ATTMODE
 70
     1
  9
$TEXTSIZE
 40
0.1
  9
$TRACEWID
 40
0.05
  9
$TEXTSTYLE
  7
ROMANS
  9
$CLAYER
  8
0
  9
$CELTYPE
  6
BYLAYER
  9
$CECOLOR
 62
   256
  9
$CELTSCALE
 40
1.0
  9
$DELOBJ
 70
     1
  9
$DISPSILH
 70
     0
  9
$DIMSCALE
 40
1.0
  9
$DIMASZ
 40
0.18
  9
$DIMEXO
 40
0.0625
  9
$DIMDLI
 40
0.38
  9
$DIMRND
 40
0.0
  9
$DIMDLE
 40
0.0
  9
$DIMEXE
 40
0.18
  9
$DIMTP
 40
0.0
  9
$DIMTM
 40
0.0
  9
$DIMTXT
 40
0.18
  9
$DIMCEN
 40
0.09
  9
$DIMTSZ
 40
0.0
  9
$DIMTOL
 70
     0
  9
$DIMLIM
 70
     0
  9
$DIMTIH
 70
     1
  9
$DIMTOH
 70
     1
  9
$DIMSE1
 70
     0
  9
$DIMSE2
 70
     0
  9
$DIMTAD
 70
     0
  9
$DIMZIN
 70
     0
  9
$DIMBLK
  1

  9
$DIMASO
 70
     1
  9
$DIMSHO
 70
     0
  9
$DIMPOST
  1

  9
$DIMAPOST
  1

  9
$DIMALT
 70
     0
  9
$DIMALTD
 70
     2
  9
$DIMALTF
 40
25.4
  9
$DIMLFAC
 40
1.0
  9
$DIMTOFL
 70
     0
  9
$DIMTVP
 40
0.0
  9
$DIMTIX
 70
     0
  9
$DIMSOXD
 70
     0
  9
$DIMSAH
 70
     0
  9
$DIMBLK1
  1

  9
$DIMBLK2
  1

  9
$DIMSTYLE
  2
STANDARD
  9
$DIMCLRD
 70
     0
  9
$DIMCLRE
 70
     0
  9
$DIMCLRT
 70
     0
  9
$DIMTFAC
 40
1.0
  9
$DIMGAP
 40
0.09
  9
$DIMJUST
 70
     0
  9
$DIMSD1
 70
     0
  9
$DIMSD2
 70
     0
  9
$DIMTOLJ
 70
     1
  9
$DIMTZIN
 70
     0
  9
$DIMALTZ
 70
     0
  9
$DIMALTTZ
 70
     0
  9
$DIMFIT
 70
     3
  9
$DIMUPT
 70
     0
  9
$DIMUNIT
 70
     2
  9
$DIMDEC
 70
     4
  9
$DIMTDEC
 70
     4
  9
$DIMALTU
 70
     2
  9
$DIMALTTD
 70
     2
  9
$DIMTXSTY
  7
STANDARD
  9
$DIMAUNIT
 70
     0
  9
$LUNITS
 70
     2
  9
$LUPREC
 70
     4
  9
$SKETCHINC
 40
0.1
  9
$FILLETRAD
 40
0.0
  9
$AUNITS
 70
     0
  9
$AUPREC
 70
     0
  9
$MENU
  1
ACAD
  9
$ELEVATION
 40
0.0
  9
$PELEVATION
 40
0.0
  9
$THICKNESS
 40
0.0
  9
$LIMCHECK
 70
     0
  9
$BLIPMODE
 70
     0
  9
$CHAMFERA
 40
0.0
  9
$CHAMFERB
 40
0.0
  9
$CHAMFERC
 40
0.0
  9
$CHAMFERD
 40
0.0
  9
$SKPOLY
 70
     0
  9
$TDCREATE
 40
2449332.503039236
  9
$TDUPDATE
 40
2451087.617926968
  9
$TDINDWG
 40
0.2638255787
  9
$TDUSRTIMER
 40
0.2638255787
  9
$USRTIMER
 70
     1
  9
$ANGBASE
 50
0.0
  9
$ANGDIR
 70
     0
  9
$PDMODE
 70
     3
  9
$PDSIZE
 40
0.1
  9
$PLINEWID
 40
0.01
  9
$COORDS
 70
     2
  9
$SPLFRAME
 70
     0
  9
$SPLINETYPE
 70
     6
  9
$SPLINESEGS
 70
     8
  9
$ATTDIA
 70
     0
  9
$ATTREQ
 70
     1
  9
$HANDLING
 70
     1
  9
$HANDSEED
  5
2616
  9
$SURFTAB1
 70
     6
  9
$SURFTAB2
 70
     6
  9
$SURFTYPE
 70
     6
  9
$SURFU
 70
     6
  9
$SURFV
 70
     6
  9
$UCSNAME
  2

  9
$UCSORG
 10
0.0
 20
0.0
 30
0.0
  9
$UCSXDIR
 10
1.0
 20
0.0
 30
0.0
  9
$UCSYDIR
 10
0.0
 20
1.0
 30
0.0
  9
$PUCSNAME
  2

  9
$PUCSORG
 10
0.0
 20
0.0
 30
0.0
  9
$PUCSXDIR
 10
1.0
 20
0.0
 30
0.0
  9
$PUCSYDIR
 10
0.0
 20
1.0
 30
0.0
  9
$USERI1
 70
     0
  9
$USERI2
 70
     0
  9
$USERI3
 70
     0
  9
$USERI4
 70
     0
  9
$USERI5
 70
     0
  9
$USERR1
 40
0.0
  9
$USERR2
 40
0.0
  9
$USERR3
 40
0.0
  9
$USERR4
 40
0.0
  9
$USERR5
 40
0.0
  9
$WORLDVIEW
 70
     1
  9
$SHADEDGE
 70
     3
  9
$SHADEDIF
 70
    70
  9
$TILEMODE
 70
     1
  9
$MAXACTVP
 70
    16
  9
$PINSBASE
 10
0.0
 20
0.0
 30
0.0
  9
$PLIMCHECK
 70
     0
  9
$PEXTMIN
 10
1.000000E+20
 20
1.000000E+20
 30
1.000000E+20
  9
$PEXTMAX
 10
-1.000000E+20
 20
-1.000000E+20
 30
-1.000000E+20
  9
$PLIMMIN
 10
0.0
 20
0.0
  9
$PLIMMAX
 10
12.0
 20
9.0
  9
$UNITMODE
 70
     0
  9
$VISRETAIN
 70
     0
  9
$PLINEGEN
 70
     0
  9
$PSLTSCALE
 70
     0
  9
$TREEDEPTH
 70
  3020
  9
$PICKSTYLE
 70
     1
  9
$CMLSTYLE
  2
STANDARD
  9
$CMLJUST
 70
     0
  9
$CMLSCALE
 40
1.0
  9
$SAVEIMAGES
 70
     1
  0
ENDSEC
  0
SECTION
  2
CLASSES
  0
CLASS
  1
LWPOLYLINE
  2
AcDbPolyline
  3
"AutoCAD"
 90
    32768
280
     0
281
     1
  0
CLASS
  1
HATCH
  2
AcDbHatch
  3
"ACAD_SEDONA"
 90
    32768
280
     0
281
     1
  0
ENDSEC
  0
SECTION
  2
TABLES
  0
TABLE
  2
VPORT
  5
8
100
AcDbSymbolTable
 70
     2
  0
VPORT
  5
2615
100
AcDbSymbolTableRecord
100
AcDbViewportTableRecord
  2
*ACTIVE
 70
     0
 10
0.0
 20
0.0
 11
1.0
 21
1.0
 12
14.42312
 22
7.966
 13
0.0
 23
0.0
 14
0.001
 24
0.001
 15
1.0
 25
1.0
 16
0.0
 26
0.0
 36
1.0
 17
0.0
 27
0.0
 37
0.0
 40
15.932
 41
1.810585
 42
50.0
 43
0.0
 44
0.0
 50
0.0
 51
0.0
 71
     0
 72
   100
 73
     1
 74
     0
 75
     1
 76
     0
 77
     0
 78
     0
  0
ENDTAB
  0
TABLE
  2
LTYPE
  5
5
100
AcDbSymbolTable
 70
     2
  0
LTYPE
  5
12
100
AcDbSymbolTableRecord
100
AcDbLinetypeTableRecord
  2
BYBLOCK
 70
     0
  3

 72
    65
 73
     0
 40
0.0
  0
LTYPE
  5
13
100
AcDbSymbolTableRecord
100
AcDbLinetypeTableRecord
  2
BYLAYER
 70
     0
  3

 72
    65
 73
     0
 40
0.0
  0
LTYPE
  5
14
100
AcDbSymbolTableRecord
100
AcDbLinetypeTableRecord
  2
CONTINUOUS
 70
     0
  3
Solid line
 72
    65
 73
     0
 40
0.0
  0
LTYPE
  5
23
100
AcDbSymbolTableRecord
100
AcDbLinetypeTableRecord
  2
DASHED
 70
     0
  3
__ __ __ __ __ __ __ __ __ __ __ __ __ __ __ __
 72
    65
 73
     2
 40
0.75
 49
0.5
 74
     0
 49
-0.25
 74
     0
  0
ENDTAB
  0
TABLE
  2
LAYER
  5
2
100
AcDbSymbolTable
 70
     3
  0
LAYER
  5
F
100
AcDbSymbolTableRecord
100
AcDbLayerTableRecord
  2
0
 70
     0
 62
     7
  6
CONTINUOUS
  0
LAYER
  5
30
100
AcDbSymbolTableRecord
100
AcDbLayerTableRecord
  2
DASH
 70
     0
 62
     2
  6
DASHED
  0
LAYER
  5
263
100
AcDbSymbolTableRecord
100
AcDbLayerTableRecord
  2
TEXT
 70
     0
 62
     2
  6
CONTINUOUS
  0
ENDTAB
  0
TABLE
  2
STYLE
  5
3
100
AcDbSymbolTable
 70
     2
  0
STYLE
  5
10
100
AcDbSymbolTableRecord
100
AcDbTextStyleTableRecord
  2
STANDARD
 70
     0
 40
0.0
 41
1.0
 50
0.0
 71
     0
 42
0.2
  3
txt
  4

  0
STYLE
  5
1D
100
AcDbSymbolTableRecord
100
AcDbTextStyleTableRecord
  2
ROMANS
 70
     0
 40
0.0
 41
0.8
 50
0.0
 71
     0
 42
0.1
  3
ROMANS
  4

  0
ENDTAB
  0
TABLE
  2
VIEW
  5
6
100
AcDbSymbolTable
 70
     0
  0
ENDTAB
  0
TABLE
  2
UCS
  5
7
100
AcDbSymbolTable
 70
     0
  0
ENDTAB
  0
TABLE
  2
APPID
  5
9
100
AcDbSymbolTable
 70
     1
  0
APPID
  5
11
100
AcDbSymbolTableRecord
100
AcDbRegAppTableRecord
  2
ACAD
 70
     0
  0
ENDTAB
  0
TABLE
  2
DIMSTYLE
  5
A
100
AcDbSymbolTable
 70
     1
  0
DIMSTYLE
105
251
100
AcDbSymbolTableRecord
100
AcDbDimStyleTableRecord
  2
STANDARD
 70
     0
  3

  4

  5

  6

  7

 40
1.0
 41
0.18
 42
0.0625
 43
0.38
 44
0.18
 45
0.0
 46
0.0
 47
0.0
 48
0.0
140
0.18
141
0.09
142
0.0
143
25.4
144
1.0
145
0.0
146
1.0
147
0.09
 71
     0
 72
     0
 73
     1
 74
     1
 75
     0
 76
     0
 77
     0
 78
     0
170
     0
171
     2
172
     0
173
     0
174
     0
175
     0
176
     0
177
     0
178
     0
270
     2
271
     4
272
     4
273
     2
274
     2
340
10
275
     0
280
     0
281
     0
282
     0
283
     1
284
     0
285
     0
286
     0
287
     3
288
     0
  0
ENDTAB
  0
TABLE
  2
BLOCK_RECORD
  5
1
100
AcDbSymbolTable
 70
     1
  0
BLOCK_RECORD
  5
18
100
AcDbSymbolTableRecord
100
AcDbBlockTableRecord
  2
*MODEL_SPACE
  0
BLOCK_RECORD
  5
15
100
AcDbSymbolTableRecord
100
AcDbBlockTableRecord
  2
*PAPER_SPACE
  0
BLOCK_RECORD
  5
1C
100
AcDbSymbolTableRecord
100
AcDbBlockTableRecord
  2
TEMP5
  0
ENDTAB
  0
ENDSEC
  0
SECTION
  2
BLOCKS
  0
BLOCK
  5
33
100
AcDbEntity
  8
0
100
AcDbBlockBegin
  2
*MODEL_SPACE
 70
     0
 10
0.0
 20
0.0
 30
0.0
  3
*MODEL_SPACE
  1

  0
ENDBLK
  5
34
100
AcDbEntity
  8
0
100
AcDbBlockEnd
  0
BLOCK
  5
31
100
AcDbEntity
 67
     1
  8
0
100
AcDbBlockBegin
  2
*PAPER_SPACE
 70
     0
 10
0.0
 20
0.0
 30
0.0
  3
*PAPER_SPACE
  1

  0
ENDBLK
  5
32
100
AcDbEntity
 67
     1
  8
0
100
AcDbBlockEnd
  0
BLOCK
  5
35
100
AcDbEntity
  8
0
100
AcDbBlockBegin
  2
TEMP5
 70
     0
 10
0.0
 20
0.0
 30
0.0
  3
TEMP5
  1

  0
TEXT
  5
36
100
AcDbEntity
  8
0
100
AcDbText
 10
-1.467738
 20
-0.190625
 30
0.0
 40
0.1
  1
INTERNAL ADDRESSES
 41
0.8
  7
ROMANS
 72
     4
 11
-0.8125
 21
-0.140625
 31
0.0
100
AcDbText
  0
TEXT
  5
37
100
AcDbEntity
  8
0
100
AcDbText
 10
-1.281071
 20
-0.35253
 30
0.0
 40
0.1
  1
LISTED BELOW 
 41
0.8
  7
ROMANS
 72
     4
 11
-0.8125
 21
-0.30253
 31
0.0
100
AcDbText
  0
ENDBLK
  5
38
100
AcDbEntity
  8
0
100
AcDbBlockEnd
  0
ENDSEC
  0
SECTION
  2
ENTITIES
  0
TEXT
  5
2D4
100
AcDbEntity
  8
0
100
AcDbText
 10
19.525
 20
8.125
 30
0.0
 40
0.1
  1

 72
     1
 11
19.525
 21
8.125
 31
0.0
100
AcDbText
  0
TEXT
  5
2D5
100
AcDbEntity
  8
0
100
AcDbText
 10
25.674038
 20
4.985375
 30
0.0
 40
0.075
  1

100
AcDbText
  0
TEXT
  5
2D6
100
AcDbEntity
  8
0
100
AcDbText
 10
25.326331
 20
4.985375
 30
0.0
 40
0.075
  1

100
AcDbText
  0
TEXT
  5
2D7
100
AcDbEntity
  8
0
100
AcDbText
 10
25.235205
 20
14.51631
 30
0.0
 40
0.1
  1

 72
     1
 11
25.235205
 21
14.51631
 31
0.0
100
AcDbText
  0
TEXT
  5
2D8
100
AcDbEntity
  8
0
100
AcDbText
 10
31.384243
 20
11.376685
 30
0.0
 40
0.075
  1

100
AcDbText
  0
TEXT
  5
2D9
100
AcDbEntity
  8
0
100
AcDbText
 10
31.036536
 20
11.376685
 30
0.0
 40
0.075
  1

100
AcDbText
  0
TEXT
  5
2DA
100
AcDbEntity
  8
0
100
AcDbText
 10
31.1135
 20
8.158375
 30
0.0
 40
0.1
  1

 72
     1
 11
31.1135
 21
8.158375
 31
0.0
100
AcDbText
  0
TEXT
  5
2DB
100
AcDbEntity
  8
0
100
AcDbText
 10
37.262538
 20
5.01875
 30
0.0
 40
0.075
  1

100
AcDbText
  0
TEXT
  5
2DC
100
AcDbEntity
  8
0
100
AcDbText
 10
36.914831
 20
5.01875
 30
0.0
 40
0.075
  1

100
AcDbText
  0
TEXT
  5
2DD
100
AcDbEntity
  8
0
100
AcDbText
 10
36.823705
 20
14.549685
 30
0.0
 40
0.1
  1

 72
     1
 11
36.823705
 21
14.549685
 31
0.0
100
AcDbText
  0
TEXT
  5
2DE
100
AcDbEntity
  8
0
100
AcDbText
 10
42.972743
 20
11.41006
 30
0.0
 40
0.075
  1

100
AcDbText
  0
TEXT
  5
2DF
100
AcDbEntity
  8
0
100
AcDbText
 10
42.625036
 20
11.41006
 30
0.0
 40
0.075
  1

100
AcDbText
  0
TEXT
  5
2E0
100
AcDbEntity
  8
0
100
AcDbText
 10
23.505358
 20
14.985613
 30
0.0
 40
0.075
  1

 72
     1
 11
23.505358
 21
14.985613
 31
0.0
100
AcDbText
  0
TEXT
  5
2E1
100
AcDbEntity
  8
0
100
AcDbText
 10
23.505358
 20
14.485613
 30
0.0
 40
0.075
  1

 72
     1
 11
23.505358
 21
14.485613
 31
0.0
100
AcDbText
  0
TEXT
  5
2E2
100
AcDbEntity
  8
0
100
AcDbText
 10
23.505358
 20
13.985613
 30
0.0
 40
0.1
  1

 72
     1
 11
23.505358
 21
13.985613
 31
0.0
100
AcDbText
  0
TEXT
  5
2E3
100
AcDbEntity
  8
0
100
AcDbText
 10
23.317858
 20
7.985613
 30
0.0
 40
0.1
  1

100
AcDbText
  0
TEXT
  5
2E4
100
AcDbEntity
  8
0
100
AcDbText
 10
23.317858
 20
13.485613
 30
0.0
 40
0.1
  1

100
AcDbText
  0
TEXT
  5
2E5
100
AcDbEntity
  8
0
100
AcDbText
 10
33.831491
 20
14.985613
 30
0.0
 40
0.075
  1

 72
     1
 11
33.831491
 21
14.985613
 31
0.0
100
AcDbText
  0
TEXT
  5
2E6
100
AcDbEntity
  8
0
100
AcDbText
 10
33.831491
 20
14.485613
 30
0.0
 40
0.075
  1

 72
     1
 11
33.831491
 21
14.485613
 31
0.0
100
AcDbText
  0
TEXT
  5
2E7
100
AcDbEntity
  8
0
100
AcDbText
 10
33.831491
 20
13.985613
 30
0.0
 40
0.1
  1

 72
     1
 11
33.831491
 21
13.985613
 31
0.0
100
AcDbText
  0
TEXT
  5
2E8
100
AcDbEntity
  8
0
100
AcDbText
 10
33.643991
 20
7.985613
 30
0.0
 40
0.1
  1

100
AcDbText
  0
TEXT
  5
2E9
100
AcDbEntity
  8
0
100
AcDbText
 10
33.643991
 20
13.485613
 30
0.0
 40
0.1
  1

100
AcDbText
  0
TEXT
  5
11E8
100
AcDbEntity
  8
0
100
AcDbText
 10
25.30625
 20
11.53125
 30
0.0
 40
0.1
  1

 72
     1
 11
25.30625
 21
11.53125
 31
0.0
100
AcDbText
  0
TEXT
  5
11E9
100
AcDbEntity
  8
0
100
AcDbText
 10
31.455288
 20
8.391625
 30
0.0
 40
0.075
  1

100
AcDbText
  0
TEXT
  5
11EA
100
AcDbEntity
  8
0
100
AcDbText
 10
31.107581
 20
8.391625
 30
0.0
 40
0.075
  1

100
AcDbText
  0
TEXT
  5
11EB
100
AcDbEntity
  8
0
100
AcDbText
 10
31.016455
 20
17.92256
 30
0.0
 40
0.1
  1

 72
     1
 11
31.016455
 21
17.92256
 31
0.0
100
AcDbText
  0
TEXT
  5
11EC
100
AcDbEntity
  8
0
100
AcDbText
 10
37.165493
 20
14.782935
 30
0.0
 40
0.075
  1

100
AcDbText
  0
TEXT
  5
11ED
100
AcDbEntity
  8
0
100
AcDbText
 10
36.817786
 20
14.782935
 30
0.0
 40
0.075
  1

100
AcDbText
  0
TEXT
  5
11EE
100
AcDbEntity
  8
0
100
AcDbText
 10
36.89475
 20
11.564625
 30
0.0
 40
0.1
  1

 72
     1
 11
36.89475
 21
11.564625
 31
0.0
100
AcDbText
  0
TEXT
  5
11EF
100
AcDbEntity
  8
0
100
AcDbText
 10
43.043788
 20
8.425
 30
0.0
 40
0.075
  1

100
AcDbText
  0
TEXT
  5
11F0
100
AcDbEntity
  8
0
100
AcDbText
 10
42.696081
 20
8.425
 30
0.0
 40
0.075
  1

100
AcDbText
  0
TEXT
  5
11F1
100
AcDbEntity
  8
0
100
AcDbText
 10
42.604955
 20
17.955935
 30
0.0
 40
0.1
  1

 72
     1
 11
42.604955
 21
17.955935
 31
0.0
100
AcDbText
  0
TEXT
  5
11F2
100
AcDbEntity
  8
0
100
AcDbText
 10
48.753993
 20
14.81631
 30
0.0
 40
0.075
  1

100
AcDbText
  0
TEXT
  5
11F3
100
AcDbEntity
  8
0
100
AcDbText
 10
48.406286
 20
14.81631
 30
0.0
 40
0.075
  1

100
AcDbText
  0
TEXT
  5
11F4
100
AcDbEntity
  8
0
100
AcDbText
 10
29.286608
 20
18.391863
 30
0.0
 40
0.075
  1

 72
     1
 11
29.286608
 21
18.391863
 31
0.0
100
AcDbText
  0
TEXT
  5
11F5
100
AcDbEntity
  8
0
100
AcDbText
 10
29.286608
 20
17.891863
 30
0.0
 40
0.075
  1

 72
     1
 11
29.286608
 21
17.891863
 31
0.0
100
AcDbText
  0
TEXT
  5
11F6
100
AcDbEntity
  8
0
100
AcDbText
 10
29.286608
 20
17.391863
 30
0.0
 40
0.1
  1

 72
     1
 11
29.286608
 21
17.391863
 31
0.0
100
AcDbText
  0
TEXT
  5
11F7
100
AcDbEntity
  8
0
100
AcDbText
 10
29.099108
 20
11.391863
 30
0.0
 40
0.1
  1

100
AcDbText
  0
TEXT
  5
11F8
100
AcDbEntity
  8
0
100
AcDbText
 10
29.099108
 20
16.891863
 30
0.0
 40
0.1
  1

100
AcDbText
  0
TEXT
  5
11F9
100
AcDbEntity
  8
0
100
AcDbText
 10
39.612741
 20
18.391863
 30
0.0
 40
0.075
  1

 72
     1
 11
39.612741
 21
18.391863
 31
0.0
100
AcDbText
  0
TEXT
  5
11FA
100
AcDbEntity
  8
0
100
AcDbText
 10
39.612741
 20
17.891863
 30
0.0
 40
0.075
  1

 72
     1
 11
39.612741
 21
17.891863
 31
0.0
100
AcDbText
  0
TEXT
  5
11FB
100
AcDbEntity
  8
0
100
AcDbText
 10
39.612741
 20
17.391863
 30
0.0
 40
0.1
  1

 72
     1
 11
39.612741
 21
17.391863
 31
0.0
100
AcDbText
  0
TEXT
  5
11FC
100
AcDbEntity
  8
0
100
AcDbText
 10
39.425241
 20
11.391863
 30
0.0
 40
0.1
  1

100
AcDbText
  0
TEXT
  5
11FD
100
AcDbEntity
  8
0
100
AcDbText
 10
39.425241
 20
16.891863
 30
0.0
 40
0.1
  1

100
AcDbText
  0
TEXT
  5
11FE
100
AcDbEntity
  8
0
100
AcDbText
 10
31.0875
 20
15.1875
 30
0.0
 40
0.1
  1

 72
     1
 11
31.0875
 21
15.1875
 31
0.0
100
AcDbText
  0
TEXT
  5
11FF
100
AcDbEntity
  8
0
100
AcDbText
 10
37.236538
 20
12.047875
 30
0.0
 40
0.075
  1

100
AcDbText
  0
TEXT
  5
1200
100
AcDbEntity
  8
0
100
AcDbText
 10
36.888831
 20
12.047875
 30
0.0
 40
0.075
  1

100
AcDbText
  0
TEXT
  5
1201
100
AcDbEntity
  8
0
100
AcDbText
 10
36.797705
 20
21.57881
 30
0.0
 40
0.1
  1

 72
     1
 11
36.797705
 21
21.57881
 31
0.0
100
AcDbText
  0
TEXT
  5
1202
100
AcDbEntity
  8
0
100
AcDbText
 10
42.946743
 20
18.439185
 30
0.0
 40
0.075
  1

100
AcDbText
  0
TEXT
  5
1203
100
AcDbEntity
  8
0
100
AcDbText
 10
42.599036
 20
18.439185
 30
0.0
 40
0.075
  1

100
AcDbText
  0
TEXT
  5
1204
100
AcDbEntity
  8
0
100
AcDbText
 10
42.676
 20
15.220875
 30
0.0
 40
0.1
  1

 72
     1
 11
42.676
 21
15.220875
 31
0.0
100
AcDbText
  0
TEXT
  5
1205
100
AcDbEntity
  8
0
100
AcDbText
 10
48.825038
 20
12.08125
 30
0.0
 40
0.075
  1

100
AcDbText
  0
TEXT
  5
1206
100
AcDbEntity
  8
0
100
AcDbText
 10
48.477331
 20
12.08125
 30
0.0
 40
0.075
  1

100
AcDbText
  0
TEXT
  5
1207
100
AcDbEntity
  8
0
100
AcDbText
 10
48.386205
 20
21.612185
 30
0.0
 40
0.1
  1

 72
     1
 11
48.386205
 21
21.612185
 31
0.0
100
AcDbText
  0
TEXT
  5
1208
100
AcDbEntity
  8
0
100
AcDbText
 10
54.535243
 20
18.47256
 30
0.0
 40
0.075
  1

100
AcDbText
  0
TEXT
  5
1209
100
AcDbEntity
  8
0
100
AcDbText
 10
54.187536
 20
18.47256
 30
0.0
 40
0.075
  1

100
AcDbText
  0
TEXT
  5
120A
100
AcDbEntity
  8
0
100
AcDbText
 10
35.067858
 20
22.048113
 30
0.0
 40
0.075
  1

 72
     1
 11
35.067858
 21
22.048113
 31
0.0
100
AcDbText
  0
TEXT
  5
120B
100
AcDbEntity
  8
0
100
AcDbText
 10
35.067858
 20
21.548113
 30
0.0
 40
0.075
  1

 72
     1
 11
35.067858
 21
21.548113
 31
0.0
100
AcDbText
  0
TEXT
  5
120C
100
AcDbEntity
  8
0
100
AcDbText
 10
35.067858
 20
21.048113
 30
0.0
 40
0.1
  1

 72
     1
 11
35.067858
 21
21.048113
 31
0.0
100
AcDbText
  0
TEXT
  5
120D
100
AcDbEntity
  8
0
100
AcDbText
 10
34.880358
 20
15.048113
 30
0.0
 40
0.1
  1

100
AcDbText
  0
TEXT
  5
120E
100
AcDbEntity
  8
0
100
AcDbText
 10
34.880358
 20
20.548113
 30
0.0
 40
0.1
  1

100
AcDbText
  0
TEXT
  5
120F
100
AcDbEntity
  8
0
100
AcDbText
 10
45.393991
 20
22.048113
 30
0.0
 40
0.075
  1

 72
     1
 11
45.393991
 21
22.048113
 31
0.0
100
AcDbText
  0
TEXT
  5
1210
100
AcDbEntity
  8
0
100
AcDbText
 10
45.393991
 20
21.548113
 30
0.0
 40
0.075
  1

 72
     1
 11
45.393991
 21
21.548113
 31
0.0
100
AcDbText
  0
TEXT
  5
1211
100
AcDbEntity
  8
0
100
AcDbText
 10
45.393991
 20
21.048113
 30
0.0
 40
0.1
  1

 72
     1
 11
45.393991
 21
21.048113
 31
0.0
100
AcDbText
  0
TEXT
  5
1212
100
AcDbEntity
  8
0
100
AcDbText
 10
45.206491
 20
15.048113
 30
0.0
 40
0.1
  1

100
AcDbText
  0
TEXT
  5
1213
100
AcDbEntity
  8
0
100
AcDbText
 10
45.206491
 20
20.548113
 30
0.0
 40
0.1
  1

100
AcDbText
  0
LINE
  5
15B0
100
AcDbEntity
  8
0
100
AcDbLine
 10
7.875
 20
1.828125
 30
0.0
 11
7.875
 21
14.234375
 31
0.0
  0
LINE
  5
15B2
100
AcDbEntity
  8
0
100
AcDbLine
 10
6.328125
 20
14.234375
 30
0.0
 11
6.328125
 21
1.828125
 31
0.0
  0
LINE
  5
1602
100
AcDbEntity
  8
0
100
AcDbLine
 10
6.078125
 20
12.078125
 30
0.0
 11
5.328125
 21
12.078125
 31
0.0
  0
LINE
  5
1603
100
AcDbEntity
  8
0
100
AcDbLine
 10
6.078125
 20
11.578125
 30
0.0
 11
5.328125
 21
11.578125
 31
0.0
  0
LINE
  5
1604
100
AcDbEntity
  8
0
100
AcDbLine
 10
6.078125
 20
11.078125
 30
0.0
 11
5.328125
 21
11.078125
 31
0.0
  0
LINE
  5
1605
100
AcDbEntity
  8
0
100
AcDbLine
 10
6.078125
 20
9.578125
 30
0.0
 11
5.328125
 21
9.578125
 31
0.0
  0
LINE
  5
1606
100
AcDbEntity
  8
0
100
AcDbLine
 10
6.078125
 20
9.078125
 30
0.0
 11
5.328125
 21
9.078125
 31
0.0
  0
LINE
  5
1607
100
AcDbEntity
  8
0
100
AcDbLine
 10
6.078125
 20
8.078125
 30
0.0
 11
5.328125
 21
8.078125
 31
0.0
  0
LINE
  5
1608
100
AcDbEntity
  8
0
100
AcDbLine
 10
6.078125
 20
7.578125
 30
0.0
 11
5.328125
 21
7.578125
 31
0.0
  0
LINE
  5
1609
100
AcDbEntity
  8
0
100
AcDbLine
 10
6.078125
 20
6.078125
 30
0.0
 11
5.328125
 21
6.078125
 31
0.0
  0
LINE
  5
160A
100
AcDbEntity
  8
0
100
AcDbLine
 10
6.078125
 20
5.578125
 30
0.0
 11
5.328125
 21
5.578125
 31
0.0
  0
LINE
  5
160B
100
AcDbEntity
  8
0
100
AcDbLine
 10
6.078125
 20
5.078125
 30
0.0
 11
5.328125
 21
5.078125
 31
0.0
  0
LINE
  5
160C
100
AcDbEntity
  8
0
100
AcDbLine
 10
6.078125
 20
4.578125
 30
0.0
 11
5.328125
 21
4.578125
 31
0.0
  0
LINE
  5
160D
100
AcDbEntity
  8
0
100
AcDbLine
 10
1.390625
 20
13.484375
 30
0.0
 11
1.390625
 21
4.671875
 31
0.0
  0
TEXT
  5
160E
100
AcDbEntity
  8
TEXT
100
AcDbText
 10
7.984375
 20
13.015625
 30
0.0
 40
0.125
  1
*
 41
0.8
 51
10.0
  7
ROMANS
100
AcDbText
  0
LINE
  5
162A
100
AcDbEntity
  8
0
100
AcDbLine
 10
2.0
 20
13.8125
 30
0.0
 11
2.9375
 21
13.8125
 31
0.0
  0
LINE
  5
162B
100
AcDbEntity
  8
0
100
AcDbLine
 10
2.0
 20
14.09375
 30
0.0
 11
2.9375
 21
14.09375
 31
0.0
  0
LINE
  5
162C
100
AcDbEntity
  8
0
100
AcDbLine
 10
2.0
 20
14.09375
 30
0.0
 11
2.0
 21
13.8125
 31
0.0
  0
LINE
  5
162D
100
AcDbEntity
  8
0
100
AcDbLine
 10
2.9375
 20
14.09375
 30
0.0
 11
2.9375
 21
13.8125
 31
0.0
  0
TEXT
  5
162E
100
AcDbEntity
  8
TEXT
100
AcDbText
 10
2.0625
 20
13.875
 30
0.0
 40
0.0625
  1
From Sheet #--
100
AcDbText
  0
TEXT
  5
162F
100
AcDbEntity
  8
TEXT
100
AcDbText
 10
2.0625
 20
13.96875
 30
0.0
 40
0.0625
  1
+24 VDC
100
AcDbText
  0
LINE
  5
1630
100
AcDbEntity
  8
0
100
AcDbLine
 10
2.0
 20
13.953125
 30
0.0
 11
1.859375
 21
13.953125
 31
0.0
  0
LINE
  5
1631
100
AcDbEntity
  8
0
100
AcDbLine
 10
1.859375
 20
13.953125
 30
0.0
 11
1.660989
 21
13.754739
 31
0.0
  0
LINE
  5
1632
100
AcDbEntity
  8
0
100
AcDbLine
 10
1.638682
 20
13.776957
 30
0.0
 11
1.682965
 21
13.732851
 31
0.0
  0
LINE
  5
1633
100
AcDbEntity
  8
0
100
AcDbLine
 10
1.682965
 20
13.732851
 30
0.0
 11
1.578125
 21
13.671875
 31
0.0
  0
LINE
  5
1634
100
AcDbEntity
  8
0
100
AcDbLine
 10
1.578125
 20
13.671875
 30
0.0
 11
1.638682
 21
13.776957
 31
0.0
  0
LINE
  5
1636
100
AcDbEntity
  8
0
100
AcDbLine
 10
6.078125
 20
13.078125
 30
0.0
 11
5.328125
 21
13.078125
 31
0.0
  0
TEXT
  5
1639
100
AcDbEntity
  8
TEXT
100
AcDbText
 10
7.984375
 20
12.515625
 30
0.0
 40
0.125
  1
*
 41
0.8
 51
10.0
  7
ROMANS
100
AcDbText
  0
TEXT
  5
1644
100
AcDbEntity
  8
TEXT
100
AcDbText
 10
0.5
 20
12.515625
 30
0.0
 40
0.125
  1
*
 41
0.8
 51
10.0
  7
ROMANS
100
AcDbText
  0
TEXT
  5
1645
100
AcDbEntity
  8
TEXT
100
AcDbText
 10
0.5
 20
13.015625
 30
0.0
 40
0.125
  1
*
 41
0.8
 51
10.0
  7
ROMANS
100
AcDbText
  0
LINE
  5
1646
100
AcDbEntity
  8
0
100
AcDbLine
 10
6.078125
 20
10.078125
 30
0.0
 11
5.328125
 21
10.078125
 31
0.0
  0
LINE
  5
1647
100
AcDbEntity
  8
0
100
AcDbLine
 10
6.078125
 20
10.578125
 30
0.0
 11
5.328125
 21
10.578125
 31
0.0
  0
TEXT
  5
1652
100
AcDbEntity
  8
TEXT
100
AcDbText
 10
7.984375
 20
11.015625
 30
0.0
 40
0.125
  1
*
 41
0.8
 51
10.0
  7
ROMANS
100
AcDbText
  0
LINE
  5
1653
100
AcDbEntity
  8
0
100
AcDbLine
 10
6.078125
 20
7.078125
 30
0.0
 11
5.328125
 21
7.078125
 31
0.0
  0
LINE
  5
1654
100
AcDbEntity
  8
0
100
AcDbLine
 10
6.078125
 20
4.078125
 30
0.0
 11
5.328125
 21
4.078125
 31
0.0
  0
TEXT
  5
165A
100
AcDbEntity
  8
TEXT
100
AcDbText
 10
7.984375
 20
8.015625
 30
0.0
 40
0.125
  1
*
 41
0.8
 51
10.0
  7
ROMANS
100
AcDbText
  0
TEXT
  5
1668
100
AcDbEntity
  8
TEXT
100
AcDbText
 10
7.984375
 20
5.515625
 30
0.0
 40
0.125
  1
*
 41
0.8
 51
10.0
  7
ROMANS
100
AcDbText
  0
TEXT
  5
166D
100
AcDbEntity
  8
TEXT
100
AcDbText
 10
7.984375
 20
6.015625
 30
0.0
 40
0.125
  1
*
 41
0.8
 51
10.0
  7
ROMANS
100
AcDbText
  0
TEXT
  5
166E
100
AcDbEntity
  8
TEXT
100
AcDbText
 10
7.984375
 20
6.515625
 30
0.0
 40
0.125
  1
*
 41
0.8
 51
10.0
  7
ROMANS
100
AcDbText
  0
TEXT
  5
166F
100
AcDbEntity
  8
TEXT
100
AcDbText
 10
7.984375
 20
7.015625
 30
0.0
 40
0.125
  1
*
 41
0.8
 51
10.0
  7
ROMANS
100
AcDbText
  0
TEXT
  5
1670
100
AcDbEntity
  8
TEXT
100
AcDbText
 10
7.984375
 20
7.515625
 30
0.0
 40
0.125
  1
*
 41
0.8
 51
10.0
  7
ROMANS
100
AcDbText
  0
TEXT
  5
1671
100
AcDbEntity
  8
TEXT
100
AcDbText
 10
0.5
 20
5.015625
 30
0.0
 40
0.125
  1
*
 41
0.8
 51
10.0
  7
ROMANS
100
AcDbText
  0
TEXT
  5
1672
100
AcDbEntity
  8
TEXT
100
AcDbText
 10
0.5
 20
5.515625
 30
0.0
 40
0.125
  1
*
 41
0.8
 51
10.0
  7
ROMANS
100
AcDbText
  0
TEXT
  5
1673
100
AcDbEntity
  8
TEXT
100
AcDbText
 10
0.5
 20
6.015625
 30
0.0
 40
0.125
  1
*
 41
0.8
 51
10.0
  7
ROMANS
100
AcDbText
  0
TEXT
  5
1675
100
AcDbEntity
  8
TEXT
100
AcDbText
 10
0.5
 20
11.515625
 30
0.0
 40
0.125
  1
*
 41
0.8
 51
10.0
  7
ROMANS
100
AcDbText
  0
TEXT
  5
1676
100
AcDbEntity
  8
TEXT
100
AcDbText
 10
0.5
 20
10.515625
 30
0.0
 40
0.125
  1
*
 41
0.8
 51
10.0
  7
ROMANS
100
AcDbText
  0
TEXT
  5
1677
100
AcDbEntity
  8
TEXT
100
AcDbText
 10
0.5
 20
11.015625
 30
0.0
 40
0.125
  1
*
 41
0.8
 51
10.0
  7
ROMANS
100
AcDbText
  0
TEXT
  5
167B
100
AcDbEntity
  8
TEXT
100
AcDbText
 10
0.5
 20
7.515625
 30
0.0
 40
0.125
  1
*
 41
0.8
 51
10.0
  7
ROMANS
100
AcDbText
  0
TEXT
  5
167C
100
AcDbEntity
  8
TEXT
100
AcDbText
 10
0.5
 20
7.015625
 30
0.0
 40
0.125
  1
*
 41
0.8
 51
10.0
  7
ROMANS
100
AcDbText
  0
TEXT
  5
167D
100
AcDbEntity
  8
TEXT
100
AcDbText
 10
0.5
 20
8.015625
 30
0.0
 40
0.125
  1
*
 41
0.8
 51
10.0
  7
ROMANS
100
AcDbText
  0
TEXT
  5
1683
100
AcDbEntity
  8
TEXT
100
AcDbText
 10
7.984375
 20
9.015625
 30
0.0
 40
0.125
  1
DC Common
 41
0.8
 51
10.0
  7
ROMANS
100
AcDbText
  0
TEXT
  5
1685
100
AcDbEntity
  8
TEXT
100
AcDbText
 10
7.984375
 20
4.015625
 30
0.0
 40
0.125
  1
DC Common
 41
0.8
 51
10.0
  7
ROMANS
100
AcDbText
  0
TEXT
  5
1698
100
AcDbEntity
  8
TEXT
100
AcDbText
 10
0.358
 20
4.515625
 30
0.0
 40
0.125
  1
*
 41
0.8
 51
10.0
  7
ROMANS
100
AcDbText
  0
TEXT
  5
1699
100
AcDbEntity
  8
TEXT
100
AcDbText
 10
0.5
 20
12.015625
 30
0.0
 40
0.125
  1
*
 41
0.8
 51
10.0
  7
ROMANS
100
AcDbText
  0
TEXT
  5
169A
100
AcDbEntity
  8
TEXT
100
AcDbText
 10
0.5
 20
6.515625
 30
0.0
 40
0.125
  1
*
 41
0.8
 51
10.0
  7
ROMANS
100
AcDbText
  0
TEXT
  5
169B
100
AcDbEntity
  8
0
100
AcDbText
 10
31.839625
 20
8.125
 30
0.0
 40
0.1
  1

 72
     1
 11
31.839625
 21
8.125
 31
0.0
100
AcDbText
  0
TEXT
  5
169C
100
AcDbEntity
  8
0
100
AcDbText
 10
37.988663
 20
4.985375
 30
0.0
 40
0.075
  1

100
AcDbText
  0
TEXT
  5
169D
100
AcDbEntity
  8
0
100
AcDbText
 10
37.640956
 20
4.985375
 30
0.0
 40
0.075
  1

100
AcDbText
  0
TEXT
  5
169E
100
AcDbEntity
  8
0
100
AcDbText
 10
37.54983
 20
14.51631
 30
0.0
 40
0.1
  1

 72
     1
 11
37.54983
 21
14.51631
 31
0.0
100
AcDbText
  0
TEXT
  5
169F
100
AcDbEntity
  8
0
100
AcDbText
 10
43.698868
 20
11.376685
 30
0.0
 40
0.075
  1

100
AcDbText
  0
TEXT
  5
16A0
100
AcDbEntity
  8
0
100
AcDbText
 10
43.351161
 20
11.376685
 30
0.0
 40
0.075
  1

100
AcDbText
  0
TEXT
  5
16A1
100
AcDbEntity
  8
0
100
AcDbText
 10
43.428125
 20
8.158375
 30
0.0
 40
0.1
  1

 72
     1
 11
43.428125
 21
8.158375
 31
0.0
100
AcDbText
  0
TEXT
  5
16A2
100
AcDbEntity
  8
0
100
AcDbText
 10
49.577163
 20
5.01875
 30
0.0
 40
0.075
  1

100
AcDbText
  0
TEXT
  5
16A3
100
AcDbEntity
  8
0
100
AcDbText
 10
49.229456
 20
5.01875
 30
0.0
 40
0.075
  1

100
AcDbText
  0
TEXT
  5
16A4
100
AcDbEntity
  8
0
100
AcDbText
 10
49.13833
 20
14.549685
 30
0.0
 40
0.1
  1

 72
     1
 11
49.13833
 21
14.549685
 31
0.0
100
AcDbText
  0
TEXT
  5
16A5
100
AcDbEntity
  8
0
100
AcDbText
 10
55.287368
 20
11.41006
 30
0.0
 40
0.075
  1

100
AcDbText
  0
TEXT
  5
16A6
100
AcDbEntity
  8
0
100
AcDbText
 10
54.939661
 20
11.41006
 30
0.0
 40
0.075
  1

100
AcDbText
  0
TEXT
  5
16A7
100
AcDbEntity
  8
0
100
AcDbText
 10
35.819983
 20
14.985613
 30
0.0
 40
0.075
  1

 72
     1
 11
35.819983
 21
14.985613
 31
0.0
100
AcDbText
  0
TEXT
  5
16A8
100
AcDbEntity
  8
0
100
AcDbText
 10
35.819983
 20
14.485613
 30
0.0
 40
0.075
  1

 72
     1
 11
35.819983
 21
14.485613
 31
0.0
100
AcDbText
  0
TEXT
  5
16A9
100
AcDbEntity
  8
0
100
AcDbText
 10
35.819983
 20
13.985613
 30
0.0
 40
0.1
  1

 72
     1
 11
35.819983
 21
13.985613
 31
0.0
100
AcDbText
  0
TEXT
  5
16AA
100
AcDbEntity
  8
0
100
AcDbText
 10
35.632483
 20
7.985613
 30
0.0
 40
0.1
  1

100
AcDbText
  0
TEXT
  5
16AB
100
AcDbEntity
  8
0
100
AcDbText
 10
35.632483
 20
13.485613
 30
0.0
 40
0.1
  1

100
AcDbText
  0
TEXT
  5
16AC
100
AcDbEntity
  8
0
100
AcDbText
 10
46.146116
 20
14.985613
 30
0.0
 40
0.075
  1

 72
     1
 11
46.146116
 21
14.985613
 31
0.0
100
AcDbText
  0
TEXT
  5
16AD
100
AcDbEntity
  8
0
100
AcDbText
 10
46.146116
 20
14.485613
 30
0.0
 40
0.075
  1

 72
     1
 11
46.146116
 21
14.485613
 31
0.0
100
AcDbText
  0
TEXT
  5
16AE
100
AcDbEntity
  8
0
100
AcDbText
 10
46.146116
 20
13.985613
 30
0.0
 40
0.1
  1

 72
     1
 11
46.146116
 21
13.985613
 31
0.0
100
AcDbText
  0
TEXT
  5
16AF
100
AcDbEntity
  8
0
100
AcDbText
 10
45.958616
 20
7.985613
 30
0.0
 40
0.1
  1

100
AcDbText
  0
TEXT
  5
16B0
100
AcDbEntity
  8
0
100
AcDbText
 10
45.958616
 20
13.485613
 30
0.0
 40
0.1
  1

100
AcDbText
  0
LINE
  5
16B1
100
AcDbEntity
  8
0
100
AcDbLine
 10
6.078125
 20
6.578125
 30
0.0
 11
5.328125
 21
6.578125
 31
0.0
  0
TEXT
  5
16B2
100
AcDbEntity
  8
0
100
AcDbText
 10
37.620875
 20
11.78125
 30
0.0
 40
0.1
  1

 72
     1
 11
37.620875
 21
11.78125
 31
0.0
100
AcDbText
  0
TEXT
  5
16B3
100
AcDbEntity
  8
0
100
AcDbText
 10
43.769913
 20
8.641625
 30
0.0
 40
0.075
  1

100
AcDbText
  0
TEXT
  5
16B4
100
AcDbEntity
  8
0
100
AcDbText
 10
43.422206
 20
8.641625
 30
0.0
 40
0.075
  1

100
AcDbText
  0
TEXT
  5
16B5
100
AcDbEntity
  8
0
100
AcDbText
 10
43.33108
 20
18.17256
 30
0.0
 40
0.1
  1

 72
     1
 11
43.33108
 21
18.17256
 31
0.0
100
AcDbText
  0
TEXT
  5
16B6
100
AcDbEntity
  8
0
100
AcDbText
 10
49.480118
 20
15.032935
 30
0.0
 40
0.075
  1

100
AcDbText
  0
TEXT
  5
16B7
100
AcDbEntity
  8
0
100
AcDbText
 10
49.132411
 20
15.032935
 30
0.0
 40
0.075
  1

100
AcDbText
  0
TEXT
  5
16B8
100
AcDbEntity
  8
0
100
AcDbText
 10
49.209375
 20
11.814625
 30
0.0
 40
0.1
  1

 72
     1
 11
49.209375
 21
11.814625
 31
0.0
100
AcDbText
  0
TEXT
  5
16B9
100
AcDbEntity
  8
0
100
AcDbText
 10
55.358413
 20
8.675
 30
0.0
 40
0.075
  1

100
AcDbText
  0
TEXT
  5
16BA
100
AcDbEntity
  8
0
100
AcDbText
 10
55.010706
 20
8.675
 30
0.0
 40
0.075
  1

100
AcDbText
  0
TEXT
  5
16BB
100
AcDbEntity
  8
0
100
AcDbText
 10
54.91958
 20
18.205935
 30
0.0
 40
0.1
  1

 72
     1
 11
54.91958
 21
18.205935
 31
0.0
100
AcDbText
  0
TEXT
  5
16BC
100
AcDbEntity
  8
0
100
AcDbText
 10
61.068618
 20
15.06631
 30
0.0
 40
0.075
  1

100
AcDbText
  0
TEXT
  5
16BD
100
AcDbEntity
  8
0
100
AcDbText
 10
60.720911
 20
15.06631
 30
0.0
 40
0.075
  1

100
AcDbText
  0
TEXT
  5
16BE
100
AcDbEntity
  8
0
100
AcDbText
 10
41.601233
 20
18.641863
 30
0.0
 40
0.075
  1

 72
     1
 11
41.601233
 21
18.641863
 31
0.0
100
AcDbText
  0
TEXT
  5
16BF
100
AcDbEntity
  8
0
100
AcDbText
 10
41.601233
 20
18.141863
 30
0.0
 40
0.075
  1

 72
     1
 11
41.601233
 21
18.141863
 31
0.0
100
AcDbText
  0
TEXT
  5
16C0
100
AcDbEntity
  8
0
100
AcDbText
 10
41.601233
 20
17.641863
 30
0.0
 40
0.1
  1

 72
     1
 11
41.601233
 21
17.641863
 31
0.0
100
AcDbText
  0
TEXT
  5
16C1
100
AcDbEntity
  8
0
100
AcDbText
 10
41.413733
 20
11.641863
 30
0.0
 40
0.1
  1

100
AcDbText
  0
TEXT
  5
16C2
100
AcDbEntity
  8
0
100
AcDbText
 10
41.413733
 20
17.141863
 30
0.0
 40
0.1
  1

100
AcDbText
  0
TEXT
  5
16C3
100
AcDbEntity
  8
0
100
AcDbText
 10
51.927366
 20
18.641863
 30
0.0
 40
0.075
  1

 72
     1
 11
51.927366
 21
18.641863
 31
0.0
100
AcDbText
  0
TEXT
  5
16C4
100
AcDbEntity
  8
0
100
AcDbText
 10
51.927366
 20
18.141863
 30
0.0
 40
0.075
  1

 72
     1
 11
51.927366
 21
18.141863
 31
0.0
100
AcDbText
  0
TEXT
  5
16C5
100
AcDbEntity
  8
0
100
AcDbText
 10
51.927366
 20
17.641863
 30
0.0
 40
0.1
  1

 72
     1
 11
51.927366
 21
17.641863
 31
0.0
100
AcDbText
  0
TEXT
  5
16C6
100
AcDbEntity
  8
0
100
AcDbText
 10
51.739866
 20
11.641863
 30
0.0
 40
0.1
  1

100
AcDbText
  0
TEXT
  5
16C7
100
AcDbEntity
  8
0
100
AcDbText
 10
51.739866
 20
17.141863
 30
0.0
 40
0.1
  1

100
AcDbText
  0
TEXT
  5
16C8
100
AcDbEntity
  8
TEXT
100
AcDbText
 10
7.984375
 20
10.515625
 30
0.0
 40
0.125
  1
*
 41
0.8
 51
10.0
  7
ROMANS
100
AcDbText
  0
TEXT
  5
16C9
100
AcDbEntity
  8
TEXT
100
AcDbText
 10
7.984375
 20
5.015625
 30
0.0
 40
0.125
  1
*
 41
0.8
 51
10.0
  7
ROMANS
100
AcDbText
  0
TEXT
  5
16CA
100
AcDbEntity
  8
TEXT
100
AcDbText
 10
7.984375
 20
4.515625
 30
0.0
 40
0.125
  1
*
 41
0.8
 51
10.0
  7
ROMANS
100
AcDbText
  0
TEXT
  5
170B
100
AcDbEntity
  8
0
100
AcDbText
 10
42.183375
 20
8.203125
 30
0.0
 40
0.1
  1

 72
     1
 11
42.183375
 21
8.203125
 31
0.0
100
AcDbText
  0
TEXT
  5
170C
100
AcDbEntity
  8
0
100
AcDbText
 10
48.332413
 20
5.0635
 30
0.0
 40
0.075
  1

100
AcDbText
  0
TEXT
  5
170D
100
AcDbEntity
  8
0
100
AcDbText
 10
47.984706
 20
5.0635
 30
0.0
 40
0.075
  1

100
AcDbText
  0
TEXT
  5
170E
100
AcDbEntity
  8
0
100
AcDbText
 10
47.89358
 20
14.594435
 30
0.0
 40
0.1
  1

 72
     1
 11
47.89358
 21
14.594435
 31
0.0
100
AcDbText
  0
TEXT
  5
170F
100
AcDbEntity
  8
0
100
AcDbText
 10
54.042618
 20
11.45481
 30
0.0
 40
0.075
  1

100
AcDbText
  0
TEXT
  5
1710
100
AcDbEntity
  8
0
100
AcDbText
 10
53.694911
 20
11.45481
 30
0.0
 40
0.075
  1

100
AcDbText
  0
TEXT
  5
1711
100
AcDbEntity
  8
0
100
AcDbText
 10
53.771875
 20
8.2365
 30
0.0
 40
0.1
  1

 72
     1
 11
53.771875
 21
8.2365
 31
0.0
100
AcDbText
  0
TEXT
  5
1712
100
AcDbEntity
  8
0
100
AcDbText
 10
59.920913
 20
5.096875
 30
0.0
 40
0.075
  1

100
AcDbText
  0
TEXT
  5
1713
100
AcDbEntity
  8
0
100
AcDbText
 10
59.573206
 20
5.096875
 30
0.0
 40
0.075
  1

100
AcDbText
  0
TEXT
  5
1714
100
AcDbEntity
  8
0
100
AcDbText
 10
59.48208
 20
14.62781
 30
0.0
 40
0.1
  1

 72
     1
 11
59.48208
 21
14.62781
 31
0.0
100
AcDbText
  0
TEXT
  5
1715
100
AcDbEntity
  8
0
100
AcDbText
 10
65.631118
 20
11.488185
 30
0.0
 40
0.075
  1

100
AcDbText
  0
TEXT
  5
1716
100
AcDbEntity
  8
0
100
AcDbText
 10
65.283411
 20
11.488185
 30
0.0
 40
0.075
  1

100
AcDbText
  0
TEXT
  5
1717
100
AcDbEntity
  8
0
100
AcDbText
 10
46.163733
 20
15.063738
 30
0.0
 40
0.075
  1

 72
     1
 11
46.163733
 21
15.063738
 31
0.0
100
AcDbText
  0
TEXT
  5
1718
100
AcDbEntity
  8
0
100
AcDbText
 10
46.163733
 20
14.563738
 30
0.0
 40
0.075
  1

 72
     1
 11
46.163733
 21
14.563738
 31
0.0
100
AcDbText
  0
TEXT
  5
1719
100
AcDbEntity
  8
0
100
AcDbText
 10
46.163733
 20
14.063738
 30
0.0
 40
0.1
  1

 72
     1
 11
46.163733
 21
14.063738
 31
0.0
100
AcDbText
  0
TEXT
  5
171A
100
AcDbEntity
  8
0
100
AcDbText
 10
45.976233
 20
8.063738
 30
0.0
 40
0.1
  1

100
AcDbText
  0
TEXT
  5
171B
100
AcDbEntity
  8
0
100
AcDbText
 10
45.976233
 20
13.563738
 30
0.0
 40
0.1
  1

100
AcDbText
  0
TEXT
  5
171C
100
AcDbEntity
  8
0
100
AcDbText
 10
56.489866
 20
15.063738
 30
0.0
 40
0.075
  1

 72
     1
 11
56.489866
 21
15.063738
 31
0.0
100
AcDbText
  0
TEXT
  5
171D
100
AcDbEntity
  8
0
100
AcDbText
 10
56.489866
 20
14.563738
 30
0.0
 40
0.075
  1

 72
     1
 11
56.489866
 21
14.563738
 31
0.0
100
AcDbText
  0
TEXT
  5
171E
100
AcDbEntity
  8
0
100
AcDbText
 10
56.489866
 20
14.063738
 30
0.0
 40
0.1
  1

 72
     1
 11
56.489866
 21
14.063738
 31
0.0
100
AcDbText
  0
TEXT
  5
171F
100
AcDbEntity
  8
0
100
AcDbText
 10
56.302366
 20
8.063738
 30
0.0
 40
0.1
  1

100
AcDbText
  0
TEXT
  5
1720
100
AcDbEntity
  8
0
100
AcDbText
 10
56.302366
 20
13.563738
 30
0.0
 40
0.1
  1

100
AcDbText
  0
TEXT
  5
173B
100
AcDbEntity
  8
0
100
AcDbText
 10
32.995875
 20
19.359375
 30
0.0
 40
0.1
  1

 72
     1
 11
32.995875
 21
19.359375
 31
0.0
100
AcDbText
  0
TEXT
  5
173C
100
AcDbEntity
  8
0
100
AcDbText
 10
39.144913
 20
16.21975
 30
0.0
 40
0.075
  1

100
AcDbText
  0
TEXT
  5
173D
100
AcDbEntity
  8
0
100
AcDbText
 10
38.797206
 20
16.21975
 30
0.0
 40
0.075
  1

100
AcDbText
  0
TEXT
  5
173E
100
AcDbEntity
  8
0
100
AcDbText
 10
38.70608
 20
25.750685
 30
0.0
 40
0.1
  1

 72
     1
 11
38.70608
 21
25.750685
 31
0.0
100
AcDbText
  0
TEXT
  5
173F
100
AcDbEntity
  8
0
100
AcDbText
 10
44.855118
 20
22.61106
 30
0.0
 40
0.075
  1

100
AcDbText
  0
TEXT
  5
1740
100
AcDbEntity
  8
0
100
AcDbText
 10
44.507411
 20
22.61106
 30
0.0
 40
0.075
  1

100
AcDbText
  0
LINE
  5
1742
100
AcDbEntity
  8
0
100
AcDbLine
 10
4.953125
 20
13.171875
 30
0.0
 11
5.328125
 21
13.171875
 31
0.0
  0
LINE
  5
1743
100
AcDbEntity
  8
0
100
AcDbLine
 10
4.953125
 20
12.984375
 30
0.0
 11
5.328125
 21
12.984375
 31
0.0
  0
LINE
  5
1744
100
AcDbEntity
  8
0
100
AcDbLine
 10
4.953125
 20
13.171875
 30
0.0
 11
4.953125
 21
12.984375
 31
0.0
  0
LINE
  5
1745
100
AcDbEntity
  8
0
100
AcDbLine
 10
5.328125
 20
13.171875
 30
0.0
 11
5.328125
 21
12.984375
 31
0.0
  0
TEXT
  5
1746
100
AcDbEntity
  8
TEXT
100
AcDbText
 10
5.007292
 20
13.028125
 30
0.0
 40
0.1
  1
---
 72
     1
 11
5.140625
 21
13.028125
 31
0.0
100
AcDbText
  0
TEXT
  5
1747
100
AcDbEntity
  8
TEXT
100
AcDbText
 10
5.007292
 20
12.028125
 30
0.0
 40
0.1
  1
---
 72
     1
 11
5.140625
 21
12.028125
 31
0.0
100
AcDbText
  0
LINE
  5
1748
100
AcDbEntity
  8
0
100
AcDbLine
 10
4.953125
 20
11.984375
 30
0.0
 11
5.328125
 21
11.984375
 31
0.0
  0
LINE
  5
1749
100
AcDbEntity
  8
0
100
AcDbLine
 10
4.953125
 20
12.171875
 30
0.0
 11
5.328125
 21
12.171875
 31
0.0
  0
LINE
  5
174A
100
AcDbEntity
  8
0
100
AcDbLine
 10
4.953125
 20
12.171875
 30
0.0
 11
4.953125
 21
11.984375
 31
0.0
  0
LINE
  5
174B
100
AcDbEntity
  8
0
100
AcDbLine
 10
5.328125
 20
12.171875
 30
0.0
 11
5.328125
 21
11.984375
 31
0.0
  0
TEXT
  5
174C
100
AcDbEntity
  8
TEXT
100
AcDbText
 10
5.007292
 20
11.528125
 30
0.0
 40
0.1
  1
---
 72
     1
 11
5.140625
 21
11.528125
 31
0.0
100
AcDbText
  0
LINE
  5
174D
100
AcDbEntity
  8
0
100
AcDbLine
 10
4.953125
 20
11.484375
 30
0.0
 11
5.328125
 21
11.484375
 31
0.0
  0
LINE
  5
174E
100
AcDbEntity
  8
0
100
AcDbLine
 10
4.953125
 20
11.671875
 30
0.0
 11
5.328125
 21
11.671875
 31
0.0
  0
LINE
  5
174F
100
AcDbEntity
  8
0
100
AcDbLine
 10
4.953125
 20
11.671875
 30
0.0
 11
4.953125
 21
11.484375
 31
0.0
  0
LINE
  5
1750
100
AcDbEntity
  8
0
100
AcDbLine
 10
5.328125
 20
11.671875
 30
0.0
 11
5.328125
 21
11.484375
 31
0.0
  0
TEXT
  5
1751
100
AcDbEntity
  8
TEXT
100
AcDbText
 10
5.007292
 20
11.028125
 30
0.0
 40
0.1
  1
---
 72
     1
 11
5.140625
 21
11.028125
 31
0.0
100
AcDbText
  0
LINE
  5
1752
100
AcDbEntity
  8
0
100
AcDbLine
 10
4.953125
 20
10.984375
 30
0.0
 11
5.328125
 21
10.984375
 31
0.0
  0
LINE
  5
1753
100
AcDbEntity
  8
0
100
AcDbLine
 10
4.953125
 20
11.171875
 30
0.0
 11
5.328125
 21
11.171875
 31
0.0
  0
LINE
  5
1754
100
AcDbEntity
  8
0
100
AcDbLine
 10
4.953125
 20
11.171875
 30
0.0
 11
4.953125
 21
10.984375
 31
0.0
  0
LINE
  5
1755
100
AcDbEntity
  8
0
100
AcDbLine
 10
5.328125
 20
11.171875
 30
0.0
 11
5.328125
 21
10.984375
 31
0.0
  0
TEXT
  5
1756
100
AcDbEntity
  8
TEXT
100
AcDbText
 10
5.007292
 20
10.528125
 30
0.0
 40
0.1
  1
---
 72
     1
 11
5.140625
 21
10.528125
 31
0.0
100
AcDbText
  0
LINE
  5
1757
100
AcDbEntity
  8
0
100
AcDbLine
 10
4.953125
 20
10.484375
 30
0.0
 11
5.328125
 21
10.484375
 31
0.0
  0
LINE
  5
1758
100
AcDbEntity
  8
0
100
AcDbLine
 10
4.953125
 20
10.671875
 30
0.0
 11
5.328125
 21
10.671875
 31
0.0
  0
LINE
  5
1759
100
AcDbEntity
  8
0
100
AcDbLine
 10
4.953125
 20
10.671875
 30
0.0
 11
4.953125
 21
10.484375
 31
0.0
  0
LINE
  5
175A
100
AcDbEntity
  8
0
100
AcDbLine
 10
5.328125
 20
10.671875
 30
0.0
 11
5.328125
 21
10.484375
 31
0.0
  0
TEXT
  5
175B
100
AcDbEntity
  8
TEXT
100
AcDbText
 10
5.007292
 20
10.028125
 30
0.0
 40
0.1
  1
---
 72
     1
 11
5.140625
 21
10.028125
 31
0.0
100
AcDbText
  0
LINE
  5
175C
100
AcDbEntity
  8
0
100
AcDbLine
 10
4.953125
 20
9.984375
 30
0.0
 11
5.328125
 21
9.984375
 31
0.0
  0
LINE
  5
175D
100
AcDbEntity
  8
0
100
AcDbLine
 10
4.953125
 20
10.171875
 30
0.0
 11
5.328125
 21
10.171875
 31
0.0
  0
LINE
  5
175E
100
AcDbEntity
  8
0
100
AcDbLine
 10
4.953125
 20
10.171875
 30
0.0
 11
4.953125
 21
9.984375
 31
0.0
  0
LINE
  5
175F
100
AcDbEntity
  8
0
100
AcDbLine
 10
5.328125
 20
10.171875
 30
0.0
 11
5.328125
 21
9.984375
 31
0.0
  0
TEXT
  5
1760
100
AcDbEntity
  8
TEXT
100
AcDbText
 10
5.007292
 20
9.528125
 30
0.0
 40
0.1
  1
---
 72
     1
 11
5.140625
 21
9.528125
 31
0.0
100
AcDbText
  0
LINE
  5
1761
100
AcDbEntity
  8
0
100
AcDbLine
 10
4.953125
 20
9.484375
 30
0.0
 11
5.328125
 21
9.484375
 31
0.0
  0
LINE
  5
1762
100
AcDbEntity
  8
0
100
AcDbLine
 10
4.953125
 20
9.671875
 30
0.0
 11
5.328125
 21
9.671875
 31
0.0
  0
LINE
  5
1763
100
AcDbEntity
  8
0
100
AcDbLine
 10
4.953125
 20
9.671875
 30
0.0
 11
4.953125
 21
9.484375
 31
0.0
  0
LINE
  5
1764
100
AcDbEntity
  8
0
100
AcDbLine
 10
5.328125
 20
9.671875
 30
0.0
 11
5.328125
 21
9.484375
 31
0.0
  0
TEXT
  5
1765
100
AcDbEntity
  8
TEXT
100
AcDbText
 10
5.007292
 20
9.028125
 30
0.0
 40
0.1
  1
---
 72
     1
 11
5.140625
 21
9.028125
 31
0.0
100
AcDbText
  0
LINE
  5
1766
100
AcDbEntity
  8
0
100
AcDbLine
 10
4.953125
 20
8.984375
 30
0.0
 11
5.328125
 21
8.984375
 31
0.0
  0
LINE
  5
1767
100
AcDbEntity
  8
0
100
AcDbLine
 10
4.953125
 20
9.171875
 30
0.0
 11
5.328125
 21
9.171875
 31
0.0
  0
LINE
  5
1768
100
AcDbEntity
  8
0
100
AcDbLine
 10
4.953125
 20
9.171875
 30
0.0
 11
4.953125
 21
8.984375
 31
0.0
  0
LINE
  5
1769
100
AcDbEntity
  8
0
100
AcDbLine
 10
5.328125
 20
9.171875
 30
0.0
 11
5.328125
 21
8.984375
 31
0.0
  0
LINE
  5
176A
100
AcDbEntity
  8
0
100
AcDbLine
 10
1.203125
 20
13.671875
 30
0.0
 11
1.578125
 21
13.671875
 31
0.0
  0
LINE
  5
176B
100
AcDbEntity
  8
0
100
AcDbLine
 10
1.203125
 20
13.484375
 30
0.0
 11
1.578125
 21
13.484375
 31
0.0
  0
LINE
  5
176C
100
AcDbEntity
  8
0
100
AcDbLine
 10
1.203125
 20
13.671875
 30
0.0
 11
1.203125
 21
13.484375
 31
0.0
  0
LINE
  5
176D
100
AcDbEntity
  8
0
100
AcDbLine
 10
1.578125
 20
13.671875
 30
0.0
 11
1.578125
 21
13.484375
 31
0.0
  0
TEXT
  5
176E
100
AcDbEntity
  8
TEXT
100
AcDbText
 10
1.257292
 20
13.528125
 30
0.0
 40
0.1
  1
---
 72
     1
 11
1.390625
 21
13.528125
 31
0.0
100
AcDbText
  0
LINE
  5
176F
100
AcDbEntity
  8
0
100
AcDbLine
 10
4.953125
 20
4.171875
 30
0.0
 11
5.328125
 21
4.171875
 31
0.0
  0
LINE
  5
1770
100
AcDbEntity
  8
0
100
AcDbLine
 10
4.953125
 20
3.984375
 30
0.0
 11
5.328125
 21
3.984375
 31
0.0
  0
LINE
  5
1771
100
AcDbEntity
  8
0
100
AcDbLine
 10
4.953125
 20
4.671875
 30
0.0
 11
5.328125
 21
4.671875
 31
0.0
  0
LINE
  5
1772
100
AcDbEntity
  8
0
100
AcDbLine
 10
4.953125
 20
4.484375
 30
0.0
 11
5.328125
 21
4.484375
 31
0.0
  0
TEXT
  5
1773
100
AcDbEntity
  8
TEXT
100
AcDbText
 10
5.007292
 20
4.528125
 30
0.0
 40
0.1
  1
---
 72
     1
 11
5.140625
 21
4.528125
 31
0.0
100
AcDbText
  0
LINE
  5
1774
100
AcDbEntity
  8
0
100
AcDbLine
 10
4.953125
 20
5.171875
 30
0.0
 11
5.328125
 21
5.171875
 31
0.0
  0
LINE
  5
1775
100
AcDbEntity
  8
0
100
AcDbLine
 10
4.953125
 20
4.984375
 30
0.0
 11
5.328125
 21
4.984375
 31
0.0
  0
TEXT
  5
1776
100
AcDbEntity
  8
TEXT
100
AcDbText
 10
5.007292
 20
5.028125
 30
0.0
 40
0.1
  1
---
 72
     1
 11
5.140625
 21
5.028125
 31
0.0
100
AcDbText
  0
LINE
  5
1777
100
AcDbEntity
  8
0
100
AcDbLine
 10
4.953125
 20
4.671875
 30
0.0
 11
4.953125
 21
4.484375
 31
0.0
  0
TEXT
  5
1778
100
AcDbEntity
  8
TEXT
100
AcDbText
 10
5.007292
 20
4.028125
 30
0.0
 40
0.1
  1
---
 72
     1
 11
5.140625
 21
4.028125
 31
0.0
100
AcDbText
  0
LINE
  5
1779
100
AcDbEntity
  8
0
100
AcDbLine
 10
4.953125
 20
4.171875
 30
0.0
 11
4.953125
 21
3.984375
 31
0.0
  0
LINE
  5
177A
100
AcDbEntity
  8
0
100
AcDbLine
 10
4.953125
 20
5.171875
 30
0.0
 11
4.953125
 21
4.984375
 31
0.0
  0
LINE
  5
177B
100
AcDbEntity
  8
0
100
AcDbLine
 10
5.328125
 20
4.671875
 30
0.0
 11
5.328125
 21
4.484375
 31
0.0
  0
LINE
  5
177C
100
AcDbEntity
  8
0
100
AcDbLine
 10
5.328125
 20
4.171875
 30
0.0
 11
5.328125
 21
3.984375
 31
0.0
  0
LINE
  5
177D
100
AcDbEntity
  8
0
100
AcDbLine
 10
5.328125
 20
5.171875
 30
0.0
 11
5.328125
 21
4.984375
 31
0.0
  0
LINE
  5
177E
100
AcDbEntity
  8
0
100
AcDbLine
 10
5.328125
 20
6.671875
 30
0.0
 11
5.328125
 21
6.484375
 31
0.0
  0
LINE
  5
177F
100
AcDbEntity
  8
0
100
AcDbLine
 10
4.953125
 20
6.671875
 30
0.0
 11
4.953125
 21
6.484375
 31
0.0
  0
LINE
  5
1780
100
AcDbEntity
  8
0
100
AcDbLine
 10
4.953125
 20
5.671875
 30
0.0
 11
5.328125
 21
5.671875
 31
0.0
  0
LINE
  5
1781
100
AcDbEntity
  8
0
100
AcDbLine
 10
4.953125
 20
5.484375
 30
0.0
 11
5.328125
 21
5.484375
 31
0.0
  0
TEXT
  5
1782
100
AcDbEntity
  8
TEXT
100
AcDbText
 10
5.007292
 20
5.528125
 30
0.0
 40
0.1
  1
---
 72
     1
 11
5.140625
 21
5.528125
 31
0.0
100
AcDbText
  0
LINE
  5
1783
100
AcDbEntity
  8
0
100
AcDbLine
 10
4.953125
 20
6.171875
 30
0.0
 11
5.328125
 21
6.171875
 31
0.0
  0
LINE
  5
1784
100
AcDbEntity
  8
0
100
AcDbLine
 10
4.953125
 20
5.984375
 30
0.0
 11
5.328125
 21
5.984375
 31
0.0
  0
TEXT
  5
1785
100
AcDbEntity
  8
TEXT
100
AcDbText
 10
5.007292
 20
6.028125
 30
0.0
 40
0.1
  1
---
 72
     1
 11
5.140625
 21
6.028125
 31
0.0
100
AcDbText
  0
LINE
  5
1786
100
AcDbEntity
  8
0
100
AcDbLine
 10
4.953125
 20
6.484375
 30
0.0
 11
5.328125
 21
6.484375
 31
0.0
  0
LINE
  5
1787
100
AcDbEntity
  8
0
100
AcDbLine
 10
4.953125
 20
5.671875
 30
0.0
 11
4.953125
 21
5.484375
 31
0.0
  0
LINE
  5
1788
100
AcDbEntity
  8
0
100
AcDbLine
 10
4.953125
 20
6.171875
 30
0.0
 11
4.953125
 21
5.984375
 31
0.0
  0
LINE
  5
1789
100
AcDbEntity
  8
0
100
AcDbLine
 10
5.328125
 20
5.671875
 30
0.0
 11
5.328125
 21
5.484375
 31
0.0
  0
LINE
  5
178A
100
AcDbEntity
  8
0
100
AcDbLine
 10
5.328125
 20
6.171875
 30
0.0
 11
5.328125
 21
5.984375
 31
0.0
  0
LINE
  5
178B
100
AcDbEntity
  8
0
100
AcDbLine
 10
4.953125
 20
6.671875
 30
0.0
 11
5.328125
 21
6.671875
 31
0.0
  0
TEXT
  5
178C
100
AcDbEntity
  8
TEXT
100
AcDbText
 10
5.007292
 20
6.528125
 30
0.0
 40
0.1
  1
---
 72
     1
 11
5.140625
 21
6.528125
 31
0.0
100
AcDbText
  0
LINE
  5
178D
100
AcDbEntity
  8
0
100
AcDbLine
 10
4.953125
 20
7.171875
 30
0.0
 11
5.328125
 21
7.171875
 31
0.0
  0
LINE
  5
178E
100
AcDbEntity
  8
0
100
AcDbLine
 10
4.953125
 20
6.984375
 30
0.0
 11
5.328125
 21
6.984375
 31
0.0
  0
TEXT
  5
178F
100
AcDbEntity
  8
TEXT
100
AcDbText
 10
5.007292
 20
7.028125
 30
0.0
 40
0.1
  1
---
 72
     1
 11
5.140625
 21
7.028125
 31
0.0
100
AcDbText
  0
LINE
  5
1790
100
AcDbEntity
  8
0
100
AcDbLine
 10
4.953125
 20
7.671875
 30
0.0
 11
5.328125
 21
7.671875
 31
0.0
  0
LINE
  5
1791
100
AcDbEntity
  8
0
100
AcDbLine
 10
4.953125
 20
7.484375
 30
0.0
 11
5.328125
 21
7.484375
 31
0.0
  0
TEXT
  5
1792
100
AcDbEntity
  8
TEXT
100
AcDbText
 10
5.007292
 20
7.528125
 30
0.0
 40
0.1
  1
---
 72
     1
 11
5.140625
 21
7.528125
 31
0.0
100
AcDbText
  0
LINE
  5
1793
100
AcDbEntity
  8
0
100
AcDbLine
 10
4.953125
 20
7.171875
 30
0.0
 11
4.953125
 21
6.984375
 31
0.0
  0
LINE
  5
1794
100
AcDbEntity
  8
0
100
AcDbLine
 10
4.953125
 20
7.671875
 30
0.0
 11
4.953125
 21
7.484375
 31
0.0
  0
LINE
  5
1795
100
AcDbEntity
  8
0
100
AcDbLine
 10
5.328125
 20
7.171875
 30
0.0
 11
5.328125
 21
6.984375
 31
0.0
  0
LINE
  5
1796
100
AcDbEntity
  8
0
100
AcDbLine
 10
5.328125
 20
7.671875
 30
0.0
 11
5.328125
 21
7.484375
 31
0.0
  0
TEXT
  5
1797
100
AcDbEntity
  8
TEXT
100
AcDbText
 10
5.007292
 20
8.028125
 30
0.0
 40
0.1
  1
---
 72
     1
 11
5.140625
 21
8.028125
 31
0.0
100
AcDbText
  0
LINE
  5
1798
100
AcDbEntity
  8
0
100
AcDbLine
 10
4.953125
 20
7.984375
 30
0.0
 11
5.328125
 21
7.984375
 31
0.0
  0
LINE
  5
1799
100
AcDbEntity
  8
0
100
AcDbLine
 10
4.953125
 20
8.171875
 30
0.0
 11
5.328125
 21
8.171875
 31
0.0
  0
LINE
  5
179A
100
AcDbEntity
  8
0
100
AcDbLine
 10
4.953125
 20
8.171875
 30
0.0
 11
4.953125
 21
7.984375
 31
0.0
  0
LINE
  5
179B
100
AcDbEntity
  8
0
100
AcDbLine
 10
5.328125
 20
8.171875
 30
0.0
 11
5.328125
 21
7.984375
 31
0.0
  0
LINE
  5
179C
100
AcDbEntity
  8
0
100
AcDbLine
 10
1.1875
 20
4.484375
 30
0.0
 11
1.5625
 21
4.484375
 31
0.0
  0
LINE
  5
179D
100
AcDbEntity
  8
0
100
AcDbLine
 10
1.1875
 20
4.671875
 30
0.0
 11
1.5625
 21
4.671875
 31
0.0
  0
TEXT
  5
179E
100
AcDbEntity
  8
TEXT
100
AcDbText
 10
1.241667
 20
4.528125
 30
0.0
 40
0.1
  1
---
 72
     1
 11
1.375
 21
4.528125
 31
0.0
100
AcDbText
  0
LINE
  5
179F
100
AcDbEntity
  8
0
100
AcDbLine
 10
1.1875
 20
4.671875
 30
0.0
 11
1.1875
 21
4.484375
 31
0.0
  0
LINE
  5
17A0
100
AcDbEntity
  8
0
100
AcDbLine
 10
1.5625
 20
4.671875
 30
0.0
 11
1.5625
 21
4.484375
 31
0.0
  0
TEXT
  5
1855
100
AcDbEntity
  8
TEXT
100
AcDbText
 10
7.1875
 20
7.015625
 30
0.0
 40
0.125
  1
I-.-.27
 41
0.8
 51
10.0
  7
ROMANS
100
AcDbText
  0
TEXT
  5
1856
100
AcDbEntity
  8
TEXT
100
AcDbText
 10
7.1875
 20
6.515625
 30
0.0
 40
0.125
  1
I-.-.28
 41
0.8
 51
10.0
  7
ROMANS
100
AcDbText
  0
TEXT
  5
1857
100
AcDbEntity
  8
TEXT
100
AcDbText
 10
7.1875
 20
6.015625
 30
0.0
 40
0.125
  1
I-.-.29
 41
0.8
 51
10.0
  7
ROMANS
100
AcDbText
  0
TEXT
  5
1858
100
AcDbEntity
  8
TEXT
100
AcDbText
 10
7.1875
 20
5.015625
 30
0.0
 40
0.125
  1
I-.-.31
 41
0.8
 51
10.0
  7
ROMANS
100
AcDbText
  0
TEXT
  5
1859
100
AcDbEntity
  8
TEXT
100
AcDbText
 10
7.1875
 20
5.515625
 30
0.0
 40
0.125
  1
I-.-.30
 41
0.8
 51
10.0
  7
ROMANS
100
AcDbText
  0
TEXT
  5
185A
100
AcDbEntity
  8
TEXT
100
AcDbText
 10
7.1875
 20
4.515625
 30
0.0
 40
0.125
  1
I-.-.32
 41
0.8
 51
10.0
  7
ROMANS
100
AcDbText
  0
TEXT
  5
185B
100
AcDbEntity
  8
TEXT
100
AcDbText
 10
6.390625
 20
4.515625
 30
0.0
 40
0.125
  1
DCIN32
 41
0.8
 51
10.0
  7
ROMANS
100
AcDbText
  0
TEXT
  5
185C
100
AcDbEntity
  8
TEXT
100
AcDbText
 10
6.390625
 20
4.015625
 30
0.0
 40
0.125
  1
DCSS4
 41
0.8
 51
10.0
  7
ROMANS
100
AcDbText
  0
LINE
  5
185D
100
AcDbEntity
  8
0
100
AcDbLine
 10
6.078125
 20
4.203125
 30
0.0
 11
6.078125
 21
3.953125
 31
0.0
  0
LINE
  5
185E
100
AcDbEntity
  8
0
100
AcDbLine
 10
6.328125
 20
3.953125
 30
0.0
 11
6.078125
 21
3.953125
 31
0.0
  0
TEXT
  5
185F
100
AcDbEntity
  8
TEXT
100
AcDbText
 10
6.107887
 20
4.015625
 30
0.0
 40
0.125
  1
40
 41
0.8
 51
10.0
  7
ROMANS
 72
     1
 11
6.203125
 21
4.015625
 31
0.0
100
AcDbText
  0
LINE
  5
1860
100
AcDbEntity
  8
0
100
AcDbLine
 10
6.328125
 20
4.203125
 30
0.0
 11
6.078125
 21
4.203125
 31
0.0
  0
TEXT
  5
1861
100
AcDbEntity
  8
TEXT
100
AcDbText
 10
6.110268
 20
4.515625
 30
0.0
 40
0.125
  1
39
 41
0.8
 51
10.0
  7
ROMANS
 72
     1
 11
6.203125
 21
4.515625
 31
0.0
100
AcDbText
  0
LINE
  5
1862
100
AcDbEntity
  8
0
100
AcDbLine
 10
6.078125
 20
4.703125
 30
0.0
 11
6.078125
 21
4.453125
 31
0.0
  0
LINE
  5
1863
100
AcDbEntity
  8
0
100
AcDbLine
 10
6.328125
 20
4.453125
 30
0.0
 11
6.078125
 21
4.453125
 31
0.0
  0
LINE
  5
1864
100
AcDbEntity
  8
0
100
AcDbLine
 10
6.328125
 20
4.703125
 30
0.0
 11
6.078125
 21
4.703125
 31
0.0
  0
LINE
  5
1865
100
AcDbEntity
  8
0
100
AcDbLine
 10
6.078125
 20
6.203125
 30
0.0
 11
6.078125
 21
5.953125
 31
0.0
  0
TEXT
  5
1866
100
AcDbEntity
  8
TEXT
100
AcDbText
 10
6.390625
 20
6.015625
 30
0.0
 40
0.125
  1
DCIN29
 41
0.8
 51
10.0
  7
ROMANS
100
AcDbText
  0
TEXT
  5
1867
100
AcDbEntity
  8
TEXT
100
AcDbText
 10
6.390625
 20
5.515625
 30
0.0
 40
0.125
  1
DCIN30
 41
0.8
 51
10.0
  7
ROMANS
100
AcDbText
  0
TEXT
  5
1868
100
AcDbEntity
  8
TEXT
100
AcDbText
 10
6.390625
 20
5.015625
 30
0.0
 40
0.125
  1
DCIN31
 41
0.8
 51
10.0
  7
ROMANS
100
AcDbText
  0
TEXT
  5
1869
100
AcDbEntity
  8
TEXT
100
AcDbText
 10
6.107887
 20
5.515625
 30
0.0
 40
0.125
  1
37
 41
0.8
 51
10.0
  7
ROMANS
 72
     1
 11
6.203125
 21
5.515625
 31
0.0
100
AcDbText
  0
LINE
  5
186A
100
AcDbEntity
  8
0
100
AcDbLine
 10
6.078125
 20
5.703125
 30
0.0
 11
6.078125
 21
5.453125
 31
0.0
  0
TEXT
  5
186B
100
AcDbEntity
  8
TEXT
100
AcDbText
 10
6.107887
 20
5.015625
 30
0.0
 40
0.125
  1
38
 41
0.8
 51
10.0
  7
ROMANS
 72
     1
 11
6.203125
 21
5.015625
 31
0.0
100
AcDbText
  0
LINE
  5
186C
100
AcDbEntity
  8
0
100
AcDbLine
 10
6.328125
 20
5.203125
 30
0.0
 11
6.078125
 21
5.203125
 31
0.0
  0
LINE
  5
186D
100
AcDbEntity
  8
0
100
AcDbLine
 10
6.328125
 20
4.953125
 30
0.0
 11
6.078125
 21
4.953125
 31
0.0
  0
LINE
  5
186E
100
AcDbEntity
  8
0
100
AcDbLine
 10
6.078125
 20
5.203125
 30
0.0
 11
6.078125
 21
4.953125
 31
0.0
  0
LINE
  5
186F
100
AcDbEntity
  8
0
100
AcDbLine
 10
6.328125
 20
5.453125
 30
0.0
 11
6.078125
 21
5.453125
 31
0.0
  0
LINE
  5
1870
100
AcDbEntity
  8
0
100
AcDbLine
 10
6.328125
 20
5.703125
 30
0.0
 11
6.078125
 21
5.703125
 31
0.0
  0
TEXT
  5
1871
100
AcDbEntity
  8
TEXT
100
AcDbText
 10
6.107887
 20
6.015625
 30
0.0
 40
0.125
  1
36
 41
0.8
 51
10.0
  7
ROMANS
 72
     1
 11
6.203125
 21
6.015625
 31
0.0
100
AcDbText
  0
LINE
  5
1872
100
AcDbEntity
  8
0
100
AcDbLine
 10
6.328125
 20
5.953125
 30
0.0
 11
6.078125
 21
5.953125
 31
0.0
  0
TEXT
  5
1873
100
AcDbEntity
  8
TEXT
100
AcDbText
 10
6.390625
 20
7.015625
 30
0.0
 40
0.125
  1
DCIN27
 41
0.8
 51
10.0
  7
ROMANS
100
AcDbText
  0
TEXT
  5
1874
100
AcDbEntity
  8
TEXT
100
AcDbText
 10
6.390625
 20
6.515625
 30
0.0
 40
0.125
  1
DCIN28
 41
0.8
 51
10.0
  7
ROMANS
100
AcDbText
  0
LINE
  5
1875
100
AcDbEntity
  8
0
100
AcDbLine
 10
6.078125
 20
6.703125
 30
0.0
 11
6.078125
 21
6.453125
 31
0.0
  0
LINE
  5
1876
100
AcDbEntity
  8
0
100
AcDbLine
 10
6.328125
 20
6.203125
 30
0.0
 11
6.078125
 21
6.203125
 31
0.0
  0
LINE
  5
1877
100
AcDbEntity
  8
0
100
AcDbLine
 10
6.328125
 20
6.453125
 30
0.0
 11
6.078125
 21
6.453125
 31
0.0
  0
TEXT
  5
1878
100
AcDbEntity
  8
TEXT
100
AcDbText
 10
6.107887
 20
6.515625
 30
0.0
 40
0.125
  1
35
 41
0.8
 51
10.0
  7
ROMANS
 72
     1
 11
6.203125
 21
6.515625
 31
0.0
100
AcDbText
  0
LINE
  5
1879
100
AcDbEntity
  8
0
100
AcDbLine
 10
6.328125
 20
6.703125
 30
0.0
 11
6.078125
 21
6.703125
 31
0.0
  0
TEXT
  5
187A
100
AcDbEntity
  8
TEXT
100
AcDbText
 10
6.105506
 20
7.015625
 30
0.0
 40
0.125
  1
34
 41
0.8
 51
10.0
  7
ROMANS
 72
     1
 11
6.203125
 21
7.015625
 31
0.0
100
AcDbText
  0
LINE
  5
187B
100
AcDbEntity
  8
0
100
AcDbLine
 10
6.078125
 20
7.203125
 30
0.0
 11
6.078125
 21
6.953125
 31
0.0
  0
LINE
  5
187C
100
AcDbEntity
  8
0
100
AcDbLine
 10
6.328125
 20
6.953125
 30
0.0
 11
6.078125
 21
6.953125
 31
0.0
  0
LINE
  5
187D
100
AcDbEntity
  8
0
100
AcDbLine
 10
6.328125
 20
7.203125
 30
0.0
 11
6.078125
 21
7.203125
 31
0.0
  0
TEXT
  5
187E
100
AcDbEntity
  8
TEXT
100
AcDbText
 10
7.1875
 20
10.515625
 30
0.0
 40
0.125
  1
I-.-.22
 41
0.8
 51
10.0
  7
ROMANS
100
AcDbText
  0
TEXT
  5
187F
100
AcDbEntity
  8
TEXT
100
AcDbText
 10
7.1875
 20
10.015625
 30
0.0
 40
0.125
  1
I-.-.23
 41
0.8
 51
10.0
  7
ROMANS
100
AcDbText
  0
TEXT
  5
1880
100
AcDbEntity
  8
TEXT
100
AcDbText
 10
7.1875
 20
11.015625
 30
0.0
 40
0.125
  1
I-.-.21
 41
0.8
 51
10.0
  7
ROMANS
100
AcDbText
  0
TEXT
  5
1881
100
AcDbEntity
  8
TEXT
100
AcDbText
 10
7.1875
 20
11.515625
 30
0.0
 40
0.125
  1
I-.-.20
 41
0.8
 51
10.0
  7
ROMANS
100
AcDbText
  0
TEXT
  5
1882
100
AcDbEntity
  8
TEXT
100
AcDbText
 10
7.1875
 20
12.015625
 30
0.0
 40
0.125
  1
I-.-.19
 41
0.8
 51
10.0
  7
ROMANS
100
AcDbText
  0
TEXT
  5
1883
100
AcDbEntity
  8
TEXT
100
AcDbText
 10
7.1875
 20
8.015625
 30
0.0
 40
0.125
  1
I-.-.25
 41
0.8
 51
10.0
  7
ROMANS
100
AcDbText
  0
TEXT
  5
1884
100
AcDbEntity
  8
TEXT
100
AcDbText
 10
7.1875
 20
7.515625
 30
0.0
 40
0.125
  1
I-.-.26
 41
0.8
 51
10.0
  7
ROMANS
100
AcDbText
  0
TEXT
  5
1885
100
AcDbEntity
  8
TEXT
100
AcDbText
 10
7.1875
 20
9.515625
 30
0.0
 40
0.125
  1
I-.-.24
 41
0.8
 51
10.0
  7
ROMANS
100
AcDbText
  0
TEXT
  5
1886
100
AcDbEntity
  8
TEXT
100
AcDbText
 10
6.122173
 20
8.515625
 30
0.0
 40
0.125
  1
31
 41
0.8
 51
10.0
  7
ROMANS
 72
     1
 11
6.203125
 21
8.515625
 31
0.0
100
AcDbText
  0
LINE
  5
1887
100
AcDbEntity
  8
0
100
AcDbLine
 10
6.078125
 20
8.703125
 30
0.0
 11
6.078125
 21
8.453125
 31
0.0
  0
TEXT
  5
1888
100
AcDbEntity
  8
TEXT
100
AcDbText
 10
6.390625
 20
8.015625
 30
0.0
 40
0.125
  1
DCIN25
 41
0.8
 51
10.0
  7
ROMANS
100
AcDbText
  0
TEXT
  5
1889
100
AcDbEntity
  8
TEXT
100
AcDbText
 10
6.390625
 20
7.515625
 30
0.0
 40
0.125
  1
DCIN26
 41
0.8
 51
10.0
  7
ROMANS
100
AcDbText
  0
LINE
  5
188A
100
AcDbEntity
  8
0
100
AcDbLine
 10
6.078125
 20
8.203125
 30
0.0
 11
6.078125
 21
7.953125
 31
0.0
  0
LINE
  5
188B
100
AcDbEntity
  8
0
100
AcDbLine
 10
6.078125
 20
7.703125
 30
0.0
 11
6.078125
 21
7.453125
 31
0.0
  0
TEXT
  5
188C
100
AcDbEntity
  8
TEXT
100
AcDbText
 10
6.107887
 20
7.515625
 30
0.0
 40
0.125
  1
33
 41
0.8
 51
10.0
  7
ROMANS
 72
     1
 11
6.203125
 21
7.515625
 31
0.0
100
AcDbText
  0
LINE
  5
188D
100
AcDbEntity
  8
0
100
AcDbLine
 10
6.328125
 20
7.453125
 30
0.0
 11
6.078125
 21
7.453125
 31
0.0
  0
LINE
  5
188E
100
AcDbEntity
  8
0
100
AcDbLine
 10
6.328125
 20
7.703125
 30
0.0
 11
6.078125
 21
7.703125
 31
0.0
  0
LINE
  5
188F
100
AcDbEntity
  8
0
100
AcDbLine
 10
6.328125
 20
7.953125
 30
0.0
 11
6.078125
 21
7.953125
 31
0.0
  0
TEXT
  5
1890
100
AcDbEntity
  8
TEXT
100
AcDbText
 10
6.107887
 20
8.015625
 30
0.0
 40
0.125
  1
32
 41
0.8
 51
10.0
  7
ROMANS
 72
     1
 11
6.203125
 21
8.015625
 31
0.0
100
AcDbText
  0
LINE
  5
1891
100
AcDbEntity
  8
0
100
AcDbLine
 10
6.328125
 20
8.203125
 30
0.0
 11
6.078125
 21
8.203125
 31
0.0
  0
LINE
  5
1892
100
AcDbEntity
  8
0
100
AcDbLine
 10
6.328125
 20
8.453125
 30
0.0
 11
6.078125
 21
8.453125
 31
0.0
  0
TEXT
  5
1893
100
AcDbEntity
  8
TEXT
100
AcDbText
 10
6.390625
 20
9.015625
 30
0.0
 40
0.125
  1
DCSS3
 41
0.8
 51
10.0
  7
ROMANS
100
AcDbText
  0
TEXT
  5
1894
100
AcDbEntity
  8
TEXT
100
AcDbText
 10
6.390625
 20
9.515625
 30
0.0
 40
0.125
  1
DCIN24
 41
0.8
 51
10.0
  7
ROMANS
100
AcDbText
  0
LINE
  5
1895
100
AcDbEntity
  8
0
100
AcDbLine
 10
6.328125
 20
8.703125
 30
0.0
 11
6.078125
 21
8.703125
 31
0.0
  0
TEXT
  5
1896
100
AcDbEntity
  8
TEXT
100
AcDbText
 10
6.107887
 20
9.015625
 30
0.0
 40
0.125
  1
30
 41
0.8
 51
10.0
  7
ROMANS
 72
     1
 11
6.203125
 21
9.015625
 31
0.0
100
AcDbText
  0
LINE
  5
1897
100
AcDbEntity
  8
0
100
AcDbLine
 10
6.328125
 20
9.203125
 30
0.0
 11
6.078125
 21
9.203125
 31
0.0
  0
LINE
  5
1898
100
AcDbEntity
  8
0
100
AcDbLine
 10
6.328125
 20
8.953125
 30
0.0
 11
6.078125
 21
8.953125
 31
0.0
  0
LINE
  5
1899
100
AcDbEntity
  8
0
100
AcDbLine
 10
6.078125
 20
9.203125
 30
0.0
 11
6.078125
 21
8.953125
 31
0.0
  0
TEXT
  5
189A
100
AcDbEntity
  8
TEXT
100
AcDbText
 10
6.110268
 20
9.515625
 30
0.0
 40
0.125
  1
29
 41
0.8
 51
10.0
  7
ROMANS
 72
     1
 11
6.203125
 21
9.515625
 31
0.0
100
AcDbText
  0
LINE
  5
189B
100
AcDbEntity
  8
0
100
AcDbLine
 10
6.078125
 20
9.703125
 30
0.0
 11
6.078125
 21
9.453125
 31
0.0
  0
LINE
  5
189C
100
AcDbEntity
  8
0
100
AcDbLine
 10
6.328125
 20
9.453125
 30
0.0
 11
6.078125
 21
9.453125
 31
0.0
  0
LINE
  5
189D
100
AcDbEntity
  8
0
100
AcDbLine
 10
6.328125
 20
9.703125
 30
0.0
 11
6.078125
 21
9.703125
 31
0.0
  0
TEXT
  5
189E
100
AcDbEntity
  8
TEXT
100
AcDbText
 10
6.107887
 20
11.015625
 30
0.0
 40
0.125
  1
26
 41
0.8
 51
10.0
  7
ROMANS
 72
     1
 11
6.203125
 21
11.015625
 31
0.0
100
AcDbText
  0
LINE
  5
189F
100
AcDbEntity
  8
0
100
AcDbLine
 10
6.078125
 20
11.203125
 30
0.0
 11
6.078125
 21
10.953125
 31
0.0
  0
TEXT
  5
18A0
100
AcDbEntity
  8
TEXT
100
AcDbText
 10
6.390625
 20
11.015625
 30
0.0
 40
0.125
  1
DCIN21
 41
0.8
 51
10.0
  7
ROMANS
100
AcDbText
  0
TEXT
  5
18A1
100
AcDbEntity
  8
TEXT
100
AcDbText
 10
6.390625
 20
10.015625
 30
0.0
 40
0.125
  1
DCIN23
 41
0.8
 51
10.0
  7
ROMANS
100
AcDbText
  0
TEXT
  5
18A2
100
AcDbEntity
  8
TEXT
100
AcDbText
 10
6.390625
 20
10.515625
 30
0.0
 40
0.125
  1
DCIN22
 41
0.8
 51
10.0
  7
ROMANS
100
AcDbText
  0
LINE
  5
18A3
100
AcDbEntity
  8
0
100
AcDbLine
 10
6.078125
 20
10.703125
 30
0.0
 11
6.078125
 21
10.453125
 31
0.0
  0
LINE
  5
18A4
100
AcDbEntity
  8
0
100
AcDbLine
 10
6.078125
 20
10.203125
 30
0.0
 11
6.078125
 21
9.953125
 31
0.0
  0
TEXT
  5
18A5
100
AcDbEntity
  8
TEXT
100
AcDbText
 10
6.107887
 20
10.015625
 30
0.0
 40
0.125
  1
28
 41
0.8
 51
10.0
  7
ROMANS
 72
     1
 11
6.203125
 21
10.015625
 31
0.0
100
AcDbText
  0
LINE
  5
18A6
100
AcDbEntity
  8
0
100
AcDbLine
 10
6.328125
 20
9.953125
 30
0.0
 11
6.078125
 21
9.953125
 31
0.0
  0
LINE
  5
18A7
100
AcDbEntity
  8
0
100
AcDbLine
 10
6.328125
 20
10.203125
 30
0.0
 11
6.078125
 21
10.203125
 31
0.0
  0
LINE
  5
18A8
100
AcDbEntity
  8
0
100
AcDbLine
 10
6.328125
 20
10.453125
 30
0.0
 11
6.078125
 21
10.453125
 31
0.0
  0
TEXT
  5
18A9
100
AcDbEntity
  8
TEXT
100
AcDbText
 10
6.107887
 20
10.515625
 30
0.0
 40
0.125
  1
27
 41
0.8
 51
10.0
  7
ROMANS
 72
     1
 11
6.203125
 21
10.515625
 31
0.0
100
AcDbText
  0
LINE
  5
18AA
100
AcDbEntity
  8
0
100
AcDbLine
 10
6.328125
 20
10.703125
 30
0.0
 11
6.078125
 21
10.703125
 31
0.0
  0
LINE
  5
18AB
100
AcDbEntity
  8
0
100
AcDbLine
 10
6.328125
 20
10.953125
 30
0.0
 11
6.078125
 21
10.953125
 31
0.0
  0
TEXT
  5
18AC
100
AcDbEntity
  8
TEXT
100
AcDbText
 10
6.390625
 20
11.515625
 30
0.0
 40
0.125
  1
DCIN20
 41
0.8
 51
10.0
  7
ROMANS
100
AcDbText
  0
TEXT
  5
18AD
100
AcDbEntity
  8
TEXT
100
AcDbText
 10
6.390625
 20
12.015625
 30
0.0
 40
0.125
  1
DCIN19
 41
0.8
 51
10.0
  7
ROMANS
100
AcDbText
  0
LINE
  5
18AE
100
AcDbEntity
  8
0
100
AcDbLine
 10
6.328125
 20
11.203125
 30
0.0
 11
6.078125
 21
11.203125
 31
0.0
  0
TEXT
  5
18AF
100
AcDbEntity
  8
TEXT
100
AcDbText
 10
6.107887
 20
11.515625
 30
0.0
 40
0.125
  1
25
 41
0.8
 51
10.0
  7
ROMANS
 72
     1
 11
6.203125
 21
11.515625
 31
0.0
100
AcDbText
  0
LINE
  5
18B0
100
AcDbEntity
  8
0
100
AcDbLine
 10
6.328125
 20
11.703125
 30
0.0
 11
6.078125
 21
11.703125
 31
0.0
  0
LINE
  5
18B1
100
AcDbEntity
  8
0
100
AcDbLine
 10
6.328125
 20
11.453125
 30
0.0
 11
6.078125
 21
11.453125
 31
0.0
  0
LINE
  5
18B2
100
AcDbEntity
  8
0
100
AcDbLine
 10
6.078125
 20
11.703125
 30
0.0
 11
6.078125
 21
11.453125
 31
0.0
  0
TEXT
  5
18B3
100
AcDbEntity
  8
TEXT
100
AcDbText
 10
6.105506
 20
12.015625
 30
0.0
 40
0.125
  1
24
 41
0.8
 51
10.0
  7
ROMANS
 72
     1
 11
6.203125
 21
12.015625
 31
0.0
100
AcDbText
  0
LINE
  5
18B4
100
AcDbEntity
  8
0
100
AcDbLine
 10
6.078125
 20
12.203125
 30
0.0
 11
6.078125
 21
11.953125
 31
0.0
  0
LINE
  5
18B5
100
AcDbEntity
  8
0
100
AcDbLine
 10
6.328125
 20
11.953125
 30
0.0
 11
6.078125
 21
11.953125
 31
0.0
  0
LINE
  5
18B6
100
AcDbEntity
  8
0
100
AcDbLine
 10
6.328125
 20
12.203125
 30
0.0
 11
6.078125
 21
12.203125
 31
0.0
  0
TEXT
  5
18B7
100
AcDbEntity
  8
TEXT
100
AcDbText
 10
7.1875
 20
12.515625
 30
0.0
 40
0.125
  1
I-.-.18
 41
0.8
 51
10.0
  7
ROMANS
100
AcDbText
  0
TEXT
  5
18B8
100
AcDbEntity
  8
TEXT
100
AcDbText
 10
7.1875
 20
13.015625
 30
0.0
 40
0.125
  1
I-.-.17
 41
0.8
 51
10.0
  7
ROMANS
100
AcDbText
  0
TEXT
  5
18B9
100
AcDbEntity
  8
TEXT
100
AcDbText
 10
6.573363
 20
14.469494
 30
0.0
 40
0.125
  1
24VDC INPUT
 41
0.8
  7
ROMANS
 72
     4
 11
7.078125
 21
14.531994
 31
0.0
100
AcDbText
  0
TEXT
  5
18BA
100
AcDbEntity
  8
TEXT
100
AcDbText
 10
6.611458
 20
14.680804
 30
0.0
 40
0.125
  1
CARD #--B
 41
0.8
  7
ROMANS
 72
     4
 11
7.078125
 21
14.734375
 31
0.0
100
AcDbText
  0
INSERT
  5
18BB
100
AcDbEntity
  8
TEXT
100
AcDbBlockReference
  2
TEMP5
 10
7.890625
 20
14.234375
 30
0.0
  0
TEXT
  5
18BC
100
AcDbEntity
  8
TEXT
100
AcDbText
 10
6.478125
 20
14.267113
 30
0.0
 40
0.125
  1
502-03605-00
 41
0.8
  7
ROMANS
 72
     4
 11
7.078125
 21
14.329613
 31
0.0
100
AcDbText
  0
LINE
  5
18BD
100
AcDbEntity
  8
DASH
100
AcDbLine
 10
7.875
 20
14.234375
 30
0.0
 11
6.328125
 21
14.234375
 31
0.0
  0
TEXT
  5
18BE
100
AcDbEntity
  8
TEXT
100
AcDbText
 10
6.390625
 20
12.515625
 30
0.0
 40
0.125
  1
DCIN18
 41
0.8
 51
10.0
  7
ROMANS
100
AcDbText
  0
TEXT
  5
18BF
100
AcDbEntity
  8
TEXT
100
AcDbText
 10
6.390625
 20
13.015625
 30
0.0
 40
0.125
  1
DCIN17
 41
0.8
 51
10.0
  7
ROMANS
100
AcDbText
  0
LINE
  5
18C0
100
AcDbEntity
  8
0
100
AcDbLine
 10
6.078125
 20
13.203125
 30
0.0
 11
6.078125
 21
12.953125
 31
0.0
  0
LINE
  5
18C1
100
AcDbEntity
  8
0
100
AcDbLine
 10
6.078125
 20
12.703125
 30
0.0
 11
6.078125
 21
12.453125
 31
0.0
  0
TEXT
  5
18C2
100
AcDbEntity
  8
TEXT
100
AcDbText
 10
6.107887
 20
12.515625
 30
0.0
 40
0.125
  1
23
 41
0.8
 51
10.0
  7
ROMANS
 72
     1
 11
6.203125
 21
12.515625
 31
0.0
100
AcDbText
  0
LINE
  5
18C3
100
AcDbEntity
  8
0
100
AcDbLine
 10
6.328125
 20
12.453125
 30
0.0
 11
6.078125
 21
12.453125
 31
0.0
  0
LINE
  5
18C4
100
AcDbEntity
  8
0
100
AcDbLine
 10
6.328125
 20
12.703125
 30
0.0
 11
6.078125
 21
12.703125
 31
0.0
  0
LINE
  5
18C5
100
AcDbEntity
  8
0
100
AcDbLine
 10
6.328125
 20
12.953125
 30
0.0
 11
6.078125
 21
12.953125
 31
0.0
  0
TEXT
  5
18C6
100
AcDbEntity
  8
TEXT
100
AcDbText
 10
6.107887
 20
13.015625
 30
0.0
 40
0.125
  1
22
 41
0.8
 51
10.0
  7
ROMANS
 72
     1
 11
6.203125
 21
13.015625
 31
0.0
100
AcDbText
  0
LINE
  5
18C7
100
AcDbEntity
  8
0
100
AcDbLine
 10
6.328125
 20
13.203125
 30
0.0
 11
6.078125
 21
13.203125
 31
0.0
  0
TEXT
  5
18D5
100
AcDbEntity
  8
TEXT
100
AcDbText
 10
7.984375
 20
11.515625
 30
0.0
 40
0.125
  1
*
 41
0.8
 51
10.0
  7
ROMANS
100
AcDbText
  0
TEXT
  5
18D6
100
AcDbEntity
  8
TEXT
100
AcDbText
 10
7.984375
 20
12.015625
 30
0.0
 40
0.125
  1
*
 41
0.8
 51
10.0
  7
ROMANS
100
AcDbText
  0
TEXT
  5
18D7
100
AcDbEntity
  8
TEXT
100
AcDbText
 10
5.007292
 20
12.528125
 30
0.0
 40
0.1
  1
---
 72
     1
 11
5.140625
 21
12.528125
 31
0.0
100
AcDbText
  0
LINE
  5
18D8
100
AcDbEntity
  8
0
100
AcDbLine
 10
4.953125
 20
12.484375
 30
0.0
 11
5.328125
 21
12.484375
 31
0.0
  0
LINE
  5
18D9
100
AcDbEntity
  8
0
100
AcDbLine
 10
4.953125
 20
12.671875
 30
0.0
 11
5.328125
 21
12.671875
 31
0.0
  0
LINE
  5
18DA
100
AcDbEntity
  8
0
100
AcDbLine
 10
4.953125
 20
12.671875
 30
0.0
 11
4.953125
 21
12.484375
 31
0.0
  0
LINE
  5
18DB
100
AcDbEntity
  8
0
100
AcDbLine
 10
5.328125
 20
12.671875
 30
0.0
 11
5.328125
 21
12.484375
 31
0.0
  0
LINE
  5
18DC
100
AcDbEntity
  8
0
100
AcDbLine
 10
6.078125
 20
12.578125
 30
0.0
 11
5.328125
 21
12.578125
 31
0.0
  0
TEXT
  5
1ADB
100
AcDbEntity
  8
TEXT
100
AcDbText
 10
7.984375
 20
9.515625
 30
0.0
 40
0.125
  1
*
 41
0.8
 51
10.0
  7
ROMANS
100
AcDbText
  0
TEXT
  5
1ADC
100
AcDbEntity
  8
TEXT
100
AcDbText
 10
7.984375
 20
10.015625
 30
0.0
 40
0.125
  1
*
 41
0.8
 51
10.0
  7
ROMANS
100
AcDbText
  0
TEXT
  5
1ADD
100
AcDbEntity
  8
TEXT
100
AcDbText
 10
0.5
 20
10.015625
 30
0.0
 40
0.125
  1
*
 41
0.8
 51
10.0
  7
ROMANS
100
AcDbText
  0
TEXT
  5
1ADE
100
AcDbEntity
  8
TEXT
100
AcDbText
 10
0.5
 20
9.515625
 30
0.0
 40
0.125
  1
*
 41
0.8
 51
10.0
  7
ROMANS
100
AcDbText
  0
TEXT
  5
1BFB
100
AcDbEntity
  8
0
100
AcDbText
 10
23.473625
 20
21.4065
 30
0.0
 40
0.1
  1

 72
     1
 11
23.473625
 21
21.4065
 31
0.0
100
AcDbText
  0
TEXT
  5
1BFC
100
AcDbEntity
  8
0
100
AcDbText
 10
29.622663
 20
18.266875
 30
0.0
 40
0.075
  1

100
AcDbText
  0
TEXT
  5
1BFD
100
AcDbEntity
  8
0
100
AcDbText
 10
29.274956
 20
18.266875
 30
0.0
 40
0.075
  1

100
AcDbText
  0
TEXT
  5
1BFE
100
AcDbEntity
  8
0
100
AcDbText
 10
29.18383
 20
27.79781
 30
0.0
 40
0.1
  1

 72
     1
 11
29.18383
 21
27.79781
 31
0.0
100
AcDbText
  0
TEXT
  5
1BFF
100
AcDbEntity
  8
0
100
AcDbText
 10
35.332868
 20
24.658185
 30
0.0
 40
0.075
  1

100
AcDbText
  0
TEXT
  5
1C00
100
AcDbEntity
  8
0
100
AcDbText
 10
34.985161
 20
24.658185
 30
0.0
 40
0.075
  1

100
AcDbText
  0
TEXT
  5
1C01
100
AcDbEntity
  8
0
100
AcDbText
 10
35.062125
 20
21.439875
 30
0.0
 40
0.1
  1

 72
     1
 11
35.062125
 21
21.439875
 31
0.0
100
AcDbText
  0
TEXT
  5
1C02
100
AcDbEntity
  8
0
100
AcDbText
 10
41.211163
 20
18.30025
 30
0.0
 40
0.075
  1

100
AcDbText
  0
TEXT
  5
1C03
100
AcDbEntity
  8
0
100
AcDbText
 10
40.863456
 20
18.30025
 30
0.0
 40
0.075
  1

100
AcDbText
  0
TEXT
  5
1C04
100
AcDbEntity
  8
0
100
AcDbText
 10
40.77233
 20
27.831185
 30
0.0
 40
0.1
  1

 72
     1
 11
40.77233
 21
27.831185
 31
0.0
100
AcDbText
  0
TEXT
  5
1C05
100
AcDbEntity
  8
0
100
AcDbText
 10
46.921368
 20
24.69156
 30
0.0
 40
0.075
  1

100
AcDbText
  0
TEXT
  5
1C06
100
AcDbEntity
  8
0
100
AcDbText
 10
46.573661
 20
24.69156
 30
0.0
 40
0.075
  1

100
AcDbText
  0
TEXT
  5
1C07
100
AcDbEntity
  8
0
100
AcDbText
 10
27.453983
 20
28.267113
 30
0.0
 40
0.075
  1

 72
     1
 11
27.453983
 21
28.267113
 31
0.0
100
AcDbText
  0
TEXT
  5
1C08
100
AcDbEntity
  8
0
100
AcDbText
 10
27.453983
 20
27.767113
 30
0.0
 40
0.075
  1

 72
     1
 11
27.453983
 21
27.767113
 31
0.0
100
AcDbText
  0
TEXT
  5
1C09
100
AcDbEntity
  8
0
100
AcDbText
 10
27.453983
 20
27.267113
 30
0.0
 40
0.1
  1

 72
     1
 11
27.453983
 21
27.267113
 31
0.0
100
AcDbText
  0
TEXT
  5
1C0A
100
AcDbEntity
  8
0
100
AcDbText
 10
27.266483
 20
21.267113
 30
0.0
 40
0.1
  1

100
AcDbText
  0
TEXT
  5
1C0B
100
AcDbEntity
  8
0
100
AcDbText
 10
27.266483
 20
26.767113
 30
0.0
 40
0.1
  1

100
AcDbText
  0
TEXT
  5
1C0C
100
AcDbEntity
  8
0
100
AcDbText
 10
37.780116
 20
28.267113
 30
0.0
 40
0.075
  1

 72
     1
 11
37.780116
 21
28.267113
 31
0.0
100
AcDbText
  0
TEXT
  5
1C0D
100
AcDbEntity
  8
0
100
AcDbText
 10
37.780116
 20
27.767113
 30
0.0
 40
0.075
  1

 72
     1
 11
37.780116
 21
27.767113
 31
0.0
100
AcDbText
  0
TEXT
  5
1C0E
100
AcDbEntity
  8
0
100
AcDbText
 10
37.780116
 20
27.267113
 30
0.0
 40
0.1
  1

 72
     1
 11
37.780116
 21
27.267113
 31
0.0
100
AcDbText
  0
TEXT
  5
1C0F
100
AcDbEntity
  8
0
100
AcDbText
 10
37.592616
 20
21.267113
 30
0.0
 40
0.1
  1

100
AcDbText
  0
TEXT
  5
1C10
100
AcDbEntity
  8
0
100
AcDbText
 10
37.592616
 20
26.767113
 30
0.0
 40
0.1
  1

100
AcDbText
  0
TEXT
  5
1C11
100
AcDbEntity
  8
0
100
AcDbText
 10
33.817375
 20
21.484625
 30
0.0
 40
0.1
  1

 72
     1
 11
33.817375
 21
21.484625
 31
0.0
100
AcDbText
  0
TEXT
  5
1C12
100
AcDbEntity
  8
0
100
AcDbText
 10
39.966413
 20
18.345
 30
0.0
 40
0.075
  1

100
AcDbText
  0
TEXT
  5
1C13
100
AcDbEntity
  8
0
100
AcDbText
 10
39.618706
 20
18.345
 30
0.0
 40
0.075
  1

100
AcDbText
  0
TEXT
  5
1C14
100
AcDbEntity
  8
0
100
AcDbText
 10
39.52758
 20
27.875935
 30
0.0
 40
0.1
  1

 72
     1
 11
39.52758
 21
27.875935
 31
0.0
100
AcDbText
  0
TEXT
  5
1C15
100
AcDbEntity
  8
0
100
AcDbText
 10
45.676618
 20
24.73631
 30
0.0
 40
0.075
  1

100
AcDbText
  0
TEXT
  5
1C16
100
AcDbEntity
  8
0
100
AcDbText
 10
45.328911
 20
24.73631
 30
0.0
 40
0.075
  1

100
AcDbText
  0
TEXT
  5
1C17
100
AcDbEntity
  8
0
100
AcDbText
 10
45.405875
 20
21.518
 30
0.0
 40
0.1
  1

 72
     1
 11
45.405875
 21
21.518
 31
0.0
100
AcDbText
  0
TEXT
  5
1C18
100
AcDbEntity
  8
0
100
AcDbText
 10
51.554913
 20
18.378375
 30
0.0
 40
0.075
  1

100
AcDbText
  0
TEXT
  5
1C19
100
AcDbEntity
  8
0
100
AcDbText
 10
51.207206
 20
18.378375
 30
0.0
 40
0.075
  1

100
AcDbText
  0
TEXT
  5
1C1A
100
AcDbEntity
  8
0
100
AcDbText
 10
51.11608
 20
27.90931
 30
0.0
 40
0.1
  1

 72
     1
 11
51.11608
 21
27.90931
 31
0.0
100
AcDbText
  0
TEXT
  5
1C1B
100
AcDbEntity
  8
0
100
AcDbText
 10
57.265118
 20
24.769685
 30
0.0
 40
0.075
  1

100
AcDbText
  0
TEXT
  5
1C1C
100
AcDbEntity
  8
0
100
AcDbText
 10
56.917411
 20
24.769685
 30
0.0
 40
0.075
  1

100
AcDbText
  0
TEXT
  5
1C1D
100
AcDbEntity
  8
0
100
AcDbText
 10
37.797733
 20
28.345238
 30
0.0
 40
0.075
  1

 72
     1
 11
37.797733
 21
28.345238
 31
0.0
100
AcDbText
  0
TEXT
  5
1C1E
100
AcDbEntity
  8
0
100
AcDbText
 10
37.797733
 20
27.845238
 30
0.0
 40
0.075
  1

 72
     1
 11
37.797733
 21
27.845238
 31
0.0
100
AcDbText
  0
TEXT
  5
1C1F
100
AcDbEntity
  8
0
100
AcDbText
 10
37.797733
 20
27.345238
 30
0.0
 40
0.1
  1

 72
     1
 11
37.797733
 21
27.345238
 31
0.0
100
AcDbText
  0
TEXT
  5
1C20
100
AcDbEntity
  8
0
100
AcDbText
 10
37.610233
 20
21.345238
 30
0.0
 40
0.1
  1

100
AcDbText
  0
TEXT
  5
1C21
100
AcDbEntity
  8
0
100
AcDbText
 10
37.610233
 20
26.845238
 30
0.0
 40
0.1
  1

100
AcDbText
  0
TEXT
  5
1C22
100
AcDbEntity
  8
0
100
AcDbText
 10
48.123866
 20
28.345238
 30
0.0
 40
0.075
  1

 72
     1
 11
48.123866
 21
28.345238
 31
0.0
100
AcDbText
  0
TEXT
  5
1C23
100
AcDbEntity
  8
0
100
AcDbText
 10
48.123866
 20
27.845238
 30
0.0
 40
0.075
  1

 72
     1
 11
48.123866
 21
27.845238
 31
0.0
100
AcDbText
  0
TEXT
  5
1C24
100
AcDbEntity
  8
0
100
AcDbText
 10
48.123866
 20
27.345238
 30
0.0
 40
0.1
  1

 72
     1
 11
48.123866
 21
27.345238
 31
0.0
100
AcDbText
  0
TEXT
  5
1C25
100
AcDbEntity
  8
0
100
AcDbText
 10
47.936366
 20
21.345238
 30
0.0
 40
0.1
  1

100
AcDbText
  0
TEXT
  5
1C26
100
AcDbEntity
  8
0
100
AcDbText
 10
47.936366
 20
26.845238
 30
0.0
 40
0.1
  1

100
AcDbText
  0
TEXT
  5
1C27
100
AcDbEntity
  8
0
100
AcDbText
 10
24.629875
 20
32.640875
 30
0.0
 40
0.1
  1

 72
     1
 11
24.629875
 21
32.640875
 31
0.0
100
AcDbText
  0
TEXT
  5
1C28
100
AcDbEntity
  8
0
100
AcDbText
 10
30.778913
 20
29.50125
 30
0.0
 40
0.075
  1

100
AcDbText
  0
TEXT
  5
1C29
100
AcDbEntity
  8
0
100
AcDbText
 10
30.431206
 20
29.50125
 30
0.0
 40
0.075
  1

100
AcDbText
  0
TEXT
  5
1C2A
100
AcDbEntity
  8
0
100
AcDbText
 10
30.34008
 20
39.032185
 30
0.0
 40
0.1
  1

 72
     1
 11
30.34008
 21
39.032185
 31
0.0
100
AcDbText
  0
TEXT
  5
1C2B
100
AcDbEntity
  8
0
100
AcDbText
 10
36.489118
 20
35.89256
 30
0.0
 40
0.075
  1

100
AcDbText
  0
TEXT
  5
1C2C
100
AcDbEntity
  8
0
100
AcDbText
 10
36.141411
 20
35.89256
 30
0.0
 40
0.075
  1

100
AcDbText
  0
TEXT
  5
1C2D
100
AcDbEntity
  8
0
100
AcDbText
 10
23.599275
 20
26.195
 30
0.0
 40
0.075
  1

 41
0.8
 51
10.0
  7
ROMANS
100
AcDbText
  0
TEXT
  5
1C2E
100
AcDbEntity
  8
0
100
AcDbText
 10
25.304025
 20
26.315875
 30
0.0
 40
0.1
  1

 41
0.8
 51
10.0
  7
ROMANS
100
AcDbText
  0
TEXT
  5
1C2F
100
AcDbEntity
  8
0
100
AcDbText
 10
25.304025
 20
15.815875
 30
0.0
 40
0.1
  1

 41
0.8
 51
10.0
  7
ROMANS
100
AcDbText
  0
TEXT
  5
1C30
100
AcDbEntity
  8
0
100
AcDbText
 10
25.304025
 20
24.679875
 30
0.0
 40
0.1
  1

 41
0.8
 51
10.0
  7
ROMANS
100
AcDbText
  0
TEXT
  5
1C31
100
AcDbEntity
  8
0
100
AcDbText
 10
25.304025
 20
23.965875
 30
0.0
 40
0.1
  1

 41
0.8
 51
10.0
  7
ROMANS
100
AcDbText
  0
TEXT
  5
1C32
100
AcDbEntity
  8
0
100
AcDbText
 10
25.304025
 20
24.465875
 30
0.0
 40
0.1
  1

 41
0.8
 51
10.0
  7
ROMANS
100
AcDbText
  0
TEXT
  5
1C33
100
AcDbEntity
  8
0
100
AcDbText
 10
23.729032
 20
22.665875
 30
0.0
 40
0.1
  1

100
AcDbText
  0
TEXT
  5
1C34
100
AcDbEntity
  8
0
100
AcDbText
 10
23.599275
 20
19.195
 30
0.0
 40
0.075
  1

 41
0.8
 51
10.0
  7
ROMANS
100
AcDbText
  0
TEXT
  5
1C35
100
AcDbEntity
  8
0
100
AcDbText
 10
34.045879
 20
25.616875
 30
0.0
 40
0.075
  1

 41
0.8
 51
10.0
  7
ROMANS
100
AcDbText
  0
TEXT
  5
1C36
100
AcDbEntity
  8
0
100
AcDbText
 10
35.750629
 20
25.73775
 30
0.0
 40
0.1
  1

 41
0.8
 51
10.0
  7
ROMANS
100
AcDbText
  0
TEXT
  5
1C37
100
AcDbEntity
  8
0
100
AcDbText
 10
35.750629
 20
15.23775
 30
0.0
 40
0.1
  1

 41
0.8
 51
10.0
  7
ROMANS
100
AcDbText
  0
TEXT
  5
1C38
100
AcDbEntity
  8
0
100
AcDbText
 10
35.750629
 20
24.10175
 30
0.0
 40
0.1
  1

 41
0.8
 51
10.0
  7
ROMANS
100
AcDbText
  0
TEXT
  5
1C39
100
AcDbEntity
  8
0
100
AcDbText
 10
35.750629
 20
23.38775
 30
0.0
 40
0.1
  1

 41
0.8
 51
10.0
  7
ROMANS
100
AcDbText
  0
TEXT
  5
1C3A
100
AcDbEntity
  8
0
100
AcDbText
 10
35.750629
 20
23.88775
 30
0.0
 40
0.1
  1

 41
0.8
 51
10.0
  7
ROMANS
100
AcDbText
  0
TEXT
  5
1C3B
100
AcDbEntity
  8
0
100
AcDbText
 10
34.175635
 20
22.08775
 30
0.0
 40
0.1
  1

100
AcDbText
  0
TEXT
  5
1C3C
100
AcDbEntity
  8
0
100
AcDbText
 10
34.045879
 20
18.616875
 30
0.0
 40
0.075
  1

 41
0.8
 51
10.0
  7
ROMANS
100
AcDbText
  0
TEXT
  5
1C3D
100
AcDbEntity
  8
0
100
AcDbText
 10
29.397946
 20
26.62525
 30
0.0
 40
0.075
  1

 72
     1
 11
29.397946
 21
26.62525
 31
0.0
100
AcDbText
  0
TEXT
  5
1C3E
100
AcDbEntity
  8
0
100
AcDbText
 10
29.397946
 20
26.12525
 30
0.0
 40
0.075
  1

 72
     1
 11
29.397946
 21
26.12525
 31
0.0
100
AcDbText
  0
TEXT
  5
1C3F
100
AcDbEntity
  8
0
100
AcDbText
 10
29.397946
 20
25.62525
 30
0.0
 40
0.1
  1

 72
     1
 11
29.397946
 21
25.62525
 31
0.0
100
AcDbText
  0
TEXT
  5
1C40
100
AcDbEntity
  8
0
100
AcDbText
 10
29.210446
 20
19.62525
 30
0.0
 40
0.1
  1

100
AcDbText
  0
TEXT
  5
1C41
100
AcDbEntity
  8
0
100
AcDbText
 10
29.210446
 20
25.12525
 30
0.0
 40
0.1
  1

100
AcDbText
  0
TEXT
  5
1C42
100
AcDbEntity
  8
0
100
AcDbText
 10
29.535446
 20
21.62525
 30
0.0
 40
0.1
  1

 72
     1
 11
29.535446
 21
21.62525
 31
0.0
100
AcDbText
  0
TEXT
  5
1C43
100
AcDbEntity
  8
0
100
AcDbText
 10
37.489965
 20
28.523125
 30
0.0
 40
0.075
  1

 41
0.8
 51
10.0
  7
ROMANS
100
AcDbText
  0
TEXT
  5
1C44
100
AcDbEntity
  8
0
100
AcDbText
 10
39.194715
 20
28.644
 30
0.0
 40
0.1
  1

 41
0.8
 51
10.0
  7
ROMANS
100
AcDbText
  0
TEXT
  5
1C45
100
AcDbEntity
  8
0
100
AcDbText
 10
39.194715
 20
18.144
 30
0.0
 40
0.1
  1

 41
0.8
 51
10.0
  7
ROMANS
100
AcDbText
  0
TEXT
  5
1C46
100
AcDbEntity
  8
0
100
AcDbText
 10
39.194715
 20
27.008
 30
0.0
 40
0.1
  1

 41
0.8
 51
10.0
  7
ROMANS
100
AcDbText
  0
TEXT
  5
1C47
100
AcDbEntity
  8
0
100
AcDbText
 10
39.194715
 20
26.294
 30
0.0
 40
0.1
  1

 41
0.8
 51
10.0
  7
ROMANS
100
AcDbText
  0
TEXT
  5
1C48
100
AcDbEntity
  8
0
100
AcDbText
 10
39.194715
 20
26.794
 30
0.0
 40
0.1
  1

 41
0.8
 51
10.0
  7
ROMANS
100
AcDbText
  0
TEXT
  5
1C49
100
AcDbEntity
  8
0
100
AcDbText
 10
37.619722
 20
24.994
 30
0.0
 40
0.1
  1

100
AcDbText
  0
TEXT
  5
1C4A
100
AcDbEntity
  8
0
100
AcDbText
 10
37.489965
 20
21.523125
 30
0.0
 40
0.075
  1

 41
0.8
 51
10.0
  7
ROMANS
100
AcDbText
  0
TEXT
  5
1C4B
100
AcDbEntity
  8
0
100
AcDbText
 10
47.936569
 20
27.945
 30
0.0
 40
0.075
  1

 41
0.8
 51
10.0
  7
ROMANS
100
AcDbText
  0
TEXT
  5
1C4C
100
AcDbEntity
  8
0
100
AcDbText
 10
49.641319
 20
28.065875
 30
0.0
 40
0.1
  1

 41
0.8
 51
10.0
  7
ROMANS
100
AcDbText
  0
TEXT
  5
1C4D
100
AcDbEntity
  8
0
100
AcDbText
 10
49.641319
 20
17.565875
 30
0.0
 40
0.1
  1

 41
0.8
 51
10.0
  7
ROMANS
100
AcDbText
  0
TEXT
  5
1C4E
100
AcDbEntity
  8
0
100
AcDbText
 10
49.641319
 20
26.429875
 30
0.0
 40
0.1
  1

 41
0.8
 51
10.0
  7
ROMANS
100
AcDbText
  0
TEXT
  5
1C4F
100
AcDbEntity
  8
0
100
AcDbText
 10
49.641319
 20
25.715875
 30
0.0
 40
0.1
  1

 41
0.8
 51
10.0
  7
ROMANS
100
AcDbText
  0
TEXT
  5
1C50
100
AcDbEntity
  8
0
100
AcDbText
 10
49.641319
 20
26.215875
 30
0.0
 40
0.1
  1

 41
0.8
 51
10.0
  7
ROMANS
100
AcDbText
  0
TEXT
  5
1C51
100
AcDbEntity
  8
0
100
AcDbText
 10
48.066325
 20
24.415875
 30
0.0
 40
0.1
  1

100
AcDbText
  0
TEXT
  5
1C52
100
AcDbEntity
  8
0
100
AcDbText
 10
47.936569
 20
20.945
 30
0.0
 40
0.075
  1

 41
0.8
 51
10.0
  7
ROMANS
100
AcDbText
  0
TEXT
  5
1C53
100
AcDbEntity
  8
0
100
AcDbText
 10
36.25425
 20
22.165
 30
0.0
 40
0.1
  1

 72
     1
 11
36.25425
 21
22.165
 31
0.0
100
AcDbText
  0
TEXT
  5
1C54
100
AcDbEntity
  8
0
100
AcDbText
 10
42.403288
 20
19.025375
 30
0.0
 40
0.075
  1

100
AcDbText
  0
TEXT
  5
1C55
100
AcDbEntity
  8
0
100
AcDbText
 10
42.055581
 20
19.025375
 30
0.0
 40
0.075
  1

100
AcDbText
  0
TEXT
  5
1C56
100
AcDbEntity
  8
0
100
AcDbText
 10
41.964455
 20
28.55631
 30
0.0
 40
0.1
  1

 72
     1
 11
41.964455
 21
28.55631
 31
0.0
100
AcDbText
  0
TEXT
  5
1C57
100
AcDbEntity
  8
0
100
AcDbText
 10
48.113493
 20
25.416685
 30
0.0
 40
0.075
  1

100
AcDbText
  0
TEXT
  5
1C58
100
AcDbEntity
  8
0
100
AcDbText
 10
47.765786
 20
25.416685
 30
0.0
 40
0.075
  1

100
AcDbText
  0
TEXT
  5
1C59
100
AcDbEntity
  8
0
100
AcDbText
 10
47.84275
 20
22.198375
 30
0.0
 40
0.1
  1

 72
     1
 11
47.84275
 21
22.198375
 31
0.0
100
AcDbText
  0
TEXT
  5
1C5A
100
AcDbEntity
  8
0
100
AcDbText
 10
53.991788
 20
19.05875
 30
0.0
 40
0.075
  1

100
AcDbText
  0
TEXT
  5
1C5B
100
AcDbEntity
  8
0
100
AcDbText
 10
53.644081
 20
19.05875
 30
0.0
 40
0.075
  1

100
AcDbText
  0
TEXT
  5
1C5C
100
AcDbEntity
  8
0
100
AcDbText
 10
53.552955
 20
28.589685
 30
0.0
 40
0.1
  1

 72
     1
 11
53.552955
 21
28.589685
 31
0.0
100
AcDbText
  0
TEXT
  5
1C5D
100
AcDbEntity
  8
0
100
AcDbText
 10
59.701993
 20
25.45006
 30
0.0
 40
0.075
  1

100
AcDbText
  0
TEXT
  5
1C5E
100
AcDbEntity
  8
0
100
AcDbText
 10
59.354286
 20
25.45006
 30
0.0
 40
0.075
  1

100
AcDbText
  0
TEXT
  5
1C5F
100
AcDbEntity
  8
0
100
AcDbText
 10
40.234608
 20
29.025613
 30
0.0
 40
0.075
  1

 72
     1
 11
40.234608
 21
29.025613
 31
0.0
100
AcDbText
  0
TEXT
  5
1C60
100
AcDbEntity
  8
0
100
AcDbText
 10
40.234608
 20
28.525613
 30
0.0
 40
0.075
  1

 72
     1
 11
40.234608
 21
28.525613
 31
0.0
100
AcDbText
  0
TEXT
  5
1C61
100
AcDbEntity
  8
0
100
AcDbText
 10
40.234608
 20
28.025613
 30
0.0
 40
0.1
  1

 72
     1
 11
40.234608
 21
28.025613
 31
0.0
100
AcDbText
  0
TEXT
  5
1C62
100
AcDbEntity
  8
0
100
AcDbText
 10
40.047108
 20
22.025613
 30
0.0
 40
0.1
  1

100
AcDbText
  0
TEXT
  5
1C63
100
AcDbEntity
  8
0
100
AcDbText
 10
40.047108
 20
27.525613
 30
0.0
 40
0.1
  1

100
AcDbText
  0
TEXT
  5
1C64
100
AcDbEntity
  8
0
100
AcDbText
 10
50.560741
 20
29.025613
 30
0.0
 40
0.075
  1

 72
     1
 11
50.560741
 21
29.025613
 31
0.0
100
AcDbText
  0
TEXT
  5
1C65
100
AcDbEntity
  8
0
100
AcDbText
 10
50.560741
 20
28.525613
 30
0.0
 40
0.075
  1

 72
     1
 11
50.560741
 21
28.525613
 31
0.0
100
AcDbText
  0
TEXT
  5
1C66
100
AcDbEntity
  8
0
100
AcDbText
 10
50.560741
 20
28.025613
 30
0.0
 40
0.1
  1

 72
     1
 11
50.560741
 21
28.025613
 31
0.0
100
AcDbText
  0
TEXT
  5
1C67
100
AcDbEntity
  8
0
100
AcDbText
 10
50.373241
 20
22.025613
 30
0.0
 40
0.1
  1

100
AcDbText
  0
TEXT
  5
1C68
100
AcDbEntity
  8
0
100
AcDbText
 10
50.373241
 20
27.525613
 30
0.0
 40
0.1
  1

100
AcDbText
  0
TEXT
  5
1C69
100
AcDbEntity
  8
0
100
AcDbText
 10
46.598
 20
22.243125
 30
0.0
 40
0.1
  1

 72
     1
 11
46.598
 21
22.243125
 31
0.0
100
AcDbText
  0
TEXT
  5
1C6A
100
AcDbEntity
  8
0
100
AcDbText
 10
52.747038
 20
19.1035
 30
0.0
 40
0.075
  1

100
AcDbText
  0
TEXT
  5
1C6B
100
AcDbEntity
  8
0
100
AcDbText
 10
52.399331
 20
19.1035
 30
0.0
 40
0.075
  1

100
AcDbText
  0
TEXT
  5
1C6C
100
AcDbEntity
  8
0
100
AcDbText
 10
52.308205
 20
28.634435
 30
0.0
 40
0.1
  1

 72
     1
 11
52.308205
 21
28.634435
 31
0.0
100
AcDbText
  0
TEXT
  5
1C6D
100
AcDbEntity
  8
0
100
AcDbText
 10
58.457243
 20
25.49481
 30
0.0
 40
0.075
  1

100
AcDbText
  0
TEXT
  5
1C6E
100
AcDbEntity
  8
0
100
AcDbText
 10
58.109536
 20
25.49481
 30
0.0
 40
0.075
  1

100
AcDbText
  0
TEXT
  5
1C6F
100
AcDbEntity
  8
0
100
AcDbText
 10
58.1865
 20
22.2765
 30
0.0
 40
0.1
  1

 72
     1
 11
58.1865
 21
22.2765
 31
0.0
100
AcDbText
  0
TEXT
  5
1C70
100
AcDbEntity
  8
0
100
AcDbText
 10
64.335538
 20
19.136875
 30
0.0
 40
0.075
  1

100
AcDbText
  0
TEXT
  5
1C71
100
AcDbEntity
  8
0
100
AcDbText
 10
63.987831
 20
19.136875
 30
0.0
 40
0.075
  1

100
AcDbText
  0
TEXT
  5
1C72
100
AcDbEntity
  8
0
100
AcDbText
 10
63.896705
 20
28.66781
 30
0.0
 40
0.1
  1

 72
     1
 11
63.896705
 21
28.66781
 31
0.0
100
AcDbText
  0
TEXT
  5
1C73
100
AcDbEntity
  8
0
100
AcDbText
 10
70.045743
 20
25.528185
 30
0.0
 40
0.075
  1

100
AcDbText
  0
TEXT
  5
1C74
100
AcDbEntity
  8
0
100
AcDbText
 10
69.698036
 20
25.528185
 30
0.0
 40
0.075
  1

100
AcDbText
  0
TEXT
  5
1C75
100
AcDbEntity
  8
0
100
AcDbText
 10
50.578358
 20
29.103738
 30
0.0
 40
0.075
  1

 72
     1
 11
50.578358
 21
29.103738
 31
0.0
100
AcDbText
  0
TEXT
  5
1C76
100
AcDbEntity
  8
0
100
AcDbText
 10
50.578358
 20
28.603738
 30
0.0
 40
0.075
  1

 72
     1
 11
50.578358
 21
28.603738
 31
0.0
100
AcDbText
  0
TEXT
  5
1C77
100
AcDbEntity
  8
0
100
AcDbText
 10
50.578358
 20
28.103738
 30
0.0
 40
0.1
  1

 72
     1
 11
50.578358
 21
28.103738
 31
0.0
100
AcDbText
  0
TEXT
  5
1C78
100
AcDbEntity
  8
0
100
AcDbText
 10
50.390858
 20
22.103738
 30
0.0
 40
0.1
  1

100
AcDbText
  0
TEXT
  5
1C79
100
AcDbEntity
  8
0
100
AcDbText
 10
50.390858
 20
27.603738
 30
0.0
 40
0.1
  1

100
AcDbText
  0
TEXT
  5
1C7A
100
AcDbEntity
  8
0
100
AcDbText
 10
60.904491
 20
29.103738
 30
0.0
 40
0.075
  1

 72
     1
 11
60.904491
 21
29.103738
 31
0.0
100
AcDbText
  0
TEXT
  5
1C7B
100
AcDbEntity
  8
0
100
AcDbText
 10
60.904491
 20
28.603738
 30
0.0
 40
0.075
  1

 72
     1
 11
60.904491
 21
28.603738
 31
0.0
100
AcDbText
  0
TEXT
  5
1C7C
100
AcDbEntity
  8
0
100
AcDbText
 10
60.904491
 20
28.103738
 30
0.0
 40
0.1
  1

 72
     1
 11
60.904491
 21
28.103738
 31
0.0
100
AcDbText
  0
TEXT
  5
1C7D
100
AcDbEntity
  8
0
100
AcDbText
 10
60.716991
 20
22.103738
 30
0.0
 40
0.1
  1

100
AcDbText
  0
TEXT
  5
1C7E
100
AcDbEntity
  8
0
100
AcDbText
 10
60.716991
 20
27.603738
 30
0.0
 40
0.1
  1

100
AcDbText
  0
TEXT
  5
1C7F
100
AcDbEntity
  8
0
100
AcDbText
 10
37.4105
 20
33.399375
 30
0.0
 40
0.1
  1

 72
     1
 11
37.4105
 21
33.399375
 31
0.0
100
AcDbText
  0
TEXT
  5
1C80
100
AcDbEntity
  8
0
100
AcDbText
 10
43.559538
 20
30.25975
 30
0.0
 40
0.075
  1

100
AcDbText
  0
TEXT
  5
1C81
100
AcDbEntity
  8
0
100
AcDbText
 10
43.211831
 20
30.25975
 30
0.0
 40
0.075
  1

100
AcDbText
  0
TEXT
  5
1C82
100
AcDbEntity
  8
0
100
AcDbText
 10
43.120705
 20
39.790685
 30
0.0
 40
0.1
  1

 72
     1
 11
43.120705
 21
39.790685
 31
0.0
100
AcDbText
  0
TEXT
  5
1C83
100
AcDbEntity
  8
0
100
AcDbText
 10
49.269743
 20
36.65106
 30
0.0
 40
0.075
  1

100
AcDbText
  0
TEXT
  5
1C84
100
AcDbEntity
  8
0
100
AcDbText
 10
48.922036
 20
36.65106
 30
0.0
 40
0.075
  1

100
AcDbText
  0
TEXT
  5
1C85
100
AcDbEntity
  8
0
100
AcDbText
 10
36.5019
 20
26.9535
 30
0.0
 40
0.075
  1

 41
0.8
 51
10.0
  7
ROMANS
100
AcDbText
  0
TEXT
  5
1C86
100
AcDbEntity
  8
0
100
AcDbText
 10
38.20665
 20
27.074375
 30
0.0
 40
0.1
  1

 41
0.8
 51
10.0
  7
ROMANS
100
AcDbText
  0
TEXT
  5
1C87
100
AcDbEntity
  8
0
100
AcDbText
 10
38.20665
 20
16.574375
 30
0.0
 40
0.1
  1

 41
0.8
 51
10.0
  7
ROMANS
100
AcDbText
  0
TEXT
  5
1C88
100
AcDbEntity
  8
0
100
AcDbText
 10
38.20665
 20
25.438375
 30
0.0
 40
0.1
  1

 41
0.8
 51
10.0
  7
ROMANS
100
AcDbText
  0
TEXT
  5
1C89
100
AcDbEntity
  8
0
100
AcDbText
 10
38.20665
 20
24.724375
 30
0.0
 40
0.1
  1

 41
0.8
 51
10.0
  7
ROMANS
100
AcDbText
  0
TEXT
  5
1C8A
100
AcDbEntity
  8
0
100
AcDbText
 10
38.20665
 20
25.224375
 30
0.0
 40
0.1
  1

 41
0.8
 51
10.0
  7
ROMANS
100
AcDbText
  0
TEXT
  5
1C8B
100
AcDbEntity
  8
0
100
AcDbText
 10
36.631657
 20
23.424375
 30
0.0
 40
0.1
  1

100
AcDbText
  0
TEXT
  5
1C8C
100
AcDbEntity
  8
0
100
AcDbText
 10
36.5019
 20
19.9535
 30
0.0
 40
0.075
  1

 41
0.8
 51
10.0
  7
ROMANS
100
AcDbText
  0
TEXT
  5
1C8D
100
AcDbEntity
  8
0
100
AcDbText
 10
46.948504
 20
26.375375
 30
0.0
 40
0.075
  1

 41
0.8
 51
10.0
  7
ROMANS
100
AcDbText
  0
TEXT
  5
1C8E
100
AcDbEntity
  8
0
100
AcDbText
 10
48.653254
 20
26.49625
 30
0.0
 40
0.1
  1

 41
0.8
 51
10.0
  7
ROMANS
100
AcDbText
  0
TEXT
  5
1C8F
100
AcDbEntity
  8
0
100
AcDbText
 10
48.653254
 20
15.99625
 30
0.0
 40
0.1
  1

 41
0.8
 51
10.0
  7
ROMANS
100
AcDbText
  0
TEXT
  5
1C90
100
AcDbEntity
  8
0
100
AcDbText
 10
48.653254
 20
24.86025
 30
0.0
 40
0.1
  1

 41
0.8
 51
10.0
  7
ROMANS
100
AcDbText
  0
TEXT
  5
1C91
100
AcDbEntity
  8
0
100
AcDbText
 10
48.653254
 20
24.14625
 30
0.0
 40
0.1
  1

 41
0.8
 51
10.0
  7
ROMANS
100
AcDbText
  0
TEXT
  5
1C92
100
AcDbEntity
  8
0
100
AcDbText
 10
48.653254
 20
24.64625
 30
0.0
 40
0.1
  1

 41
0.8
 51
10.0
  7
ROMANS
100
AcDbText
  0
TEXT
  5
1C93
100
AcDbEntity
  8
0
100
AcDbText
 10
47.07826
 20
22.84625
 30
0.0
 40
0.1
  1

100
AcDbText
  0
TEXT
  5
1C94
100
AcDbEntity
  8
0
100
AcDbText
 10
46.948504
 20
19.375375
 30
0.0
 40
0.075
  1

 41
0.8
 51
10.0
  7
ROMANS
100
AcDbText
  0
TEXT
  5
1C95
100
AcDbEntity
  8
0
100
AcDbText
 10
42.300571
 20
27.38375
 30
0.0
 40
0.075
  1

 72
     1
 11
42.300571
 21
27.38375
 31
0.0
100
AcDbText
  0
TEXT
  5
1C96
100
AcDbEntity
  8
0
100
AcDbText
 10
42.300571
 20
26.88375
 30
0.0
 40
0.075
  1

 72
     1
 11
42.300571
 21
26.88375
 31
0.0
100
AcDbText
  0
TEXT
  5
1C97
100
AcDbEntity
  8
0
100
AcDbText
 10
42.300571
 20
26.38375
 30
0.0
 40
0.1
  1

 72
     1
 11
42.300571
 21
26.38375
 31
0.0
100
AcDbText
  0
TEXT
  5
1C98
100
AcDbEntity
  8
0
100
AcDbText
 10
42.113071
 20
20.38375
 30
0.0
 40
0.1
  1

100
AcDbText
  0
TEXT
  5
1C99
100
AcDbEntity
  8
0
100
AcDbText
 10
42.113071
 20
25.88375
 30
0.0
 40
0.1
  1

100
AcDbText
  0
TEXT
  5
1C9A
100
AcDbEntity
  8
0
100
AcDbText
 10
42.438071
 20
22.38375
 30
0.0
 40
0.1
  1

 72
     1
 11
42.438071
 21
22.38375
 31
0.0
100
AcDbText
  0
TEXT
  5
1C9B
100
AcDbEntity
  8
0
100
AcDbText
 10
50.39259
 20
29.281625
 30
0.0
 40
0.075
  1

 41
0.8
 51
10.0
  7
ROMANS
100
AcDbText
  0
TEXT
  5
1C9C
100
AcDbEntity
  8
0
100
AcDbText
 10
52.09734
 20
29.4025
 30
0.0
 40
0.1
  1

 41
0.8
 51
10.0
  7
ROMANS
100
AcDbText
  0
TEXT
  5
1C9D
100
AcDbEntity
  8
0
100
AcDbText
 10
52.09734
 20
18.9025
 30
0.0
 40
0.1
  1

 41
0.8
 51
10.0
  7
ROMANS
100
AcDbText
  0
TEXT
  5
1C9E
100
AcDbEntity
  8
0
100
AcDbText
 10
52.09734
 20
27.7665
 30
0.0
 40
0.1
  1

 41
0.8
 51
10.0
  7
ROMANS
100
AcDbText
  0
TEXT
  5
1C9F
100
AcDbEntity
  8
0
100
AcDbText
 10
52.09734
 20
27.0525
 30
0.0
 40
0.1
  1

 41
0.8
 51
10.0
  7
ROMANS
100
AcDbText
  0
TEXT
  5
1CA0
100
AcDbEntity
  8
0
100
AcDbText
 10
52.09734
 20
27.5525
 30
0.0
 40
0.1
  1

 41
0.8
 51
10.0
  7
ROMANS
100
AcDbText
  0
TEXT
  5
1CA1
100
AcDbEntity
  8
0
100
AcDbText
 10
50.522347
 20
25.7525
 30
0.0
 40
0.1
  1

100
AcDbText
  0
TEXT
  5
1CA2
100
AcDbEntity
  8
0
100
AcDbText
 10
50.39259
 20
22.281625
 30
0.0
 40
0.075
  1

 41
0.8
 51
10.0
  7
ROMANS
100
AcDbText
  0
TEXT
  5
1CA3
100
AcDbEntity
  8
0
100
AcDbText
 10
60.839194
 20
28.7035
 30
0.0
 40
0.075
  1

 41
0.8
 51
10.0
  7
ROMANS
100
AcDbText
  0
TEXT
  5
1CA4
100
AcDbEntity
  8
0
100
AcDbText
 10
62.543944
 20
28.824375
 30
0.0
 40
0.1
  1

 41
0.8
 51
10.0
  7
ROMANS
100
AcDbText
  0
TEXT
  5
1CA5
100
AcDbEntity
  8
0
100
AcDbText
 10
62.543944
 20
18.324375
 30
0.0
 40
0.1
  1

 41
0.8
 51
10.0
  7
ROMANS
100
AcDbText
  0
TEXT
  5
1CA6
100
AcDbEntity
  8
0
100
AcDbText
 10
62.543944
 20
27.188375
 30
0.0
 40
0.1
  1

 41
0.8
 51
10.0
  7
ROMANS
100
AcDbText
  0
TEXT
  5
1CA7
100
AcDbEntity
  8
0
100
AcDbText
 10
62.543944
 20
26.474375
 30
0.0
 40
0.1
  1

 41
0.8
 51
10.0
  7
ROMANS
100
AcDbText
  0
TEXT
  5
1CA8
100
AcDbEntity
  8
0
100
AcDbText
 10
62.543944
 20
26.974375
 30
0.0
 40
0.1
  1

 41
0.8
 51
10.0
  7
ROMANS
100
AcDbText
  0
TEXT
  5
1CA9
100
AcDbEntity
  8
0
100
AcDbText
 10
60.96895
 20
25.174375
 30
0.0
 40
0.1
  1

100
AcDbText
  0
TEXT
  5
1CAA
100
AcDbEntity
  8
0
100
AcDbText
 10
60.839194
 20
21.7035
 30
0.0
 40
0.075
  1

 41
0.8
 51
10.0
  7
ROMANS
100
AcDbText
  0
TEXT
  5
1CAB
100
AcDbEntity
  8
0
100
AcDbText
 10
25.078275
 20
26.695
 30
0.0
 40
0.075
  1

 41
0.8
 51
10.0
  7
ROMANS
100
AcDbText
  0
TEXT
  5
1CAC
100
AcDbEntity
  8
0
100
AcDbText
 10
26.783025
 20
26.815875
 30
0.0
 40
0.1
  1

 41
0.8
 51
10.0
  7
ROMANS
100
AcDbText
  0
TEXT
  5
1CAD
100
AcDbEntity
  8
0
100
AcDbText
 10
26.783025
 20
16.315875
 30
0.0
 40
0.1
  1

 41
0.8
 51
10.0
  7
ROMANS
100
AcDbText
  0
TEXT
  5
1CAE
100
AcDbEntity
  8
0
100
AcDbText
 10
26.783025
 20
25.179875
 30
0.0
 40
0.1
  1

 41
0.8
 51
10.0
  7
ROMANS
100
AcDbText
  0
TEXT
  5
1CAF
100
AcDbEntity
  8
0
100
AcDbText
 10
26.783025
 20
24.465875
 30
0.0
 40
0.1
  1

 41
0.8
 51
10.0
  7
ROMANS
100
AcDbText
  0
TEXT
  5
1CB0
100
AcDbEntity
  8
0
100
AcDbText
 10
26.783025
 20
24.965875
 30
0.0
 40
0.1
  1

 41
0.8
 51
10.0
  7
ROMANS
100
AcDbText
  0
TEXT
  5
1CB1
100
AcDbEntity
  8
0
100
AcDbText
 10
25.208032
 20
23.165875
 30
0.0
 40
0.1
  1

100
AcDbText
  0
TEXT
  5
1CB2
100
AcDbEntity
  8
0
100
AcDbText
 10
25.078275
 20
19.695
 30
0.0
 40
0.075
  1

 41
0.8
 51
10.0
  7
ROMANS
100
AcDbText
  0
TEXT
  5
1CB3
100
AcDbEntity
  8
0
100
AcDbText
 10
35.524879
 20
26.116875
 30
0.0
 40
0.075
  1

 41
0.8
 51
10.0
  7
ROMANS
100
AcDbText
  0
TEXT
  5
1CB4
100
AcDbEntity
  8
0
100
AcDbText
 10
37.229629
 20
26.23775
 30
0.0
 40
0.1
  1

 41
0.8
 51
10.0
  7
ROMANS
100
AcDbText
  0
TEXT
  5
1CB5
100
AcDbEntity
  8
0
100
AcDbText
 10
37.229629
 20
15.73775
 30
0.0
 40
0.1
  1

 41
0.8
 51
10.0
  7
ROMANS
100
AcDbText
  0
TEXT
  5
1CB6
100
AcDbEntity
  8
0
100
AcDbText
 10
37.229629
 20
24.60175
 30
0.0
 40
0.1
  1

 41
0.8
 51
10.0
  7
ROMANS
100
AcDbText
  0
TEXT
  5
1CB7
100
AcDbEntity
  8
0
100
AcDbText
 10
37.229629
 20
23.88775
 30
0.0
 40
0.1
  1

 41
0.8
 51
10.0
  7
ROMANS
100
AcDbText
  0
TEXT
  5
1CB8
100
AcDbEntity
  8
0
100
AcDbText
 10
37.229629
 20
24.38775
 30
0.0
 40
0.1
  1

 41
0.8
 51
10.0
  7
ROMANS
100
AcDbText
  0
TEXT
  5
1CB9
100
AcDbEntity
  8
0
100
AcDbText
 10
35.654635
 20
22.58775
 30
0.0
 40
0.1
  1

100
AcDbText
  0
TEXT
  5
1CBA
100
AcDbEntity
  8
0
100
AcDbText
 10
35.524879
 20
19.116875
 30
0.0
 40
0.075
  1

 41
0.8
 51
10.0
  7
ROMANS
100
AcDbText
  0
TEXT
  5
1CBB
100
AcDbEntity
  8
0
100
AcDbText
 10
37.769339
 20
28.523125
 30
0.0
 40
0.075
  1

 41
0.8
 51
10.0
  7
ROMANS
100
AcDbText
  0
TEXT
  5
1CBC
100
AcDbEntity
  8
0
100
AcDbText
 10
39.474089
 20
28.644
 30
0.0
 40
0.1
  1

 41
0.8
 51
10.0
  7
ROMANS
100
AcDbText
  0
TEXT
  5
1CBD
100
AcDbEntity
  8
0
100
AcDbText
 10
39.474089
 20
18.144
 30
0.0
 40
0.1
  1

 41
0.8
 51
10.0
  7
ROMANS
100
AcDbText
  0
TEXT
  5
1CBE
100
AcDbEntity
  8
0
100
AcDbText
 10
39.474089
 20
27.008
 30
0.0
 40
0.1
  1

 41
0.8
 51
10.0
  7
ROMANS
100
AcDbText
  0
TEXT
  5
1CBF
100
AcDbEntity
  8
0
100
AcDbText
 10
39.474089
 20
26.294
 30
0.0
 40
0.1
  1

 41
0.8
 51
10.0
  7
ROMANS
100
AcDbText
  0
TEXT
  5
1CC0
100
AcDbEntity
  8
0
100
AcDbText
 10
39.474089
 20
26.794
 30
0.0
 40
0.1
  1

 41
0.8
 51
10.0
  7
ROMANS
100
AcDbText
  0
TEXT
  5
1CC1
100
AcDbEntity
  8
0
100
AcDbText
 10
37.899096
 20
24.994
 30
0.0
 40
0.1
  1

100
AcDbText
  0
TEXT
  5
1CC2
100
AcDbEntity
  8
0
100
AcDbText
 10
37.769339
 20
21.523125
 30
0.0
 40
0.075
  1

 41
0.8
 51
10.0
  7
ROMANS
100
AcDbText
  0
TEXT
  5
1CC3
100
AcDbEntity
  8
0
100
AcDbText
 10
48.215943
 20
27.945
 30
0.0
 40
0.075
  1

 41
0.8
 51
10.0
  7
ROMANS
100
AcDbText
  0
TEXT
  5
1CC4
100
AcDbEntity
  8
0
100
AcDbText
 10
49.920693
 20
28.065875
 30
0.0
 40
0.1
  1

 41
0.8
 51
10.0
  7
ROMANS
100
AcDbText
  0
TEXT
  5
1CC5
100
AcDbEntity
  8
0
100
AcDbText
 10
49.920693
 20
17.565875
 30
0.0
 40
0.1
  1

 41
0.8
 51
10.0
  7
ROMANS
100
AcDbText
  0
TEXT
  5
1CC6
100
AcDbEntity
  8
0
100
AcDbText
 10
49.920693
 20
26.429875
 30
0.0
 40
0.1
  1

 41
0.8
 51
10.0
  7
ROMANS
100
AcDbText
  0
TEXT
  5
1CC7
100
AcDbEntity
  8
0
100
AcDbText
 10
49.920693
 20
25.715875
 30
0.0
 40
0.1
  1

 41
0.8
 51
10.0
  7
ROMANS
100
AcDbText
  0
TEXT
  5
1CC8
100
AcDbEntity
  8
0
100
AcDbText
 10
49.920693
 20
26.215875
 30
0.0
 40
0.1
  1

 41
0.8
 51
10.0
  7
ROMANS
100
AcDbText
  0
TEXT
  5
1CC9
100
AcDbEntity
  8
0
100
AcDbText
 10
48.3457
 20
24.415875
 30
0.0
 40
0.1
  1

100
AcDbText
  0
TEXT
  5
1CCA
100
AcDbEntity
  8
0
100
AcDbText
 10
48.215943
 20
20.945
 30
0.0
 40
0.075
  1

 41
0.8
 51
10.0
  7
ROMANS
100
AcDbText
  0
TEXT
  5
1CCB
100
AcDbEntity
  8
0
100
AcDbText
 10
33.593925
 20
38.773125
 30
0.0
 40
0.075
  1

 41
0.8
 51
10.0
  7
ROMANS
100
AcDbText
  0
TEXT
  5
1CCC
100
AcDbEntity
  8
0
100
AcDbText
 10
35.298675
 20
38.894
 30
0.0
 40
0.1
  1

 41
0.8
 51
10.0
  7
ROMANS
100
AcDbText
  0
TEXT
  5
1CCD
100
AcDbEntity
  8
0
100
AcDbText
 10
35.298675
 20
28.394
 30
0.0
 40
0.1
  1

 41
0.8
 51
10.0
  7
ROMANS
100
AcDbText
  0
TEXT
  5
1CCE
100
AcDbEntity
  8
0
100
AcDbText
 10
35.298675
 20
37.258
 30
0.0
 40
0.1
  1

 41
0.8
 51
10.0
  7
ROMANS
100
AcDbText
  0
TEXT
  5
1CCF
100
AcDbEntity
  8
0
100
AcDbText
 10
35.298675
 20
36.544
 30
0.0
 40
0.1
  1

 41
0.8
 51
10.0
  7
ROMANS
100
AcDbText
  0
TEXT
  5
1CD0
100
AcDbEntity
  8
0
100
AcDbText
 10
35.298675
 20
37.044
 30
0.0
 40
0.1
  1

 41
0.8
 51
10.0
  7
ROMANS
100
AcDbText
  0
TEXT
  5
1CD1
100
AcDbEntity
  8
0
100
AcDbText
 10
33.723682
 20
35.244
 30
0.0
 40
0.1
  1

100
AcDbText
  0
TEXT
  5
1CD2
100
AcDbEntity
  8
0
100
AcDbText
 10
33.593925
 20
31.773125
 30
0.0
 40
0.075
  1

 41
0.8
 51
10.0
  7
ROMANS
100
AcDbText
  0
TEXT
  5
1CD3
100
AcDbEntity
  8
0
100
AcDbText
 10
47.0205
 20
21.984625
 30
0.0
 40
0.1
  1

 72
     1
 11
47.0205
 21
21.984625
 31
0.0
100
AcDbText
  0
TEXT
  5
1CD4
100
AcDbEntity
  8
0
100
AcDbText
 10
53.169538
 20
18.845
 30
0.0
 40
0.075
  1

100
AcDbText
  0
TEXT
  5
1CD5
100
AcDbEntity
  8
0
100
AcDbText
 10
52.821831
 20
18.845
 30
0.0
 40
0.075
  1

100
AcDbText
  0
TEXT
  5
1CD6
100
AcDbEntity
  8
0
100
AcDbText
 10
52.730705
 20
28.375935
 30
0.0
 40
0.1
  1

 72
     1
 11
52.730705
 21
28.375935
 31
0.0
100
AcDbText
  0
TEXT
  5
1CD7
100
AcDbEntity
  8
0
100
AcDbText
 10
58.879743
 20
25.23631
 30
0.0
 40
0.075
  1

100
AcDbText
  0
TEXT
  5
1CD8
100
AcDbEntity
  8
0
100
AcDbText
 10
58.532036
 20
25.23631
 30
0.0
 40
0.075
  1

100
AcDbText
  0
TEXT
  5
1CD9
100
AcDbEntity
  8
0
100
AcDbText
 10
58.609
 20
22.018
 30
0.0
 40
0.1
  1

 72
     1
 11
58.609
 21
22.018
 31
0.0
100
AcDbText
  0
TEXT
  5
1CDA
100
AcDbEntity
  8
0
100
AcDbText
 10
64.758038
 20
18.878375
 30
0.0
 40
0.075
  1

100
AcDbText
  0
TEXT
  5
1CDB
100
AcDbEntity
  8
0
100
AcDbText
 10
64.410331
 20
18.878375
 30
0.0
 40
0.075
  1

100
AcDbText
  0
TEXT
  5
1CDC
100
AcDbEntity
  8
0
100
AcDbText
 10
64.319205
 20
28.40931
 30
0.0
 40
0.1
  1

 72
     1
 11
64.319205
 21
28.40931
 31
0.0
100
AcDbText
  0
TEXT
  5
1CDD
100
AcDbEntity
  8
0
100
AcDbText
 10
70.468243
 20
25.269685
 30
0.0
 40
0.075
  1

100
AcDbText
  0
TEXT
  5
1CDE
100
AcDbEntity
  8
0
100
AcDbText
 10
70.120536
 20
25.269685
 30
0.0
 40
0.075
  1

100
AcDbText
  0
TEXT
  5
1CDF
100
AcDbEntity
  8
0
100
AcDbText
 10
51.000858
 20
28.845238
 30
0.0
 40
0.075
  1

 72
     1
 11
51.000858
 21
28.845238
 31
0.0
100
AcDbText
  0
TEXT
  5
1CE0
100
AcDbEntity
  8
0
100
AcDbText
 10
51.000858
 20
28.345238
 30
0.0
 40
0.075
  1

 72
     1
 11
51.000858
 21
28.345238
 31
0.0
100
AcDbText
  0
TEXT
  5
1CE1
100
AcDbEntity
  8
0
100
AcDbText
 10
51.000858
 20
27.845238
 30
0.0
 40
0.1
  1

 72
     1
 11
51.000858
 21
27.845238
 31
0.0
100
AcDbText
  0
TEXT
  5
1CE2
100
AcDbEntity
  8
0
100
AcDbText
 10
50.813358
 20
21.845238
 30
0.0
 40
0.1
  1

100
AcDbText
  0
TEXT
  5
1CE3
100
AcDbEntity
  8
0
100
AcDbText
 10
50.813358
 20
27.345238
 30
0.0
 40
0.1
  1

100
AcDbText
  0
TEXT
  5
1CE4
100
AcDbEntity
  8
0
100
AcDbText
 10
61.326991
 20
28.845238
 30
0.0
 40
0.075
  1

 72
     1
 11
61.326991
 21
28.845238
 31
0.0
100
AcDbText
  0
TEXT
  5
1CE5
100
AcDbEntity
  8
0
100
AcDbText
 10
61.326991
 20
28.345238
 30
0.0
 40
0.075
  1

 72
     1
 11
61.326991
 21
28.345238
 31
0.0
100
AcDbText
  0
TEXT
  5
1CE6
100
AcDbEntity
  8
0
100
AcDbText
 10
61.326991
 20
27.845238
 30
0.0
 40
0.1
  1

 72
     1
 11
61.326991
 21
27.845238
 31
0.0
100
AcDbText
  0
TEXT
  5
1CE7
100
AcDbEntity
  8
0
100
AcDbText
 10
61.139491
 20
21.845238
 30
0.0
 40
0.1
  1

100
AcDbText
  0
TEXT
  5
1CE8
100
AcDbEntity
  8
0
100
AcDbText
 10
61.139491
 20
27.345238
 30
0.0
 40
0.1
  1

100
AcDbText
  0
TEXT
  5
1CE9
100
AcDbEntity
  8
0
100
AcDbText
 10
37.833
 20
33.140875
 30
0.0
 40
0.1
  1

 72
     1
 11
37.833
 21
33.140875
 31
0.0
100
AcDbText
  0
TEXT
  5
1CEA
100
AcDbEntity
  8
0
100
AcDbText
 10
43.982038
 20
30.00125
 30
0.0
 40
0.075
  1

100
AcDbText
  0
TEXT
  5
1CEB
100
AcDbEntity
  8
0
100
AcDbText
 10
43.634331
 20
30.00125
 30
0.0
 40
0.075
  1

100
AcDbText
  0
TEXT
  5
1CEC
100
AcDbEntity
  8
0
100
AcDbText
 10
43.543205
 20
39.532185
 30
0.0
 40
0.1
  1

 72
     1
 11
43.543205
 21
39.532185
 31
0.0
100
AcDbText
  0
TEXT
  5
1CED
100
AcDbEntity
  8
0
100
AcDbText
 10
49.692243
 20
36.39256
 30
0.0
 40
0.075
  1

100
AcDbText
  0
TEXT
  5
1CEE
100
AcDbEntity
  8
0
100
AcDbText
 10
49.344536
 20
36.39256
 30
0.0
 40
0.075
  1

100
AcDbText
  0
TEXT
  5
221C
100
AcDbEntity
  8
0
100
AcDbText
 10
30.863625
 20
8.3375
 30
0.0
 40
0.1
  1

 72
     1
 11
30.863625
 21
8.3375
 31
0.0
100
AcDbText
  0
TEXT
  5
221D
100
AcDbEntity
  8
0
100
AcDbText
 10
37.012663
 20
5.197875
 30
0.0
 40
0.075
  1

100
AcDbText
  0
TEXT
  5
221E
100
AcDbEntity
  8
0
100
AcDbText
 10
36.664956
 20
5.197875
 30
0.0
 40
0.075
  1

100
AcDbText
  0
TEXT
  5
221F
100
AcDbEntity
  8
0
100
AcDbText
 10
36.57383
 20
14.72881
 30
0.0
 40
0.1
  1

 72
     1
 11
36.57383
 21
14.72881
 31
0.0
100
AcDbText
  0
TEXT
  5
2220
100
AcDbEntity
  8
0
100
AcDbText
 10
42.722868
 20
11.589185
 30
0.0
 40
0.075
  1

100
AcDbText
  0
TEXT
  5
2221
100
AcDbEntity
  8
0
100
AcDbText
 10
42.375161
 20
11.589185
 30
0.0
 40
0.075
  1

100
AcDbText
  0
TEXT
  5
2222
100
AcDbEntity
  8
0
100
AcDbText
 10
42.452125
 20
8.370875
 30
0.0
 40
0.1
  1

 72
     1
 11
42.452125
 21
8.370875
 31
0.0
100
AcDbText
  0
TEXT
  5
2223
100
AcDbEntity
  8
0
100
AcDbText
 10
48.601163
 20
5.23125
 30
0.0
 40
0.075
  1

100
AcDbText
  0
TEXT
  5
2224
100
AcDbEntity
  8
0
100
AcDbText
 10
48.253456
 20
5.23125
 30
0.0
 40
0.075
  1

100
AcDbText
  0
TEXT
  5
2225
100
AcDbEntity
  8
0
100
AcDbText
 10
48.16233
 20
14.762185
 30
0.0
 40
0.1
  1

 72
     1
 11
48.16233
 21
14.762185
 31
0.0
100
AcDbText
  0
TEXT
  5
2226
100
AcDbEntity
  8
0
100
AcDbText
 10
54.311368
 20
11.62256
 30
0.0
 40
0.075
  1

100
AcDbText
  0
TEXT
  5
2227
100
AcDbEntity
  8
0
100
AcDbText
 10
53.963661
 20
11.62256
 30
0.0
 40
0.075
  1

100
AcDbText
  0
TEXT
  5
2228
100
AcDbEntity
  8
0
100
AcDbText
 10
34.843983
 20
15.198113
 30
0.0
 40
0.075
  1

 72
     1
 11
34.843983
 21
15.198113
 31
0.0
100
AcDbText
  0
TEXT
  5
2229
100
AcDbEntity
  8
0
100
AcDbText
 10
34.843983
 20
14.698113
 30
0.0
 40
0.075
  1

 72
     1
 11
34.843983
 21
14.698113
 31
0.0
100
AcDbText
  0
TEXT
  5
222A
100
AcDbEntity
  8
0
100
AcDbText
 10
34.843983
 20
14.198113
 30
0.0
 40
0.1
  1

 72
     1
 11
34.843983
 21
14.198113
 31
0.0
100
AcDbText
  0
TEXT
  5
222B
100
AcDbEntity
  8
0
100
AcDbText
 10
34.656483
 20
8.198113
 30
0.0
 40
0.1
  1

100
AcDbText
  0
TEXT
  5
222C
100
AcDbEntity
  8
0
100
AcDbText
 10
34.656483
 20
13.698113
 30
0.0
 40
0.1
  1

100
AcDbText
  0
TEXT
  5
222D
100
AcDbEntity
  8
0
100
AcDbText
 10
45.170116
 20
15.198113
 30
0.0
 40
0.075
  1

 72
     1
 11
45.170116
 21
15.198113
 31
0.0
100
AcDbText
  0
TEXT
  5
222E
100
AcDbEntity
  8
0
100
AcDbText
 10
45.170116
 20
14.698113
 30
0.0
 40
0.075
  1

 72
     1
 11
45.170116
 21
14.698113
 31
0.0
100
AcDbText
  0
TEXT
  5
222F
100
AcDbEntity
  8
0
100
AcDbText
 10
45.170116
 20
14.198113
 30
0.0
 40
0.1
  1

 72
     1
 11
45.170116
 21
14.198113
 31
0.0
100
AcDbText
  0
TEXT
  5
2230
100
AcDbEntity
  8
0
100
AcDbText
 10
44.982616
 20
8.198113
 30
0.0
 40
0.1
  1

100
AcDbText
  0
TEXT
  5
2231
100
AcDbEntity
  8
0
100
AcDbText
 10
44.982616
 20
13.698113
 30
0.0
 40
0.1
  1

100
AcDbText
  0
TEXT
  5
2233
100
AcDbEntity
  8
0
100
AcDbText
 10
36.644875
 20
11.99375
 30
0.0
 40
0.1
  1

 72
     1
 11
36.644875
 21
11.99375
 31
0.0
100
AcDbText
  0
TEXT
  5
2234
100
AcDbEntity
  8
0
100
AcDbText
 10
42.793913
 20
8.854125
 30
0.0
 40
0.075
  1

100
AcDbText
  0
TEXT
  5
2235
100
AcDbEntity
  8
0
100
AcDbText
 10
42.446206
 20
8.854125
 30
0.0
 40
0.075
  1

100
AcDbText
  0
TEXT
  5
2236
100
AcDbEntity
  8
0
100
AcDbText
 10
42.35508
 20
18.38506
 30
0.0
 40
0.1
  1

 72
     1
 11
42.35508
 21
18.38506
 31
0.0
100
AcDbText
  0
TEXT
  5
2237
100
AcDbEntity
  8
0
100
AcDbText
 10
48.504118
 20
15.245435
 30
0.0
 40
0.075
  1

100
AcDbText
  0
TEXT
  5
2238
100
AcDbEntity
  8
0
100
AcDbText
 10
48.156411
 20
15.245435
 30
0.0
 40
0.075
  1

100
AcDbText
  0
TEXT
  5
2239
100
AcDbEntity
  8
0
100
AcDbText
 10
48.233375
 20
12.027125
 30
0.0
 40
0.1
  1

 72
     1
 11
48.233375
 21
12.027125
 31
0.0
100
AcDbText
  0
TEXT
  5
223A
100
AcDbEntity
  8
0
100
AcDbText
 10
54.382413
 20
8.8875
 30
0.0
 40
0.075
  1

100
AcDbText
  0
TEXT
  5
223B
100
AcDbEntity
  8
0
100
AcDbText
 10
54.034706
 20
8.8875
 30
0.0
 40
0.075
  1

100
AcDbText
  0
TEXT
  5
223C
100
AcDbEntity
  8
0
100
AcDbText
 10
53.94358
 20
18.418435
 30
0.0
 40
0.1
  1

 72
     1
 11
53.94358
 21
18.418435
 31
0.0
100
AcDbText
  0
TEXT
  5
223D
100
AcDbEntity
  8
0
100
AcDbText
 10
60.092618
 20
15.27881
 30
0.0
 40
0.075
  1

100
AcDbText
  0
TEXT
  5
223E
100
AcDbEntity
  8
0
100
AcDbText
 10
59.744911
 20
15.27881
 30
0.0
 40
0.075
  1

100
AcDbText
  0
TEXT
  5
223F
100
AcDbEntity
  8
0
100
AcDbText
 10
40.625233
 20
18.854363
 30
0.0
 40
0.075
  1

 72
     1
 11
40.625233
 21
18.854363
 31
0.0
100
AcDbText
  0
TEXT
  5
2240
100
AcDbEntity
  8
0
100
AcDbText
 10
40.625233
 20
18.354363
 30
0.0
 40
0.075
  1

 72
     1
 11
40.625233
 21
18.354363
 31
0.0
100
AcDbText
  0
TEXT
  5
2241
100
AcDbEntity
  8
0
100
AcDbText
 10
40.625233
 20
17.854363
 30
0.0
 40
0.1
  1

 72
     1
 11
40.625233
 21
17.854363
 31
0.0
100
AcDbText
  0
TEXT
  5
2242
100
AcDbEntity
  8
0
100
AcDbText
 10
40.437733
 20
11.854363
 30
0.0
 40
0.1
  1

100
AcDbText
  0
TEXT
  5
2243
100
AcDbEntity
  8
0
100
AcDbText
 10
40.437733
 20
17.354363
 30
0.0
 40
0.1
  1

100
AcDbText
  0
TEXT
  5
2244
100
AcDbEntity
  8
0
100
AcDbText
 10
50.951366
 20
18.854363
 30
0.0
 40
0.075
  1

 72
     1
 11
50.951366
 21
18.854363
 31
0.0
100
AcDbText
  0
TEXT
  5
2245
100
AcDbEntity
  8
0
100
AcDbText
 10
50.951366
 20
18.354363
 30
0.0
 40
0.075
  1

 72
     1
 11
50.951366
 21
18.354363
 31
0.0
100
AcDbText
  0
TEXT
  5
2246
100
AcDbEntity
  8
0
100
AcDbText
 10
50.951366
 20
17.854363
 30
0.0
 40
0.1
  1

 72
     1
 11
50.951366
 21
17.854363
 31
0.0
100
AcDbText
  0
TEXT
  5
2247
100
AcDbEntity
  8
0
100
AcDbText
 10
50.763866
 20
11.854363
 30
0.0
 40
0.1
  1

100
AcDbText
  0
TEXT
  5
2248
100
AcDbEntity
  8
0
100
AcDbText
 10
50.763866
 20
17.354363
 30
0.0
 40
0.1
  1

100
AcDbText
  0
TEXT
  5
2279
100
AcDbEntity
  8
0
100
AcDbText
 10
41.207375
 20
8.415625
 30
0.0
 40
0.1
  1

 72
     1
 11
41.207375
 21
8.415625
 31
0.0
100
AcDbText
  0
TEXT
  5
227A
100
AcDbEntity
  8
0
100
AcDbText
 10
47.356413
 20
5.276
 30
0.0
 40
0.075
  1

100
AcDbText
  0
TEXT
  5
227B
100
AcDbEntity
  8
0
100
AcDbText
 10
47.008706
 20
5.276
 30
0.0
 40
0.075
  1

100
AcDbText
  0
TEXT
  5
227C
100
AcDbEntity
  8
0
100
AcDbText
 10
46.91758
 20
14.806935
 30
0.0
 40
0.1
  1

 72
     1
 11
46.91758
 21
14.806935
 31
0.0
100
AcDbText
  0
TEXT
  5
227D
100
AcDbEntity
  8
0
100
AcDbText
 10
53.066618
 20
11.66731
 30
0.0
 40
0.075
  1

100
AcDbText
  0
TEXT
  5
227E
100
AcDbEntity
  8
0
100
AcDbText
 10
52.718911
 20
11.66731
 30
0.0
 40
0.075
  1

100
AcDbText
  0
TEXT
  5
227F
100
AcDbEntity
  8
0
100
AcDbText
 10
52.795875
 20
8.449
 30
0.0
 40
0.1
  1

 72
     1
 11
52.795875
 21
8.449
 31
0.0
100
AcDbText
  0
TEXT
  5
2280
100
AcDbEntity
  8
0
100
AcDbText
 10
58.944913
 20
5.309375
 30
0.0
 40
0.075
  1

100
AcDbText
  0
TEXT
  5
2281
100
AcDbEntity
  8
0
100
AcDbText
 10
58.597206
 20
5.309375
 30
0.0
 40
0.075
  1

100
AcDbText
  0
TEXT
  5
2282
100
AcDbEntity
  8
0
100
AcDbText
 10
58.50608
 20
14.84031
 30
0.0
 40
0.1
  1

 72
     1
 11
58.50608
 21
14.84031
 31
0.0
100
AcDbText
  0
TEXT
  5
2283
100
AcDbEntity
  8
0
100
AcDbText
 10
64.655118
 20
11.700685
 30
0.0
 40
0.075
  1

100
AcDbText
  0
TEXT
  5
2284
100
AcDbEntity
  8
0
100
AcDbText
 10
64.307411
 20
11.700685
 30
0.0
 40
0.075
  1

100
AcDbText
  0
TEXT
  5
2285
100
AcDbEntity
  8
0
100
AcDbText
 10
45.187733
 20
15.276238
 30
0.0
 40
0.075
  1

 72
     1
 11
45.187733
 21
15.276238
 31
0.0
100
AcDbText
  0
TEXT
  5
2286
100
AcDbEntity
  8
0
100
AcDbText
 10
45.187733
 20
14.776238
 30
0.0
 40
0.075
  1

 72
     1
 11
45.187733
 21
14.776238
 31
0.0
100
AcDbText
  0
TEXT
  5
2287
100
AcDbEntity
  8
0
100
AcDbText
 10
45.187733
 20
14.276238
 30
0.0
 40
0.1
  1

 72
     1
 11
45.187733
 21
14.276238
 31
0.0
100
AcDbText
  0
TEXT
  5
2288
100
AcDbEntity
  8
0
100
AcDbText
 10
45.000233
 20
8.276238
 30
0.0
 40
0.1
  1

100
AcDbText
  0
TEXT
  5
2289
100
AcDbEntity
  8
0
100
AcDbText
 10
45.000233
 20
13.776238
 30
0.0
 40
0.1
  1

100
AcDbText
  0
TEXT
  5
228A
100
AcDbEntity
  8
0
100
AcDbText
 10
55.513866
 20
15.276238
 30
0.0
 40
0.075
  1

 72
     1
 11
55.513866
 21
15.276238
 31
0.0
100
AcDbText
  0
TEXT
  5
228B
100
AcDbEntity
  8
0
100
AcDbText
 10
55.513866
 20
14.776238
 30
0.0
 40
0.075
  1

 72
     1
 11
55.513866
 21
14.776238
 31
0.0
100
AcDbText
  0
TEXT
  5
228C
100
AcDbEntity
  8
0
100
AcDbText
 10
55.513866
 20
14.276238
 30
0.0
 40
0.1
  1

 72
     1
 11
55.513866
 21
14.276238
 31
0.0
100
AcDbText
  0
TEXT
  5
228D
100
AcDbEntity
  8
0
100
AcDbText
 10
55.326366
 20
8.276238
 30
0.0
 40
0.1
  1

100
AcDbText
  0
TEXT
  5
228E
100
AcDbEntity
  8
0
100
AcDbText
 10
55.326366
 20
13.776238
 30
0.0
 40
0.1
  1

100
AcDbText
  0
TEXT
  5
2292
100
AcDbEntity
  8
0
100
AcDbText
 10
32.019875
 20
19.571875
 30
0.0
 40
0.1
  1

 72
     1
 11
32.019875
 21
19.571875
 31
0.0
100
AcDbText
  0
TEXT
  5
2293
100
AcDbEntity
  8
0
100
AcDbText
 10
38.168913
 20
16.43225
 30
0.0
 40
0.075
  1

100
AcDbText
  0
TEXT
  5
2294
100
AcDbEntity
  8
0
100
AcDbText
 10
37.821206
 20
16.43225
 30
0.0
 40
0.075
  1

100
AcDbText
  0
TEXT
  5
2295
100
AcDbEntity
  8
0
100
AcDbText
 10
37.73008
 20
25.963185
 30
0.0
 40
0.1
  1

 72
     1
 11
37.73008
 21
25.963185
 31
0.0
100
AcDbText
  0
TEXT
  5
2296
100
AcDbEntity
  8
0
100
AcDbText
 10
43.879118
 20
22.82356
 30
0.0
 40
0.075
  1

100
AcDbText
  0
TEXT
  5
2297
100
AcDbEntity
  8
0
100
AcDbText
 10
43.531411
 20
22.82356
 30
0.0
 40
0.075
  1

100
AcDbText
  0
LINE
  5
2600
100
AcDbEntity
  8
0
100
AcDbLine
 10
6.328125
 20
1.828125
 30
0.0
 11
7.875
 21
1.828125
 31
0.0
  0
ENDSEC
  0
SECTION
  2
OBJECTS
  0
DICTIONARY
  5
C
100
AcDbDictionary
  3
ACAD_GROUP
350
D
  3
ACAD_MLINESTYLE
350
E
  0
DICTIONARY
  5
D
102
{ACAD_REACTORS
330
C
102
}
100
AcDbDictionary
  0
DICTIONARY
  5
E
102
{ACAD_REACTORS
330
C
102
}
100
AcDbDictionary
  3
STANDARD
350
1B
  0
MLINESTYLE
  5
1B
102
{ACAD_REACTORS
330
E
102
}
100
AcDbMlineStyle
  2
STANDARD
 70
     0
  3

 62
     0
 51
90.0
 52
90.0
 71
     2
 49
0.5
 62
   256
  6
BYLAYER
 49
-0.5
 62
   256
  6
BYLAYER
  0
ENDSEC
  0
EOF
