  0
SECTION
  2
HEADER
  9
$ACADVER
  1
AC1012
  9
$DWGCODEPAGE
  3
ANSI_1252
  9
$INSBASE
 10
0.359375
 20
0.0625
 30
0.0
  9
$EXTMIN
 10
0.291866
 20
1.544792
 30
0.0
  9
$EXTMAX
 10
8.780288
 20
14.883185
 30
0.0
  9
$LIMMIN
 10
0.0
 20
0.0
  9
$LIMMAX
 10
10.5
 20
16.0
  9
$ORTHOMODE
 70
     1
  9
$REGENMODE
 70
     1
  9
$FILLMODE
 70
     1
  9
$QTEXTMODE
 70
     0
  9
$MIRRTEXT
 70
     0
  9
$DRAGMODE
 70
     2
  9
$LTSCALE
 40
0.25
  9
$OSMODE
 70
     0
  9
$ATTMODE
 70
     1
  9
$TEXTSIZE
 40
0.125
  9
$TRACEWID
 40
0.05
  9
$TEXTSTYLE
  7
ROMANS
  9
$CLAYER
  8
0
  9
$CELTYPE
  6
BYLAYER
  9
$CECOLOR
 62
   256
  9
$CELTSCALE
 40
1.0
  9
$DELOBJ
 70
     1
  9
$DISPSILH
 70
     0
  9
$DIMSCALE
 40
1.0
  9
$DIMASZ
 40
0.18
  9
$DIMEXO
 40
0.0625
  9
$DIMDLI
 40
0.38
  9
$DIMRND
 40
0.0
  9
$DIMDLE
 40
0.0
  9
$DIMEXE
 40
0.18
  9
$DIMTP
 40
0.0
  9
$DIMTM
 40
0.0
  9
$DIMTXT
 40
0.18
  9
$DIMCEN
 40
0.09
  9
$DIMTSZ
 40
0.0
  9
$DIMTOL
 70
     0
  9
$DIMLIM
 70
     0
  9
$DIMTIH
 70
     1
  9
$DIMTOH
 70
     1
  9
$DIMSE1
 70
     0
  9
$DIMSE2
 70
     0
  9
$DIMTAD
 70
     0
  9
$DIMZIN
 70
     0
  9
$DIMBLK
  1

  9
$DIMASO
 70
     1
  9
$DIMSHO
 70
     0
  9
$DIMPOST
  1

  9
$DIMAPOST
  1

  9
$DIMALT
 70
     0
  9
$DIMALTD
 70
     2
  9
$DIMALTF
 40
25.4
  9
$DIMLFAC
 40
1.0
  9
$DIMTOFL
 70
     0
  9
$DIMTVP
 40
0.0
  9
$DIMTIX
 70
     0
  9
$DIMSOXD
 70
     0
  9
$DIMSAH
 70
     0
  9
$DIMBLK1
  1

  9
$DIMBLK2
  1

  9
$DIMSTYLE
  2
STANDARD
  9
$DIMCLRD
 70
     0
  9
$DIMCLRE
 70
     0
  9
$DIMCLRT
 70
     0
  9
$DIMTFAC
 40
1.0
  9
$DIMGAP
 40
0.09
  9
$DIMJUST
 70
     0
  9
$DIMSD1
 70
     0
  9
$DIMSD2
 70
     0
  9
$DIMTOLJ
 70
     1
  9
$DIMTZIN
 70
     0
  9
$DIMALTZ
 70
     0
  9
$DIMALTTZ
 70
     0
  9
$DIMFIT
 70
     3
  9
$DIMUPT
 70
     0
  9
$DIMUNIT
 70
     2
  9
$DIMDEC
 70
     4
  9
$DIMTDEC
 70
     4
  9
$DIMALTU
 70
     2
  9
$DIMALTTD
 70
     2
  9
$DIMTXSTY
  7
STANDARD
  9
$DIMAUNIT
 70
     0
  9
$LUNITS
 70
     2
  9
$LUPREC
 70
     4
  9
$SKETCHINC
 40
0.1
  9
$FILLETRAD
 40
0.0625
  9
$AUNITS
 70
     0
  9
$AUPREC
 70
     0
  9
$MENU
  1
acad
  9
$ELEVATION
 40
0.0
  9
$PELEVATION
 40
0.0
  9
$THICKNESS
 40
0.0
  9
$LIMCHECK
 70
     0
  9
$BLIPMODE
 70
     0
  9
$CHAMFERA
 40
0.0
  9
$CHAMFERB
 40
0.0
  9
$CHAMFERC
 40
0.0
  9
$CHAMFERD
 40
0.0
  9
$SKPOLY
 70
     0
  9
$TDCREATE
 40
2450219.438613657
  9
$TDUPDATE
 40
2451087.619457176
  9
$TDINDWG
 40
0.2607187500
  9
$TDUSRTIMER
 40
0.2607187500
  9
$USRTIMER
 70
     1
  9
$ANGBASE
 50
0.0
  9
$ANGDIR
 70
     0
  9
$PDMODE
 70
     3
  9
$PDSIZE
 40
0.1
  9
$PLINEWID
 40
0.01
  9
$COORDS
 70
     2
  9
$SPLFRAME
 70
     0
  9
$SPLINETYPE
 70
     6
  9
$SPLINESEGS
 70
     8
  9
$ATTDIA
 70
     0
  9
$ATTREQ
 70
     1
  9
$HANDLING
 70
     1
  9
$HANDSEED
  5
5B2
  9
$SURFTAB1
 70
     6
  9
$SURFTAB2
 70
     6
  9
$SURFTYPE
 70
     6
  9
$SURFU
 70
     6
  9
$SURFV
 70
     6
  9
$UCSNAME
  2

  9
$UCSORG
 10
0.0
 20
0.0
 30
0.0
  9
$UCSXDIR
 10
1.0
 20
0.0
 30
0.0
  9
$UCSYDIR
 10
0.0
 20
1.0
 30
0.0
  9
$PUCSNAME
  2

  9
$PUCSORG
 10
0.0
 20
0.0
 30
0.0
  9
$PUCSXDIR
 10
1.0
 20
0.0
 30
0.0
  9
$PUCSYDIR
 10
0.0
 20
1.0
 30
0.0
  9
$USERI1
 70
     0
  9
$USERI2
 70
     0
  9
$USERI3
 70
     0
  9
$USERI4
 70
     0
  9
$USERI5
 70
     0
  9
$USERR1
 40
0.0
  9
$USERR2
 40
0.0
  9
$USERR3
 40
0.0
  9
$USERR4
 40
0.0
  9
$USERR5
 40
0.0
  9
$WORLDVIEW
 70
     1
  9
$SHADEDGE
 70
     3
  9
$SHADEDIF
 70
    70
  9
$TILEMODE
 70
     1
  9
$MAXACTVP
 70
    16
  9
$PINSBASE
 10
0.0
 20
0.0
 30
0.0
  9
$PLIMCHECK
 70
     0
  9
$PEXTMIN
 10
1.000000E+20
 20
1.000000E+20
 30
1.000000E+20
  9
$PEXTMAX
 10
-1.000000E+20
 20
-1.000000E+20
 30
-1.000000E+20
  9
$PLIMMIN
 10
0.0
 20
0.0
  9
$PLIMMAX
 10
12.0
 20
9.0
  9
$UNITMODE
 70
     0
  9
$VISRETAIN
 70
     0
  9
$PLINEGEN
 70
     0
  9
$PSLTSCALE
 70
     0
  9
$TREEDEPTH
 70
  3020
  9
$PICKSTYLE
 70
     1
  9
$CMLSTYLE
  2
STANDARD
  9
$CMLJUST
 70
     0
  9
$CMLSCALE
 40
1.0
  9
$SAVEIMAGES
 70
     1
  0
ENDSEC
  0
SECTION
  2
CLASSES
  0
CLASS
  1
LWPOLYLINE
  2
AcDbPolyline
  3
"AutoCAD"
 90
    32768
280
     0
281
     1
  0
CLASS
  1
HATCH
  2
AcDbHatch
  3
"ACAD_SEDONA"
 90
    32768
280
     0
281
     1
  0
ENDSEC
  0
SECTION
  2
TABLES
  0
TABLE
  2
VPORT
  5
8
100
AcDbSymbolTable
 70
     2
  0
VPORT
  5
5B1
100
AcDbSymbolTableRecord
100
AcDbViewportTableRecord
  2
*ACTIVE
 70
     0
 10
0.0
 20
0.0
 11
1.0
 21
1.0
 12
14.48468
 22
8.0
 13
0.0
 23
0.0
 14
0.001
 24
0.001
 15
1.0
 25
1.0
 16
0.0
 26
0.0
 36
1.0
 17
0.0
 27
0.0
 37
0.0
 40
16.0
 41
1.810585
 42
50.0
 43
0.0
 44
0.0
 50
0.0
 51
0.0
 71
     0
 72
   100
 73
     1
 74
     0
 75
     0
 76
     0
 77
     0
 78
     0
  0
ENDTAB
  0
TABLE
  2
LTYPE
  5
5
100
AcDbSymbolTable
 70
     2
  0
LTYPE
  5
12
100
AcDbSymbolTableRecord
100
AcDbLinetypeTableRecord
  2
BYBLOCK
 70
     0
  3

 72
    65
 73
     0
 40
0.0
  0
LTYPE
  5
13
100
AcDbSymbolTableRecord
100
AcDbLinetypeTableRecord
  2
BYLAYER
 70
     0
  3

 72
    65
 73
     0
 40
0.0
  0
LTYPE
  5
14
100
AcDbSymbolTableRecord
100
AcDbLinetypeTableRecord
  2
CONTINUOUS
 70
     0
  3
Solid line
 72
    65
 73
     0
 40
0.0
  0
LTYPE
  5
1F
100
AcDbSymbolTableRecord
100
AcDbLinetypeTableRecord
  2
DASHED
 70
     0
  3
__ __ __ __ __ __ __ __ __ __ __ __ __ __ __ __
 72
    65
 73
     2
 40
0.75
 49
0.5
 74
     0
 49
-0.25
 74
     0
  0
ENDTAB
  0
TABLE
  2
LAYER
  5
2
100
AcDbSymbolTable
 70
     3
  0
LAYER
  5
F
100
AcDbSymbolTableRecord
100
AcDbLayerTableRecord
  2
0
 70
     0
 62
     7
  6
CONTINUOUS
  0
LAYER
  5
22
100
AcDbSymbolTableRecord
100
AcDbLayerTableRecord
  2
DASH
 70
     0
 62
     2
  6
DASHED
  0
LAYER
  5
23
100
AcDbSymbolTableRecord
100
AcDbLayerTableRecord
  2
TEXT
 70
     0
 62
     2
  6
CONTINUOUS
  0
ENDTAB
  0
TABLE
  2
STYLE
  5
3
100
AcDbSymbolTable
 70
     2
  0
STYLE
  5
10
100
AcDbSymbolTableRecord
100
AcDbTextStyleTableRecord
  2
STANDARD
 70
     0
 40
0.0
 41
1.0
 50
0.0
 71
     0
 42
0.2
  3
txt
  4

  0
STYLE
  5
1D
100
AcDbSymbolTableRecord
100
AcDbTextStyleTableRecord
  2
ROMANS
 70
     0
 40
0.0
 41
0.8
 50
10.0
 71
     0
 42
0.125
  3
romans
  4

  0
ENDTAB
  0
TABLE
  2
VIEW
  5
6
100
AcDbSymbolTable
 70
     0
  0
ENDTAB
  0
TABLE
  2
UCS
  5
7
100
AcDbSymbolTable
 70
     0
  0
ENDTAB
  0
TABLE
  2
APPID
  5
9
100
AcDbSymbolTable
 70
     1
  0
APPID
  5
11
100
AcDbSymbolTableRecord
100
AcDbRegAppTableRecord
  2
ACAD
 70
     0
  0
ENDTAB
  0
TABLE
  2
DIMSTYLE
  5
A
100
AcDbSymbolTable
 70
     1
  0
DIMSTYLE
105
222
100
AcDbSymbolTableRecord
100
AcDbDimStyleTableRecord
  2
STANDARD
 70
     0
  3

  4

  5

  6

  7

 40
1.0
 41
0.18
 42
0.0625
 43
0.38
 44
0.18
 45
0.0
 46
0.0
 47
0.0
 48
0.0
140
0.18
141
0.09
142
0.0
143
25.4
144
1.0
145
0.0
146
1.0
147
0.09
 71
     0
 72
     0
 73
     1
 74
     1
 75
     0
 76
     0
 77
     0
 78
     0
170
     0
171
     2
172
     0
173
     0
174
     0
175
     0
176
     0
177
     0
178
     0
270
     2
271
     4
272
     4
273
     2
274
     2
340
10
275
     0
280
     0
281
     0
282
     0
283
     1
284
     0
285
     0
286
     0
287
     3
288
     0
  0
ENDTAB
  0
TABLE
  2
BLOCK_RECORD
  5
1
100
AcDbSymbolTable
 70
     0
  0
BLOCK_RECORD
  5
18
100
AcDbSymbolTableRecord
100
AcDbBlockTableRecord
  2
*MODEL_SPACE
  0
BLOCK_RECORD
  5
15
100
AcDbSymbolTableRecord
100
AcDbBlockTableRecord
  2
*PAPER_SPACE
  0
ENDTAB
  0
ENDSEC
  0
SECTION
  2
BLOCKS
  0
BLOCK
  5
26
100
AcDbEntity
  8
0
100
AcDbBlockBegin
  2
*MODEL_SPACE
 70
     0
 10
0.0
 20
0.0
 30
0.0
  3
*MODEL_SPACE
  1

  0
ENDBLK
  5
27
100
AcDbEntity
  8
0
100
AcDbBlockEnd
  0
BLOCK
  5
24
100
AcDbEntity
 67
     1
  8
0
100
AcDbBlockBegin
  2
*PAPER_SPACE
 70
     0
 10
0.0
 20
0.0
 30
0.0
  3
*PAPER_SPACE
  1

  0
ENDBLK
  5
25
100
AcDbEntity
 67
     1
  8
0
100
AcDbBlockEnd
  0
ENDSEC
  0
SECTION
  2
ENTITIES
  0
TEXT
  5
2E
100
AcDbEntity
  8
0
100
AcDbText
 10
7.464025
 20
12.835375
 30
0.0
 40
0.075
  1

 41
0.8
 51
10.0
  7
ROMANS
100
AcDbText
  0
TEXT
  5
2F
100
AcDbEntity
  8
0
100
AcDbText
 10
9.168775
 20
12.95625
 30
0.0
 40
0.1
  1

 41
0.8
 51
10.0
  7
ROMANS
100
AcDbText
  0
TEXT
  5
30
100
AcDbEntity
  8
0
100
AcDbText
 10
9.168775
 20
2.45625
 30
0.0
 40
0.1
  1

 41
0.8
 51
10.0
  7
ROMANS
100
AcDbText
  0
TEXT
  5
31
100
AcDbEntity
  8
0
100
AcDbText
 10
9.168775
 20
11.32025
 30
0.0
 40
0.1
  1

 41
0.8
 51
10.0
  7
ROMANS
100
AcDbText
  0
TEXT
  5
32
100
AcDbEntity
  8
0
100
AcDbText
 10
9.168775
 20
10.60625
 30
0.0
 40
0.1
  1

 41
0.8
 51
10.0
  7
ROMANS
100
AcDbText
  0
TEXT
  5
33
100
AcDbEntity
  8
0
100
AcDbText
 10
9.168775
 20
11.10625
 30
0.0
 40
0.1
  1

 41
0.8
 51
10.0
  7
ROMANS
100
AcDbText
  0
TEXT
  5
34
100
AcDbEntity
  8
0
100
AcDbText
 10
7.593782
 20
9.30625
 30
0.0
 40
0.1
  1

100
AcDbText
  0
TEXT
  5
35
100
AcDbEntity
  8
0
100
AcDbText
 10
7.464025
 20
5.835375
 30
0.0
 40
0.075
  1

 41
0.8
 51
10.0
  7
ROMANS
100
AcDbText
  0
LINE
  5
36
100
AcDbEntity
  8
0
100
AcDbLine
 10
2.031275
 20
14.234375
 30
0.0
 11
2.031275
 21
1.828125
 31
0.0
  0
LINE
  5
81
100
AcDbEntity
  8
0
100
AcDbLine
 10
3.57815
 20
14.234375
 30
0.0
 11
3.57815
 21
1.828125
 31
0.0
  0
LINE
  5
82
100
AcDbEntity
  8
0
100
AcDbLine
 10
8.51565
 20
13.484375
 30
0.0
 11
8.51565
 21
4.171875
 31
0.0
  0
LINE
  5
84
100
AcDbEntity
  8
0
100
AcDbLine
 10
3.82815
 20
6.203125
 30
0.0
 11
3.82815
 21
5.953125
 31
0.0
  0
LINE
  5
85
100
AcDbEntity
  8
0
100
AcDbLine
 10
3.57815
 20
5.953125
 30
0.0
 11
3.82815
 21
5.953125
 31
0.0
  0
LINE
  5
86
100
AcDbEntity
  8
0
100
AcDbLine
 10
3.57815
 20
5.453125
 30
0.0
 11
3.82815
 21
5.453125
 31
0.0
  0
LINE
  5
87
100
AcDbEntity
  8
0
100
AcDbLine
 10
3.57815
 20
5.703125
 30
0.0
 11
3.82815
 21
5.703125
 31
0.0
  0
LINE
  5
88
100
AcDbEntity
  8
0
100
AcDbLine
 10
3.57815
 20
4.953125
 30
0.0
 11
3.82815
 21
4.953125
 31
0.0
  0
LINE
  5
89
100
AcDbEntity
  8
0
100
AcDbLine
 10
3.57815
 20
5.203125
 30
0.0
 11
3.82815
 21
5.203125
 31
0.0
  0
LINE
  5
8A
100
AcDbEntity
  8
0
100
AcDbLine
 10
3.57815
 20
4.453125
 30
0.0
 11
3.82815
 21
4.453125
 31
0.0
  0
LINE
  5
8B
100
AcDbEntity
  8
0
100
AcDbLine
 10
3.57815
 20
4.703125
 30
0.0
 11
3.82815
 21
4.703125
 31
0.0
  0
LINE
  5
8C
100
AcDbEntity
  8
0
100
AcDbLine
 10
3.57815
 20
3.953125
 30
0.0
 11
3.82815
 21
3.953125
 31
0.0
  0
LINE
  5
8D
100
AcDbEntity
  8
0
100
AcDbLine
 10
3.57815
 20
4.203125
 30
0.0
 11
3.82815
 21
4.203125
 31
0.0
  0
LINE
  5
92
100
AcDbEntity
  8
0
100
AcDbLine
 10
3.82815
 20
4.203125
 30
0.0
 11
3.82815
 21
3.953125
 31
0.0
  0
LINE
  5
93
100
AcDbEntity
  8
0
100
AcDbLine
 10
3.82815
 20
4.578125
 30
0.0
 11
4.57815
 21
4.578125
 31
0.0
  0
LINE
  5
94
100
AcDbEntity
  8
0
100
AcDbLine
 10
3.82815
 20
4.078125
 30
0.0
 11
4.57815
 21
4.078125
 31
0.0
  0
LINE
  5
95
100
AcDbEntity
  8
0
100
AcDbLine
 10
3.82815
 20
4.703125
 30
0.0
 11
3.82815
 21
4.453125
 31
0.0
  0
LINE
  5
96
100
AcDbEntity
  8
0
100
AcDbLine
 10
3.82815
 20
5.078125
 30
0.0
 11
4.57815
 21
5.078125
 31
0.0
  0
LINE
  5
97
100
AcDbEntity
  8
0
100
AcDbLine
 10
3.82815
 20
5.203125
 30
0.0
 11
3.82815
 21
4.953125
 31
0.0
  0
LINE
  5
98
100
AcDbEntity
  8
0
100
AcDbLine
 10
3.82815
 20
6.078125
 30
0.0
 11
4.57815
 21
6.078125
 31
0.0
  0
LINE
  5
99
100
AcDbEntity
  8
0
100
AcDbLine
 10
3.82815
 20
5.578125
 30
0.0
 11
4.57815
 21
5.578125
 31
0.0
  0
LINE
  5
9A
100
AcDbEntity
  8
0
100
AcDbLine
 10
3.82815
 20
5.703125
 30
0.0
 11
3.82815
 21
5.453125
 31
0.0
  0
LINE
  5
9B
100
AcDbEntity
  8
0
100
AcDbLine
 10
3.57815
 20
8.453125
 30
0.0
 11
3.82815
 21
8.453125
 31
0.0
  0
LINE
  5
9C
100
AcDbEntity
  8
0
100
AcDbLine
 10
3.57815
 20
8.703125
 30
0.0
 11
3.82815
 21
8.703125
 31
0.0
  0
LINE
  5
9D
100
AcDbEntity
  8
0
100
AcDbLine
 10
3.57815
 20
7.953125
 30
0.0
 11
3.82815
 21
7.953125
 31
0.0
  0
LINE
  5
9E
100
AcDbEntity
  8
0
100
AcDbLine
 10
3.57815
 20
8.203125
 30
0.0
 11
3.82815
 21
8.203125
 31
0.0
  0
LINE
  5
9F
100
AcDbEntity
  8
0
100
AcDbLine
 10
3.57815
 20
7.453125
 30
0.0
 11
3.82815
 21
7.453125
 31
0.0
  0
LINE
  5
A0
100
AcDbEntity
  8
0
100
AcDbLine
 10
3.57815
 20
7.703125
 30
0.0
 11
3.82815
 21
7.703125
 31
0.0
  0
LINE
  5
A1
100
AcDbEntity
  8
0
100
AcDbLine
 10
3.57815
 20
6.953125
 30
0.0
 11
3.82815
 21
6.953125
 31
0.0
  0
LINE
  5
A2
100
AcDbEntity
  8
0
100
AcDbLine
 10
3.57815
 20
7.203125
 30
0.0
 11
3.82815
 21
7.203125
 31
0.0
  0
LINE
  5
A3
100
AcDbEntity
  8
0
100
AcDbLine
 10
3.57815
 20
6.453125
 30
0.0
 11
3.82815
 21
6.453125
 31
0.0
  0
LINE
  5
A4
100
AcDbEntity
  8
0
100
AcDbLine
 10
3.57815
 20
6.703125
 30
0.0
 11
3.82815
 21
6.703125
 31
0.0
  0
LINE
  5
A5
100
AcDbEntity
  8
0
100
AcDbLine
 10
3.57815
 20
6.203125
 30
0.0
 11
3.82815
 21
6.203125
 31
0.0
  0
LINE
  5
AA
100
AcDbEntity
  8
0
100
AcDbLine
 10
3.82815
 20
7.703125
 30
0.0
 11
3.82815
 21
7.453125
 31
0.0
  0
LINE
  5
AB
100
AcDbEntity
  8
0
100
AcDbLine
 10
3.82815
 20
6.578125
 30
0.0
 11
4.57815
 21
6.578125
 31
0.0
  0
LINE
  5
AC
100
AcDbEntity
  8
0
100
AcDbLine
 10
3.82815
 20
6.703125
 30
0.0
 11
3.82815
 21
6.453125
 31
0.0
  0
LINE
  5
AD
100
AcDbEntity
  8
0
100
AcDbLine
 10
3.82815
 20
7.078125
 30
0.0
 11
4.57815
 21
7.078125
 31
0.0
  0
LINE
  5
AE
100
AcDbEntity
  8
0
100
AcDbLine
 10
3.82815
 20
7.203125
 30
0.0
 11
3.82815
 21
6.953125
 31
0.0
  0
LINE
  5
AF
100
AcDbEntity
  8
0
100
AcDbLine
 10
3.82815
 20
8.078125
 30
0.0
 11
4.57815
 21
8.078125
 31
0.0
  0
LINE
  5
B0
100
AcDbEntity
  8
0
100
AcDbLine
 10
3.82815
 20
7.578125
 30
0.0
 11
4.57815
 21
7.578125
 31
0.0
  0
LINE
  5
B1
100
AcDbEntity
  8
0
100
AcDbLine
 10
3.82815
 20
8.203125
 30
0.0
 11
3.82815
 21
7.953125
 31
0.0
  0
LINE
  5
B2
100
AcDbEntity
  8
0
100
AcDbLine
 10
3.82815
 20
8.578125
 30
0.0
 11
4.57815
 21
8.578125
 31
0.0
  0
LINE
  5
B3
100
AcDbEntity
  8
0
100
AcDbLine
 10
3.82815
 20
8.703125
 30
0.0
 11
3.82815
 21
8.453125
 31
0.0
  0
LINE
  5
B5
100
AcDbEntity
  8
0
100
AcDbLine
 10
3.82815
 20
13.578125
 30
0.0
 11
8.32815
 21
13.578125
 31
0.0
  0
LINE
  5
B6
100
AcDbEntity
  8
0
100
AcDbLine
 10
3.57815
 20
11.453125
 30
0.0
 11
3.82815
 21
11.453125
 31
0.0
  0
LINE
  5
B7
100
AcDbEntity
  8
0
100
AcDbLine
 10
3.57815
 20
11.703125
 30
0.0
 11
3.82815
 21
11.703125
 31
0.0
  0
LINE
  5
B8
100
AcDbEntity
  8
0
100
AcDbLine
 10
3.57815
 20
10.953125
 30
0.0
 11
3.82815
 21
10.953125
 31
0.0
  0
LINE
  5
B9
100
AcDbEntity
  8
0
100
AcDbLine
 10
3.57815
 20
11.203125
 30
0.0
 11
3.82815
 21
11.203125
 31
0.0
  0
LINE
  5
BA
100
AcDbEntity
  8
0
100
AcDbLine
 10
3.57815
 20
9.453125
 30
0.0
 11
3.82815
 21
9.453125
 31
0.0
  0
LINE
  5
BB
100
AcDbEntity
  8
0
100
AcDbLine
 10
3.57815
 20
9.703125
 30
0.0
 11
3.82815
 21
9.703125
 31
0.0
  0
LINE
  5
BC
100
AcDbEntity
  8
0
100
AcDbLine
 10
3.57815
 20
9.203125
 30
0.0
 11
3.82815
 21
9.203125
 31
0.0
  0
LINE
  5
BE
100
AcDbEntity
  8
0
100
AcDbLine
 10
3.57815
 20
9.953125
 30
0.0
 11
3.82815
 21
9.953125
 31
0.0
  0
LINE
  5
BF
100
AcDbEntity
  8
0
100
AcDbLine
 10
3.57815
 20
10.203125
 30
0.0
 11
3.82815
 21
10.203125
 31
0.0
  0
LINE
  5
C0
100
AcDbEntity
  8
0
100
AcDbLine
 10
3.57815
 20
10.703125
 30
0.0
 11
3.82815
 21
10.703125
 31
0.0
  0
LINE
  5
C1
100
AcDbEntity
  8
0
100
AcDbLine
 10
3.57815
 20
10.453125
 30
0.0
 11
3.82815
 21
10.453125
 31
0.0
  0
LINE
  5
C2
100
AcDbEntity
  8
0
100
AcDbLine
 10
3.57815
 20
8.953125
 30
0.0
 11
3.82815
 21
8.953125
 31
0.0
  0
LINE
  5
C3
100
AcDbEntity
  8
0
100
AcDbLine
 10
3.82815
 20
9.703125
 30
0.0
 11
3.82815
 21
9.453125
 31
0.0
  0
LINE
  5
C4
100
AcDbEntity
  8
0
100
AcDbLine
 10
3.82815
 20
9.578125
 30
0.0
 11
4.57815
 21
9.578125
 31
0.0
  0
LINE
  5
C5
100
AcDbEntity
  8
0
100
AcDbLine
 10
3.82815
 20
9.078125
 30
0.0
 11
4.57815
 21
9.078125
 31
0.0
  0
LINE
  5
C6
100
AcDbEntity
  8
0
100
AcDbLine
 10
3.82815
 20
9.203125
 30
0.0
 11
3.82815
 21
8.953125
 31
0.0
  0
LINE
  5
C7
100
AcDbEntity
  8
0
100
AcDbLine
 10
3.82815
 20
10.078125
 30
0.0
 11
4.57815
 21
10.078125
 31
0.0
  0
LINE
  5
C8
100
AcDbEntity
  8
0
100
AcDbLine
 10
3.82815
 20
10.203125
 30
0.0
 11
3.82815
 21
9.953125
 31
0.0
  0
LINE
  5
C9
100
AcDbEntity
  8
0
100
AcDbLine
 10
3.82815
 20
11.203125
 30
0.0
 11
3.82815
 21
10.953125
 31
0.0
  0
LINE
  5
CA
100
AcDbEntity
  8
0
100
AcDbLine
 10
3.82815
 20
10.578125
 30
0.0
 11
4.57815
 21
10.578125
 31
0.0
  0
LINE
  5
CB
100
AcDbEntity
  8
0
100
AcDbLine
 10
3.82815
 20
10.703125
 30
0.0
 11
3.82815
 21
10.453125
 31
0.0
  0
LINE
  5
CC
100
AcDbEntity
  8
0
100
AcDbLine
 10
3.82815
 20
11.578125
 30
0.0
 11
4.57815
 21
11.578125
 31
0.0
  0
LINE
  5
CD
100
AcDbEntity
  8
0
100
AcDbLine
 10
3.82815
 20
11.078125
 30
0.0
 11
4.57815
 21
11.078125
 31
0.0
  0
LINE
  5
CE
100
AcDbEntity
  8
0
100
AcDbLine
 10
3.82815
 20
11.703125
 30
0.0
 11
3.82815
 21
11.453125
 31
0.0
  0
LINE
  5
D4
100
AcDbEntity
  8
0
100
AcDbLine
 10
3.57815
 20
13.703125
 30
0.0
 11
3.82815
 21
13.703125
 31
0.0
  0
LINE
  5
D5
100
AcDbEntity
  8
0
100
AcDbLine
 10
3.57815
 20
13.453125
 30
0.0
 11
3.82815
 21
13.453125
 31
0.0
  0
LINE
  5
D6
100
AcDbEntity
  8
0
100
AcDbLine
 10
3.57815
 20
12.953125
 30
0.0
 11
3.82815
 21
12.953125
 31
0.0
  0
LINE
  5
D7
100
AcDbEntity
  8
0
100
AcDbLine
 10
3.57815
 20
13.203125
 30
0.0
 11
3.82815
 21
13.203125
 31
0.0
  0
LINE
  5
D8
100
AcDbEntity
  8
0
100
AcDbLine
 10
3.57815
 20
12.453125
 30
0.0
 11
3.82815
 21
12.453125
 31
0.0
  0
LINE
  5
D9
100
AcDbEntity
  8
0
100
AcDbLine
 10
3.57815
 20
12.703125
 30
0.0
 11
3.82815
 21
12.703125
 31
0.0
  0
LINE
  5
DA
100
AcDbEntity
  8
0
100
AcDbLine
 10
3.57815
 20
11.953125
 30
0.0
 11
3.82815
 21
11.953125
 31
0.0
  0
LINE
  5
DB
100
AcDbEntity
  8
0
100
AcDbLine
 10
3.57815
 20
12.203125
 30
0.0
 11
3.82815
 21
12.203125
 31
0.0
  0
LINE
  5
DC
100
AcDbEntity
  8
0
100
AcDbLine
 10
3.82815
 20
13.203125
 30
0.0
 11
3.82815
 21
12.953125
 31
0.0
  0
LINE
  5
DD
100
AcDbEntity
  8
0
100
AcDbLine
 10
3.82815
 20
12.078125
 30
0.0
 11
4.57815
 21
12.078125
 31
0.0
  0
LINE
  5
DE
100
AcDbEntity
  8
0
100
AcDbLine
 10
3.82815
 20
12.203125
 30
0.0
 11
3.82815
 21
11.953125
 31
0.0
  0
LINE
  5
DF
100
AcDbEntity
  8
0
100
AcDbLine
 10
3.82815
 20
12.578125
 30
0.0
 11
4.57815
 21
12.578125
 31
0.0
  0
LINE
  5
E0
100
AcDbEntity
  8
0
100
AcDbLine
 10
3.82815
 20
13.078125
 30
0.0
 11
4.57815
 21
13.078125
 31
0.0
  0
LINE
  5
E1
100
AcDbEntity
  8
0
100
AcDbLine
 10
3.82815
 20
12.703125
 30
0.0
 11
3.82815
 21
12.453125
 31
0.0
  0
LINE
  5
E2
100
AcDbEntity
  8
0
100
AcDbLine
 10
3.82815
 20
13.703125
 30
0.0
 11
3.82815
 21
13.453125
 31
0.0
  0
LINE
  5
E6
100
AcDbEntity
  8
0
100
AcDbLine
 10
2.031275
 20
14.234375
 30
0.0
 11
3.57815
 21
14.234375
 31
0.0
  0
TEXT
  5
E8
100
AcDbEntity
  8
TEXT
100
AcDbText
 10
8.71565
 20
12.528125
 30
0.0
 40
0.1
  1
*
 41
0.8
 51
10.0
  7
ROMANS
100
AcDbText
  0
TEXT
  5
EB
100
AcDbEntity
  8
TEXT
100
AcDbText
 10
1.799281
 20
14.531994
 30
0.0
 40
0.125
  1
24 VDC (Source) OUTPUT
 41
0.8
 51
10.0
  7
ROMANS
 72
     1
 11
2.7969
 21
14.531994
 31
0.0
100
AcDbText
  0
TEXT
  5
EC
100
AcDbEntity
  8
TEXT
100
AcDbText
 10
2.1969
 20
14.329613
 30
0.0
 40
0.125
  1
502-03640-02
 41
0.8
 51
10.0
  7
ROMANS
 72
     1
 11
2.7969
 21
14.329613
 31
0.0
100
AcDbText
  0
LINE
  5
ED
100
AcDbEntity
  8
0
100
AcDbLine
 10
2.031275
 20
14.234375
 30
0.0
 11
3.57815
 21
14.234375
 31
0.0
  0
TEXT
  5
EE
100
AcDbEntity
  8
TEXT
100
AcDbText
 10
2.110412
 20
14.04375
 30
0.0
 40
0.1
  1
INTERNAL ADDRESSES
 41
0.8
  7
ROMANS
 72
     4
 11
2.76565
 21
14.09375
 31
0.0
100
AcDbText
  0
TEXT
  5
EF
100
AcDbEntity
  8
TEXT
100
AcDbText
 10
2.297079
 20
13.881845
 30
0.0
 40
0.1
  1
LISTED BELOW 
 41
0.8
  7
ROMANS
 72
     4
 11
2.76565
 21
13.931845
 31
0.0
100
AcDbText
  0
TEXT
  5
F0
100
AcDbEntity
  8
TEXT
100
AcDbText
 10
2.332614
 20
14.734375
 30
0.0
 40
0.125
  1
CARD #--A
 41
0.8
 51
10.0
  7
ROMANS
 72
     1
 11
2.7969
 21
14.734375
 31
0.0
100
AcDbText
  0
TEXT
  5
F1
100
AcDbEntity
  8
TEXT
100
AcDbText
 10
0.281275
 20
13.528125
 30
0.0
 40
0.1
  1
DC Common
 41
0.8
 51
10.0
  7
ROMANS
100
AcDbText
  0
TEXT
  5
F2
100
AcDbEntity
  8
TEXT
100
AcDbText
 10
0.281275
 20
13.028125
 30
0.0
 40
0.1
  1
DC Source
 41
0.8
 51
10.0
  7
ROMANS
100
AcDbText
  0
TEXT
  5
F3
100
AcDbEntity
  8
TEXT
100
AcDbText
 10
0.281275
 20
12.528125
 30
0.0
 40
0.1
  1
*
 41
0.8
 51
10.0
  7
ROMANS
100
AcDbText
  0
LINE
  5
F5
100
AcDbEntity
  8
DASH
100
AcDbLine
 10
2.031275
 20
1.828125
 30
0.0
 11
3.57815
 21
1.828125
 31
0.0
  0
TEXT
  5
F6
100
AcDbEntity
  8
TEXT
100
AcDbText
 10
0.281275
 20
6.528125
 30
0.0
 40
0.1
  1
*
 41
0.8
 51
10.0
  7
ROMANS
100
AcDbText
  0
TEXT
  5
F8
100
AcDbEntity
  8
TEXT
100
AcDbText
 10
0.281275
 20
8.528125
 30
0.0
 40
0.1
  1
DC Common
 41
0.8
 51
10.0
  7
ROMANS
100
AcDbText
  0
TEXT
  5
F9
100
AcDbEntity
  8
TEXT
100
AcDbText
 10
0.281275
 20
8.028125
 30
0.0
 40
0.1
  1
DC Source
 41
0.8
 51
10.0
  7
ROMANS
100
AcDbText
  0
TEXT
  5
FA
100
AcDbEntity
  8
TEXT
100
AcDbText
 10
2.062079
 20
12.515625
 30
0.0
 40
0.125
  1
O-.-.1
 41
0.8
 51
10.0
  7
ROMANS
100
AcDbText
  0
TEXT
  5
FB
100
AcDbEntity
  8
TEXT
100
AcDbText
 10
2.062079
 20
12.015625
 30
0.0
 40
0.125
  1
O-.-.2
 41
0.8
 51
10.0
  7
ROMANS
100
AcDbText
  0
TEXT
  5
FC
100
AcDbEntity
  8
TEXT
100
AcDbText
 10
2.062079
 20
11.515625
 30
0.0
 40
0.125
  1
O-.-.3
 41
0.8
 51
10.0
  7
ROMANS
100
AcDbText
  0
TEXT
  5
FD
100
AcDbEntity
  8
TEXT
100
AcDbText
 10
2.062079
 20
11.015625
 30
0.0
 40
0.125
  1
O-.-.4
 41
0.8
 51
10.0
  7
ROMANS
100
AcDbText
  0
TEXT
  5
FE
100
AcDbEntity
  8
TEXT
100
AcDbText
 10
2.062079
 20
9.015625
 30
0.0
 40
0.125
  1
O-.-.8
 41
0.8
 51
10.0
  7
ROMANS
100
AcDbText
  0
TEXT
  5
FF
100
AcDbEntity
  8
TEXT
100
AcDbText
 10
2.062079
 20
9.515625
 30
0.0
 40
0.125
  1
O-.-.7
 41
0.8
 51
10.0
  7
ROMANS
100
AcDbText
  0
TEXT
  5
100
100
AcDbEntity
  8
TEXT
100
AcDbText
 10
2.062079
 20
10.015625
 30
0.0
 40
0.125
  1
O-.-.6
 41
0.8
 51
10.0
  7
ROMANS
100
AcDbText
  0
TEXT
  5
101
100
AcDbEntity
  8
TEXT
100
AcDbText
 10
2.062079
 20
10.515625
 30
0.0
 40
0.125
  1
O-.-.5
 41
0.8
 51
10.0
  7
ROMANS
100
AcDbText
  0
TEXT
  5
102
100
AcDbEntity
  8
TEXT
100
AcDbText
 10
2.062079
 20
4.015625
 30
0.0
 40
0.125
  1
O-.-.16
 41
0.8
 51
10.0
  7
ROMANS
100
AcDbText
  0
TEXT
  5
103
100
AcDbEntity
  8
TEXT
100
AcDbText
 10
2.062079
 20
4.515625
 30
0.0
 40
0.125
  1
O-.-.15
 41
0.8
 51
10.0
  7
ROMANS
100
AcDbText
  0
TEXT
  5
104
100
AcDbEntity
  8
TEXT
100
AcDbText
 10
2.062079
 20
5.015625
 30
0.0
 40
0.125
  1
O-.-.14
 41
0.8
 51
10.0
  7
ROMANS
100
AcDbText
  0
TEXT
  5
105
100
AcDbEntity
  8
TEXT
100
AcDbText
 10
2.062079
 20
5.515625
 30
0.0
 40
0.125
  1
O-.-.13
 41
0.8
 51
10.0
  7
ROMANS
100
AcDbText
  0
TEXT
  5
106
100
AcDbEntity
  8
TEXT
100
AcDbText
 10
2.062079
 20
6.015625
 30
0.0
 40
0.125
  1
O-.-.12
 41
0.8
 51
10.0
  7
ROMANS
100
AcDbText
  0
TEXT
  5
107
100
AcDbEntity
  8
TEXT
100
AcDbText
 10
2.062079
 20
6.515625
 30
0.0
 40
0.125
  1
O-.-.11
 41
0.8
 51
10.0
  7
ROMANS
100
AcDbText
  0
TEXT
  5
108
100
AcDbEntity
  8
TEXT
100
AcDbText
 10
2.062079
 20
7.015625
 30
0.0
 40
0.125
  1
O-.-.10
 41
0.8
 51
10.0
  7
ROMANS
100
AcDbText
  0
TEXT
  5
109
100
AcDbEntity
  8
TEXT
100
AcDbText
 10
2.062079
 20
7.515625
 30
0.0
 40
0.125
  1
O-.-.9
 41
0.8
 51
10.0
  7
ROMANS
100
AcDbText
  0
TEXT
  5
163
100
AcDbEntity
  8
TEXT
100
AcDbText
 10
0.281275
 20
9.028125
 30
0.0
 40
0.1
  1
*
 41
0.8
 51
10.0
  7
ROMANS
100
AcDbText
  0
TEXT
  5
171
100
AcDbEntity
  8
0
100
AcDbText
 10
17.910629
 20
12.25725
 30
0.0
 40
0.075
  1

 41
0.8
 51
10.0
  7
ROMANS
100
AcDbText
  0
TEXT
  5
172
100
AcDbEntity
  8
0
100
AcDbText
 10
19.615379
 20
12.378125
 30
0.0
 40
0.1
  1

 41
0.8
 51
10.0
  7
ROMANS
100
AcDbText
  0
TEXT
  5
173
100
AcDbEntity
  8
0
100
AcDbText
 10
19.615379
 20
1.878125
 30
0.0
 40
0.1
  1

 41
0.8
 51
10.0
  7
ROMANS
100
AcDbText
  0
TEXT
  5
174
100
AcDbEntity
  8
0
100
AcDbText
 10
19.615379
 20
10.742125
 30
0.0
 40
0.1
  1

 41
0.8
 51
10.0
  7
ROMANS
100
AcDbText
  0
TEXT
  5
175
100
AcDbEntity
  8
0
100
AcDbText
 10
19.615379
 20
10.028125
 30
0.0
 40
0.1
  1

 41
0.8
 51
10.0
  7
ROMANS
100
AcDbText
  0
TEXT
  5
176
100
AcDbEntity
  8
0
100
AcDbText
 10
19.615379
 20
10.528125
 30
0.0
 40
0.1
  1

 41
0.8
 51
10.0
  7
ROMANS
100
AcDbText
  0
TEXT
  5
177
100
AcDbEntity
  8
0
100
AcDbText
 10
18.040385
 20
8.728125
 30
0.0
 40
0.1
  1

100
AcDbText
  0
TEXT
  5
178
100
AcDbEntity
  8
0
100
AcDbText
 10
17.910629
 20
5.25725
 30
0.0
 40
0.075
  1

 41
0.8
 51
10.0
  7
ROMANS
100
AcDbText
  0
TEXT
  5
17F
100
AcDbEntity
  8
TEXT
100
AcDbText
 10
1.281275
 20
12.528125
 30
0.0
 40
0.1
  1
*
 41
0.8
 51
10.0
  7
ROMANS
100
AcDbText
  0
TEXT
  5
180
100
AcDbEntity
  8
TEXT
100
AcDbText
 10
1.281275
 20
14.028125
 30
0.0
 40
0.1
  1
NEMONIC:
 41
0.8
 51
10.0
  7
ROMANS
100
AcDbText
  0
TEXT
  5
181
100
AcDbEntity
  8
TEXT
100
AcDbText
 10
0.281275
 20
14.028125
 30
0.0
 40
0.1
  1
SOFTWARE:
 41
0.8
 51
10.0
  7
ROMANS
100
AcDbText
  0
LINE
  5
182
100
AcDbEntity
  8
0
100
AcDbLine
 10
0.291866
 20
13.983683
 30
0.0
 11
0.910877
 21
13.983683
 31
0.0
  0
LINE
  5
183
100
AcDbEntity
  8
0
100
AcDbLine
 10
1.250993
 20
13.983683
 30
0.0
 11
1.870004
 21
13.983683
 31
0.0
  0
TEXT
  5
185
100
AcDbEntity
  8
TEXT
100
AcDbText
 10
1.281275
 20
9.028125
 30
0.0
 40
0.1
  1
*
 41
0.8
 51
10.0
  7
ROMANS
100
AcDbText
  0
TEXT
  5
186
100
AcDbEntity
  8
TEXT
100
AcDbText
 10
1.281275
 20
6.528125
 30
0.0
 40
0.1
  1
*
 41
0.8
 51
10.0
  7
ROMANS
100
AcDbText
  0
TEXT
  5
1AB
100
AcDbEntity
  8
TEXT
100
AcDbText
 10
8.70665
 20
6.528125
 30
0.0
 40
0.1
  1
*
 41
0.8
 51
10.0
  7
ROMANS
100
AcDbText
  0
TEXT
  5
1DC
100
AcDbEntity
  8
TEXT
100
AcDbText
 10
8.70665
 20
4.028125
 30
0.0
 40
0.1
  1
*
 41
0.8
 51
10.0
  7
ROMANS
100
AcDbText
  0
TEXT
  5
1DD
100
AcDbEntity
  8
TEXT
100
AcDbText
 10
8.70665
 20
4.528125
 30
0.0
 40
0.1
  1
*
 41
0.8
 51
10.0
  7
ROMANS
100
AcDbText
  0
TEXT
  5
1DE
100
AcDbEntity
  8
TEXT
100
AcDbText
 10
8.70665
 20
5.028125
 30
0.0
 40
0.1
  1
*
 41
0.8
 51
10.0
  7
ROMANS
100
AcDbText
  0
TEXT
  5
1DF
100
AcDbEntity
  8
TEXT
100
AcDbText
 10
8.70665
 20
5.528125
 30
0.0
 40
0.1
  1
*
 41
0.8
 51
10.0
  7
ROMANS
100
AcDbText
  0
TEXT
  5
1E1
100
AcDbEntity
  8
TEXT
100
AcDbText
 10
0.281275
 20
5.528125
 30
0.0
 40
0.1
  1
*
 41
0.8
 51
10.0
  7
ROMANS
100
AcDbText
  0
TEXT
  5
1E2
100
AcDbEntity
  8
TEXT
100
AcDbText
 10
0.281275
 20
5.028125
 30
0.0
 40
0.1
  1
*
 41
0.8
 51
10.0
  7
ROMANS
100
AcDbText
  0
TEXT
  5
1E6
100
AcDbEntity
  8
TEXT
100
AcDbText
 10
0.281275
 20
4.028125
 30
0.0
 40
0.1
  1
*
 41
0.8
 51
10.0
  7
ROMANS
100
AcDbText
  0
TEXT
  5
1E7
100
AcDbEntity
  8
TEXT
100
AcDbText
 10
0.281275
 20
4.528125
 30
0.0
 40
0.1
  1
*
 41
0.8
 51
10.0
  7
ROMANS
100
AcDbText
  0
TEXT
  5
1EA
100
AcDbEntity
  8
TEXT
100
AcDbText
 10
1.281275
 20
6.028125
 30
0.0
 40
0.1
  1
*
 41
0.8
 51
10.0
  7
ROMANS
100
AcDbText
  0
TEXT
  5
1EB
100
AcDbEntity
  8
TEXT
100
AcDbText
 10
0.281275
 20
6.028125
 30
0.0
 40
0.1
  1
*
 41
0.8
 51
10.0
  7
ROMANS
100
AcDbText
  0
TEXT
  5
1EC
100
AcDbEntity
  8
TEXT
100
AcDbText
 10
8.70665
 20
6.028125
 30
0.0
 40
0.1
  1
*
 41
0.8
 51
10.0
  7
ROMANS
100
AcDbText
  0
TEXT
  5
1EE
100
AcDbEntity
  8
TEXT
100
AcDbText
 10
1.281275
 20
7.528125
 30
0.0
 40
0.1
  1
*
 41
0.8
 51
10.0
  7
ROMANS
100
AcDbText
  0
TEXT
  5
1EF
100
AcDbEntity
  8
TEXT
100
AcDbText
 10
0.281275
 20
7.528125
 30
0.0
 40
0.1
  1
*
 41
0.8
 51
10.0
  7
ROMANS
100
AcDbText
  0
TEXT
  5
1F0
100
AcDbEntity
  8
TEXT
100
AcDbText
 10
1.281275
 20
7.028125
 30
0.0
 40
0.1
  1
*
 41
0.8
 51
10.0
  7
ROMANS
100
AcDbText
  0
TEXT
  5
1F1
100
AcDbEntity
  8
TEXT
100
AcDbText
 10
0.281275
 20
7.028125
 30
0.0
 40
0.1
  1
*
 41
0.8
 51
10.0
  7
ROMANS
100
AcDbText
  0
TEXT
  5
1F4
100
AcDbEntity
  8
TEXT
100
AcDbText
 10
0.281275
 20
10.528125
 30
0.0
 40
0.1
  1
*
 41
0.8
 51
10.0
  7
ROMANS
100
AcDbText
  0
TEXT
  5
1F5
100
AcDbEntity
  8
TEXT
100
AcDbText
 10
8.71565
 20
10.528125
 30
0.0
 40
0.1
  1
*
 41
0.8
 51
10.0
  7
ROMANS
100
AcDbText
  0
TEXT
  5
1F7
100
AcDbEntity
  8
TEXT
100
AcDbText
 10
0.281275
 20
10.028125
 30
0.0
 40
0.1
  1
*
 41
0.8
 51
10.0
  7
ROMANS
100
AcDbText
  0
TEXT
  5
1F8
100
AcDbEntity
  8
TEXT
100
AcDbText
 10
8.71565
 20
10.028125
 30
0.0
 40
0.1
  1
*
 41
0.8
 51
10.0
  7
ROMANS
100
AcDbText
  0
TEXT
  5
1F9
100
AcDbEntity
  8
TEXT
100
AcDbText
 10
1.281275
 20
9.528125
 30
0.0
 40
0.1
  1
*
 41
0.8
 51
10.0
  7
ROMANS
100
AcDbText
  0
TEXT
  5
1FA
100
AcDbEntity
  8
TEXT
100
AcDbText
 10
0.281275
 20
9.528125
 30
0.0
 40
0.1
  1
*
 41
0.8
 51
10.0
  7
ROMANS
100
AcDbText
  0
TEXT
  5
1FB
100
AcDbEntity
  8
TEXT
100
AcDbText
 10
8.71565
 20
9.528125
 30
0.0
 40
0.1
  1
*
 41
0.8
 51
10.0
  7
ROMANS
100
AcDbText
  0
TEXT
  5
1FC
100
AcDbEntity
  8
0
100
AcDbText
 10
20.155089
 20
14.6635
 30
0.0
 40
0.075
  1

 41
0.8
 51
10.0
  7
ROMANS
100
AcDbText
  0
TEXT
  5
1FD
100
AcDbEntity
  8
0
100
AcDbText
 10
21.859839
 20
14.784375
 30
0.0
 40
0.1
  1

 41
0.8
 51
10.0
  7
ROMANS
100
AcDbText
  0
TEXT
  5
1FE
100
AcDbEntity
  8
0
100
AcDbText
 10
21.859839
 20
4.284375
 30
0.0
 40
0.1
  1

 41
0.8
 51
10.0
  7
ROMANS
100
AcDbText
  0
TEXT
  5
1FF
100
AcDbEntity
  8
0
100
AcDbText
 10
21.859839
 20
13.148375
 30
0.0
 40
0.1
  1

 41
0.8
 51
10.0
  7
ROMANS
100
AcDbText
  0
TEXT
  5
200
100
AcDbEntity
  8
0
100
AcDbText
 10
21.859839
 20
12.434375
 30
0.0
 40
0.1
  1

 41
0.8
 51
10.0
  7
ROMANS
100
AcDbText
  0
TEXT
  5
201
100
AcDbEntity
  8
0
100
AcDbText
 10
21.859839
 20
12.934375
 30
0.0
 40
0.1
  1

 41
0.8
 51
10.0
  7
ROMANS
100
AcDbText
  0
TEXT
  5
202
100
AcDbEntity
  8
0
100
AcDbText
 10
20.284846
 20
11.134375
 30
0.0
 40
0.1
  1

100
AcDbText
  0
TEXT
  5
203
100
AcDbEntity
  8
0
100
AcDbText
 10
20.155089
 20
7.6635
 30
0.0
 40
0.075
  1

 41
0.8
 51
10.0
  7
ROMANS
100
AcDbText
  0
TEXT
  5
204
100
AcDbEntity
  8
TEXT
100
AcDbText
 10
2.426079
 20
13.015625
 30
0.0
 40
0.125
  1
DCL1 (Line)
 41
0.8
 51
10.0
  7
ROMANS
100
AcDbText
  0
LINE
  5
205
100
AcDbEntity
  8
0
100
AcDbLine
 10
2.031275
 20
14.234375
 30
0.0
 11
3.57815
 21
14.234375
 31
0.0
  0
TEXT
  5
206
100
AcDbEntity
  8
TEXT
100
AcDbText
 10
2.812079
 20
13.515625
 30
0.0
 40
0.125
  1
DCCOM1
 41
0.8
 51
10.0
  7
ROMANS
100
AcDbText
  0
TEXT
  5
207
100
AcDbEntity
  8
TEXT
100
AcDbText
 10
2.812079
 20
12.515625
 30
0.0
 40
0.125
  1
DCOUT1
 41
0.8
 51
10.0
  7
ROMANS
100
AcDbText
  0
TEXT
  5
208
100
AcDbEntity
  8
TEXT
100
AcDbText
 10
2.812079
 20
12.015625
 30
0.0
 40
0.125
  1
DCOUT2
 41
0.8
 51
10.0
  7
ROMANS
100
AcDbText
  0
TEXT
  5
209
100
AcDbEntity
  8
TEXT
100
AcDbText
 10
2.812079
 20
11.515625
 30
0.0
 40
0.125
  1
DCOUT3
 41
0.8
 51
10.0
  7
ROMANS
100
AcDbText
  0
TEXT
  5
20A
100
AcDbEntity
  8
TEXT
100
AcDbText
 10
2.812079
 20
10.515625
 30
0.0
 40
0.125
  1
DCOUT5
 41
0.8
 51
10.0
  7
ROMANS
100
AcDbText
  0
TEXT
  5
20B
100
AcDbEntity
  8
TEXT
100
AcDbText
 10
2.812079
 20
10.015625
 30
0.0
 40
0.125
  1
DCOUT6
 41
0.8
 51
10.0
  7
ROMANS
100
AcDbText
  0
TEXT
  5
20C
100
AcDbEntity
  8
TEXT
100
AcDbText
 10
2.812079
 20
11.015625
 30
0.0
 40
0.125
  1
DCOUT4
 41
0.8
 51
10.0
  7
ROMANS
100
AcDbText
  0
TEXT
  5
20D
100
AcDbEntity
  8
TEXT
100
AcDbText
 10
2.812079
 20
9.515625
 30
0.0
 40
0.125
  1
DCOUT7
 41
0.8
 51
10.0
  7
ROMANS
100
AcDbText
  0
TEXT
  5
20E
100
AcDbEntity
  8
TEXT
100
AcDbText
 10
2.812079
 20
9.015625
 30
0.0
 40
0.125
  1
DCOUT8
 41
0.8
 51
10.0
  7
ROMANS
100
AcDbText
  0
TEXT
  5
20F
100
AcDbEntity
  8
TEXT
100
AcDbText
 10
2.812079
 20
8.515625
 30
0.0
 40
0.125
  1
DCCOM2
 41
0.8
 51
10.0
  7
ROMANS
100
AcDbText
  0
TEXT
  5
210
100
AcDbEntity
  8
TEXT
100
AcDbText
 10
2.812079
 20
8.015625
 30
0.0
 40
0.125
  1
DCL2
 41
0.8
 51
10.0
  7
ROMANS
100
AcDbText
  0
TEXT
  5
211
100
AcDbEntity
  8
TEXT
100
AcDbText
 10
2.812079
 20
7.515625
 30
0.0
 40
0.125
  1
DCOUT9
 41
0.8
 51
10.0
  7
ROMANS
100
AcDbText
  0
TEXT
  5
212
100
AcDbEntity
  8
TEXT
100
AcDbText
 10
2.812079
 20
7.015625
 30
0.0
 40
0.125
  1
DCOUT10
 41
0.8
 51
10.0
  7
ROMANS
100
AcDbText
  0
TEXT
  5
213
100
AcDbEntity
  8
TEXT
100
AcDbText
 10
2.812079
 20
6.515625
 30
0.0
 40
0.125
  1
DCOUT11
 41
0.8
 51
10.0
  7
ROMANS
100
AcDbText
  0
TEXT
  5
214
100
AcDbEntity
  8
TEXT
100
AcDbText
 10
2.812079
 20
6.015625
 30
0.0
 40
0.125
  1
DCOUT12
 41
0.8
 51
10.0
  7
ROMANS
100
AcDbText
  0
TEXT
  5
215
100
AcDbEntity
  8
TEXT
100
AcDbText
 10
2.812079
 20
5.515625
 30
0.0
 40
0.125
  1
DCOUT13
 41
0.8
 51
10.0
  7
ROMANS
100
AcDbText
  0
TEXT
  5
216
100
AcDbEntity
  8
TEXT
100
AcDbText
 10
2.812079
 20
4.515625
 30
0.0
 40
0.125
  1
DCOUT15
 41
0.8
 51
10.0
  7
ROMANS
100
AcDbText
  0
TEXT
  5
217
100
AcDbEntity
  8
TEXT
100
AcDbText
 10
2.812079
 20
4.015625
 30
0.0
 40
0.125
  1
DCOUT16
 41
0.8
 51
10.0
  7
ROMANS
100
AcDbText
  0
TEXT
  5
218
100
AcDbEntity
  8
TEXT
100
AcDbText
 10
2.812079
 20
5.015625
 30
0.0
 40
0.125
  1
DCOUT14
 41
0.8
 51
10.0
  7
ROMANS
100
AcDbText
  0
TEXT
  5
219
100
AcDbEntity
  8
0
100
AcDbText
 10
30.601693
 20
14.085375
 30
0.0
 40
0.075
  1

 41
0.8
 51
10.0
  7
ROMANS
100
AcDbText
  0
TEXT
  5
21A
100
AcDbEntity
  8
0
100
AcDbText
 10
32.306443
 20
14.20625
 30
0.0
 40
0.1
  1

 41
0.8
 51
10.0
  7
ROMANS
100
AcDbText
  0
TEXT
  5
21B
100
AcDbEntity
  8
0
100
AcDbText
 10
32.306443
 20
3.70625
 30
0.0
 40
0.1
  1

 41
0.8
 51
10.0
  7
ROMANS
100
AcDbText
  0
TEXT
  5
21C
100
AcDbEntity
  8
0
100
AcDbText
 10
32.306443
 20
12.57025
 30
0.0
 40
0.1
  1

 41
0.8
 51
10.0
  7
ROMANS
100
AcDbText
  0
TEXT
  5
21D
100
AcDbEntity
  8
0
100
AcDbText
 10
32.306443
 20
11.85625
 30
0.0
 40
0.1
  1

 41
0.8
 51
10.0
  7
ROMANS
100
AcDbText
  0
TEXT
  5
21E
100
AcDbEntity
  8
0
100
AcDbText
 10
32.306443
 20
12.35625
 30
0.0
 40
0.1
  1

 41
0.8
 51
10.0
  7
ROMANS
100
AcDbText
  0
TEXT
  5
21F
100
AcDbEntity
  8
0
100
AcDbText
 10
30.73145
 20
10.55625
 30
0.0
 40
0.1
  1

100
AcDbText
  0
TEXT
  5
220
100
AcDbEntity
  8
0
100
AcDbText
 10
30.601693
 20
7.085375
 30
0.0
 40
0.075
  1

 41
0.8
 51
10.0
  7
ROMANS
100
AcDbText
  0
TEXT
  5
221
100
AcDbEntity
  8
TEXT
100
AcDbText
 10
1.976154
 20
1.578125
 30
0.0
 40
0.1
  1
Continued on Sheet # --
 41
0.8
 51
10.0
  7
ROMANS
 72
     1
 11
2.804725
 21
1.578125
 31
0.0
100
AcDbText
  0
TEXT
  5
25A
100
AcDbEntity
  8
TEXT
100
AcDbText
 10
8.71565
 20
7.528125
 30
0.0
 40
0.1
  1
*
 41
0.8
 51
10.0
  7
ROMANS
100
AcDbText
  0
TEXT
  5
25B
100
AcDbEntity
  8
TEXT
100
AcDbText
 10
8.71565
 20
7.028125
 30
0.0
 40
0.1
  1
*
 41
0.8
 51
10.0
  7
ROMANS
100
AcDbText
  0
TEXT
  5
25C
100
AcDbEntity
  8
TEXT
100
AcDbText
 10
8.71565
 20
9.028125
 30
0.0
 40
0.1
  1
*
 41
0.8
 51
10.0
  7
ROMANS
100
AcDbText
  0
TEXT
  5
25D
100
AcDbEntity
  8
0
100
AcDbText
 10
15.979675
 20
24.9135
 30
0.0
 40
0.075
  1

 41
0.8
 51
10.0
  7
ROMANS
100
AcDbText
  0
TEXT
  5
25E
100
AcDbEntity
  8
0
100
AcDbText
 10
17.684425
 20
25.034375
 30
0.0
 40
0.1
  1

 41
0.8
 51
10.0
  7
ROMANS
100
AcDbText
  0
TEXT
  5
25F
100
AcDbEntity
  8
0
100
AcDbText
 10
17.684425
 20
14.534375
 30
0.0
 40
0.1
  1

 41
0.8
 51
10.0
  7
ROMANS
100
AcDbText
  0
TEXT
  5
260
100
AcDbEntity
  8
0
100
AcDbText
 10
17.684425
 20
23.398375
 30
0.0
 40
0.1
  1

 41
0.8
 51
10.0
  7
ROMANS
100
AcDbText
  0
TEXT
  5
261
100
AcDbEntity
  8
0
100
AcDbText
 10
17.684425
 20
22.684375
 30
0.0
 40
0.1
  1

 41
0.8
 51
10.0
  7
ROMANS
100
AcDbText
  0
TEXT
  5
262
100
AcDbEntity
  8
0
100
AcDbText
 10
17.684425
 20
23.184375
 30
0.0
 40
0.1
  1

 41
0.8
 51
10.0
  7
ROMANS
100
AcDbText
  0
TEXT
  5
263
100
AcDbEntity
  8
0
100
AcDbText
 10
16.109432
 20
21.384375
 30
0.0
 40
0.1
  1

100
AcDbText
  0
TEXT
  5
264
100
AcDbEntity
  8
0
100
AcDbText
 10
15.979675
 20
17.9135
 30
0.0
 40
0.075
  1

 41
0.8
 51
10.0
  7
ROMANS
100
AcDbText
  0
TEXT
  5
38D
100
AcDbEntity
  8
0
100
AcDbText
 10
29.40625
 20
8.125
 30
0.0
 40
0.1
  1

 72
     1
 11
29.40625
 21
8.125
 31
0.0
100
AcDbText
  0
TEXT
  5
38E
100
AcDbEntity
  8
0
100
AcDbText
 10
35.555288
 20
4.985375
 30
0.0
 40
0.075
  1

100
AcDbText
  0
TEXT
  5
38F
100
AcDbEntity
  8
0
100
AcDbText
 10
35.207581
 20
4.985375
 30
0.0
 40
0.075
  1

100
AcDbText
  0
TEXT
  5
390
100
AcDbEntity
  8
0
100
AcDbText
 10
35.116455
 20
14.51631
 30
0.0
 40
0.1
  1

 72
     1
 11
35.116455
 21
14.51631
 31
0.0
100
AcDbText
  0
TEXT
  5
391
100
AcDbEntity
  8
0
100
AcDbText
 10
41.265493
 20
11.376685
 30
0.0
 40
0.075
  1

100
AcDbText
  0
TEXT
  5
392
100
AcDbEntity
  8
0
100
AcDbText
 10
40.917786
 20
11.376685
 30
0.0
 40
0.075
  1

100
AcDbText
  0
TEXT
  5
393
100
AcDbEntity
  8
0
100
AcDbText
 10
40.99475
 20
8.158375
 30
0.0
 40
0.1
  1

 72
     1
 11
40.99475
 21
8.158375
 31
0.0
100
AcDbText
  0
TEXT
  5
394
100
AcDbEntity
  8
0
100
AcDbText
 10
47.143788
 20
5.01875
 30
0.0
 40
0.075
  1

100
AcDbText
  0
TEXT
  5
395
100
AcDbEntity
  8
0
100
AcDbText
 10
46.796081
 20
5.01875
 30
0.0
 40
0.075
  1

100
AcDbText
  0
TEXT
  5
396
100
AcDbEntity
  8
0
100
AcDbText
 10
46.704955
 20
14.549685
 30
0.0
 40
0.1
  1

 72
     1
 11
46.704955
 21
14.549685
 31
0.0
100
AcDbText
  0
TEXT
  5
397
100
AcDbEntity
  8
0
100
AcDbText
 10
52.853993
 20
11.41006
 30
0.0
 40
0.075
  1

100
AcDbText
  0
TEXT
  5
398
100
AcDbEntity
  8
0
100
AcDbText
 10
52.506286
 20
11.41006
 30
0.0
 40
0.075
  1

100
AcDbText
  0
TEXT
  5
399
100
AcDbEntity
  8
0
100
AcDbText
 10
33.386608
 20
14.985613
 30
0.0
 40
0.075
  1

 72
     1
 11
33.386608
 21
14.985613
 31
0.0
100
AcDbText
  0
TEXT
  5
39A
100
AcDbEntity
  8
0
100
AcDbText
 10
33.386608
 20
14.485613
 30
0.0
 40
0.075
  1

 72
     1
 11
33.386608
 21
14.485613
 31
0.0
100
AcDbText
  0
TEXT
  5
39B
100
AcDbEntity
  8
0
100
AcDbText
 10
33.386608
 20
13.985613
 30
0.0
 40
0.1
  1

 72
     1
 11
33.386608
 21
13.985613
 31
0.0
100
AcDbText
  0
TEXT
  5
39C
100
AcDbEntity
  8
0
100
AcDbText
 10
33.199108
 20
7.985613
 30
0.0
 40
0.1
  1

100
AcDbText
  0
TEXT
  5
39D
100
AcDbEntity
  8
0
100
AcDbText
 10
33.199108
 20
13.485613
 30
0.0
 40
0.1
  1

100
AcDbText
  0
TEXT
  5
39E
100
AcDbEntity
  8
0
100
AcDbText
 10
43.712741
 20
14.985613
 30
0.0
 40
0.075
  1

 72
     1
 11
43.712741
 21
14.985613
 31
0.0
100
AcDbText
  0
TEXT
  5
39F
100
AcDbEntity
  8
0
100
AcDbText
 10
43.712741
 20
14.485613
 30
0.0
 40
0.075
  1

 72
     1
 11
43.712741
 21
14.485613
 31
0.0
100
AcDbText
  0
TEXT
  5
3A0
100
AcDbEntity
  8
0
100
AcDbText
 10
43.712741
 20
13.985613
 30
0.0
 40
0.1
  1

 72
     1
 11
43.712741
 21
13.985613
 31
0.0
100
AcDbText
  0
TEXT
  5
3A1
100
AcDbEntity
  8
0
100
AcDbText
 10
43.525241
 20
7.985613
 30
0.0
 40
0.1
  1

100
AcDbText
  0
TEXT
  5
3A2
100
AcDbEntity
  8
0
100
AcDbText
 10
43.525241
 20
13.485613
 30
0.0
 40
0.1
  1

100
AcDbText
  0
TEXT
  5
3BD
100
AcDbEntity
  8
0
100
AcDbText
 10
20.21875
 20
19.28125
 30
0.0
 40
0.1
  1

 72
     1
 11
20.21875
 21
19.28125
 31
0.0
100
AcDbText
  0
TEXT
  5
3BE
100
AcDbEntity
  8
0
100
AcDbText
 10
26.367788
 20
16.141625
 30
0.0
 40
0.075
  1

100
AcDbText
  0
TEXT
  5
3BF
100
AcDbEntity
  8
0
100
AcDbText
 10
26.020081
 20
16.141625
 30
0.0
 40
0.075
  1

100
AcDbText
  0
TEXT
  5
3C0
100
AcDbEntity
  8
0
100
AcDbText
 10
25.928955
 20
25.67256
 30
0.0
 40
0.1
  1

 72
     1
 11
25.928955
 21
25.67256
 31
0.0
100
AcDbText
  0
TEXT
  5
3C1
100
AcDbEntity
  8
0
100
AcDbText
 10
32.077993
 20
22.532935
 30
0.0
 40
0.075
  1

100
AcDbText
  0
TEXT
  5
3C2
100
AcDbEntity
  8
0
100
AcDbText
 10
31.730286
 20
22.532935
 30
0.0
 40
0.075
  1

100
AcDbText
  0
LINE
  5
3E9
100
AcDbEntity
  8
0
100
AcDbLine
 10
4.57815
 20
13.171875
 30
0.0
 11
4.95315
 21
13.171875
 31
0.0
  0
LINE
  5
3EA
100
AcDbEntity
  8
0
100
AcDbLine
 10
4.57815
 20
12.984375
 30
0.0
 11
4.95315
 21
12.984375
 31
0.0
  0
LINE
  5
3EB
100
AcDbEntity
  8
0
100
AcDbLine
 10
4.57815
 20
13.171875
 30
0.0
 11
4.57815
 21
12.984375
 31
0.0
  0
LINE
  5
3ED
100
AcDbEntity
  8
0
100
AcDbLine
 10
4.95315
 20
13.171875
 30
0.0
 11
4.95315
 21
12.984375
 31
0.0
  0
TEXT
  5
3EF
100
AcDbEntity
  8
TEXT
100
AcDbText
 10
4.632317
 20
13.028125
 30
0.0
 40
0.1
  1
---
 72
     1
 11
4.76565
 21
13.028125
 31
0.0
100
AcDbText
  0
LINE
  5
3F3
100
AcDbEntity
  8
0
100
AcDbLine
 10
8.32815
 20
13.671875
 30
0.0
 11
8.70315
 21
13.671875
 31
0.0
  0
LINE
  5
3F4
100
AcDbEntity
  8
0
100
AcDbLine
 10
8.32815
 20
13.484375
 30
0.0
 11
8.70315
 21
13.484375
 31
0.0
  0
LINE
  5
3F5
100
AcDbEntity
  8
0
100
AcDbLine
 10
8.32815
 20
13.671875
 30
0.0
 11
8.32815
 21
13.484375
 31
0.0
  0
LINE
  5
3F7
100
AcDbEntity
  8
0
100
AcDbLine
 10
8.70315
 20
13.671875
 30
0.0
 11
8.70315
 21
13.484375
 31
0.0
  0
TEXT
  5
3F9
100
AcDbEntity
  8
TEXT
100
AcDbText
 10
8.382317
 20
13.528125
 30
0.0
 40
0.1
  1
---
 72
     1
 11
8.51565
 21
13.528125
 31
0.0
100
AcDbText
  0
LINE
  5
3FC
100
AcDbEntity
  8
0
100
AcDbLine
 10
4.95315
 20
12.671875
 30
0.0
 11
4.95315
 21
12.484375
 31
0.0
  0
LINE
  5
3FD
100
AcDbEntity
  8
0
100
AcDbLine
 10
4.57815
 20
12.671875
 30
0.0
 11
4.57815
 21
12.484375
 31
0.0
  0
LINE
  5
3FE
100
AcDbEntity
  8
0
100
AcDbLine
 10
4.57815
 20
12.484375
 30
0.0
 11
4.95315
 21
12.484375
 31
0.0
  0
TEXT
  5
3FF
100
AcDbEntity
  8
TEXT
100
AcDbText
 10
4.632317
 20
12.528125
 30
0.0
 40
0.1
  1
---
 72
     1
 11
4.76565
 21
12.528125
 31
0.0
100
AcDbText
  0
LINE
  5
400
100
AcDbEntity
  8
0
100
AcDbLine
 10
4.57815
 20
12.671875
 30
0.0
 11
4.95315
 21
12.671875
 31
0.0
  0
LINE
  5
401
100
AcDbEntity
  8
0
100
AcDbLine
 10
4.95315
 20
12.171875
 30
0.0
 11
4.95315
 21
11.984375
 31
0.0
  0
LINE
  5
402
100
AcDbEntity
  8
0
100
AcDbLine
 10
4.57815
 20
12.171875
 30
0.0
 11
4.57815
 21
11.984375
 31
0.0
  0
LINE
  5
403
100
AcDbEntity
  8
0
100
AcDbLine
 10
4.57815
 20
11.984375
 30
0.0
 11
4.95315
 21
11.984375
 31
0.0
  0
TEXT
  5
404
100
AcDbEntity
  8
TEXT
100
AcDbText
 10
4.632317
 20
12.028125
 30
0.0
 40
0.1
  1
---
 72
     1
 11
4.76565
 21
12.028125
 31
0.0
100
AcDbText
  0
LINE
  5
405
100
AcDbEntity
  8
0
100
AcDbLine
 10
4.57815
 20
12.171875
 30
0.0
 11
4.95315
 21
12.171875
 31
0.0
  0
LINE
  5
406
100
AcDbEntity
  8
0
100
AcDbLine
 10
4.95315
 20
11.671875
 30
0.0
 11
4.95315
 21
11.484375
 31
0.0
  0
LINE
  5
407
100
AcDbEntity
  8
0
100
AcDbLine
 10
4.57815
 20
11.671875
 30
0.0
 11
4.57815
 21
11.484375
 31
0.0
  0
LINE
  5
408
100
AcDbEntity
  8
0
100
AcDbLine
 10
4.57815
 20
11.484375
 30
0.0
 11
4.95315
 21
11.484375
 31
0.0
  0
TEXT
  5
409
100
AcDbEntity
  8
TEXT
100
AcDbText
 10
4.632317
 20
11.528125
 30
0.0
 40
0.1
  1
---
 72
     1
 11
4.76565
 21
11.528125
 31
0.0
100
AcDbText
  0
LINE
  5
40A
100
AcDbEntity
  8
0
100
AcDbLine
 10
4.57815
 20
11.671875
 30
0.0
 11
4.95315
 21
11.671875
 31
0.0
  0
LINE
  5
40B
100
AcDbEntity
  8
0
100
AcDbLine
 10
4.95315
 20
11.171875
 30
0.0
 11
4.95315
 21
10.984375
 31
0.0
  0
LINE
  5
40C
100
AcDbEntity
  8
0
100
AcDbLine
 10
4.57815
 20
11.171875
 30
0.0
 11
4.57815
 21
10.984375
 31
0.0
  0
LINE
  5
40D
100
AcDbEntity
  8
0
100
AcDbLine
 10
4.57815
 20
10.984375
 30
0.0
 11
4.95315
 21
10.984375
 31
0.0
  0
TEXT
  5
40E
100
AcDbEntity
  8
TEXT
100
AcDbText
 10
4.632317
 20
11.028125
 30
0.0
 40
0.1
  1
---
 72
     1
 11
4.76565
 21
11.028125
 31
0.0
100
AcDbText
  0
LINE
  5
40F
100
AcDbEntity
  8
0
100
AcDbLine
 10
4.57815
 20
11.171875
 30
0.0
 11
4.95315
 21
11.171875
 31
0.0
  0
LINE
  5
410
100
AcDbEntity
  8
0
100
AcDbLine
 10
4.95315
 20
10.671875
 30
0.0
 11
4.95315
 21
10.484375
 31
0.0
  0
LINE
  5
411
100
AcDbEntity
  8
0
100
AcDbLine
 10
4.57815
 20
10.671875
 30
0.0
 11
4.57815
 21
10.484375
 31
0.0
  0
LINE
  5
412
100
AcDbEntity
  8
0
100
AcDbLine
 10
4.57815
 20
10.484375
 30
0.0
 11
4.95315
 21
10.484375
 31
0.0
  0
TEXT
  5
413
100
AcDbEntity
  8
TEXT
100
AcDbText
 10
4.632317
 20
10.528125
 30
0.0
 40
0.1
  1
---
 72
     1
 11
4.76565
 21
10.528125
 31
0.0
100
AcDbText
  0
LINE
  5
414
100
AcDbEntity
  8
0
100
AcDbLine
 10
4.57815
 20
10.671875
 30
0.0
 11
4.95315
 21
10.671875
 31
0.0
  0
LINE
  5
415
100
AcDbEntity
  8
0
100
AcDbLine
 10
4.95315
 20
10.171875
 30
0.0
 11
4.95315
 21
9.984375
 31
0.0
  0
LINE
  5
416
100
AcDbEntity
  8
0
100
AcDbLine
 10
4.57815
 20
10.171875
 30
0.0
 11
4.57815
 21
9.984375
 31
0.0
  0
LINE
  5
417
100
AcDbEntity
  8
0
100
AcDbLine
 10
4.57815
 20
9.984375
 30
0.0
 11
4.95315
 21
9.984375
 31
0.0
  0
TEXT
  5
418
100
AcDbEntity
  8
TEXT
100
AcDbText
 10
4.632317
 20
10.028125
 30
0.0
 40
0.1
  1
---
 72
     1
 11
4.76565
 21
10.028125
 31
0.0
100
AcDbText
  0
LINE
  5
419
100
AcDbEntity
  8
0
100
AcDbLine
 10
4.57815
 20
10.171875
 30
0.0
 11
4.95315
 21
10.171875
 31
0.0
  0
LINE
  5
41A
100
AcDbEntity
  8
0
100
AcDbLine
 10
4.95315
 20
9.671875
 30
0.0
 11
4.95315
 21
9.484375
 31
0.0
  0
LINE
  5
41B
100
AcDbEntity
  8
0
100
AcDbLine
 10
4.57815
 20
9.671875
 30
0.0
 11
4.57815
 21
9.484375
 31
0.0
  0
LINE
  5
41C
100
AcDbEntity
  8
0
100
AcDbLine
 10
4.57815
 20
9.484375
 30
0.0
 11
4.95315
 21
9.484375
 31
0.0
  0
TEXT
  5
41D
100
AcDbEntity
  8
TEXT
100
AcDbText
 10
4.632317
 20
9.528125
 30
0.0
 40
0.1
  1
---
 72
     1
 11
4.76565
 21
9.528125
 31
0.0
100
AcDbText
  0
LINE
  5
41E
100
AcDbEntity
  8
0
100
AcDbLine
 10
4.57815
 20
9.671875
 30
0.0
 11
4.95315
 21
9.671875
 31
0.0
  0
LINE
  5
41F
100
AcDbEntity
  8
0
100
AcDbLine
 10
4.95315
 20
9.171875
 30
0.0
 11
4.95315
 21
8.984375
 31
0.0
  0
LINE
  5
420
100
AcDbEntity
  8
0
100
AcDbLine
 10
4.57815
 20
9.171875
 30
0.0
 11
4.57815
 21
8.984375
 31
0.0
  0
LINE
  5
421
100
AcDbEntity
  8
0
100
AcDbLine
 10
4.57815
 20
8.984375
 30
0.0
 11
4.95315
 21
8.984375
 31
0.0
  0
TEXT
  5
422
100
AcDbEntity
  8
TEXT
100
AcDbText
 10
4.632317
 20
9.028125
 30
0.0
 40
0.1
  1
---
 72
     1
 11
4.76565
 21
9.028125
 31
0.0
100
AcDbText
  0
LINE
  5
423
100
AcDbEntity
  8
0
100
AcDbLine
 10
4.57815
 20
9.171875
 30
0.0
 11
4.95315
 21
9.171875
 31
0.0
  0
LINE
  5
424
100
AcDbEntity
  8
0
100
AcDbLine
 10
4.95315
 20
8.671875
 30
0.0
 11
4.95315
 21
8.484375
 31
0.0
  0
LINE
  5
425
100
AcDbEntity
  8
0
100
AcDbLine
 10
4.57815
 20
8.671875
 30
0.0
 11
4.57815
 21
8.484375
 31
0.0
  0
LINE
  5
426
100
AcDbEntity
  8
0
100
AcDbLine
 10
4.57815
 20
6.171875
 30
0.0
 11
4.57815
 21
5.984375
 31
0.0
  0
LINE
  5
427
100
AcDbEntity
  8
0
100
AcDbLine
 10
4.95315
 20
6.171875
 30
0.0
 11
4.95315
 21
5.984375
 31
0.0
  0
LINE
  5
428
100
AcDbEntity
  8
0
100
AcDbLine
 10
4.57815
 20
4.671875
 30
0.0
 11
4.95315
 21
4.671875
 31
0.0
  0
TEXT
  5
429
100
AcDbEntity
  8
TEXT
100
AcDbText
 10
4.632317
 20
4.528125
 30
0.0
 40
0.1
  1
---
 72
     1
 11
4.76565
 21
4.528125
 31
0.0
100
AcDbText
  0
LINE
  5
42A
100
AcDbEntity
  8
0
100
AcDbLine
 10
4.57815
 20
4.484375
 30
0.0
 11
4.95315
 21
4.484375
 31
0.0
  0
LINE
  5
42B
100
AcDbEntity
  8
0
100
AcDbLine
 10
4.57815
 20
4.671875
 30
0.0
 11
4.57815
 21
4.484375
 31
0.0
  0
LINE
  5
42C
100
AcDbEntity
  8
0
100
AcDbLine
 10
4.95315
 20
4.671875
 30
0.0
 11
4.95315
 21
4.484375
 31
0.0
  0
LINE
  5
42D
100
AcDbEntity
  8
0
100
AcDbLine
 10
4.57815
 20
5.171875
 30
0.0
 11
4.95315
 21
5.171875
 31
0.0
  0
TEXT
  5
42E
100
AcDbEntity
  8
TEXT
100
AcDbText
 10
4.632317
 20
5.028125
 30
0.0
 40
0.1
  1
---
 72
     1
 11
4.76565
 21
5.028125
 31
0.0
100
AcDbText
  0
LINE
  5
42F
100
AcDbEntity
  8
0
100
AcDbLine
 10
4.57815
 20
4.984375
 30
0.0
 11
4.95315
 21
4.984375
 31
0.0
  0
LINE
  5
430
100
AcDbEntity
  8
0
100
AcDbLine
 10
4.57815
 20
5.671875
 30
0.0
 11
4.95315
 21
5.671875
 31
0.0
  0
TEXT
  5
431
100
AcDbEntity
  8
TEXT
100
AcDbText
 10
4.632317
 20
5.528125
 30
0.0
 40
0.1
  1
---
 72
     1
 11
4.76565
 21
5.528125
 31
0.0
100
AcDbText
  0
LINE
  5
432
100
AcDbEntity
  8
0
100
AcDbLine
 10
4.57815
 20
5.484375
 30
0.0
 11
4.95315
 21
5.484375
 31
0.0
  0
LINE
  5
433
100
AcDbEntity
  8
0
100
AcDbLine
 10
4.57815
 20
5.984375
 30
0.0
 11
4.95315
 21
5.984375
 31
0.0
  0
LINE
  5
434
100
AcDbEntity
  8
0
100
AcDbLine
 10
4.57815
 20
5.171875
 30
0.0
 11
4.57815
 21
4.984375
 31
0.0
  0
LINE
  5
435
100
AcDbEntity
  8
0
100
AcDbLine
 10
4.57815
 20
5.671875
 30
0.0
 11
4.57815
 21
5.484375
 31
0.0
  0
LINE
  5
436
100
AcDbEntity
  8
0
100
AcDbLine
 10
4.95315
 20
5.171875
 30
0.0
 11
4.95315
 21
4.984375
 31
0.0
  0
LINE
  5
437
100
AcDbEntity
  8
0
100
AcDbLine
 10
4.95315
 20
5.671875
 30
0.0
 11
4.95315
 21
5.484375
 31
0.0
  0
LINE
  5
438
100
AcDbEntity
  8
0
100
AcDbLine
 10
4.57815
 20
6.171875
 30
0.0
 11
4.95315
 21
6.171875
 31
0.0
  0
TEXT
  5
439
100
AcDbEntity
  8
TEXT
100
AcDbText
 10
4.632317
 20
6.028125
 30
0.0
 40
0.1
  1
---
 72
     1
 11
4.76565
 21
6.028125
 31
0.0
100
AcDbText
  0
LINE
  5
43A
100
AcDbEntity
  8
0
100
AcDbLine
 10
4.57815
 20
6.671875
 30
0.0
 11
4.95315
 21
6.671875
 31
0.0
  0
TEXT
  5
43B
100
AcDbEntity
  8
TEXT
100
AcDbText
 10
4.632317
 20
6.528125
 30
0.0
 40
0.1
  1
---
 72
     1
 11
4.76565
 21
6.528125
 31
0.0
100
AcDbText
  0
LINE
  5
43C
100
AcDbEntity
  8
0
100
AcDbLine
 10
4.57815
 20
6.484375
 30
0.0
 11
4.95315
 21
6.484375
 31
0.0
  0
LINE
  5
43D
100
AcDbEntity
  8
0
100
AcDbLine
 10
4.57815
 20
7.171875
 30
0.0
 11
4.95315
 21
7.171875
 31
0.0
  0
TEXT
  5
43E
100
AcDbEntity
  8
TEXT
100
AcDbText
 10
4.632317
 20
7.028125
 30
0.0
 40
0.1
  1
---
 72
     1
 11
4.76565
 21
7.028125
 31
0.0
100
AcDbText
  0
LINE
  5
43F
100
AcDbEntity
  8
0
100
AcDbLine
 10
4.57815
 20
6.984375
 30
0.0
 11
4.95315
 21
6.984375
 31
0.0
  0
LINE
  5
440
100
AcDbEntity
  8
0
100
AcDbLine
 10
4.57815
 20
6.671875
 30
0.0
 11
4.57815
 21
6.484375
 31
0.0
  0
LINE
  5
441
100
AcDbEntity
  8
0
100
AcDbLine
 10
4.57815
 20
7.171875
 30
0.0
 11
4.57815
 21
6.984375
 31
0.0
  0
LINE
  5
442
100
AcDbEntity
  8
0
100
AcDbLine
 10
4.95315
 20
6.671875
 30
0.0
 11
4.95315
 21
6.484375
 31
0.0
  0
LINE
  5
443
100
AcDbEntity
  8
0
100
AcDbLine
 10
4.95315
 20
7.171875
 30
0.0
 11
4.95315
 21
6.984375
 31
0.0
  0
LINE
  5
444
100
AcDbEntity
  8
0
100
AcDbLine
 10
4.57815
 20
7.671875
 30
0.0
 11
4.95315
 21
7.671875
 31
0.0
  0
TEXT
  5
445
100
AcDbEntity
  8
TEXT
100
AcDbText
 10
4.632317
 20
7.528125
 30
0.0
 40
0.1
  1
---
 72
     1
 11
4.76565
 21
7.528125
 31
0.0
100
AcDbText
  0
LINE
  5
446
100
AcDbEntity
  8
0
100
AcDbLine
 10
4.57815
 20
7.484375
 30
0.0
 11
4.95315
 21
7.484375
 31
0.0
  0
LINE
  5
447
100
AcDbEntity
  8
0
100
AcDbLine
 10
4.57815
 20
8.171875
 30
0.0
 11
4.95315
 21
8.171875
 31
0.0
  0
TEXT
  5
448
100
AcDbEntity
  8
TEXT
100
AcDbText
 10
4.632317
 20
8.028125
 30
0.0
 40
0.1
  1
---
 72
     1
 11
4.76565
 21
8.028125
 31
0.0
100
AcDbText
  0
LINE
  5
449
100
AcDbEntity
  8
0
100
AcDbLine
 10
4.57815
 20
7.984375
 30
0.0
 11
4.95315
 21
7.984375
 31
0.0
  0
LINE
  5
44A
100
AcDbEntity
  8
0
100
AcDbLine
 10
4.57815
 20
8.484375
 30
0.0
 11
4.95315
 21
8.484375
 31
0.0
  0
LINE
  5
44B
100
AcDbEntity
  8
0
100
AcDbLine
 10
4.57815
 20
7.671875
 30
0.0
 11
4.57815
 21
7.484375
 31
0.0
  0
LINE
  5
44C
100
AcDbEntity
  8
0
100
AcDbLine
 10
4.57815
 20
8.171875
 30
0.0
 11
4.57815
 21
7.984375
 31
0.0
  0
LINE
  5
44D
100
AcDbEntity
  8
0
100
AcDbLine
 10
4.95315
 20
7.671875
 30
0.0
 11
4.95315
 21
7.484375
 31
0.0
  0
LINE
  5
44E
100
AcDbEntity
  8
0
100
AcDbLine
 10
4.95315
 20
8.171875
 30
0.0
 11
4.95315
 21
7.984375
 31
0.0
  0
TEXT
  5
44F
100
AcDbEntity
  8
TEXT
100
AcDbText
 10
4.632317
 20
8.528125
 30
0.0
 40
0.1
  1
---
 72
     1
 11
4.76565
 21
8.528125
 31
0.0
100
AcDbText
  0
LINE
  5
450
100
AcDbEntity
  8
0
100
AcDbLine
 10
4.57815
 20
8.671875
 30
0.0
 11
4.95315
 21
8.671875
 31
0.0
  0
LINE
  5
451
100
AcDbEntity
  8
0
100
AcDbLine
 10
4.57815
 20
3.984375
 30
0.0
 11
4.95315
 21
3.984375
 31
0.0
  0
TEXT
  5
452
100
AcDbEntity
  8
TEXT
100
AcDbText
 10
4.632317
 20
4.028125
 30
0.0
 40
0.1
  1
---
 72
     1
 11
4.76565
 21
4.028125
 31
0.0
100
AcDbText
  0
LINE
  5
453
100
AcDbEntity
  8
0
100
AcDbLine
 10
4.57815
 20
4.171875
 30
0.0
 11
4.95315
 21
4.171875
 31
0.0
  0
LINE
  5
454
100
AcDbEntity
  8
0
100
AcDbLine
 10
4.57815
 20
4.171875
 30
0.0
 11
4.57815
 21
3.984375
 31
0.0
  0
LINE
  5
455
100
AcDbEntity
  8
0
100
AcDbLine
 10
4.95315
 20
4.171875
 30
0.0
 11
4.95315
 21
3.984375
 31
0.0
  0
TEXT
  5
456
100
AcDbEntity
  8
TEXT
100
AcDbText
 10
8.382317
 20
4.028125
 30
0.0
 40
0.1
  1
---
 72
     1
 11
8.51565
 21
4.028125
 31
0.0
100
AcDbText
  0
LINE
  5
457
100
AcDbEntity
  8
0
100
AcDbLine
 10
8.32815
 20
3.984375
 30
0.0
 11
8.70315
 21
3.984375
 31
0.0
  0
LINE
  5
458
100
AcDbEntity
  8
0
100
AcDbLine
 10
8.32815
 20
4.171875
 30
0.0
 11
8.70315
 21
4.171875
 31
0.0
  0
LINE
  5
459
100
AcDbEntity
  8
0
100
AcDbLine
 10
8.32815
 20
4.171875
 30
0.0
 11
8.32815
 21
3.984375
 31
0.0
  0
LINE
  5
45A
100
AcDbEntity
  8
0
100
AcDbLine
 10
8.70315
 20
4.171875
 30
0.0
 11
8.70315
 21
3.984375
 31
0.0
  0
TEXT
  5
45F
100
AcDbEntity
  8
TEXT
100
AcDbText
 10
0.281275
 20
11.028125
 30
0.0
 40
0.1
  1
*
 41
0.8
 51
10.0
  7
ROMANS
100
AcDbText
  0
TEXT
  5
460
100
AcDbEntity
  8
TEXT
100
AcDbText
 10
0.281275
 20
11.528125
 30
0.0
 40
0.1
  1
*
 41
0.8
 51
10.0
  7
ROMANS
100
AcDbText
  0
TEXT
  5
461
100
AcDbEntity
  8
TEXT
100
AcDbText
 10
0.281275
 20
12.028125
 30
0.0
 40
0.1
  1
*
 41
0.8
 51
10.0
  7
ROMANS
100
AcDbText
  0
TEXT
  5
465
100
AcDbEntity
  8
TEXT
100
AcDbText
 10
8.71565
 20
11.028125
 30
0.0
 40
0.1
  1
*
 41
0.8
 51
10.0
  7
ROMANS
100
AcDbText
  0
TEXT
  5
466
100
AcDbEntity
  8
TEXT
100
AcDbText
 10
8.71565
 20
11.528125
 30
0.0
 40
0.1
  1
*
 41
0.8
 51
10.0
  7
ROMANS
100
AcDbText
  0
TEXT
  5
467
100
AcDbEntity
  8
TEXT
100
AcDbText
 10
8.71565
 20
12.028125
 30
0.0
 40
0.1
  1
*
 41
0.8
 51
10.0
  7
ROMANS
100
AcDbText
  0
TEXT
  5
585
100
AcDbEntity
  8
TEXT
100
AcDbText
 10
3.607912
 20
4.015625
 30
0.0
 40
0.125
  1
20
 41
0.8
 51
10.0
  7
ROMANS
 72
     1
 11
3.70315
 21
4.078125
 31
0.0
100
AcDbText
 73
     2
  0
TEXT
  5
586
100
AcDbEntity
  8
TEXT
100
AcDbText
 10
3.60315
 20
4.515625
 30
0.0
 40
0.125
  1
19
 41
0.8
 51
10.0
  7
ROMANS
 72
     1
 11
3.70315
 21
4.578125
 31
0.0
100
AcDbText
 73
     2
  0
TEXT
  5
587
100
AcDbEntity
  8
TEXT
100
AcDbText
 10
3.600769
 20
5.015625
 30
0.0
 40
0.125
  1
18
 41
0.8
 51
10.0
  7
ROMANS
 72
     1
 11
3.70315
 21
5.078125
 31
0.0
100
AcDbText
 73
     2
  0
TEXT
  5
588
100
AcDbEntity
  8
TEXT
100
AcDbText
 10
3.600769
 20
5.515625
 30
0.0
 40
0.125
  1
17
 41
0.8
 51
10.0
  7
ROMANS
 72
     1
 11
3.70315
 21
5.578125
 31
0.0
100
AcDbText
 73
     2
  0
TEXT
  5
589
100
AcDbEntity
  8
TEXT
100
AcDbText
 10
3.600769
 20
6.015625
 30
0.0
 40
0.125
  1
16
 41
0.8
 51
10.0
  7
ROMANS
 72
     1
 11
3.70315
 21
6.078125
 31
0.0
100
AcDbText
 73
     2
  0
TEXT
  5
58A
100
AcDbEntity
  8
TEXT
100
AcDbText
 10
3.600769
 20
6.515625
 30
0.0
 40
0.125
  1
15
 41
0.8
 51
10.0
  7
ROMANS
 72
     1
 11
3.70315
 21
6.578125
 31
0.0
100
AcDbText
 73
     2
  0
TEXT
  5
58B
100
AcDbEntity
  8
TEXT
100
AcDbText
 10
3.598388
 20
7.015625
 30
0.0
 40
0.125
  1
14
 41
0.8
 51
10.0
  7
ROMANS
 72
     1
 11
3.70315
 21
7.078125
 31
0.0
100
AcDbText
 73
     2
  0
TEXT
  5
58C
100
AcDbEntity
  8
TEXT
100
AcDbText
 10
3.600769
 20
7.515625
 30
0.0
 40
0.125
  1
13
 41
0.8
 51
10.0
  7
ROMANS
 72
     1
 11
3.70315
 21
7.578125
 31
0.0
100
AcDbText
 73
     2
  0
TEXT
  5
58D
100
AcDbEntity
  8
TEXT
100
AcDbText
 10
3.600769
 20
8.015625
 30
0.0
 40
0.125
  1
12
 41
0.8
 51
10.0
  7
ROMANS
 72
     1
 11
3.70315
 21
8.078125
 31
0.0
100
AcDbText
 73
     2
  0
TEXT
  5
58E
100
AcDbEntity
  8
TEXT
100
AcDbText
 10
3.615055
 20
8.515625
 30
0.0
 40
0.125
  1
11
 41
0.8
 51
10.0
  7
ROMANS
 72
     1
 11
3.70315
 21
8.578125
 31
0.0
100
AcDbText
 73
     2
  0
TEXT
  5
58F
100
AcDbEntity
  8
TEXT
100
AcDbText
 10
3.600769
 20
9.015625
 30
0.0
 40
0.125
  1
10
 41
0.8
 51
10.0
  7
ROMANS
 72
     1
 11
3.70315
 21
9.078125
 31
0.0
100
AcDbText
 73
     2
  0
TEXT
  5
590
100
AcDbEntity
  8
TEXT
100
AcDbText
 10
3.657912
 20
9.515625
 30
0.0
 40
0.125
  1
9
 41
0.8
 51
10.0
  7
ROMANS
 72
     1
 11
3.70315
 21
9.578125
 31
0.0
100
AcDbText
 73
     2
  0
TEXT
  5
591
100
AcDbEntity
  8
TEXT
100
AcDbText
 10
3.655531
 20
10.015625
 30
0.0
 40
0.125
  1
8
 41
0.8
 51
10.0
  7
ROMANS
 72
     1
 11
3.70315
 21
10.078125
 31
0.0
100
AcDbText
 73
     2
  0
TEXT
  5
592
100
AcDbEntity
  8
TEXT
100
AcDbText
 10
3.655531
 20
10.515625
 30
0.0
 40
0.125
  1
7
 41
0.8
 51
10.0
  7
ROMANS
 72
     1
 11
3.70315
 21
10.578125
 31
0.0
100
AcDbText
 73
     2
  0
TEXT
  5
593
100
AcDbEntity
  8
TEXT
100
AcDbText
 10
3.65315
 20
11.015625
 30
0.0
 40
0.125
  1
6
 41
0.8
 51
10.0
  7
ROMANS
 72
     1
 11
3.70315
 21
11.078125
 31
0.0
100
AcDbText
 73
     2
  0
TEXT
  5
594
100
AcDbEntity
  8
TEXT
100
AcDbText
 10
3.655531
 20
11.515625
 30
0.0
 40
0.125
  1
5
 41
0.8
 51
10.0
  7
ROMANS
 72
     1
 11
3.70315
 21
11.578125
 31
0.0
100
AcDbText
 73
     2
  0
TEXT
  5
595
100
AcDbEntity
  8
TEXT
100
AcDbText
 10
3.65315
 20
12.015625
 30
0.0
 40
0.125
  1
4
 41
0.8
 51
10.0
  7
ROMANS
 72
     1
 11
3.70315
 21
12.078125
 31
0.0
100
AcDbText
 73
     2
  0
TEXT
  5
596
100
AcDbEntity
  8
TEXT
100
AcDbText
 10
3.655531
 20
12.515625
 30
0.0
 40
0.125
  1
3
 41
0.8
 51
10.0
  7
ROMANS
 72
     1
 11
3.70315
 21
12.578125
 31
0.0
100
AcDbText
 73
     2
  0
TEXT
  5
597
100
AcDbEntity
  8
TEXT
100
AcDbText
 10
3.655531
 20
13.015625
 30
0.0
 40
0.125
  1
2
 41
0.8
 51
10.0
  7
ROMANS
 72
     1
 11
3.70315
 21
13.078125
 31
0.0
100
AcDbText
 73
     2
  0
TEXT
  5
598
100
AcDbEntity
  8
TEXT
100
AcDbText
 10
3.662674
 20
13.515625
 30
0.0
 40
0.125
  1
1
 41
0.8
 51
10.0
  7
ROMANS
 72
     1
 11
3.70315
 21
13.578125
 31
0.0
100
AcDbText
 73
     2
  0
TEXT
  5
599
100
AcDbEntity
  8
TEXT
100
AcDbText
 10
1.281275
 20
10.028125
 30
0.0
 40
0.1
  1
*
 41
0.8
 51
10.0
  7
ROMANS
100
AcDbText
  0
TEXT
  5
59A
100
AcDbEntity
  8
TEXT
100
AcDbText
 10
1.281275
 20
10.528125
 30
0.0
 40
0.1
  1
*
 41
0.8
 51
10.0
  7
ROMANS
100
AcDbText
  0
TEXT
  5
59B
100
AcDbEntity
  8
TEXT
100
AcDbText
 10
1.281275
 20
11.028125
 30
0.0
 40
0.1
  1
*
 41
0.8
 51
10.0
  7
ROMANS
100
AcDbText
  0
TEXT
  5
59C
100
AcDbEntity
  8
TEXT
100
AcDbText
 10
1.281275
 20
11.528125
 30
0.0
 40
0.1
  1
*
 41
0.8
 51
10.0
  7
ROMANS
100
AcDbText
  0
TEXT
  5
59D
100
AcDbEntity
  8
TEXT
100
AcDbText
 10
1.281275
 20
12.028125
 30
0.0
 40
0.1
  1
*
 41
0.8
 51
10.0
  7
ROMANS
100
AcDbText
  0
TEXT
  5
59E
100
AcDbEntity
  8
TEXT
100
AcDbText
 10
1.281275
 20
4.028125
 30
0.0
 40
0.1
  1
*
 41
0.8
 51
10.0
  7
ROMANS
100
AcDbText
  0
TEXT
  5
59F
100
AcDbEntity
  8
TEXT
100
AcDbText
 10
1.281275
 20
4.528125
 30
0.0
 40
0.1
  1
*
 41
0.8
 51
10.0
  7
ROMANS
100
AcDbText
  0
TEXT
  5
5A0
100
AcDbEntity
  8
TEXT
100
AcDbText
 10
1.281275
 20
5.028125
 30
0.0
 40
0.1
  1
*
 41
0.8
 51
10.0
  7
ROMANS
100
AcDbText
  0
TEXT
  5
5A1
100
AcDbEntity
  8
TEXT
100
AcDbText
 10
1.281275
 20
5.528125
 30
0.0
 40
0.1
  1
*
 41
0.8
 51
10.0
  7
ROMANS
100
AcDbText
  0
ENDSEC
  0
SECTION
  2
OBJECTS
  0
DICTIONARY
  5
C
100
AcDbDictionary
  3
ACAD_GROUP
350
D
  3
ACAD_MLINESTYLE
350
E
  0
DICTIONARY
  5
D
102
{ACAD_REACTORS
330
C
102
}
100
AcDbDictionary
  0
DICTIONARY
  5
E
102
{ACAD_REACTORS
330
C
102
}
100
AcDbDictionary
  3
STANDARD
350
1B
  0
MLINESTYLE
  5
1B
102
{ACAD_REACTORS
330
E
102
}
100
AcDbMlineStyle
  2
STANDARD
 70
     0
  3

 62
     0
 51
90.0
 52
90.0
 71
     2
 49
0.5
 62
   256
  6
BYLAYER
 49
-0.5
 62
   256
  6
BYLAYER
  0
ENDSEC
  0
EOF
