  0
SECTION
  2
HEADER
  9
$ACADVER
  1
AC1015
  9
$ACADMAINTVER
 70
    10
  9
$DWGCODEPAGE
  3
ANSI_1252
  9
$INSBASE
 10
0.0
 20
0.0
 30
0.0
  9
$EXTMIN
 10
0.0
 20
0.2456391960479891
 30
0.0
  9
$EXTMAX
 10
22.0
 20
17.0
 30
7.978631459979119E+99
  9
$LIMMIN
 10
0.0
 20
0.0
  9
$LIMMAX
 10
20.46999899999999
 20
16.6
  9
$ORTHOMODE
 70
     0
  9
$REGENMODE
 70
     1
  9
$FILLMODE
 70
     1
  9
$QTEXTMODE
 70
     0
  9
$MIRRTEXT
 70
     1
  9
$LTSCALE
 40
12.0
  9
$ATTMODE
 70
     1
  9
$TEXTSIZE
 40
0.12
  9
$TRACEWID
 40
0.05
  9
$TEXTSTYLE
  7
Standard
  9
$CLAYER
  8
0
  9
$CELTYPE
  6
CONTINUOUS
  9
$CECOLOR
 62
   256
  9
$CELTSCALE
 40
1.0
  9
$DISPSILH
 70
     0
  9
$DIMSCALE
 40
1.0
  9
$DIMASZ
 40
0.18
  9
$DIMEXO
 40
0.0625
  9
$DIMDLI
 40
0.38
  9
$DIMRND
 40
0.0
  9
$DIMDLE
 40
0.0
  9
$DIMEXE
 40
0.18
  9
$DIMTP
 40
0.0
  9
$DIMTM
 40
0.0
  9
$DIMTXT
 40
0.18
  9
$DIMCEN
 40
0.09
  9
$DIMTSZ
 40
0.0
  9
$DIMTOL
 70
     0
  9
$DIMLIM
 70
     0
  9
$DIMTIH
 70
     1
  9
$DIMTOH
 70
     1
  9
$DIMSE1
 70
     0
  9
$DIMSE2
 70
     0
  9
$DIMTAD
 70
     0
  9
$DIMZIN
 70
     0
  9
$DIMBLK
  1

  9
$DIMASO
 70
     1
  9
$DIMSHO
 70
     1
  9
$DIMPOST
  1

  9
$DIMAPOST
  1

  9
$DIMALT
 70
     0
  9
$DIMALTD
 70
     2
  9
$DIMALTF
 40
25.4
  9
$DIMLFAC
 40
1.0
  9
$DIMTOFL
 70
     0
  9
$DIMTVP
 40
0.0
  9
$DIMTIX
 70
     0
  9
$DIMSOXD
 70
     0
  9
$DIMSAH
 70
     0
  9
$DIMBLK1
  1

  9
$DIMBLK2
  1

  9
$DIMSTYLE
  2
MEDDIM
  9
$DIMCLRD
 70
     0
  9
$DIMCLRE
 70
     0
  9
$DIMCLRT
 70
     0
  9
$DIMTFAC
 40
1.0
  9
$DIMGAP
 40
0.09
  9
$DIMJUST
 70
     0
  9
$DIMSD1
 70
     0
  9
$DIMSD2
 70
     0
  9
$DIMTOLJ
 70
     1
  9
$DIMTZIN
 70
     0
  9
$DIMALTZ
 70
     0
  9
$DIMALTTZ
 70
     0
  9
$DIMUPT
 70
     0
  9
$DIMDEC
 70
     4
  9
$DIMTDEC
 70
     4
  9
$DIMALTU
 70
     2
  9
$DIMALTTD
 70
     2
  9
$DIMTXSTY
  7
Standard
  9
$DIMAUNIT
 70
     0
  9
$DIMADEC
 70
     0
  9
$DIMALTRND
 40
0.0
  9
$DIMAZIN
 70
     0
  9
$DIMDSEP
 70
    46
  9
$DIMATFIT
 70
     3
  9
$DIMFRAC
 70
     0
  9
$DIMLDRBLK
  1

  9
$DIMLUNIT
 70
     2
  9
$DIMLWD
 70
    -2
  9
$DIMLWE
 70
    -2
  9
$DIMTMOVE
 70
     0
  9
$LUNITS
 70
     4
  9
$LUPREC
 70
     4
  9
$SKETCHINC
 40
0.1
  9
$FILLETRAD
 40
0.0
  9
$AUNITS
 70
     0
  9
$AUPREC
 70
     0
  9
$MENU
  1
.
  9
$ELEVATION
 40
0.0
  9
$PELEVATION
 40
0.0
  9
$THICKNESS
 40
0.0
  9
$LIMCHECK
 70
     0
  9
$CHAMFERA
 40
0.0
  9
$CHAMFERB
 40
0.0
  9
$CHAMFERC
 40
0.0
  9
$CHAMFERD
 40
0.0
  9
$SKPOLY
 70
     0
  9
$TDCREATE
 40
2452303.590659919
  9
$TDUCREATE
 40
2452303.840659919
  9
$TDUPDATE
 40
2452585.633839514
  9
$TDUUPDATE
 40
2452585.883839514
  9
$TDINDWG
 40
0.3499342593
  9
$TDUSRTIMER
 40
0.3499342593
  9
$USRTIMER
 70
     1
  9
$ANGBASE
 50
0.0
  9
$ANGDIR
 70
     0
  9
$PDMODE
 70
     0
  9
$PDSIZE
 40
0.0
  9
$PLINEWID
 40
0.0
  9
$SPLFRAME
 70
     0
  9
$SPLINETYPE
 70
     6
  9
$SPLINESEGS
 70
     8
  9
$HANDSEED
  5
432A
  9
$SURFTAB1
 70
     6
  9
$SURFTAB2
 70
     6
  9
$SURFTYPE
 70
     6
  9
$SURFU
 70
     6
  9
$SURFV
 70
     6
  9
$UCSBASE
  2

  9
$UCSNAME
  2

  9
$UCSORG
 10
0.0
 20
0.0
 30
0.0
  9
$UCSXDIR
 10
1.0
 20
0.0
 30
0.0
  9
$UCSYDIR
 10
0.0
 20
1.0
 30
0.0
  9
$UCSORTHOREF
  2

  9
$UCSORTHOVIEW
 70
     0
  9
$UCSORGTOP
 10
0.0
 20
0.0
 30
0.0
  9
$UCSORGBOTTOM
 10
0.0
 20
0.0
 30
0.0
  9
$UCSORGLEFT
 10
0.0
 20
0.0
 30
0.0
  9
$UCSORGRIGHT
 10
0.0
 20
0.0
 30
0.0
  9
$UCSORGFRONT
 10
0.0
 20
0.0
 30
0.0
  9
$UCSORGBACK
 10
0.0
 20
0.0
 30
0.0
  9
$PUCSBASE
  2

  9
$PUCSNAME
  2

  9
$PUCSORG
 10
0.0
 20
0.0
 30
0.0
  9
$PUCSXDIR
 10
1.0
 20
0.0
 30
0.0
  9
$PUCSYDIR
 10
0.0
 20
1.0
 30
0.0
  9
$PUCSORTHOREF
  2

  9
$PUCSORTHOVIEW
 70
     0
  9
$PUCSORGTOP
 10
0.0
 20
0.0
 30
0.0
  9
$PUCSORGBOTTOM
 10
0.0
 20
0.0
 30
0.0
  9
$PUCSORGLEFT
 10
0.0
 20
0.0
 30
0.0
  9
$PUCSORGRIGHT
 10
0.0
 20
0.0
 30
0.0
  9
$PUCSORGFRONT
 10
0.0
 20
0.0
 30
0.0
  9
$PUCSORGBACK
 10
0.0
 20
0.0
 30
0.0
  9
$USERI1
 70
     0
  9
$USERI2
 70
     0
  9
$USERI3
 70
     0
  9
$USERI4
 70
     0
  9
$USERI5
 70
     0
  9
$USERR1
 40
0.0
  9
$USERR2
 40
0.0
  9
$USERR3
 40
0.0
  9
$USERR4
 40
0.0
  9
$USERR5
 40
0.0
  9
$WORLDVIEW
 70
     1
  9
$SHADEDGE
 70
     3
  9
$SHADEDIF
 70
    70
  9
$TILEMODE
 70
     1
  9
$MAXACTVP
 70
    64
  9
$PINSBASE
 10
0.0
 20
0.0
 30
0.0
  9
$PLIMCHECK
 70
     0
  9
$PEXTMIN
 10
1.000000000000000E+20
 20
1.000000000000000E+20
 30
1.000000000000000E+20
  9
$PEXTMAX
 10
-1.000000000000000E+20
 20
-1.000000000000000E+20
 30
-1.000000000000000E+20
  9
$PLIMMIN
 10
0.0
 20
0.0
  9
$PLIMMAX
 10
12.0
 20
9.0
  9
$UNITMODE
 70
     0
  9
$VISRETAIN
 70
     1
  9
$PLINEGEN
 70
     0
  9
$PSLTSCALE
 70
     0
  9
$TREEDEPTH
 70
  3020
  9
$CMLSTYLE
  2
Standard
  9
$CMLJUST
 70
     0
  9
$CMLSCALE
 40
1.0
  9
$PROXYGRAPHICS
 70
     1
  9
$MEASUREMENT
 70
     0
  9
$CELWEIGHT
370
    -1
  9
$ENDCAPS
280
     0
  9
$JOINSTYLE
280
     0
  9
$LWDISPLAY
290
     0
  9
$INSUNITS
 70
     0
  9
$HYPERLINKBASE
  1

  9
$STYLESHEET
  1
monochrome.ctb
  9
$XEDIT
290
     1
  9
$CEPSNTYPE
380
     0
  9
$PSTYLEMODE
290
     1
  9
$FINGERPRINTGUID
  2
{7C190CD6-76D1-41BC-AA8E-A12FEA48300C}
  9
$VERSIONGUID
  2
{D70E81AB-A87A-4636-BC11-46AE59AA18A0}
  9
$EXTNAMES
290
     1
  9
$PSVPSCALE
 40
0.0
  9
$OLESTARTUP
290
     0
  0
ENDSEC
  0
SECTION
  2
CLASSES
  0
CLASS
  1
ACDBDICTIONARYWDFLT
  2
AcDbDictionaryWithDefault
  3
AutoCAD 2000
 90
        0
280
     0
281
     0
  0
CLASS
  1
ACDBPLACEHOLDER
  2
AcDbPlaceHolder
  3
AutoCAD 2000
 90
        0
280
     0
281
     0
  0
CLASS
  1
LAYOUT
  2
AcDbLayout
  3
AutoCAD 2000
 90
        0
280
     0
281
     0
  0
CLASS
  1
ACME_DOCUMENT
  2
AcMeDbDoc
  3
AcMeServices
 90
        0
280
     0
281
     0
  0
CLASS
  1
AMGSETTINGSOBJ
  2
AmgSettingsObj
  3
"AcadM|Product Description: AutoCAD Mechanical 2000|Company: Autodesk"
 90
        0
280
     0
281
     0
  0
CLASS
  1
ACMESCOPE
  2
AcMeScope
  3
AcMeServices
 90
        0
280
     0
281
     0
  0
CLASS
  1
ACMECOMMANDHISTORY
  2
AcMeCommandHistory
  3
AcMeServices
 90
        0
280
     0
281
     0
  0
CLASS
  1
DICTIONARYVAR
  2
AcDbDictionaryVar
  3
AutoCAD 2000
 90
        0
280
     0
281
     0
  0
CLASS
  1
ACIMSYSVARMAN
  2
AcImSysVarManager
  3
AcMeServices
 90
        0
280
     0
281
     0
  0
CLASS
  1
ACIMREALSYSVAR
  2
AcImRealSysVar
  3
AcMeServices
 90
        0
280
     0
281
     0
  0
CLASS
  1
ACIMINTSYSVAR
  2
AcImIntSysVar
  3
AcMeServices
 90
        0
280
     0
281
     0
  0
CLASS
  1
ACMEDRAWINGMAN
  2
AcMeDrawingMan
  3
AcMeServices
 90
        0
280
     0
281
     0
  0
CLASS
  1
ACMEVIEW
  2
AcMeView
  3
AcMeServices
 90
        0
280
     0
281
     0
  0
CLASS
  1
ACDBENTITYCACHE
  2
AcMeEntityCache
  3
AcMeServices
 90
        0
280
     0
281
     0
  0
CLASS
  1
GSMANAGER
  2
AcMeGSManager
  3
AcMeServices
 90
        0
280
     0
281
     0
  0
CLASS
  1
AmdtInternalReactor
  2
AmdtInternalReactor
  3
AcMeServices
 90
        0
280
     0
281
     0
  0
CLASS
  1
ACMESTATEMGR
  2
AcMeStateMgr
  3
AcMeServices
 90
        0
280
     0
281
     0
  0
CLASS
  1
ACGREFMASTER
  2
AcGrefMaster
  3
AcAttribServices
 90
        0
280
     0
281
     0
  0
CLASS
  1
ACME_DATABASE
  2
AcMeDbDatabase
  3
AcMeServices
 90
        0
280
     0
281
     0
  0
CLASS
  1
ACRFINSADJUSTERMGR
  2
AcRfInsAdjusterMgr
  3
AcMeServices
 90
        0
280
     0
281
     0
  0
CLASS
  1
ACGREFMASTER
  2
AcGrefacadMaster
  3
AcGrefServices
 90
        0
280
     0
281
     0
  0
CLASS
  1
AMIMASTER
  2
AmiMaster
  3
AmiServices
 90
        0
280
     0
281
     0
  0
CLASS
  1
ACMDATADICTIONARY
  2
AcmDataDictionary
  3
"AcmSymBB|Product Description: AutoCAD Mechanical 2000|Company: Autodesk"
 90
        0
280
     0
281
     0
  0
CLASS
  1
ACMDATAENTRYBLOCK
  2
AcmDataEntryBlock
  3
"AcmSymBB|Product Description: AutoCAD Mechanical 2000|Company: Autodesk"
 90
        0
280
     0
281
     0
  0
CLASS
  1
ACIMSTRSYSVAR
  2
AcImStrSysVar
  3
AcMeServices
 90
        0
280
     0
281
     0
  0
CLASS
  1
ACMSTANDARDANSI
  2
AcmStandardANSI
  3
"Amdt_StdImp|Product Description: AutoCAD Mechanical 2000|Company: Autodesk"
 90
        0
280
     0
281
     0
  0
CLASS
  1
AMGOBJPROPCFG
  2
AmgObjPropCfg
  3
"AmgLay|Product Description: AutoCAD Mechanical 2000|Company: Autodesk"
 90
        1
280
     0
281
     0
  0
CLASS
  1
ACMSURFSTANDARDANSI
  2
AcmSurfTextStdANSI
  3
"Amdt_StdImp|Product Description: AutoCAD Mechanical 2000|Company: Autodesk"
 90
        0
280
     0
281
     0
  0
CLASS
  1
ACMFCFSTANDARDANSI
  2
AcmFCFStdANSI
  3
"Amdt_StdImp|Product Description: AutoCAD Mechanical 2000|Company: Autodesk"
 90
        0
280
     0
281
     0
  0
CLASS
  1
ACMWELDSTANDARDANSI
  2
AcmWeldingStdANSI
  3
"Amdt_StdImp|Product Description: AutoCAD Mechanical 2000|Company: Autodesk"
 90
        0
280
     0
281
     0
  0
CLASS
  1
ACMIDSTANDARDANSI
  2
AcmIdStdANSI
  3
"Amdt_StdImp|Product Description: AutoCAD Mechanical 2000|Company: Autodesk"
 90
        0
280
     0
281
     0
  0
CLASS
  1
ACMDATUMSTANDARDANSI
  2
AcmDatumStdANSI
  3
"Amdt_StdImp|Product Description: AutoCAD Mechanical 2000|Company: Autodesk"
 90
        0
280
     0
281
     0
  0
CLASS
  1
ACMBOMSTANDARDANSI
  2
AcmBOMStdANSI
  3
"Amdt_StdImp|Product Description: AutoCAD Mechanical 2000|Company: Autodesk"
 90
        0
280
     0
281
     0
  0
CLASS
  1
ACMDETAILSTANDARDANSI
  2
AmdtDetailSymStdANSI
  3
"Amdt_StdImp|Product Description: AutoCAD Mechanical 2000|Company: Autodesk"
 90
        0
280
     0
281
     0
  0
CLASS
  1
ACMSECTIONSTANDARDANSI
  2
AmdtSectionSymStdANSI
  3
"Amdt_StdImp|Product Description: AutoCAD Mechanical 2000|Company: Autodesk"
 90
        0
280
     0
281
     0
  0
CLASS
  1
ACMCENTERLINESTANDARDANSI
  2
AmdtCenterLineStdANSI
  3
"Amdt_StdImp|Product Description: AutoCAD Mechanical 2000|Company: Autodesk"
 90
        0
280
     0
281
     0
  0
CLASS
  1
ACMThreadLineSTANDARDANSI
  2
AmdtThreadLineStdANSI
  3
"Amdt_StdImp|Product Description: AutoCAD Mechanical 2000|Company: Autodesk"
 90
        0
280
     0
281
     0
  0
CLASS
  1
"AcAmgLayStd"
  2
AcAmgLayStd
  3
"AcAmgLayStd|Product Description: AutoCAD Mechanical 2000|Company: Autodesk"
 90
        0
280
     0
281
     0
  0
CLASS
  1
"AcAmgDimStd"
  2
AcAmgDimStd
  3
"AcAmgDimStd|Product Description: AutoCAD Mechanical 2000|Company: Autodesk"
 90
        0
280
     0
281
     0
  0
CLASS
  1
AcAmgTitleStd
  2
AcAmgTitleStd
  3
"TITLEAPP"
 90
        0
280
     0
281
     0
  0
CLASS
  1
ACAMGFILTERDAT
  2
AcAmgFilterDat
  3
"AcadM|Product Description: AutoCAD Mechanical 2000|Company: Autodesk"
 90
        0
280
     0
281
     0
  0
CLASS
  1
LAYER_INDEX
  2
AcDbLayerIndex
  3
AutoCAD 2000
 90
        0
280
     0
281
     0
  0
CLASS
  1
IDBUFFER
  2
AcDbIdBuffer
  3
AutoCAD 2000
 90
        0
280
     0
281
     0
  0
CLASS
  1
AMDTFORMULAUPDATEDISPATCHER
  2
AmdtFormulaUpdateDispatcher
  3
AcMeServices
 90
        0
280
     0
281
     0
  0
ENDSEC
  0
SECTION
  2
TABLES
  0
TABLE
  2
VPORT
  5
8
330
0
100
AcDbSymbolTable
 70
     4
  0
VPORT
  5
4329
330
8
100
AcDbSymbolTableRecord
100
AcDbViewportTableRecord
  2
*Active
 70
     0
 10
0.0
 20
0.0
 11
1.0
 21
1.0
 12
11.0
 22
8.622819598023994
 13
0.0
 23
0.0
 14
0.0625
 24
0.0625
 15
0.0
 25
0.0
 16
0.0
 26
0.0
 36
1.0
 17
0.0
 27
0.0
 37
0.0
 40
16.93780271056462
 41
1.6636197440585
 42
50.0
 43
0.0
 44
0.0
 50
0.0
 51
0.0
 71
     0
 72
   100
 73
     1
 74
     1
 75
     0
 76
     0
 77
     0
 78
     0
281
     0
 65
     1
110
0.0
120
0.0
130
0.0
111
1.0
121
0.0
131
0.0
112
0.0
122
1.0
132
0.0
 79
     0
146
0.0
  0
ENDTAB
  0
TABLE
  2
LTYPE
  5
5
330
0
100
AcDbSymbolTable
 70
    23
  0
LTYPE
  5
13
330
5
100
AcDbSymbolTableRecord
100
AcDbLinetypeTableRecord
  2
ByBlock
 70
     0
  3

 72
    65
 73
     0
 40
0.0
  0
LTYPE
  5
14
330
5
100
AcDbSymbolTableRecord
100
AcDbLinetypeTableRecord
  2
ByLayer
 70
     0
  3

 72
    65
 73
     0
 40
0.0
  0
LTYPE
  5
15
330
5
100
AcDbSymbolTableRecord
100
AcDbLinetypeTableRecord
  2
CONTINUOUS
 70
     0
  3
CONTINUOUS
 72
    65
 73
     0
 40
0.0
  0
LTYPE
  5
22
330
5
100
AcDbSymbolTableRecord
100
AcDbLinetypeTableRecord
  2
L5
 70
     0
  3
L5
 72
    65
 73
     0
 40
0.0
  0
LTYPE
  5
23
330
5
100
AcDbSymbolTableRecord
100
AcDbLinetypeTableRecord
  2
L0
 70
     0
  3
L0
 72
    65
 73
     0
 40
0.0
  0
LTYPE
  5
24
330
5
100
AcDbSymbolTableRecord
100
AcDbLinetypeTableRecord
  2
L3
 70
     0
  3
L3
 72
    65
 73
     2
 40
1.5
 49
1.0
 74
     0
 49
-0.5
 74
     0
  0
LTYPE
  5
25
330
5
100
AcDbSymbolTableRecord
100
AcDbLinetypeTableRecord
  2
LDM
 70
     0
  3
LDM
 72
    65
 73
     0
 40
0.0
  0
LTYPE
  5
C35
330
5
100
AcDbSymbolTableRecord
100
AcDbLinetypeTableRecord
  2
AM_ISO02W050
 70
     0
  3
__ __ __ __ __ __ __ __ __ __ __ __ __ __ __
 72
    65
 73
     2
 40
7.5
 49
6.0
 74
     0
 49
-1.5
 74
     0
  0
LTYPE
  5
C36
330
5
100
AcDbSymbolTableRecord
100
AcDbLinetypeTableRecord
  2
AM_ISO08W050
 70
     0
  3
____ . ____ . ____ . ____ . ____ . ____ . ____
 72
    65
 73
     4
 40
18.0
 49
12.0
 74
     0
 49
-1.5
 74
     0
 49
3.0
 74
     0
 49
-1.5
 74
     0
  0
LTYPE
  5
C37
330
5
100
AcDbSymbolTableRecord
100
AcDbLinetypeTableRecord
  2
AM_ISO09W050
 70
     0
  3
_____ . . _____ . . _____ . . ____ .. ____
 72
    65
 73
     6
 40
22.5
 49
12.0
 74
     0
 49
-1.5
 74
     0
 49
3.0
 74
     0
 49
-1.5
 74
     0
 49
3.0
 74
     0
 49
-1.5
 74
     0
  0
LTYPE
  5
C38
330
5
100
AcDbSymbolTableRecord
100
AcDbLinetypeTableRecord
  2
Amconstr
 70
     0
  3
_______________________
 72
    65
 73
     2
 40
9999.0
 49
9999.0
 74
     0
 49
0.0
 74
     0
  0
LTYPE
  5
C39
330
5
100
AcDbSymbolTableRecord
100
AcDbLinetypeTableRecord
  2
AM_ISO08W050x2
 70
     0
  3
__ . __ . __ . __ . __ . __
 72
    65
 73
     4
 40
9.0
 49
6.0
 74
     0
 49
-0.75
 74
     0
 49
1.5
 74
     0
 49
-0.75
 74
     0
  0
LTYPE
  5
C3A
330
5
100
AcDbSymbolTableRecord
100
AcDbLinetypeTableRecord
  2
AM_ISO02W050x2
 70
     0
  3
 _ _ _ _ _ _ _ _ _ _ _ _
 72
    65
 73
     2
 40
3.75
 49
3.0
 74
     0
 49
-0.75
 74
     0
  0
LTYPE
  5
C3D
330
5
100
AcDbSymbolTableRecord
100
AcDbLinetypeTableRecord
  2
Amzigzag
 70
     0
  3
/\/-/\/-/\/-/\/-/\/-/\/
 72
    65
 73
     2
 40
11.00009999999999
 49
0.0001
 74
     4
 75
   135
340
C3C
 46
0.04
 50
0.0
 44
0.0
 45
0.0
 49
-11.0
 74
     0
  0
LTYPE
  5
C3E
330
5
100
AcDbSymbolTableRecord
100
AcDbLinetypeTableRecord
  2
HIDDEN
 70
     0
  3
Hidden __ __ __ __ __ __ __ __ __ __ __ __ __ _
 72
    65
 73
     2
 40
0.375
 49
0.25
 74
     0
 49
-0.125
 74
     0
  0
LTYPE
  5
C3F
330
5
100
AcDbSymbolTableRecord
100
AcDbLinetypeTableRecord
  2
CENTER
 70
     0
  3
Center ____ _ ____ _ ____ _ ____ _ ____ _ ____
 72
    65
 73
     4
 40
2.0
 49
1.25
 74
     0
 49
-0.25
 74
     0
 49
0.25
 74
     0
 49
-0.25
 74
     0
  0
LTYPE
  5
C40
330
5
100
AcDbSymbolTableRecord
100
AcDbLinetypeTableRecord
  2
PHANTOM2
 70
     0
  3
Phantom (.5x) ___ _ _ ___ _ _ ___ _ _ ___ _ _
 72
    65
 73
     6
 40
1.25
 49
0.625
 74
     0
 49
-0.125
 74
     0
 49
0.125
 74
     0
 49
-0.125
 74
     0
 49
0.125
 74
     0
 49
-0.125
 74
     0
  0
LTYPE
  5
C41
330
5
100
AcDbSymbolTableRecord
100
AcDbLinetypeTableRecord
  2
CENTER2
 70
     0
  3
Center (.5x) ___ _ ___ _ ___ _ ___ _ ___ _ ___
 72
    65
 73
     4
 40
1.125
 49
0.75
 74
     0
 49
-0.125
 74
     0
 49
0.125
 74
     0
 49
-0.125
 74
     0
  0
LTYPE
  5
C42
330
5
100
AcDbSymbolTableRecord
100
AcDbLinetypeTableRecord
  2
HIDDEN2
 70
     0
  3
Hidden (.5x) _ _ _ _ _ _ _ _ _ _ _ _ _ _ _ _ _
 72
    65
 73
     2
 40
0.1875
 49
0.125
 74
     0
 49
-0.0625
 74
     0
  0
LTYPE
  5
C43
330
5
100
AcDbSymbolTableRecord
100
AcDbLinetypeTableRecord
  2
Amzigzag2
 70
     0
  3
/\/-/\/-/\/-/\/-/\/-/\/
 72
    65
 73
     2
 40
0.4401
 49
0.0001
 74
     4
 75
   135
340
C3C
 46
0.0016
 50
0.0
 44
0.0
 45
0.0
 49
-0.4400000000000001
 74
     0
  0
LTYPE
  5
C50
330
5
100
AcDbSymbolTableRecord
100
AcDbLinetypeTableRecord
  2
ACANSTGB
 70
     0
  3
__ . . __ . .
 72
    65
 73
     6
 40
0.35433070866
 49
0.15748031496
 74
     0
 49
-0.03937007874
 74
     0
 49
0.03937007874
 74
     0
 49
-0.03937007874
 74
     0
 49
0.03937007874
 74
     0
 49
-0.03937007874
 74
     0
  0
LTYPE
  5
C51
330
5
100
AcDbSymbolTableRecord
100
AcDbLinetypeTableRecord
  2
ACANSTGL
 70
     0
  3
_ _ _ _ _
 72
    65
 73
     2
 40
0.11811023622
 49
0.07874015748
 74
     0
 49
-0.03937007874
 74
     0
  0
LTYPE
  5
C68
330
5
100
AcDbSymbolTableRecord
100
AcDbLinetypeTableRecord
  2
MS
 70
     0
  3
MEDIUM_SOLID
 72
    65
 73
     0
 40
0.0
  0
LTYPE
  5
C69
330
5
100
AcDbSymbolTableRecord
100
AcDbLinetypeTableRecord
  2
LS
 70
     0
  3
LIGHT_SOLID
 72
    65
 73
     0
 40
0.0
  0
LTYPE
  5
C6A
330
5
100
AcDbSymbolTableRecord
100
AcDbLinetypeTableRecord
  2
LP
 70
     0
  3
LIGHT_PHANTOM
 72
    65
 73
     6
 40
1.5
 49
0.75
 74
     0
 49
-0.14999998
 74
     0
 49
0.14999998
 74
     0
 49
-0.14999998
 74
     0
 49
0.14999998
 74
     0
 49
-0.14999998
 74
     0
  0
ENDTAB
  0
TABLE
  2
LAYER
  5
2
330
0
100
AcDbSymbolTable
 70
     8
  0
LAYER
  5
10
330
2
100
AcDbSymbolTableRecord
100
AcDbLayerTableRecord
  2
0
 70
     0
 62
     7
  6
CONTINUOUS
370
    -3
390
F
  0
LAYER
  5
33
330
2
100
AcDbSymbolTableRecord
100
AcDbLayerTableRecord
  2
22
 70
     0
 62
     7
  6
CONTINUOUS
370
    -3
390
F
  0
LAYER
  5
34
330
2
100
AcDbSymbolTableRecord
100
AcDbLayerTableRecord
  2
2
 70
     0
 62
     7
  6
CONTINUOUS
370
    -3
390
F
  0
LAYER
  5
35
330
2
100
AcDbSymbolTableRecord
100
AcDbLayerTableRecord
  2
803
 70
     0
 62
     7
  6
CONTINUOUS
370
    -3
390
F
  0
LAYER
  5
36
330
2
100
AcDbSymbolTableRecord
100
AcDbLayerTableRecord
  2
4
 70
     0
 62
     7
  6
CONTINUOUS
370
    -3
390
F
  0
LAYER
  5
C6B
330
2
100
AcDbSymbolTableRecord
100
AcDbLayerTableRecord
  2
BORDER
 70
     0
 62
    15
  6
CONTINUOUS
370
    -3
390
F
  0
LAYER
  5
C6C
330
2
100
AcDbSymbolTableRecord
100
AcDbLayerTableRecord
  2
TITLE BLOCK
 70
     0
 62
     2
  6
CONTINUOUS
370
    -3
390
F
  0
LAYER
  5
11A0
330
2
100
AcDbSymbolTableRecord
100
AcDbLayerTableRecord
  2
LAYER_1
 70
     0
 62
     7
  6
CONTINUOUS
370
    -3
390
F
  0
ENDTAB
  0
TABLE
  2
STYLE
  5
3
330
0
100
AcDbSymbolTable
 70
    19
  0
STYLE
  5
11
330
3
100
AcDbSymbolTableRecord
100
AcDbTextStyleTableRecord
  2
Standard
 70
     0
 40
0.0
 41
1.0
 50
0.0
 71
     0
 42
0.12
  3
txt
  4

  0
STYLE
  5
26
330
3
100
AcDbSymbolTableRecord
100
AcDbTextStyleTableRecord
  2
T1
 70
     0
 40
4.0
 41
0.9
 50
0.0
 71
     0
 42
0.0
  3
medtext
  4

  0
STYLE
  5
27
330
3
100
AcDbSymbolTableRecord
100
AcDbTextStyleTableRecord
  2
TU1
 70
     0
 40
4.0
 41
0.9
 50
0.0
 71
     0
 42
0.0
  3
medtext
  4

  0
STYLE
  5
28
330
3
100
AcDbSymbolTableRecord
100
AcDbTextStyleTableRecord
  2
TSH
 70
     0
 40
8.0
 41
1.381499999999999
 50
0.0
 71
     0
 42
0.0
  3
medtext
  4

  0
STYLE
  5
29
330
3
100
AcDbSymbolTableRecord
100
AcDbTextStyleTableRecord
  2
TDA
 70
     0
 40
4.0
 41
0.9
 50
0.0
 71
     0
 42
0.0
  3
medtext
  4

  0
STYLE
  5
2A
330
3
100
AcDbSymbolTableRecord
100
AcDbTextStyleTableRecord
  2
TSN
 70
     0
 40
6.0
 41
1.2735
 50
0.0
 71
     0
 42
0.0
  3
medtext
  4

  0
STYLE
  5
2B
330
3
100
AcDbSymbolTableRecord
100
AcDbTextStyleTableRecord
  2
TOF
 70
     0
 40
6.0
 41
1.2735
 50
0.0
 71
     0
 42
0.0
  3
medtext
  4

  0
STYLE
  5
2C
330
3
100
AcDbSymbolTableRecord
100
AcDbTextStyleTableRecord
  2
TTI
 70
     0
 40
8.0
 41
0.9551249999999999
 50
0.0
 71
     0
 42
0.0
  3
medtext
  4

  0
STYLE
  5
2D
330
3
100
AcDbSymbolTableRecord
100
AcDbTextStyleTableRecord
  2
TCH
 70
     0
 40
4.0
 41
0.9
 50
0.0
 71
     0
 42
0.0
  3
medtext
  4

  0
STYLE
  5
2E
330
3
100
AcDbSymbolTableRecord
100
AcDbTextStyleTableRecord
  2
TBY
 70
     0
 40
4.0
 41
0.9
 50
0.0
 71
     0
 42
0.0
  3
medtext
  4

  0
STYLE
  5
2F
330
3
100
AcDbSymbolTableRecord
100
AcDbTextStyleTableRecord
  2
T2
 70
     0
 40
5.0
 41
0.9
 50
0.0
 71
     0
 42
0.0
  3
medtext
  4

  0
STYLE
  5
30
330
3
100
AcDbSymbolTableRecord
100
AcDbTextStyleTableRecord
  2
TIS
 70
     0
 40
4.0
 41
0.9
 50
0.0
 71
     0
 42
0.0
  3
medtext
  4

  0
STYLE
  5
31
330
3
100
AcDbSymbolTableRecord
100
AcDbTextStyleTableRecord
  2
T3
 70
     0
 40
8.0
 41
0.9551249999999999
 50
0.0
 71
     0
 42
0.0
  3
medtext
  4

  0
STYLE
  5
32
330
3
100
AcDbSymbolTableRecord
100
AcDbTextStyleTableRecord
  2
TDM
 70
     0
 40
4.0
 41
0.9
 50
0.0
 71
     0
 42
0.0
  3
medtext
  4

  0
STYLE
  5
C3C
330
3
100
AcDbSymbolTableRecord
100
AcDbTextStyleTableRecord
  2

 70
     1
 40
0.0
 41
1.0
 50
0.0
 71
     0
 42
0.2
  3
ltypeshp.shx
  4

  0
STYLE
  5
C44
330
3
100
AcDbSymbolTableRecord
100
AcDbTextStyleTableRecord
  2
ACANSTS
 70
     0
 40
1.0
 41
1.0
 50
0.0
 71
     0
 42
0.2
  3
romans.shx
  4

  0
STYLE
  5
C4F
330
3
100
AcDbSymbolTableRecord
100
AcDbTextStyleTableRecord
  2
ACANSGDT
 70
     0
 40
0.0
 41
1.0
 50
0.0
 71
     0
 42
0.2
  3
amgdtans.shx
  4

  0
STYLE
  5
C6D
330
3
100
AcDbSymbolTableRecord
100
AcDbTextStyleTableRecord
  2
AE
 70
     0
 40
0.0
 41
1.0
 50
0.0
 71
     0
 42
0.16408998
  3
MIGRATOR
  4

  0
STYLE
  5
C6E
330
3
100
AcDbSymbolTableRecord
100
AcDbTextStyleTableRecord
  2

 70
     1
 40
0.0
 41
1.0
 50
0.0
 71
     0
 42
1.0
  3
symtb128
  4

  0
ENDTAB
  0
TABLE
  2
VIEW
  5
6
330
0
100
AcDbSymbolTable
 70
     0
  0
ENDTAB
  0
TABLE
  2
UCS
  5
7
330
0
100
AcDbSymbolTable
 70
     0
  0
ENDTAB
  0
TABLE
  2
APPID
  5
9
330
0
100
AcDbSymbolTable
 70
     7
  0
APPID
  5
12
330
9
100
AcDbSymbolTableRecord
100
AcDbRegAppTableRecord
  2
ACAD
 70
     0
  0
APPID
  5
C15
330
9
100
AcDbSymbolTableRecord
100
AcDbRegAppTableRecord
  2
MCAD_NO_VIS
 70
     0
  0
APPID
  5
C16
330
9
100
AcDbSymbolTableRecord
100
AcDbRegAppTableRecord
  2
ACAD_TEMP_GRAPHIC
 70
     0
  0
APPID
  5
C29
330
9
100
AcDbSymbolTableRecord
100
AcDbRegAppTableRecord
  2
ACATTRIBSERVICES
 70
     0
  0
APPID
  5
C70
330
9
100
AcDbSymbolTableRecord
100
AcDbRegAppTableRecord
  2
GENIUS_GENBLLY_14
 70
     0
  0
APPID
  5
C71
330
9
100
AcDbSymbolTableRecord
100
AcDbRegAppTableRecord
  2
GENIUS_GENTRA_14
 70
     0
  0
APPID
  5
3F10
330
9
100
AcDbSymbolTableRecord
100
AcDbRegAppTableRecord
  2
DCO15
 70
     0
  0
ENDTAB
  0
TABLE
  2
DIMSTYLE
  5
A
330
0
100
AcDbSymbolTable
 70
    14
100
AcDbDimStyleTable
 71
     0
  0
DIMSTYLE
105
37
330
A
100
AcDbSymbolTableRecord
100
AcDbDimStyleTableRecord
  2
MEDDIM
 70
     0
 45
0.01
 78
    12
146
0.7
172
     1
176
     7
177
     7
178
     7
273
     4
277
     4
279
     2
340
11
  0
DIMSTYLE
105
C55
330
A
100
AcDbSymbolTableRecord
100
AcDbDimStyleTableRecord
  2
AM_ANSI
 70
     0
  4
mm
 41
0.1
 42
0.05
 43
0.5
 44
0.1
 47
0.1
 48
0.1
 78
     7
 79
     2
140
0.12
141
0.0
146
0.71
147
0.06
176
   256
177
   256
178
     2
274
     4
284
     7
340
11
371
    -1
372
    -1
  0
DIMSTYLE
105
C56
330
A
100
AcDbSymbolTableRecord
100
AcDbDimStyleTableRecord
  2
AM_ANSI$3
 70
     0
  4
mm
 41
0.1
 42
0.05
 43
0.5
 44
0.1
 47
0.1
 48
0.1
 78
     7
 79
     2
140
0.12
141
0.0
146
0.71
147
0.06
176
   256
177
   256
178
     2
274
     4
284
     7
288
     1
289
     0
340
11
371
    -1
372
    -1
  0
DIMSTYLE
105
C57
330
A
100
AcDbSymbolTableRecord
100
AcDbDimStyleTableRecord
  2
AM_ANSI$4
 70
     0
  4
mm
 41
0.1
 42
0.05
 43
0.5
 44
0.1
 47
0.1
 48
0.1
 78
     7
 79
     2
140
0.12
141
0.0
146
0.71
147
0.06
176
   256
177
   256
178
     2
274
     4
284
     7
288
     1
289
     0
340
11
371
    -1
372
    -1
  0
DIMSTYLE
105
C58
330
A
100
AcDbSymbolTableRecord
100
AcDbDimStyleTableRecord
  2
AM_ANSI$7
 70
     0
  4
mm
 41
0.1
 42
0.05
 43
0.5
 44
0.1
 47
0.1
 48
0.1
 78
     7
 79
     2
140
0.24
141
0.0
146
0.71
147
0.06
176
   256
177
   256
178
     2
274
     4
284
     7
340
11
371
    -1
372
    -1
  0
DIMSTYLE
105
C59
330
A
100
AcDbSymbolTableRecord
100
AcDbDimStyleTableRecord
  2
AM_ANSI$SF
 70
     0
  4
mm
 41
0.1
 42
0.05
 43
0.5
 44
0.1
 47
0.1
 48
0.1
 75
     1
 76
     1
 78
     7
 79
     2
140
0.12
141
0.0
146
0.71
147
0.06
176
   256
177
   256
178
     2
274
     4
284
     7
340
11
371
    -1
372
    -1
  0
DIMSTYLE
105
C5E
330
A
100
AcDbSymbolTableRecord
100
AcDbDimStyleTableRecord
  2
AM_ANSI$SH
 70
     0
  4
mm
 41
0.1
 42
0.05
 43
0.5
 44
0.1
 47
0.1
 48
0.1
 75
     1
 76
     1
 78
     7
 79
     2
140
0.12
141
0.0
146
0.71
147
0.06
173
     1
176
   256
177
   256
178
     2
274
     4
284
     7
340
11
343
C5A
371
    -1
372
    -1
  0
DIMSTYLE
105
C6F
330
A
100
AcDbSymbolTableRecord
100
AcDbDimStyleTableRecord
  2
GEN-ANSI
 70
     0
  3
<>
  4
mm
 41
0.14
 42
0.125
 43
0.5
 44
0.125
 47
0.1
 48
0.1
 73
     0
 74
     0
 77
     1
 78
     7
140
0.12
141
0.0
146
0.71
147
0.06
176
   256
177
   256
178
     2
274
     4
340
11
  0
DIMSTYLE
105
11A1
330
A
100
AcDbSymbolTableRecord
100
AcDbDimStyleTableRecord
  2
Standard
 70
     0
340
11
  0
DIMSTYLE
105
4097
330
A
100
AcDbSymbolTableRecord
100
AcDbDimStyleTableRecord
  2
MEDDIM1166
 70
     0
 45
0.01
 78
    12
146
0.7
172
     1
176
     7
177
     7
178
     7
273
     4
277
     4
279
     2
340
11
  0
DIMSTYLE
105
4098
330
A
100
AcDbSymbolTableRecord
100
AcDbDimStyleTableRecord
  2
MEDDIM1185
 70
     0
 45
0.01
 78
    12
146
0.7
172
     1
176
     7
177
     7
178
     7
273
     4
277
     4
279
     2
340
11
  0
DIMSTYLE
105
4099
330
A
100
AcDbSymbolTableRecord
100
AcDbDimStyleTableRecord
  2
MEDDIM1198
 70
     0
 45
0.01
 78
    12
146
0.7
172
     1
176
     7
177
     7
178
     7
273
     4
277
     4
279
     2
340
11
  0
DIMSTYLE
105
409A
330
A
100
AcDbSymbolTableRecord
100
AcDbDimStyleTableRecord
  2
MEDDIM1205
 70
     0
 45
0.01
 78
    12
146
0.7
172
     1
176
     7
177
     7
178
     7
273
     4
277
     4
279
     2
340
11
  0
DIMSTYLE
105
409B
330
A
100
AcDbSymbolTableRecord
100
AcDbDimStyleTableRecord
  2
MEDDIM1227
 70
     0
 45
0.01
 78
    12
146
0.7
172
     1
176
     7
177
     7
178
     7
273
     4
277
     4
279
     2
340
11
  0
ENDTAB
  0
TABLE
  2
BLOCK_RECORD
  5
1
330
0
100
AcDbSymbolTable
 70
    10
  0
BLOCK_RECORD
  5
1E
102
{ACAD_XDICTIONARY
360
D4B
102
}
330
1
100
AcDbSymbolTableRecord
100
AcDbBlockTableRecord
  2
*Model_Space
340
21
  0
BLOCK_RECORD
  5
1A
330
1
100
AcDbSymbolTableRecord
100
AcDbBlockTableRecord
  2
*Paper_Space
340
1D
  0
BLOCK_RECORD
  5
3B
330
1
100
AcDbSymbolTableRecord
100
AcDbBlockTableRecord
  2
MEDCLUMP_NTE_1046_
340
0
  0
BLOCK_RECORD
  5
3E
330
1
100
AcDbSymbolTableRecord
100
AcDbBlockTableRecord
  2
MEDFUNV_6
340
0
102
{BLKREFS
331
3F
331
49
331
52
331
5C
331
66
331
91
331
E76
331
E79
331
E7B
331
E7E
331
E81
331
E84
331
4101
331
4100
331
40FF
331
40FE
331
40FD
331
40FC
102
}
  0
BLOCK_RECORD
  5
46
330
1
100
AcDbSymbolTableRecord
100
AcDbBlockTableRecord
  2
MEDCLUMP_NTE_1042_
340
0
  0
BLOCK_RECORD
  5
50
330
1
100
AcDbSymbolTableRecord
100
AcDbBlockTableRecord
  2
MEDCLUMP_NTE_1040_
340
0
  0
BLOCK_RECORD
  5
59
330
1
100
AcDbSymbolTableRecord
100
AcDbBlockTableRecord
  2
MEDCLUMP_NTE_1036_
340
0
  0
BLOCK_RECORD
  5
63
330
1
100
AcDbSymbolTableRecord
100
AcDbBlockTableRecord
  2
MEDCLUMP_NTE_1032_
340
0
  0
BLOCK_RECORD
  5
8E
330
1
100
AcDbSymbolTableRecord
100
AcDbBlockTableRecord
  2
MEDCLUMP_NTE_1028_
340
0
  0
BLOCK_RECORD
  5
98
330
1
100
AcDbSymbolTableRecord
100
AcDbBlockTableRecord
  2
MEDCLUMP_NTE_1025_
340
0
102
{BLKREFS
331
BBB
102
}
  0
BLOCK_RECORD
  5
C5A
330
1
100
AcDbSymbolTableRecord
100
AcDbBlockTableRecord
  2
GENAXEH
340
0
  0
BLOCK_RECORD
  5
C72
330
1
100
AcDbSymbolTableRecord
100
AcDbBlockTableRecord
  2
ASSEMBLY_C
340
0
102
{BLKREFS
331
3FDB
331
4319
102
}
  0
ENDTAB
  0
ENDSEC
  0
SECTION
  2
BLOCKS
  0
BLOCK
  5
1F
330
1E
100
AcDbEntity
  8
0
100
AcDbBlockBegin
  2
*Model_Space
 70
     0
 10
0.0
 20
0.0
 30
0.0
  3
*Model_Space
  1

  0
ENDBLK
  5
20
330
1E
100
AcDbEntity
  8
0
100
AcDbBlockEnd
  0
BLOCK
  5
1B
330
1A
100
AcDbEntity
 67
     1
  8
0
100
AcDbBlockBegin
  2
*Paper_Space
 70
     0
 10
0.0
 20
0.0
 30
0.0
  3
*Paper_Space
  1

  0
ENDBLK
  5
1C
330
1A
100
AcDbEntity
 67
     1
  8
0
100
AcDbBlockEnd
  0
BLOCK
  5
3C
330
3B
100
AcDbEntity
  8
0
100
AcDbBlockBegin
  2
MEDCLUMP_NTE_1046_
 70
     0
 10
0.0
 20
0.0
 30
0.0
  3
MEDCLUMP_NTE_1046_
  1

  0
TEXT
  5
3D
330
3B
100
AcDbEntity
  8
4
 62
     1
100
AcDbText
 10
17.943696
 20
12.534544
 30
0.0
 40
0.15748
  1
 
 41
0.7777848333474299
  7
TDM
 72
     5
 11
18.05393299999999
 21
12.534544
 31
0.0
100
AcDbText
  0
INSERT
  5
3F
330
3B
100
AcDbEntity
  8
4
100
AcDbBlockReference
  2
MEDFUNV_6
 10
17.445467
 20
11.81816699999999
 30
0.0
 41
0.03937
 42
0.03937
 50
54.415836
  0
LWPOLYLINE
  5
40
330
3B
100
AcDbEntity
  8
4
  6
LDM
 62
     1
100
AcDbPolyline
 90
        3
 70
     0
 43
0.0
 10
17.445467
 20
11.81816699999999
 10
17.996881
 20
12.588825
 10
17.996881
 20
12.713825
  0
ENDBLK
  5
45
330
3B
100
AcDbEntity
  8
0
100
AcDbBlockEnd
  0
BLOCK
  5
6D
330
3E
100
AcDbEntity
  8
0
100
AcDbBlockBegin
  2
MEDFUNV_6
 70
     0
 10
0.0
 20
0.0
 30
0.0
  3
MEDFUNV_6
  1

  0
LWPOLYLINE
  5
6E
330
3E
100
AcDbEntity
  8
4
  6
LDM
 62
     1
100
AcDbPolyline
 90
        4
 70
     0
 43
0.0
 10
3.500002999999999
 20
0.583334
 10
0.0
 20
0.0
 10
3.500002999999999
 20
-0.583334
 10
3.500002999999999
 20
0.583334
  0
LWPOLYLINE
  5
74
330
3E
100
AcDbEntity
  8
4
  6
LDM
 62
     1
100
AcDbPolyline
 90
        3
 70
     0
 43
0.0
 38
7.978631459979119E+99
 10
3.500002999999999
 20
0.486111
 10
0.583334
 20
0.0
 10
3.500002999999999
 20
-0.486111
  0
LWPOLYLINE
  5
79
330
3E
100
AcDbEntity
  8
4
  6
LDM
 62
     1
100
AcDbPolyline
 90
        3
 70
     0
 43
0.0
 38
7.978631459979119E+99
 10
3.500002999999999
 20
0.388889
 10
1.166668
 20
0.0
 10
3.500002999999999
 20
-0.388889
  0
LWPOLYLINE
  5
7E
330
3E
100
AcDbEntity
  8
4
  6
LDM
 62
     1
100
AcDbPolyline
 90
        3
 70
     0
 43
0.0
 38
7.978631459979119E+99
 10
3.500002999999999
 20
0.291667
 10
1.750000999999999
 20
0.0
 10
3.500002999999999
 20
-0.291667
  0
LWPOLYLINE
  5
83
330
3E
100
AcDbEntity
  8
4
  6
LDM
 62
     1
100
AcDbPolyline
 90
        3
 70
     0
 43
0.0
 38
7.978631459979119E+99
 10
3.500002999999999
 20
0.194445
 10
2.333334999999999
 20
0.0
 10
3.500002999999999
 20
-0.194445
  0
LWPOLYLINE
  5
88
330
3E
100
AcDbEntity
  8
4
  6
LDM
 62
     1
100
AcDbPolyline
 90
        3
 70
     0
 43
0.0
 38
7.978631459979119E+99
 10
3.500002999999999
 20
0.097222
 10
2.916668999999999
 20
0.0
 10
3.500002999999999
 20
-0.097222
  0
ENDBLK
  5
8D
330
3E
100
AcDbEntity
  8
0
100
AcDbBlockEnd
  0
BLOCK
  5
47
330
46
100
AcDbEntity
  8
0
100
AcDbBlockBegin
  2
MEDCLUMP_NTE_1042_
 70
     0
 10
0.0
 20
0.0
 30
0.0
  3
MEDCLUMP_NTE_1042_
  1

  0
TEXT
  5
48
330
46
100
AcDbEntity
  8
4
 62
     1
100
AcDbText
 10
15.94732
 20
12.528602
 30
0.0
 40
0.15748
  1
 
 41
0.7777848333474299
  7
TDM
 72
     5
 11
16.057557
 21
12.528602
 31
0.0
100
AcDbText
  0
INSERT
  5
49
330
46
100
AcDbEntity
  8
4
100
AcDbBlockReference
  2
MEDFUNV_6
 10
16.699592
 20
11.81816699999999
 30
0.0
 41
0.03937
 42
0.03937
 50
132.432848
  0
LWPOLYLINE
  5
4A
330
46
100
AcDbEntity
  8
4
  6
LDM
 62
     1
100
AcDbPolyline
 90
        3
 70
     0
 43
0.0
 10
16.699592
 20
11.81816699999999
 10
16.000505
 20
12.582883
 10
16.000505
 20
12.707883
  0
ENDBLK
  5
4F
330
46
100
AcDbEntity
  8
0
100
AcDbBlockEnd
  0
BLOCK
  5
51
330
50
100
AcDbEntity
  8
0
100
AcDbBlockBegin
  2
MEDCLUMP_NTE_1040_
 70
     0
 10
0.0
 20
0.0
 30
0.0
  3
MEDCLUMP_NTE_1040_
  1

  0
INSERT
  5
52
330
50
100
AcDbEntity
  8
4
100
AcDbBlockReference
  2
MEDFUNV_6
 10
16.55544899999999
 20
11.64886
 30
0.0
 41
0.03937
 42
0.03937
 50
217.667848
  0
LWPOLYLINE
  5
53
330
50
100
AcDbEntity
  8
4
  6
LDM
 62
     1
100
AcDbPolyline
 90
        3
 70
     0
 43
0.0
 10
16.55544899999999
 20
11.64886
 10
15.49547
 20
10.830565
 10
15.49547
 20
10.705565
  0
ENDBLK
  5
58
330
50
100
AcDbEntity
  8
0
100
AcDbBlockEnd
  0
BLOCK
  5
5A
330
59
100
AcDbEntity
  8
0
100
AcDbBlockBegin
  2
MEDCLUMP_NTE_1036_
 70
     0
 10
0.0
 20
0.0
 30
0.0
  3
MEDCLUMP_NTE_1036_
  1

  0
TEXT
  5
5B
330
59
100
AcDbEntity
  8
4
 62
     1
100
AcDbText
 10
16.44641299999999
 20
10.50158499999999
 30
0.0
 40
0.15748
  1
 
 41
0.7777848333474548
  7
TDM
 72
     5
 11
16.55665
 21
10.50158499999999
 31
0.0
100
AcDbText
  0
INSERT
  5
5C
330
59
100
AcDbEntity
  8
4
100
AcDbBlockReference
  2
MEDFUNV_6
 10
16.699592
 20
11.479553
 30
0.0
 41
0.03937
 42
0.03937
 50
252.2425
  0
LWPOLYLINE
  5
5D
330
59
100
AcDbEntity
  8
4
  6
LDM
 62
     1
100
AcDbPolyline
 90
        3
 70
     0
 43
0.0
 10
16.699592
 20
11.479553
 10
16.49365799999999
 20
10.836507
 10
16.49365799999999
 20
10.711507
  0
ENDBLK
  5
62
330
59
100
AcDbEntity
  8
0
100
AcDbBlockEnd
  0
BLOCK
  5
64
330
63
100
AcDbEntity
  8
0
100
AcDbBlockBegin
  2
MEDCLUMP_NTE_1032_
 70
     0
 10
0.0
 20
0.0
 30
0.0
  3
MEDCLUMP_NTE_1032_
  1

  0
TEXT
  5
65
330
63
100
AcDbEntity
  8
4
 62
     1
100
AcDbText
 10
18.454673
 20
10.50158499999999
 30
0.0
 40
0.15748
  1
 
 41
0.7777777777777809
  7
TDM
 72
     5
 11
18.564909
 21
10.50158499999999
 31
0.0
100
AcDbText
  0
INSERT
  5
66
330
63
100
AcDbEntity
  8
4
100
AcDbBlockReference
  2
MEDFUNV_6
 10
17.30132499999999
 20
11.64886
 30
0.0
 41
0.03937
 42
0.03937
 50
325.916658
  0
LWPOLYLINE
  5
67
330
63
100
AcDbEntity
  8
4
  6
LDM
 62
     1
100
AcDbPolyline
 90
        3
 70
     0
 43
0.0
 10
17.30132499999999
 20
11.64886
 10
18.501918
 20
10.836507
 10
18.501918
 20
10.711507
  0
ENDBLK
  5
6C
330
63
100
AcDbEntity
  8
0
100
AcDbBlockEnd
  0
BLOCK
  5
8F
330
8E
100
AcDbEntity
  8
0
100
AcDbBlockBegin
  2
MEDCLUMP_NTE_1028_
 70
     0
 10
0.0
 20
0.0
 30
0.0
  3
MEDCLUMP_NTE_1028_
  1

  0
TEXT
  5
90
330
8E
100
AcDbEntity
  8
4
 62
     1
100
AcDbText
 10
17.955579
 20
10.50158499999999
 30
0.0
 40
0.15748
  1
 
 41
0.7777777777777809
  7
TDM
 72
     5
 11
18.065815
 21
10.50158499999999
 31
0.0
100
AcDbText
  0
INSERT
  5
91
330
8E
100
AcDbEntity
  8
4
100
AcDbBlockReference
  2
MEDFUNV_6
 10
17.445467
 20
11.479553
 30
0.0
 41
0.03937
 42
0.03937
 50
310.916877
  0
LWPOLYLINE
  5
92
330
8E
100
AcDbEntity
  8
4
  6
LDM
 62
     1
100
AcDbPolyline
 90
        3
 70
     0
 43
0.0
 10
17.445467
 20
11.479553
 10
18.002823
 20
10.836507
 10
18.002823
 20
10.711507
  0
ENDBLK
  5
97
330
8E
100
AcDbEntity
  8
0
100
AcDbBlockEnd
  0
BLOCK
  5
99
330
98
100
AcDbEntity
  8
0
100
AcDbBlockBegin
  2
MEDCLUMP_NTE_1025_
 70
     0
 10
0.0
 20
0.0
 30
0.0
  3
MEDCLUMP_NTE_1025_
  1

  0
TEXT
  5
9A
330
98
100
AcDbEntity
  8
4
 62
     1
100
AcDbText
 10
16.440472
 20
10.418403
 30
0.0
 40
0.15748
  1
 
 41
0.7777777777777809
  7
TDM
 72
     5
 11
16.550708
 21
10.418403
 31
0.0
100
AcDbText
  0
ENDBLK
  5
9B
330
98
100
AcDbEntity
  8
0
100
AcDbBlockEnd
  0
BLOCK
  5
C5C
330
C5A
100
AcDbEntity
  8
0
100
AcDbBlockBegin
  2
GENAXEH
 70
     0
 10
0.0
 20
0.0
 30
0.0
  3
GENAXEH
  1

  0
LINE
  5
C5B
330
C5A
100
AcDbEntity
  8
0
100
AcDbLine
 10
-1.0
 20
0.0
 30
0.0
 11
1.0
 21
0.0
 31
0.0
  0
ENDBLK
  5
C5D
330
C5A
100
AcDbEntity
  8
0
100
AcDbBlockEnd
  0
BLOCK
  5
D36
330
C72
100
AcDbEntity
  8
0
100
AcDbBlockBegin
  2
ASSEMBLY_C
 70
     2
 10
0.0
 20
0.0
 30
0.0
  3
ASSEMBLY_C
  1

  0
LINE
  5
4266
330
C72
100
AcDbEntity
  8
BORDER
  6
Continuous
100
AcDbLine
 10
0.0
 20
17.0
 30
0.0
 11
22.0
 21
17.0
 31
0.0
  0
LINE
  5
4267
330
C72
100
AcDbEntity
  8
BORDER
100
AcDbLine
 10
0.5
 20
0.75
 30
0.0
 11
21.49999999999999
 21
0.75
 31
0.0
  0
LINE
  5
4268
330
C72
100
AcDbEntity
  8
BORDER
100
AcDbLine
 10
0.5
 20
16.25
 30
0.0
 11
21.49999999999999
 21
16.25
 31
0.0
  0
ATTDEF
  5
4269
330
C72
100
AcDbEntity
  8
TITLE BLOCK
  6
Continuous
100
AcDbText
 10
17.42499999999999
 20
1.875
 30
0.0
 40
0.1010611419
  1

100
AcDbAttributeDefinition
  3
Drawn by
  2
GEN-TITLE-NAME{5}
 70
     0
1001
GENIUS_GENBLLY_14
1000
BOR2
  0
ATTDEF
  5
426A
330
C72
100
AcDbEntity
  8
TITLE BLOCK
  6
Continuous
100
AcDbText
 10
17.42499999999999
 20
1.625
 30
0.0
 40
0.1010611419
  1

100
AcDbAttributeDefinition
  3
Check by
  2
GEN-TITLE-CHKM{5}
 70
     0
1001
GENIUS_GENBLLY_14
1000
BOR2
  0
ATTDEF
  5
426B
330
C72
100
AcDbEntity
  8
TITLE BLOCK
  6
Continuous
100
AcDbText
 10
17.42499999999999
 20
1.375
 30
0.0
 40
0.1010611419
  1

100
AcDbAttributeDefinition
  3
Approved by
  2
GEN-TITLE-APPM{5}
 70
     0
1001
GENIUS_GENBLLY_14
1000
BOR2
1001
GENIUS_GENTRA_14
1002
{
1070
     3
1000
GENTRAPR,%s,(GENMSG gentitus 73)
1000
Approved by
1000
gb
1070
     0
1002
}
  0
LINE
  5
426C
330
C72
100
AcDbEntity
  8
TITLE BLOCK
  6
Continuous
100
AcDbLine
 10
15.59965639031853
 20
1.299999999999999
 30
0.0
 11
21.49999999999999
 21
1.299999999999999
 31
0.0
  0
LINE
  5
426D
330
C72
100
AcDbEntity
  8
TITLE BLOCK
  6
Continuous
100
AcDbLine
 10
17.07518995515351
 20
1.549999999999999
 30
0.0
 11
21.49999999999999
 21
1.549999999999999
 31
0.0
  0
LINE
  5
426E
330
C72
100
AcDbEntity
  8
TITLE BLOCK
  6
Continuous
100
AcDbLine
 10
17.07518995515351
 20
1.799999999999999
 30
0.0
 11
21.49999999999999
 21
1.799999999999999
 31
0.0
  0
LINE
  5
426F
330
C72
100
AcDbEntity
  8
TITLE BLOCK
  6
Continuous
100
AcDbLine
 10
17.07518995515351
 20
2.049999999999999
 30
0.0
 11
21.49999999999999
 21
2.049999999999999
 31
0.0
  0
LINE
  5
4270
330
C72
100
AcDbEntity
  8
TITLE BLOCK
  6
Continuous
100
AcDbLine
 10
12.75
 20
2.75
 30
0.0
 11
21.49999999999999
 21
2.75
 31
0.0
  0
TEXT
  5
4271
330
C72
100
AcDbEntity
  8
TITLE BLOCK
  6
Continuous
100
AcDbText
 10
17.20669482722676
 20
2.346163262564664
 30
0.0
 40
0.1010611419
  1
  DRAWING
 50
0.09999996
  7
AE
100
AcDbText
  0
TEXT
  5
4272
330
C72
100
AcDbEntity
  8
TITLE BLOCK
  6
Continuous
100
AcDbText
 10
17.20669482722676
 20
2.555546537751305
 30
0.0
 40
0.1010611419
  1
DO NOT SCALE
 50
0.09999996
  7
AE
100
AcDbText
  0
LINE
  5
4273
330
C72
100
AcDbEntity
  8
BORDER
  6
Continuous
100
AcDbLine
 10
0.0
 20
0.2456391960479891
 30
0.0
 11
0.0
 21
17.0
 31
0.0
  0
LINE
  5
4274
330
C72
100
AcDbEntity
  8
BORDER
100
AcDbLine
 10
0.5
 20
0.75
 30
0.0
 11
0.5
 21
16.25
 31
0.0
  0
TEXT
  5
4275
330
C72
100
AcDbEntity
  8
BORDER
100
AcDbText
 10
0.1785739999999976
 20
2.0249996
 30
0.0
 40
0.19999999
  1
A
  7
AE
100
AcDbText
  0
LINE
  5
4276
330
C72
100
AcDbEntity
  8
BORDER
100
AcDbLine
 10
0.1000060000000005
 20
8.4999991
 30
0.0
 11
0.3000030000000002
 21
8.4999991
 31
0.0
  0
LINE
  5
4277
330
C72
100
AcDbEntity
  8
BORDER
100
AcDbLine
 10
0.3000179999999979
 20
8.399978599999998
 30
0.0
 11
0.5000149999999977
 21
8.499977099999998
 31
0.0
  0
TEXT
  5
4278
330
C72
100
AcDbEntity
  8
BORDER
100
AcDbText
 10
0.1785739999999976
 20
6.2749996
 30
0.0
 40
0.19999999
  1
B
  7
AE
100
AcDbText
  0
LINE
  5
4279
330
C72
100
AcDbEntity
  8
BORDER
100
AcDbLine
 10
0.1000060000000005
 20
4.25
 30
0.0
 11
0.5
 21
4.25
 31
0.0
  0
LINE
  5
427A
330
C72
100
AcDbEntity
  8
BORDER
100
AcDbLine
 10
0.3000340000000001
 20
8.5999765
 30
0.0
 11
0.5000299999999989
 21
8.499978999999999
 31
0.0
  0
LINE
  5
427B
330
C72
100
AcDbEntity
  8
BORDER
100
AcDbLine
 10
0.3000179999999979
 20
8.3999929
 30
0.0
 11
0.3000179999999979
 21
8.5999899
 31
0.0
  0
TEXT
  5
427C
330
C72
100
AcDbEntity
  8
BORDER
100
AcDbText
 10
2.678573999999997
 20
0.27499998
 30
0.0
 40
0.19999999
  1
4
  7
AE
100
AcDbText
  0
LINE
  5
427D
330
C72
100
AcDbEntity
  8
BORDER
100
AcDbLine
 10
5.5
 20
0.34999996
 30
0.0
 11
5.5
 21
0.75
 31
0.0
  0
TEXT
  5
427E
330
C72
100
AcDbEntity
  8
BORDER
100
AcDbText
 10
8.178572
 20
0.27499998
 30
0.0
 40
0.19999999
  1
3
  7
AE
100
AcDbText
  0
TEXT
  5
427F
330
C72
100
AcDbEntity
  8
BORDER
100
AcDbText
 10
13.5829811
 20
0.3329525
 30
0.0
 40
0.04
  1
FULL SIZE   50   02
 50
0.0999999600000013
 41
0.7749084200000001
  7
AE
100
AcDbText
  0
TEXT
  5
4280
330
C72
100
AcDbEntity
  8
TITLE BLOCK
  6
Continuous
100
AcDbText
 10
13.87354307850001
 20
0.8400242034427522
 30
0.0
 40
0.075937067150492
  1
REVISION
 50
0.09999996
  7
AE
100
AcDbText
  0
LINE
  5
4281
330
C72
100
AcDbEntity
  8
TITLE BLOCK
  6
Continuous
100
AcDbLine
 10
12.75
 20
1.0
 30
0.0
 11
15.59965639031853
 21
1.0
 31
0.0
  0
LINE
  5
4282
330
C72
100
AcDbEntity
  8
TITLE BLOCK
  6
Continuous
100
AcDbLine
 10
12.75
 20
1.75
 30
0.0
 11
15.59965639031853
 21
1.75
 31
0.0
  0
LINE
  5
4283
330
C72
100
AcDbEntity
  8
TITLE BLOCK
  6
Continuous
100
AcDbLine
 10
12.75
 20
2.0
 30
0.0
 11
15.59965639031853
 21
2.0
 31
0.0
  0
LINE
  5
4284
330
C72
100
AcDbEntity
  8
TITLE BLOCK
  6
Continuous
100
AcDbLine
 10
12.75
 20
2.25
 30
0.0
 11
15.59965639031853
 21
2.25
 31
0.0
  0
LINE
  5
4285
330
C72
100
AcDbEntity
  8
TITLE BLOCK
  6
Continuous
100
AcDbLine
 10
12.75
 20
2.5
 30
0.0
 11
15.59965639031853
 21
2.5
 31
0.0
  0
LINE
  5
4286
330
C72
100
AcDbEntity
  8
TITLE BLOCK
  6
Continuous
100
AcDbLine
 10
12.75
 20
1.5
 30
0.0
 11
15.59965639031853
 21
1.5
 31
0.0
  0
LINE
  5
4287
330
C72
100
AcDbEntity
  8
TITLE BLOCK
  6
Continuous
100
AcDbLine
 10
12.75
 20
1.25
 30
0.0
 11
15.59965639031853
 21
1.25
 31
0.0
  0
LINE
  5
4288
330
C72
100
AcDbEntity
  8
BORDER
  6
LS
100
AcDbLine
 10
13.68000129999999
 20
0.55999994
 30
0.0
 11
13.68000129999999
 21
0.6999999900000001
 31
0.0
  0
LINE
  5
4289
330
C72
100
AcDbEntity
  8
BORDER
  6
LS
100
AcDbLine
 10
13.7800016
 20
0.55999994
 30
0.0
 11
13.7800016
 21
0.6999999900000001
 31
0.0
  0
LINE
  5
428A
330
C72
100
AcDbEntity
  8
BORDER
  6
LS
100
AcDbLine
 10
13.880002
 20
0.55999994
 30
0.0
 11
13.880002
 21
0.6999999900000001
 31
0.0
  0
LINE
  5
428B
330
C72
100
AcDbEntity
  8
BORDER
  6
LS
100
AcDbLine
 10
13.7000017
 20
0.63999999
 30
0.0
 11
13.7000017
 21
0.6999999900000001
 31
0.0
  0
LINE
  5
428C
330
C72
100
AcDbEntity
  8
BORDER
  6
LS
100
AcDbLine
 10
13.7200022
 20
0.59999996
 30
0.0
 11
13.7200022
 21
0.6999999900000001
 31
0.0
  0
LINE
  5
428D
330
C72
100
AcDbEntity
  8
BORDER
  6
LS
100
AcDbLine
 10
13.7400026
 20
0.59999996
 30
0.0
 11
13.7400026
 21
0.6999999900000001
 31
0.0
  0
LINE
  5
428E
330
C72
100
AcDbEntity
  8
BORDER
  6
LS
100
AcDbLine
 10
13.76000209999999
 20
0.63999999
 30
0.0
 11
13.76000209999999
 21
0.6999999900000001
 31
0.0
  0
LINE
  5
428F
330
C72
100
AcDbEntity
  8
BORDER
  6
LS
100
AcDbLine
 10
13.80000209999999
 20
0.63999999
 30
0.0
 11
13.80000209999999
 21
0.6999999900000001
 31
0.0
  0
LINE
  5
4290
330
C72
100
AcDbEntity
  8
BORDER
  6
LS
100
AcDbLine
 10
13.8200026
 20
0.59999996
 30
0.0
 11
13.8200026
 21
0.6999999900000001
 31
0.0
  0
LINE
  5
4291
330
C72
100
AcDbEntity
  8
BORDER
  6
LS
100
AcDbLine
 10
13.840003
 20
0.59999996
 30
0.0
 11
13.840003
 21
0.6999999900000001
 31
0.0
  0
LINE
  5
4292
330
C72
100
AcDbEntity
  8
BORDER
  6
LS
100
AcDbLine
 10
13.8600025
 20
0.63999999
 30
0.0
 11
13.8600025
 21
0.6999999900000001
 31
0.0
  0
LINE
  5
4293
330
C72
100
AcDbEntity
  8
BORDER
  6
LS
100
AcDbLine
 10
13.90000249999999
 20
0.63999999
 30
0.0
 11
13.90000249999999
 21
0.6999999900000001
 31
0.0
  0
LINE
  5
4294
330
C72
100
AcDbEntity
  8
BORDER
  6
LS
100
AcDbLine
 10
13.9200029
 20
0.59999996
 30
0.0
 11
13.9200029
 21
0.6999999900000001
 31
0.0
  0
LINE
  5
4295
330
C72
100
AcDbEntity
  8
BORDER
  6
LS
100
AcDbLine
 10
13.4800005
 20
0.55999994
 30
0.0
 11
13.4800005
 21
0.6999999900000001
 31
0.0
  0
LINE
  5
4296
330
C72
100
AcDbEntity
  8
BORDER
  6
LS
100
AcDbLine
 10
13.58000089999999
 20
0.55999994
 30
0.0
 11
13.58000089999999
 21
0.6999999900000001
 31
0.0
  0
LINE
  5
4297
330
C72
100
AcDbEntity
  8
BORDER
  6
LS
100
AcDbLine
 10
13.4000006
 20
0.63999999
 30
0.0
 11
13.4000006
 21
0.6999999900000001
 31
0.0
  0
LINE
  5
4298
330
C72
100
AcDbEntity
  8
BORDER
  6
LS
100
AcDbLine
 10
13.42000099999999
 20
0.59999996
 30
0.0
 11
13.42000099999999
 21
0.6999999900000001
 31
0.0
  0
LINE
  5
4299
330
C72
100
AcDbEntity
  8
BORDER
  6
LS
100
AcDbLine
 10
13.4400015
 20
0.59999996
 30
0.0
 11
13.4400015
 21
0.6999999900000001
 31
0.0
  0
LINE
  5
429A
330
C72
100
AcDbEntity
  8
BORDER
  6
LS
100
AcDbLine
 10
13.460001
 20
0.63999999
 30
0.0
 11
13.460001
 21
0.6999999900000001
 31
0.0
  0
LINE
  5
429B
330
C72
100
AcDbEntity
  8
BORDER
  6
LS
100
AcDbLine
 10
13.50000089999999
 20
0.63999999
 30
0.0
 11
13.50000089999999
 21
0.6999999900000001
 31
0.0
  0
LINE
  5
429C
330
C72
100
AcDbEntity
  8
BORDER
  6
LS
100
AcDbLine
 10
13.5200014
 20
0.59999996
 30
0.0
 11
13.5200014
 21
0.6999999900000001
 31
0.0
  0
LINE
  5
429D
330
C72
100
AcDbEntity
  8
BORDER
  6
LS
100
AcDbLine
 10
13.5400019
 20
0.59999996
 30
0.0
 11
13.5400019
 21
0.6999999900000001
 31
0.0
  0
LINE
  5
429E
330
C72
100
AcDbEntity
  8
BORDER
  6
LS
100
AcDbLine
 10
13.5600014
 20
0.63999999
 30
0.0
 11
13.5600014
 21
0.6999999900000001
 31
0.0
  0
LINE
  5
429F
330
C72
100
AcDbEntity
  8
BORDER
  6
LS
100
AcDbLine
 10
13.6000013
 20
0.63999999
 30
0.0
 11
13.6000013
 21
0.6999999900000001
 31
0.0
  0
LINE
  5
42A0
330
C72
100
AcDbEntity
  8
BORDER
  6
LS
100
AcDbLine
 10
13.62000179999999
 20
0.59999996
 30
0.0
 11
13.62000179999999
 21
0.6999999900000001
 31
0.0
  0
LINE
  5
42A1
330
C72
100
AcDbEntity
  8
BORDER
  6
LS
100
AcDbLine
 10
13.6400022
 20
0.59999996
 30
0.0
 11
13.6400022
 21
0.6999999900000001
 31
0.0
  0
LINE
  5
42A2
330
C72
100
AcDbEntity
  8
BORDER
  6
LS
100
AcDbLine
 10
13.6600017
 20
0.63999999
 30
0.0
 11
13.6600017
 21
0.6999999900000001
 31
0.0
  0
TEXT
  5
42A3
330
C72
100
AcDbEntity
  8
BORDER
100
AcDbText
 10
13.7515001
 20
0.41995007
 30
0.0
 40
0.07999998
  1
4
 50
0.0999999600000013
  7
AE
100
AcDbText
  0
TEXT
  5
42A4
330
C72
100
AcDbEntity
  8
BORDER
100
AcDbText
 10
13.3514986
 20
0.35995007
 30
0.0
 40
0.07999998
  1
0
 50
0.0999999600000013
  7
AE
100
AcDbText
  0
TEXT
  5
42A5
330
C72
100
AcDbEntity
  8
BORDER
100
AcDbText
 10
13.5514994
 20
0.41995007
 30
0.0
 40
0.07999998
  1
2
 50
0.0999999600000013
  7
AE
100
AcDbText
  0
TEXT
  5
42A6
330
C72
100
AcDbEntity
  8
BORDER
100
AcDbText
 10
12.8087463
 20
0.27487546
 30
0.0
 40
0.19999999
  1
2
 50
0.0999999600000013
  7
AE
100
AcDbText
  0
LINE
  5
42A7
330
C72
100
AcDbEntity
  8
BORDER
  6
LS
100
AcDbLine
 10
13.3800001
 20
0.49999994
 30
0.0
 11
13.3800001
 21
0.6999999900000001
 31
0.0
  0
LINE
  5
42A8
330
C72
100
AcDbEntity
  8
BORDER
100
AcDbLine
 10
10.900002
 20
0.55000043
 30
0.0
 11
11.00000199999999
 21
0.75
 31
0.0
  0
LINE
  5
42A9
330
C72
100
AcDbEntity
  8
BORDER
100
AcDbLine
 10
11.000003
 20
0.7499994000000001
 30
0.0
 11
11.100003
 21
0.55000019
 31
0.0
  0
LINE
  5
42AA
330
C72
100
AcDbEntity
  8
BORDER
100
AcDbLine
 10
10.90000099999999
 20
0.5499999500000001
 30
0.0
 11
11.1
 21
0.5499999500000001
 31
0.0
  0
LINE
  5
42AB
330
C72
100
AcDbEntity
  8
BORDER
100
AcDbLine
 10
11.0
 20
0.3499999
 30
0.0
 11
11.0
 21
0.5499999500000001
 31
0.0
  0
LINE
  5
42AC
330
C72
100
AcDbEntity
  8
BORDER
100
AcDbLine
 10
11.0
 20
0.3499999
 30
0.0
 11
11.0
 21
0.5499999500000001
 31
0.0
  0
LINE
  5
42AD
330
C72
100
AcDbEntity
  8
TITLE BLOCK
  6
Continuous
100
AcDbLine
 10
13.9
 20
1.0
 30
0.0
 11
13.9
 21
2.75
 31
0.0
  0
TEXT
  5
42AE
330
C72
100
AcDbEntity
  8
TITLE BLOCK
  6
Continuous
100
AcDbText
 10
12.83824213224503
 20
1.090349814097824
 30
0.0
 40
0.0771520776612738
  1
NO.
 50
0.09999996
  7
AE
100
AcDbText
  0
LINE
  5
42AF
330
C72
100
AcDbEntity
  8
TITLE BLOCK
  6
Continuous
100
AcDbLine
 10
12.75
 20
0.7499656890232619
 30
0.0
 11
12.75
 21
2.75
 31
0.0
  0
LINE
  5
42B0
330
C72
100
AcDbEntity
  8
TITLE BLOCK
  6
Continuous
100
AcDbLine
 10
13.1
 20
1.0
 30
0.0
 11
13.1
 21
2.75
 31
0.0
  0
TEXT
  5
42B1
330
C72
100
AcDbEntity
  8
TITLE BLOCK
  6
Continuous
100
AcDbText
 10
13.40137402234739
 20
1.090958090874199
 30
0.0
 40
0.075937067150492
  1
DATE
 50
0.09999996
  7
AE
100
AcDbText
  0
LINE
  5
42B2
330
C72
100
AcDbEntity
  8
BORDER
  6
LS
100
AcDbLine
 10
15.18000599999999
 20
0.55999994
 30
0.0
 11
15.18000599999999
 21
0.6999999900000001
 31
0.0
  0
LINE
  5
42B3
330
C72
100
AcDbEntity
  8
BORDER
  6
LS
100
AcDbLine
 10
14.9800053
 20
0.55999994
 30
0.0
 11
14.9800053
 21
0.6999999900000001
 31
0.0
  0
LINE
  5
42B4
330
C72
100
AcDbEntity
  8
BORDER
  6
LS
100
AcDbLine
 10
14.7800045
 20
0.55999994
 30
0.0
 11
14.7800045
 21
0.6999999900000001
 31
0.0
  0
LINE
  5
42B5
330
C72
100
AcDbEntity
  8
BORDER
  6
LS
100
AcDbLine
 10
14.58000469999999
 20
0.55999994
 30
0.0
 11
14.58000469999999
 21
0.6999999900000001
 31
0.0
  0
LINE
  5
42B6
330
C72
100
AcDbEntity
  8
BORDER
  6
LS
100
AcDbLine
 10
14.3600044
 20
0.63999999
 30
0.0
 11
14.3600044
 21
0.6999999900000001
 31
0.0
  0
LINE
  5
42B7
330
C72
100
AcDbEntity
  8
BORDER
  6
LS
100
AcDbLine
 10
14.08000279999999
 20
0.55999994
 30
0.0
 11
14.08000279999999
 21
0.6999999900000001
 31
0.0
  0
LINE
  5
42B8
330
C72
100
AcDbEntity
  8
BORDER
  6
LS
100
AcDbLine
 10
14.1800032
 20
0.55999994
 30
0.0
 11
14.1800032
 21
0.6999999900000001
 31
0.0
  0
LINE
  5
42B9
330
C72
100
AcDbEntity
  8
BORDER
  6
LS
100
AcDbLine
 10
14.2800035
 20
0.55999994
 30
0.0
 11
14.2800035
 21
0.6999999900000001
 31
0.0
  0
LINE
  5
42BA
330
C72
100
AcDbEntity
  8
BORDER
  6
LS
100
AcDbLine
 10
14.30000399999999
 20
0.63999999
 30
0.0
 11
14.30000399999999
 21
0.6999999900000001
 31
0.0
  0
LINE
  5
42BB
330
C72
100
AcDbEntity
  8
BORDER
  6
LS
100
AcDbLine
 10
14.3200045
 20
0.59999996
 30
0.0
 11
14.3200045
 21
0.6999999900000001
 31
0.0
  0
LINE
  5
42BC
330
C72
100
AcDbEntity
  8
BORDER
  6
LS
100
AcDbLine
 10
14.3400049
 20
0.59999996
 30
0.0
 11
14.3400049
 21
0.6999999900000001
 31
0.0
  0
LINE
  5
42BD
330
C72
100
AcDbEntity
  8
BORDER
  6
LS
100
AcDbLine
 10
14.02000329999999
 20
0.59999996
 30
0.0
 11
14.02000329999999
 21
0.6999999900000001
 31
0.0
  0
LINE
  5
42BE
330
C72
100
AcDbEntity
  8
BORDER
  6
LS
100
AcDbLine
 10
14.0400038
 20
0.59999996
 30
0.0
 11
14.0400038
 21
0.6999999900000001
 31
0.0
  0
LINE
  5
42BF
330
C72
100
AcDbEntity
  8
BORDER
  6
LS
100
AcDbLine
 10
14.0600033
 20
0.63999999
 30
0.0
 11
14.0600033
 21
0.6999999900000001
 31
0.0
  0
LINE
  5
42C0
330
C72
100
AcDbEntity
  8
BORDER
  6
LS
100
AcDbLine
 10
14.10000319999999
 20
0.63999999
 30
0.0
 11
14.10000319999999
 21
0.6999999900000001
 31
0.0
  0
LINE
  5
42C1
330
C72
100
AcDbEntity
  8
BORDER
  6
LS
100
AcDbLine
 10
14.1200037
 20
0.59999996
 30
0.0
 11
14.1200037
 21
0.6999999900000001
 31
0.0
  0
LINE
  5
42C2
330
C72
100
AcDbEntity
  8
BORDER
  6
LS
100
AcDbLine
 10
14.14000419999999
 20
0.59999996
 30
0.0
 11
14.14000419999999
 21
0.6999999900000001
 31
0.0
  0
LINE
  5
42C3
330
C72
100
AcDbEntity
  8
BORDER
  6
LS
100
AcDbLine
 10
14.1600037
 20
0.63999999
 30
0.0
 11
14.1600037
 21
0.6999999900000001
 31
0.0
  0
LINE
  5
42C4
330
C72
100
AcDbEntity
  8
BORDER
  6
LS
100
AcDbLine
 10
14.20000359999999
 20
0.63999999
 30
0.0
 11
14.20000359999999
 21
0.6999999900000001
 31
0.0
  0
LINE
  5
42C5
330
C72
100
AcDbEntity
  8
BORDER
  6
LS
100
AcDbLine
 10
14.2200041
 20
0.59999996
 30
0.0
 11
14.2200041
 21
0.6999999900000001
 31
0.0
  0
LINE
  5
42C6
330
C72
100
AcDbEntity
  8
BORDER
  6
LS
100
AcDbLine
 10
14.2400045
 20
0.59999996
 30
0.0
 11
14.2400045
 21
0.6999999900000001
 31
0.0
  0
LINE
  5
42C7
330
C72
100
AcDbEntity
  8
BORDER
  6
LS
100
AcDbLine
 10
14.26000399999999
 20
0.63999999
 30
0.0
 11
14.26000399999999
 21
0.6999999900000001
 31
0.0
  0
LINE
  5
42C8
330
C72
100
AcDbEntity
  8
BORDER
  6
LS
100
AcDbLine
 10
13.9800024
 20
0.55999994
 30
0.0
 11
13.9800024
 21
0.6999999900000001
 31
0.0
  0
LINE
  5
42C9
330
C72
100
AcDbEntity
  8
BORDER
  6
LS
100
AcDbLine
 10
13.9400034
 20
0.59999996
 30
0.0
 11
13.9400034
 21
0.6999999900000001
 31
0.0
  0
LINE
  5
42CA
330
C72
100
AcDbEntity
  8
BORDER
  6
LS
100
AcDbLine
 10
13.9600029
 20
0.63999999
 30
0.0
 11
13.9600029
 21
0.6999999900000001
 31
0.0
  0
LINE
  5
42CB
330
C72
100
AcDbEntity
  8
BORDER
  6
LS
100
AcDbLine
 10
14.0000029
 20
0.63999999
 30
0.0
 11
14.0000029
 21
0.6999999900000001
 31
0.0
  0
TEXT
  5
42CC
330
C72
100
AcDbEntity
  8
BORDER
100
AcDbText
 10
16.3514986
 20
0.35995007
 30
0.0
 40
0.07999998
  1
3
 50
0.0999999600000013
  7
AE
100
AcDbText
  0
TEXT
  5
42CD
330
C72
100
AcDbEntity
  8
BORDER
100
AcDbText
 10
15.35149859999999
 20
0.35995007
 30
0.0
 40
0.07999998
  1
2
 50
0.0999999600000013
  7
AE
100
AcDbText
  0
TEXT
  5
42CE
330
C72
100
AcDbEntity
  8
BORDER
100
AcDbText
 10
15.1515045
 20
0.41995007
 30
0.0
 40
0.07999998
  1
8
 50
0.0999999600000013
  7
AE
100
AcDbText
  0
TEXT
  5
42CF
330
C72
100
AcDbEntity
  8
BORDER
100
AcDbText
 10
14.751503
 20
0.41995007
 30
0.0
 40
0.07999998
  1
4
 50
0.0999999600000013
  7
AE
100
AcDbText
  0
TEXT
  5
42D0
330
C72
100
AcDbEntity
  8
BORDER
100
AcDbText
 10
14.3514986
 20
0.35995007
 30
0.0
 40
0.07999998
  1
1
 50
0.0999999600000013
  7
AE
100
AcDbText
  0
TEXT
  5
42D1
330
C72
100
AcDbEntity
  8
BORDER
100
AcDbText
 10
14.5515032
 20
0.41995007
 30
0.0
 40
0.07999998
  1
2
 50
0.0999999600000013
  7
AE
100
AcDbText
  0
TEXT
  5
42D2
330
C72
100
AcDbEntity
  8
BORDER
100
AcDbText
 10
14.9515037
 20
0.41995007
 30
0.0
 40
0.07999998
  1
6
 50
0.0999999600000013
  7
AE
100
AcDbText
  0
TEXT
  5
42D3
330
C72
100
AcDbEntity
  8
BORDER
100
AcDbText
 10
14.1515017
 20
0.41995007
 30
0.0
 40
0.07999998
  1
8
 50
0.0999999600000013
  7
AE
100
AcDbText
  0
TEXT
  5
42D4
330
C72
100
AcDbEntity
  8
BORDER
100
AcDbText
 10
13.9515009
 20
0.41995007
 30
0.0
 40
0.07999998
  1
6
 50
0.0999999600000013
  7
AE
100
AcDbText
  0
LINE
  5
42D5
330
C72
100
AcDbEntity
  8
BORDER
  6
LS
100
AcDbLine
 10
16.3800001
 20
0.49999994
 30
0.0
 11
16.3800001
 21
0.6999999900000001
 31
0.0
  0
LINE
  5
42D6
330
C72
100
AcDbEntity
  8
BORDER
  6
LS
100
AcDbLine
 10
14.3800001
 20
0.49999994
 30
0.0
 11
14.3800001
 21
0.6999999900000001
 31
0.0
  0
LINE
  5
42D7
330
C72
100
AcDbEntity
  8
BORDER
  6
LS
100
AcDbLine
 10
15.3800001
 20
0.49999994
 30
0.0
 11
15.3800001
 21
0.6999999900000001
 31
0.0
  0
TEXT
  5
42D8
330
C72
100
AcDbEntity
  8
TITLE BLOCK
  6
Continuous
100
AcDbText
 10
17.1
 20
1.949999999999999
 30
0.0
 40
0.075937067150492
  1
DR
 50
0.09999996
  7
AE
100
AcDbText
  0
TEXT
  5
42D9
330
C72
100
AcDbEntity
  8
TITLE BLOCK
  6
Continuous
100
AcDbText
 10
17.1
 20
1.824999999999999
 30
0.0
 40
0.075937067150492
  1
BY
 50
0.09999996
  7
AE
100
AcDbText
  0
TEXT
  5
42DA
330
C72
100
AcDbEntity
  8
TITLE BLOCK
  6
Continuous
100
AcDbText
 10
17.10620037256117
 20
1.574999999999999
 30
0.0
 40
0.075937067150492
  1
BY
 50
0.09999996
  7
AE
100
AcDbText
  0
TEXT
  5
42DB
330
C72
100
AcDbEntity
  8
TITLE BLOCK
  6
Continuous
100
AcDbText
 10
17.1
 20
1.699999999999999
 30
0.0
 40
0.075937067150492
  1
CHK
 50
0.09999996
  7
AE
100
AcDbText
  0
TEXT
  5
42DC
330
C72
100
AcDbEntity
  8
TITLE BLOCK
  6
Continuous
100
AcDbText
 10
17.11
 20
1.45
 30
0.0
 40
0.075937067150492
  1
APPD
 50
0.09999996
  7
AE
100
AcDbText
  0
TEXT
  5
42DD
330
C72
100
AcDbEntity
  8
TITLE BLOCK
  6
Continuous
100
AcDbText
 10
17.1
 20
1.325
 30
0.0
 40
0.075937067150492
  1
BY
 50
0.09999996
  7
AE
100
AcDbText
  0
TEXT
  5
42DE
330
C72
100
AcDbEntity
  8
TITLE BLOCK
  6
Continuous
100
AcDbText
 10
15.65
 20
1.149999999999999
 30
0.0
 40
0.075937067150492
  1
DRAWING NAME
 50
0.09999996
  7
AE
100
AcDbText
  0
TEXT
  5
42DF
330
C72
100
AcDbEntity
  8
TITLE BLOCK
  6
Continuous
100
AcDbText
 10
15.615
 20
2.6
 30
0.0
 40
0.0645465051491158
  1
NOTICE: This drawing or material
 50
0.09999996
 41
0.7005041199999999
  7
AE
100
AcDbText
  0
LINE
  5
42E0
330
C72
100
AcDbEntity
  8
TITLE BLOCK
  6
Continuous
100
AcDbLine
 10
17.07518995515351
 20
1.35
 30
0.0
 11
17.07518995515351
 21
2.75
 31
0.0
  0
LINE
  5
42E1
330
C72
100
AcDbEntity
  8
TITLE BLOCK
  6
Continuous
100
AcDbLine
 10
15.59965639031853
 20
0.7499656890232619
 30
0.0
 11
15.59965639031853
 21
2.75
 31
0.0
  0
TEXT
  5
42E2
330
C72
100
AcDbEntity
  8
TITLE BLOCK
  6
Continuous
100
AcDbText
 10
15.62129755351284
 20
1.956248812462206
 30
0.0
 40
0.0645465051491158
  1
reproduced, will be used only for
 50
0.09999996
 41
0.6799434399999999
  7
AE
100
AcDbText
  0
TEXT
  5
42E3
330
C72
100
AcDbEntity
  8
TITLE BLOCK
  6
Continuous
100
AcDbText
 10
15.63514394391218
 20
1.445039114516279
 30
0.0
 40
0.0645465051491158
  1
consent of Giddings & Lewis.
 50
0.09999996
 41
0.79688752
  7
AE
100
AcDbText
  0
TEXT
  5
42E4
330
C72
100
AcDbEntity
  8
TITLE BLOCK
  6
Continuous
100
AcDbText
 10
15.61887681003094
 20
1.585049725173559
 30
0.0
 40
0.0645465051491158
  1
as authorized by specific written
 50
0.09999996
 41
0.6799434399999999
  7
AE
100
AcDbText
  0
TEXT
  5
42E5
330
C72
100
AcDbEntity
  8
TITLE BLOCK
  6
Continuous
100
AcDbText
 10
15.6189200152052
 20
1.70690037169105
 30
0.0
 40
0.0645465051491158
  1
used or disclosed to anyone except
 50
0.09999996
 41
0.6605569100000001
  7
AE
100
AcDbText
  0
TEXT
  5
42E6
330
C72
100
AcDbEntity
  8
TITLE BLOCK
  6
Continuous
100
AcDbText
 10
15.61564857341434
 20
1.835205659079424
 30
0.0
 40
0.0645465051491158
  1
your information, and will not be
 50
0.09999996
 41
0.6799434399999999
  7
AE
100
AcDbText
  0
TEXT
  5
42E7
330
C72
100
AcDbEntity
  8
TITLE BLOCK
  6
Continuous
100
AcDbText
 10
15.62032080796545
 20
2.087377673718703
 30
0.0
 40
0.0645465051491158
  1
will not be copied or otherwise
 50
0.09999996
 41
0.72234601
  7
AE
100
AcDbText
  0
TEXT
  5
42E8
330
C72
100
AcDbEntity
  8
TITLE BLOCK
  6
Continuous
100
AcDbText
 10
15.61448145506772
 20
2.218510103259664
 30
0.0
 40
0.0645465051491158
  1
in confidence on condition that it
 50
0.09999996
 41
0.6605569100000001
  7
AE
100
AcDbText
  0
TEXT
  5
42E9
330
C72
100
AcDbEntity
  8
TITLE BLOCK
  6
Continuous
100
AcDbText
 10
15.61275421249727
 20
2.477540457117108
 30
0.0
 40
0.0645465051491158
  1
contains proprietary information
 50
0.09999996
 41
0.7005041199999999
  7
AE
100
AcDbText
  0
TEXT
  5
42EA
330
C72
100
AcDbEntity
  8
TITLE BLOCK
  6
Continuous
100
AcDbText
 10
15.6184730152435
 20
2.346006933112137
 30
0.0
 40
0.0645465051491158
  1
of Giddings & Lewis, is submitted
 50
0.09999996
 41
0.6799434399999999
  7
AE
100
AcDbText
  0
ATTDEF
  5
42EB
330
C72
100
AcDbEntity
  8
TITLE BLOCK
  6
Continuous
100
AcDbText
 10
15.7
 20
0.95
 30
0.0
 40
0.126326427375
  1

 41
0.8
100
AcDbAttributeDefinition
  3
Drawing Name
  2
GEN-TITLE-DES1{15.54}
 70
     0
1001
GENIUS_GENBLLY_14
1000
BOR5
  0
TEXT
  5
42EC
330
C72
100
AcDbEntity
  8
BORDER
100
AcDbText
 10
0.1785739999999976
 20
14.775
 30
0.0
 40
0.19999999
  1
D
  7
AE
100
AcDbText
  0
LINE
  5
42ED
330
C72
100
AcDbEntity
  8
BORDER
100
AcDbLine
 10
0.1000060000000005
 20
12.75
 30
0.0
 11
0.5
 21
12.75
 31
0.0
  0
TEXT
  5
42EE
330
C72
100
AcDbEntity
  8
BORDER
100
AcDbText
 10
0.1785739999999976
 20
10.52499999999999
 30
0.0
 40
0.19999999
  1
C
  7
AE
100
AcDbText
  0
TEXT
  5
42EF
330
C72
100
AcDbEntity
  8
BORDER
100
AcDbText
 10
2.678573999999997
 20
16.52499399999999
 30
0.0
 40
0.19999999
  1
4
  7
AE
100
AcDbText
  0
LINE
  5
42F0
330
C72
100
AcDbEntity
  8
BORDER
100
AcDbLine
 10
5.5
 20
16.25
 30
0.0
 11
5.5
 21
16.649994
 31
0.0
  0
TEXT
  5
42F1
330
C72
100
AcDbEntity
  8
BORDER
100
AcDbText
 10
8.178572
 20
16.52499399999999
 30
0.0
 40
0.19999999
  1
3
  7
AE
100
AcDbText
  0
TEXT
  5
42F2
330
C72
100
AcDbEntity
  8
BORDER
100
AcDbText
 10
13.6785717
 20
16.52499399999999
 30
0.0
 40
0.19999999
  1
2
  7
AE
100
AcDbText
  0
LINE
  5
42F3
330
C72
100
AcDbEntity
  8
BORDER
100
AcDbLine
 10
10.900011
 20
16.449982
 30
0.0
 11
11.000015
 21
16.249985
 31
0.0
  0
LINE
  5
42F4
330
C72
100
AcDbEntity
  8
BORDER
100
AcDbLine
 10
10.90000099999999
 20
16.449997
 30
0.0
 11
11.1
 21
16.449997
 31
0.0
  0
LINE
  5
42F5
330
C72
100
AcDbEntity
  8
BORDER
100
AcDbLine
 10
11.000011
 20
16.25
 30
0.0
 11
11.10001
 21
16.449997
 31
0.0
  0
LINE
  5
42F6
330
C72
100
AcDbEntity
  8
BORDER
100
AcDbLine
 10
10.90000099999999
 20
16.449997
 30
0.0
 11
11.1
 21
16.449997
 31
0.0
  0
LINE
  5
42F7
330
C72
100
AcDbEntity
  8
BORDER
100
AcDbLine
 10
11.0
 20
16.449997
 30
0.0
 11
11.0
 21
16.649994
 31
0.0
  0
LINE
  5
42F8
330
C72
100
AcDbEntity
  8
BORDER
100
AcDbLine
 10
16.5
 20
16.25
 30
0.0
 11
16.5
 21
16.649994
 31
0.0
  0
LINE
  5
42F9
330
C72
100
AcDbEntity
  8
BORDER
  6
Continuous
100
AcDbLine
 10
22.0
 20
0.2456391960479891
 30
0.0
 11
22.0
 21
17.0
 31
0.0
  0
LINE
  5
42FA
330
C72
100
AcDbEntity
  8
BORDER
100
AcDbLine
 10
21.49999999999999
 20
0.75
 30
0.0
 11
21.49999999999999
 21
16.25
 31
0.0
  0
ATTDEF
  5
42FB
330
C72
100
AcDbEntity
  8
TITLE BLOCK
  6
Continuous
100
AcDbText
 10
20.89999999999999
 20
1.375
 30
0.0
 40
0.11808994431015
  1

 41
0.8
100
AcDbAttributeDefinition
  3
Sheet of
  2
GEN-TITLE-SHEET-OF{2.62}
 70
     0
1001
GENIUS_GENBLLY_14
1000
BOR3
  0
ATTDEF
  5
42FC
330
C72
100
AcDbEntity
  8
TITLE BLOCK
  6
Continuous
100
AcDbText
 10
20.5
 20
1.375
 30
0.0
 40
0.11808994431015
  1

 41
0.8
100
AcDbAttributeDefinition
  3
Sheet
  2
GEN-TITLE-SHEET{2.62}
 70
     0
1001
GENIUS_GENBLLY_14
1000
BOR3
  0
TEXT
  5
42FD
330
C72
100
AcDbEntity
  8
BORDER
100
AcDbText
 10
21.67857146
 20
2.0249996
 30
0.0
 40
0.19999999
  1
A
  7
AE
100
AcDbText
  0
TEXT
  5
42FE
330
C72
100
AcDbEntity
  8
BORDER
100
AcDbText
 10
19.17857169999999
 20
0.27499998
 30
0.0
 40
0.19999999
  1
1
  7
AE
100
AcDbText
  0
TEXT
  5
42FF
330
C72
100
AcDbEntity
  8
TITLE BLOCK
  6
Continuous
100
AcDbText
 10
20.07499999999999
 20
1.699999999999999
 30
0.0
 40
0.075937067150492
  1
DATE
 50
0.09999996
  7
AE
100
AcDbText
  0
TEXT
  5
4300
330
C72
100
AcDbEntity
  8
TITLE BLOCK
  6
Continuous
100
AcDbText
 10
20.07499999999999
 20
1.45
 30
0.0
 40
0.075937067150492
  1
SHEET   OF
 50
0.09999996
  7
AE
100
AcDbText
  0
ATTDEF
  5
4301
330
C72
100
AcDbEntity
  8
TITLE BLOCK
  6
Continuous
100
AcDbText
 10
18.94999999999999
 20
1.375
 30
0.0
 40
0.1010611419
  1

 41
0.8
100
AcDbAttributeDefinition
  3
Material
  2
GEN-TITLE-MAT{11.15}
 70
     0
1001
GENIUS_GENBLLY_14
1000
BOR3
  0
ATTDEF
  5
4302
330
C72
100
AcDbEntity
  8
TITLE BLOCK
  6
Continuous
100
AcDbText
 10
18.94999999999999
 20
1.625
 30
0.0
 40
0.1010611419
  1

100
AcDbAttributeDefinition
  3
Machine
  2
GEN-TITLE-MACH{5}
 70
     0
1001
GENIUS_GENBLLY_14
1000
BOR2
  0
ATTDEF
  5
4303
330
C72
100
AcDbEntity
  8
TITLE BLOCK
  6
Continuous
100
AcDbText
 10
18.94999999999999
 20
1.875
 30
0.0
 40
0.1010611419
  1

100
AcDbAttributeDefinition
  3
Ref. No.
  2
GEN-TITLE-REF{5}
 70
     0
1001
GENIUS_GENBLLY_14
1000
BOR2
  0
TEXT
  5
4304
330
C72
100
AcDbEntity
  8
TITLE BLOCK
  6
Continuous
100
AcDbText
 10
18.6
 20
1.45
 30
0.0
 40
0.075937067150492
  1
MATL
 50
0.09999996
  7
AE
100
AcDbText
  0
TEXT
  5
4305
330
C72
100
AcDbEntity
  8
TITLE BLOCK
  6
Continuous
100
AcDbText
 10
18.6
 20
1.699999999999999
 30
0.0
 40
0.075937067150492
  1
MACH
 50
0.09999996
  7
AE
100
AcDbText
  0
TEXT
  5
4306
330
C72
100
AcDbEntity
  8
TITLE BLOCK
  6
Continuous
100
AcDbText
 10
18.6
 20
1.949999999999999
 30
0.0
 40
0.075937067150492
  1
REF
 50
0.09999996
  7
AE
100
AcDbText
  0
TEXT
  5
4307
330
C72
100
AcDbEntity
  8
TITLE BLOCK
  6
Continuous
100
AcDbText
 10
18.6
 20
1.149999999999999
 30
0.0
 40
0.075937067150492
  1
DRAWING NUMBER
 50
0.09999996
  7
AE
100
AcDbText
  0
LINE
  5
4308
330
C72
100
AcDbEntity
  8
TITLE BLOCK
  6
Continuous
100
AcDbLine
 10
18.54999999999999
 20
0.7499656890232619
 30
0.0
 11
18.54999999999999
 21
2.75
 31
0.0
  0
LINE
  5
4309
330
C72
100
AcDbEntity
  8
TITLE BLOCK
  6
Continuous
100
AcDbLine
 10
20.02625718126358
 20
1.299999999999999
 30
0.0
 11
20.02625718126354
 21
1.799999999999999
 31
0.0
  0
ATTDEF
  5
430A
330
C72
100
AcDbEntity
  8
TITLE BLOCK
  6
Continuous
100
AcDbText
 10
20.42499999999999
 20
1.625
 30
0.0
 40
0.1010611419
  1

100
AcDbAttributeDefinition
  3
Date
  2
GEN-TITLE-PLOT{5}
 70
     0
1001
GENIUS_GENBLLY_14
1000
BOR2
  0
ATTDEF
  5
430B
330
C72
100
AcDbEntity
  8
TITLE BLOCK
  6
Continuous
100
AcDbText
 10
18.89999999999999
 20
0.85
 30
0.0
 40
0.196816573850279
  1

 41
0.8
100
AcDbAttributeDefinition
  3
Drawing Number
  2
GEN-TITLE-NR{13.37}
 70
     0
1001
GENIUS_GENBLLY_14
1000
BOR5
  0
LINE
  5
430C
330
C72
100
AcDbEntity
  8
BORDER
100
AcDbLine
 10
21.70000315
 20
8.5
 30
0.0
 11
21.90000009999999
 21
8.5
 31
0.0
  0
LINE
  5
430D
330
C72
100
AcDbEntity
  8
BORDER
100
AcDbLine
 10
21.50001131999999
 20
8.499981899999999
 30
0.0
 11
21.70000713999999
 21
8.399983399999999
 31
0.0
  0
TEXT
  5
430E
330
C72
100
AcDbEntity
  8
BORDER
100
AcDbText
 10
21.67857146
 20
6.2749996
 30
0.0
 40
0.19999999
  1
B
  7
AE
100
AcDbText
  0
LINE
  5
430F
330
C72
100
AcDbEntity
  8
BORDER
100
AcDbLine
 10
21.49999951999999
 20
8.499982800000001
 30
0.0
 11
21.69999569999999
 21
8.599980399999999
 31
0.0
  0
LINE
  5
4310
330
C72
100
AcDbEntity
  8
BORDER
100
AcDbLine
 10
21.70000315
 20
8.3999939
 30
0.0
 11
21.70000315
 21
8.5999908
 31
0.0
  0
TEXT
  5
4311
330
C72
100
AcDbEntity
  8
BORDER
100
AcDbText
 10
21.67857146
 20
14.775
 30
0.0
 40
0.19999999
  1
D
  7
AE
100
AcDbText
  0
LINE
  5
4312
330
C72
100
AcDbEntity
  8
BORDER
100
AcDbLine
 10
21.49999999999999
 20
12.75
 30
0.0
 11
21.90000003999999
 21
12.75
 31
0.0
  0
TEXT
  5
4313
330
C72
100
AcDbEntity
  8
BORDER
100
AcDbText
 10
21.67857146
 20
10.52499999999999
 30
0.0
 40
0.19999999
  1
C
  7
AE
100
AcDbText
  0
TEXT
  5
4314
330
C72
100
AcDbEntity
  8
BORDER
100
AcDbText
 10
19.17857169999999
 20
16.52499399999999
 30
0.0
 40
0.19999999
  1
1
  7
AE
100
AcDbText
  0
LINE
  5
4315
330
C72
100
AcDbEntity
  8
BORDER
  6
Continuous
 62
    15
100
AcDbLine
 10
0.0
 20
0.2456391960479891
 30
0.0
 11
22.0
 21
0.2456391960479891
 31
0.0
  0
MTEXT
  5
4316
330
C72
100
AcDbEntity
  8
BORDER
  6
Continuous
100
AcDbMText
 10
20.00308979335871
 20
2.6
 30
0.0
 40
0.125
 41
2.663
 71
     2
 72
     5
  1
{\fArial|b0|i0|c0|p34;\C1;SHEFFIELD AUTOMATION, LLC}
 73
     1
 44
1.0
  0
MTEXT
  5
4317
330
C72
100
AcDbEntity
  8
BORDER
  6
Continuous
100
AcDbMText
 10
20.00412857763948
 20
2.278264837305509
 30
0.0
 40
0.07874
 41
2.862
 71
     5
 72
     1
  1
{\Fromans.shx;\C9;660 South Military Road\PFond du Lac, Wisconsin 54936 U.S.A.}
 73
     1
 44
1.0
  0
ENDBLK
  5
D37
330
C72
100
AcDbEntity
  8
0
100
AcDbBlockEnd
  0
ENDSEC
  0
SECTION
  2
ENTITIES
  0
TEXT
  5
1DC
330
1E
100
AcDbEntity
  8
803
 62
     1
100
AcDbText
 10
10.672435
 20
7.900193999999999
 30
0.0
 40
0.11
  1
SHIELD
 41
0.843137254901962
  7
T1
 72
     5
 11
11.145435
 21
7.900193999999999
 31
0.0
100
AcDbText
  0
TEXT
  5
1DD
330
1E
100
AcDbEntity
  8
803
 62
     1
100
AcDbText
 10
16.288674
 20
9.460546
 30
0.0
 40
0.131906
  1
15 POSITION HIGH DENSITY 45%%127
 41
1.012145748987852
  7
T1
 72
     5
 11
19.58632399999999
 21
9.460546
 31
0.0
100
AcDbText
  0
TEXT
  5
1DE
330
1E
100
AcDbEntity
  8
803
 62
     1
100
AcDbText
 10
15.883747
 20
9.248114999999998
 30
0.0
 40
0.131906
  1
'D'-SUB PLUG WITH MALE PIN CONTACTS
 41
1.003205176802282
  7
T1
 72
     5
 11
20.01240499999999
 21
9.248114999999998
 31
0.0
100
AcDbText
  0
TEXT
  5
1DF
330
1E
100
AcDbEntity
  8
803
 62
     1
100
AcDbText
 10
17.367749
 20
9.029968999999999
 30
0.0
 40
0.131906
  1
(FACE VIEW)
 41
1.043010589652553
  7
T1
 72
     5
 11
18.647237
 21
9.029968999999999
 31
0.0
100
AcDbText
  0
TEXT
  5
2D1
330
1E
100
AcDbEntity
  8
803
 62
     1
100
AcDbText
 10
7.451667999999999
 20
9.792082999999999
 30
0.0
 40
0.1125
  1
8-12VDC
 41
0.8666666666666651
  7
T1
 72
     5
 11
8.036667999999998
 21
9.792082999999999
 31
0.0
100
AcDbText
  0
TEXT
  5
2D9
330
1E
100
AcDbEntity
  8
803
 62
     1
100
AcDbText
 10
7.711864999999999
 20
8.205777999999998
 30
0.0
 40
0.1125
  1
N/C
 41
1.041666666666666
  7
T1
 72
     5
 11
7.993114999999999
 21
8.205777999999998
 31
0.0
100
AcDbText
  0
TEXT
  5
2DB
330
1E
100
AcDbEntity
  8
803
 62
     1
100
AcDbText
 10
14.298922
 20
11.52329661775539
 30
0.0
 40
0.1125
  1
HALL3
 11
14.298922
 21
11.48579661775539
 31
0.0
100
AcDbText
 73
     1
  0
TEXT
  5
2DC
330
1E
100
AcDbEntity
  8
803
 62
     1
100
AcDbText
 10
7.451667999999999
 20
11.546032
 30
0.0
 40
0.1125
  1
HALL3
  7
T1
 11
7.451667999999999
 21
11.512282
 31
0.0
100
AcDbText
 73
     1
  0
TEXT
  5
485
330
1E
100
AcDbEntity
  8
803
 62
     1
100
AcDbText
 10
14.298923
 20
11.85583999999999
 30
0.0
 40
0.1125
  1
HALL2
  7
T1
 11
14.298923
 21
11.82209
 31
0.0
100
AcDbText
 73
     1
  0
TEXT
  5
486
330
1E
100
AcDbEntity
  8
803
 62
     1
100
AcDbText
 10
7.451668999999998
 20
11.85583999999999
 30
0.0
 40
0.1125
  1
HALL2
  7
T1
 11
7.451668999999998
 21
11.82209
 31
0.0
100
AcDbText
 73
     1
  0
TEXT
  5
488
330
1E
100
AcDbEntity
  8
803
 62
     1
100
AcDbText
 10
14.298923
 20
12.133613
 30
0.0
 40
0.1125
  1
HALL1
  7
T1
 11
14.298923
 21
12.099863
 31
0.0
100
AcDbText
 73
     1
  0
TEXT
  5
489
330
1E
100
AcDbEntity
  8
803
 62
     1
100
AcDbText
 10
7.451668999999998
 20
12.133613
 30
0.0
 40
0.1125
  1
HALL1
  7
T1
 11
7.451668999999998
 21
12.099863
 31
0.0
100
AcDbText
 73
     1
  0
TEXT
  5
48A
330
1E
100
AcDbEntity
  8
803
 62
     1
100
AcDbText
 10
14.650173
 20
12.389302
 30
0.0
 40
0.1125
  1
I-
 41
1.066666666666664
  7
T1
 72
     5
 11
14.830173
 21
12.389302
 31
0.0
100
AcDbText
  0
TEXT
  5
48B
330
1E
100
AcDbEntity
  8
803
 62
     1
100
AcDbText
 10
7.451668999999998
 20
12.389302
 30
0.0
 40
0.1125
  1
I-
 41
1.066666666666675
  7
T1
 72
     5
 11
7.631669
 21
12.389302
 31
0.0
100
AcDbText
  0
TEXT
  5
48C
330
1E
100
AcDbEntity
  8
803
 62
     1
100
AcDbText
 10
14.650173
 20
12.678744
 30
0.0
 40
0.1125
  1
I+
 41
1.066666666666664
  7
T1
 72
     5
 11
14.830173
 21
12.678744
 31
0.0
100
AcDbText
  0
TEXT
  5
48D
330
1E
100
AcDbEntity
  8
803
 62
     1
100
AcDbText
 10
7.451668999999998
 20
12.678744
 30
0.0
 40
0.1125
  1
I+
 41
1.066666666666675
  7
T1
 72
     5
 11
7.631669
 21
12.678744
 31
0.0
100
AcDbText
  0
TEXT
  5
48E
330
1E
100
AcDbEntity
  8
803
 62
     1
100
AcDbText
 10
14.650173
 20
12.95503599999999
 30
0.0
 40
0.1125
  1
B-
 41
1.066666666666664
  7
T1
 72
     5
 11
14.830173
 21
12.95503599999999
 31
0.0
100
AcDbText
  0
TEXT
  5
48F
330
1E
100
AcDbEntity
  8
803
 62
     1
100
AcDbText
 10
7.451668999999998
 20
12.95503599999999
 30
0.0
 40
0.1125
  1
B-
 41
1.066666666666675
  7
T1
 72
     5
 11
7.631669
 21
12.95503599999999
 31
0.0
100
AcDbText
  0
TEXT
  5
5B4
330
1E
100
AcDbEntity
  8
803
 62
     1
100
AcDbText
 10
14.650172
 20
13.810215
 30
0.0
 40
0.1125
  1
A+
 41
1.066666666666664
  7
T1
 72
     5
 11
14.83017199999999
 21
13.810215
 31
0.0
100
AcDbText
  0
TEXT
  5
5B5
330
1E
100
AcDbEntity
  8
803
 62
     1
100
AcDbText
 10
7.451667999999999
 20
13.810215
 30
0.0
 40
0.1125
  1
A+
 41
1.066666666666664
  7
T1
 72
     5
 11
7.631667999999999
 21
13.810215
 31
0.0
100
AcDbText
  0
TEXT
  5
5B6
330
1E
100
AcDbEntity
  8
803
 62
     1
100
AcDbText
 10
14.650173
 20
13.244479
 30
0.0
 40
0.1125
  1
B+
 41
1.066666666666664
  7
T1
 72
     5
 11
14.830173
 21
13.244479
 31
0.0
100
AcDbText
  0
TEXT
  5
5B7
330
1E
100
AcDbEntity
  8
803
 62
     1
100
AcDbText
 10
7.451668999999998
 20
13.244479
 30
0.0
 40
0.1125
  1
B+
 41
1.066666666666675
  7
T1
 72
     5
 11
7.631669
 21
13.244479
 31
0.0
100
AcDbText
  0
TEXT
  5
5B8
330
1E
100
AcDbEntity
  8
803
 62
     1
100
AcDbText
 10
14.650172
 20
13.52077399999999
 30
0.0
 40
0.1125
  1
A-
 41
1.066666666666664
  7
T1
 72
     5
 11
14.83017199999999
 21
13.52077399999999
 31
0.0
100
AcDbText
  0
TEXT
  5
5B9
330
1E
100
AcDbEntity
  8
803
 62
     1
100
AcDbText
 10
7.451667999999999
 20
13.52077399999999
 30
0.0
 40
0.1125
  1
A-
 41
1.066666666666664
  7
T1
 72
     5
 11
7.631667999999999
 21
13.52077399999999
 31
0.0
100
AcDbText
  0
TEXT
  5
816
330
1E
100
AcDbEntity
  8
803
 62
     1
100
AcDbText
 10
9.815402
 20
11.22996399999999
 30
0.0
 40
0.1125
  1
 28 AWG WHITE/RED
 11
9.815402
 21
11.19246399999999
 31
0.0
100
AcDbText
 73
     1
  0
TEXT
  5
817
330
1E
100
AcDbEntity
  8
803
 62
     1
100
AcDbText
 10
10.119152
 20
10.34689199999999
 30
0.0
 40
0.1125
  1
28 AWG ORANGE
 11
10.119152
 21
10.30939199999999
 31
0.0
100
AcDbText
 73
     1
  0
TEXT
  5
818
330
1E
100
AcDbEntity
  8
803
 62
     1
100
AcDbText
 10
10.16977699999999
 20
9.763828
 30
0.0
 40
0.1125
  1
28 AWG BLUE
 11
10.16977699999999
 21
9.726328
 31
0.0
100
AcDbText
 73
     1
  0
TEXT
  5
819
330
1E
100
AcDbEntity
  8
803
 62
     1
100
AcDbText
 10
9.815402
 20
10.062846
 30
0.0
 40
0.1125
  1
28 AWG WHITE/ORANGE
 11
9.815402
 21
10.025346
 31
0.0
100
AcDbText
 73
     1
  0
TEXT
  5
81A
330
1E
100
AcDbEntity
  8
803
 62
     1
100
AcDbText
 10
9.866027
 20
9.479782
 30
0.0
 40
0.1125
  1
28 AWG WHITE/BLUE
 11
9.866027
 21
9.442282
 31
0.0
100
AcDbText
 73
     1
  0
TEXT
  5
81B
330
1E
100
AcDbEntity
  8
803
 62
     1
100
AcDbText
 10
9.916652
 20
10.640899
 30
0.0
 40
0.1125
  1
28 AWG WHITE/GREEN
 11
9.916652
 21
10.603399
 31
0.0
100
AcDbText
 73
     1
  0
TEXT
  5
81C
330
1E
100
AcDbEntity
  8
803
 62
     1
100
AcDbText
 10
10.22040199999999
 20
10.93251699999999
 30
0.0
 40
0.1125
  1
28 AWG GREEN
 11
10.22040199999999
 21
10.895017
 31
0.0
100
AcDbText
 73
     1
  0
TEXT
  5
A2D
330
1E
100
AcDbEntity
  8
803
 62
     1
100
AcDbText
 10
10.119152
 20
11.50408099999999
 30
0.0
 40
0.1125
  1
 28 AWG RED
 11
10.119152
 21
11.466581
 31
0.0
100
AcDbText
 73
     1
  0
TEXT
  5
A2E
330
1E
100
AcDbEntity
  8
803
 62
     1
100
AcDbText
 10
9.916652
 20
11.813194
 30
0.0
 40
0.1125
  1
28 AWG WHITE/BLACK
 11
9.916652
 21
11.775694
 31
0.0
100
AcDbText
 73
     1
  0
TEXT
  5
A2F
330
1E
100
AcDbEntity
  8
803
 62
     1
100
AcDbText
 10
10.22040199999999
 20
12.09897899999999
 30
0.0
 40
0.1125
  1
28 AWG BLACK
 11
10.22040199999999
 21
12.06147899999999
 31
0.0
100
AcDbText
 73
     1
  0
TEXT
  5
A30
330
1E
100
AcDbEntity
  8
803
 62
     1
100
AcDbText
 10
9.866027
 20
12.378929
 30
0.0
 40
0.1125
  1
28 AWG WHITE/VIOLET
 11
9.866027
 21
12.341429
 31
0.0
100
AcDbText
 73
     1
  0
TEXT
  5
A31
330
1E
100
AcDbEntity
  8
803
 62
     1
100
AcDbText
 10
10.16977699999999
 20
12.670547
 30
0.0
 40
0.1125
  1
28 AWG VIOLET
 11
10.16977699999999
 21
12.63304699999999
 31
0.0
100
AcDbText
 73
     1
  0
TEXT
  5
A32
330
1E
100
AcDbEntity
  8
803
 62
     1
100
AcDbText
 10
10.271027
 20
13.236282
 30
0.0
 40
0.1125
  1
28 AWG BROWN
 11
10.271027
 21
13.198782
 31
0.0
100
AcDbText
 73
     1
  0
TEXT
  5
A33
330
1E
100
AcDbEntity
  8
803
 62
     1
100
AcDbText
 10
9.967277000000001
 20
12.944664
 30
0.0
 40
0.1125
  1
28 AWG WHITE/BROWN
 11
9.967277000000001
 21
12.90716399999999
 31
0.0
100
AcDbText
 73
     1
  0
TEXT
  5
A50
330
1E
100
AcDbEntity
  8
803
 62
     1
100
AcDbText
 10
15.046651
 20
11.412282
 30
0.0
 40
0.1125
  1
8
 41
1.166666666666658
  7
T1
 72
     5
 11
15.125401
 21
11.412282
 31
0.0
100
AcDbText
  0
TEXT
  5
A52
330
1E
100
AcDbEntity
  8
803
 62
     1
100
AcDbText
 10
14.99602799999999
 20
12.007177
 30
0.0
 40
0.1125
  1
12
 41
1.066666666666675
  7
T1
 72
     5
 11
15.176028
 21
12.007177
 31
0.0
100
AcDbText
  0
TEXT
  5
A56
330
1E
100
AcDbEntity
  8
803
 62
     1
100
AcDbText
 10
15.046653
 20
12.578745
 30
0.0
 40
0.1125
  1
5
 41
1.166666666666684
  7
T1
 72
     5
 11
15.125403
 21
12.578745
 31
0.0
100
AcDbText
  0
TEXT
  5
A57
330
1E
100
AcDbEntity
  8
803
 62
     1
100
AcDbText
 10
7.148125
 20
12.578745
 30
0.0
 40
0.1125
  1
5
 41
1.166666666666658
  7
T1
 72
     5
 11
7.226874999999999
 21
12.578745
 31
0.0
100
AcDbText
  0
TEXT
  5
A58
330
1E
100
AcDbEntity
  8
803
 62
     1
100
AcDbText
 10
14.99602799999999
 20
12.28930599999999
 30
0.0
 40
0.1125
  1
10
 41
1.066666666666675
  7
T1
 72
     5
 11
15.176028
 21
12.28930599999999
 31
0.0
100
AcDbText
  0
TEXT
  5
A5A
330
1E
100
AcDbEntity
  8
803
 62
     1
100
AcDbText
 10
15.046653
 20
12.855036
 30
0.0
 40
0.1125
  1
4
 41
1.166666666666684
  7
T1
 72
     5
 11
15.125403
 21
12.855036
 31
0.0
100
AcDbText
  0
TEXT
  5
A5B
330
1E
100
AcDbEntity
  8
803
 62
     1
100
AcDbText
 10
7.148125
 20
12.855036
 30
0.0
 40
0.1125
  1
4
 41
1.166666666666658
  7
T1
 72
     5
 11
7.226874999999999
 21
12.855036
 31
0.0
100
AcDbText
  0
TEXT
  5
A5E
330
1E
100
AcDbEntity
  8
803
 62
     1
100
AcDbText
 10
14.99602799999999
 20
8.149571000000001
 30
0.0
 40
0.1125
  1
14
 41
1.066666666666675
  7
T1
 72
     5
 11
15.176028
 21
8.149571000000001
 31
0.0
100
AcDbText
  0
TEXT
  5
A6A
330
1E
100
AcDbEntity
  8
803
 62
     1
100
AcDbText
 10
15.046653
 20
9.680033999999999
 30
0.0
 40
0.1125
  1
7
 41
1.166666666666684
  7
T1
 72
     5
 11
15.125403
 21
9.680033999999999
 31
0.0
100
AcDbText
  0
TEXT
  5
A6B
330
1E
100
AcDbEntity
  8
803
 62
     1
100
AcDbText
 10
7.148125
 20
9.680033999999999
 30
0.0
 40
0.1125
  1
7
 41
1.166666666666658
  7
T1
 72
     5
 11
7.226874999999999
 21
9.680033999999999
 31
0.0
100
AcDbText
  0
TEXT
  5
A6C
330
1E
100
AcDbEntity
  8
803
 62
     1
100
AcDbText
 10
19.496756
 20
10.06751
 30
0.0
 40
0.126562
  1
PIN 10
 50
90.0
 41
1.019608772697935
  7
T1
 72
     5
 11
19.496756
 21
10.725633
 31
0.0
100
AcDbText
  0
TEXT
  5
A71
330
1E
100
AcDbEntity
  8
803
 62
     1
100
AcDbText
 10
16.502192
 20
10.16851799999999
 30
0.0
 40
0.126562
  1
PIN 6
 50
90.0
 41
1.023810276311029
  7
T1
 72
     5
 11
16.502192
 21
10.71273499999999
 31
0.0
100
AcDbText
  0
TEXT
  5
AA6
330
1E
100
AcDbEntity
  8
803
 62
     1
100
AcDbText
 10
17.494439
 20
10.06751
 30
0.0
 40
0.126562
  1
PIN 11
 50
90.0
 41
1.083334320991556
  7
T1
 72
     5
 11
17.494439
 21
10.725633
 31
0.0
100
AcDbText
  0
TEXT
  5
AA7
330
1E
100
AcDbEntity
  8
803
 62
     1
100
AcDbText
 10
19.003604
 20
10.061569
 30
0.0
 40
0.126562
  1
PIN 15
 50
90.0
 41
1.019607223430135
  7
T1
 72
     5
 11
19.003604
 21
10.719691
 31
0.0
100
AcDbText
  0
CIRCLE
  5
AA8
330
1E
100
AcDbEntity
  8
803
  6
L0
 62
     1
100
AcDbCircle
 10
17.679418
 20
11.71136
 30
0.0
 40
0.03966
  0
CIRCLE
  5
AA9
330
1E
100
AcDbEntity
  8
803
  6
L0
 62
     1
100
AcDbCircle
 10
17.82356
 20
11.880667
 30
0.0
 40
0.03966
  0
CIRCLE
  5
AAA
330
1E
100
AcDbEntity
  8
803
  6
L0
 62
     1
100
AcDbCircle
 10
17.865887
 20
11.71136
 30
0.0
 40
0.03966
  0
CIRCLE
  5
AAB
330
1E
100
AcDbEntity
  8
803
  6
L0
 62
     1
100
AcDbCircle
 10
17.82356
 20
11.54205299999999
 30
0.0
 40
0.03966
  0
CIRCLE
  5
AAC
330
1E
100
AcDbEntity
  8
803
  6
L0
 62
     1
100
AcDbCircle
 10
18.010029
 20
11.880667
 30
0.0
 40
0.03966
  0
CIRCLE
  5
AAD
330
1E
100
AcDbEntity
  8
803
  6
L0
 62
     1
100
AcDbCircle
 10
18.010029
 20
11.54205299999999
 30
0.0
 40
0.03966
  0
CIRCLE
  5
AAE
330
1E
100
AcDbEntity
  8
803
  6
L0
 62
     1
100
AcDbCircle
 10
17.49294899999999
 20
11.71136
 30
0.0
 40
0.03966
  0
CIRCLE
  5
AAF
330
1E
100
AcDbEntity
  8
803
  6
L0
 62
     1
100
AcDbCircle
 10
17.637092
 20
11.880667
 30
0.0
 40
0.03966
  0
CIRCLE
  5
AB0
330
1E
100
AcDbEntity
  8
803
  6
L0
 62
     1
100
AcDbCircle
 10
17.637092
 20
11.54205299999999
 30
0.0
 40
0.03966
  0
CIRCLE
  5
ABD
330
1E
100
AcDbEntity
  8
803
  6
L0
 62
     1
100
AcDbCircle
 10
17.123391
 20
11.712574
 30
0.0
 40
0.101698
  0
CIRCLE
  5
ABE
330
1E
100
AcDbEntity
  8
803
  6
L0
 62
     1
100
AcDbCircle
 10
17.123391
 20
11.712574
 30
0.0
 40
0.079761
  0
CIRCLE
  5
ABF
330
1E
100
AcDbEntity
  8
803
  6
L0
 62
     1
100
AcDbCircle
 10
18.382967
 20
11.880667
 30
0.0
 40
0.03966
  0
CIRCLE
  5
AC0
330
1E
100
AcDbEntity
  8
803
  6
L0
 62
     1
100
AcDbCircle
 10
18.382967
 20
11.54205299999999
 30
0.0
 40
0.03966
  0
CIRCLE
  5
AC1
330
1E
100
AcDbEntity
  8
803
  6
L0
 62
     1
100
AcDbCircle
 10
18.05235599999999
 20
11.71136
 30
0.0
 40
0.03966
  0
CIRCLE
  5
AC2
330
1E
100
AcDbEntity
  8
803
  6
L0
 62
     1
100
AcDbCircle
 10
18.196498
 20
11.880667
 30
0.0
 40
0.03966
  0
CIRCLE
  5
AC3
330
1E
100
AcDbEntity
  8
803
  6
L0
 62
     1
100
AcDbCircle
 10
18.23882499999999
 20
11.71136
 30
0.0
 40
0.03966
  0
CIRCLE
  5
AC4
330
1E
100
AcDbEntity
  8
803
  6
L0
 62
     1
100
AcDbCircle
 10
18.196498
 20
11.54205299999999
 30
0.0
 40
0.03966
  0
CIRCLE
  5
AD9
330
1E
100
AcDbEntity
  8
803
  6
L0
 62
     1
100
AcDbCircle
 10
18.751607
 20
11.712574
 30
0.0
 40
0.101698
  0
CIRCLE
  5
ADA
330
1E
100
AcDbEntity
  8
803
  6
L0
 62
     1
100
AcDbCircle
 10
18.751607
 20
11.712574
 30
0.0
 40
0.079761
  0
TEXT
  5
AF7
330
1E
100
AcDbEntity
  8
803
 62
     1
100
AcDbText
 10
18.997662
 20
12.812529
 30
0.0
 40
0.126562
  1
PIN 5
 50
90.0
 41
1.023808395057273
  7
T1
 72
     5
 11
18.997662
 21
13.356745
 31
0.0
100
AcDbText
  0
TEXT
  5
AF8
330
1E
100
AcDbEntity
  8
803
 62
     1
100
AcDbText
 10
17.001286
 20
12.812529
 30
0.0
 40
0.126562
  1
PIN 1
 50
90.0
 41
1.102562886984755
  7
T1
 72
     5
 11
17.001286
 21
13.356745
 31
0.0
100
AcDbText
  0
TEXT
  5
B95
330
1E
100
AcDbEntity
  8
803
 62
     1
100
AcDbText
 10
9.866027
 20
13.5104
 30
0.0
 40
0.1125
  1
28 AWG WHITE/YELLOW
 11
9.866027
 21
13.4729
 31
0.0
100
AcDbText
 73
     1
  0
TEXT
  5
B96
330
1E
100
AcDbEntity
  8
803
 62
     1
100
AcDbText
 10
10.16977699999999
 20
13.802016
 30
0.0
 40
0.1125
  1
28 AWG YELLOW
 11
10.16977699999999
 21
13.764516
 31
0.0
100
AcDbText
 73
     1
  0
TEXT
  5
B97
330
1E
100
AcDbEntity
  8
803
 62
     1
100
AcDbText
 10
10.13113699999999
 20
15.074395
 30
0.0
 40
0.158288
  1
%%uWIRING DIAGRAM
 41
0.9959838342554496
  7
TU1
 72
     5
 11
12.093908
 21
15.074395
 31
0.0
100
AcDbText
  0
TEXT
  5
BB4
330
1E
100
AcDbEntity
  8
803
 62
     1
100
AcDbText
 10
15.046653
 20
13.710215
 30
0.0
 40
0.1125
  1
1
 41
2.333333333333369
  7
T1
 72
     5
 11
15.125403
 21
13.710215
 31
0.0
100
AcDbText
  0
TEXT
  5
BB5
330
1E
100
AcDbEntity
  8
803
 62
     1
100
AcDbText
 10
7.148125
 20
13.710215
 30
0.0
 40
0.1125
  1
1
 41
2.333333333333316
  7
T1
 72
     5
 11
7.226874999999999
 21
13.710215
 31
0.0
100
AcDbText
  0
TEXT
  5
BB6
330
1E
100
AcDbEntity
  8
803
 62
     1
100
AcDbText
 10
15.046653
 20
13.144479
 30
0.0
 40
0.1125
  1
3
 41
1.166666666666684
  7
T1
 72
     5
 11
15.125403
 21
13.144479
 31
0.0
100
AcDbText
  0
TEXT
  5
BB7
330
1E
100
AcDbEntity
  8
803
 62
     1
100
AcDbText
 10
7.148125
 20
13.144479
 30
0.0
 40
0.1125
  1
3
 41
1.166666666666658
  7
T1
 72
     5
 11
7.226874999999999
 21
13.144479
 31
0.0
100
AcDbText
  0
TEXT
  5
BB8
330
1E
100
AcDbEntity
  8
803
 62
     1
100
AcDbText
 10
15.046653
 20
13.420775
 30
0.0
 40
0.1125
  1
2
 41
1.166666666666684
  7
T1
 72
     5
 11
15.125403
 21
13.420775
 31
0.0
100
AcDbText
  0
TEXT
  5
BB9
330
1E
100
AcDbEntity
  8
803
 62
     1
100
AcDbText
 10
7.148125
 20
13.420775
 30
0.0
 40
0.1125
  1
2
 41
1.166666666666658
  7
T1
 72
     5
 11
7.226874999999999
 21
13.420775
 31
0.0
100
AcDbText
  0
INSERT
  5
BBB
330
1E
100
AcDbEntity
  8
0
100
AcDbBlockReference
  2
MEDCLUMP_NTE_1025_
 10
0.0
 20
0.0
 30
0.0
  0
TEXT
  5
BC2
330
1E
100
AcDbEntity
  8
803
 62
     1
100
AcDbText
 10
1.019631999999999
 20
6.476661
 30
0.0
 40
0.13
  1
CABLE, SINE KA-51054
 41
1.209039548022598
  7
T1
 72
     5
 11
3.801632
 21
6.476661
 31
0.0
100
AcDbText
  0
TEXT
  5
BC6
330
1E
100
AcDbEntity
  8
803
 62
     1
100
AcDbText
 10
1.460320999999999
 20
2.257875999999999
 30
0.0
 40
0.11
  1
JACKET COLOR: MATTE BLACK
  7
T1
 11
1.460320999999999
 21
2.224875999999999
 31
0.0
100
AcDbText
 73
     1
  0
TEXT
  5
BC8
330
1E
100
AcDbEntity
  8
803
 62
     1
100
AcDbText
 10
1.187889999999999
 20
2.663691
 30
0.0
 40
0.11
  1
%%uJACKET
  7
TU1
 11
1.187889999999999
 21
2.630691
 31
0.0
100
AcDbText
 73
     1
  0
TEXT
  5
BC9
330
1E
100
AcDbEntity
  8
803
 62
     1
100
AcDbText
 10
1.460320999999999
 20
2.431029999999999
 30
0.0
 40
0.11
  1
FINAL O.D.: 0.317%%
  7
T1
 11
1.460320999999999
 21
2.398029999999999
 31
0.0
100
AcDbText
 73
     1
  0
TEXT
  5
BCA
330
1E
100
AcDbEntity
  8
803
 62
     1
100
AcDbText
 10
1.500909
 20
3.700941999999999
 30
0.0
 40
0.11
  1
DRAIN: 26 AWG  TINNED COPPER
  7
T1
 11
1.500909
 21
3.667942
 31
0.0
100
AcDbText
 73
     1
  0
TEXT
  5
BCB
330
1E
100
AcDbEntity
  8
803
 62
     1
100
AcDbText
 10
1.187889999999999
 20
3.414304
 30
0.0
 40
0.11
  1
%%uSHIELD
  7
TU1
 11
1.187889999999999
 21
3.381304
 31
0.0
100
AcDbText
 73
     1
  0
TEXT
  5
BCC
330
1E
100
AcDbEntity
  8
803
 62
     1
100
AcDbText
 10
1.481276999999999
 20
3.180356
 30
0.0
 40
0.11
  1
ALUMINUM POLYESTER 100% COVERAGE W/25% OVERLAP
  7
T1
 11
1.481276999999999
 21
3.147356
 31
0.0
100
AcDbText
 73
     1
  0
TEXT
  5
BCD
330
1E
100
AcDbEntity
  8
803
 62
     1
100
AcDbText
 10
1.460320999999999
 20
2.071168999999999
 30
0.0
 40
0.11
  1
JACKET MATERIAL: PVC
  7
T1
 11
1.460320999999999
 21
2.038168999999999
 31
0.0
100
AcDbText
 73
     1
  0
TEXT
  5
BCE
330
1E
100
AcDbEntity
  8
803
 62
     1
100
AcDbText
 10
1.207521999999999
 20
6.205001
 30
0.0
 40
0.11
  1
%%uPRIMARIES
  7
TU1
 11
1.207521999999999
 21
6.172000999999999
 31
0.0
100
AcDbText
 73
     1
  0
TEXT
  5
BCF
330
1E
100
AcDbEntity
  8
803
 62
     1
100
AcDbText
 10
1.207521999999999
 20
3.948412999999999
 30
0.0
 40
0.11
  1
%%uCABLE
  7
TU1
 11
1.207521999999999
 21
3.915412999999999
 31
0.0
100
AcDbText
 73
     1
  0
TEXT
  5
BD0
330
1E
100
AcDbEntity
  8
803
 62
     1
100
AcDbText
 10
1.500909
 20
4.235021
 30
0.0
 40
0.11
  1
NUMBER REQUIRED: 8 PAIRS OF #28 AWG PRIMARIES
  7
T1
 11
1.500909
 21
4.202021
 31
0.0
100
AcDbText
 73
     1
  0
TEXT
  5
BD1
330
1E
100
AcDbEntity
  8
803
 62
     1
100
AcDbText
 10
1.500909
 20
5.79449
 30
0.0
 40
0.11
  1
CONDUCTOR AWG: #28 TINNED COPPER
  7
T1
 11
1.500909
 21
5.76149
 31
0.0
100
AcDbText
 73
     1
  0
TEXT
  5
BD2
330
1E
100
AcDbEntity
  8
803
 62
     1
100
AcDbText
 10
1.500909
 20
5.631828
 30
0.0
 40
0.11
  1
INSULATION TYPE: POLYVINYL CHLORIDE
  7
T1
 11
1.500909
 21
5.598828
 31
0.0
100
AcDbText
 73
     1
  0
TEXT
  5
BD3
330
1E
100
AcDbEntity
  8
803
 62
     1
100
AcDbText
 10
1.500909
 20
5.953429
 30
0.0
 40
0.11
  1
NUMBER REQUIRED: 16
  7
T1
 11
1.500909
 21
5.920429
 31
0.0
100
AcDbText
 73
     1
  0
TEXT
  5
BD4
330
1E
100
AcDbEntity
  8
803
 62
     1
100
AcDbText
 10
1.207521999999999
 20
4.627908999999999
 30
0.0
 40
0.11
  1
%%uTWISTED PAIRS
  7
TU1
 11
1.207521999999999
 21
4.594908999999999
 31
0.0
100
AcDbText
 73
     1
  0
TEXT
  5
BD5
330
1E
100
AcDbEntity
  8
803
 62
     1
100
AcDbText
 10
1.481276999999999
 20
3.005870999999999
 30
0.0
 40
0.11
  1
BRAID SHIELD COVERAGE: 85% MINIMUM
  7
T1
 11
1.481276999999999
 21
2.972870999999999
 31
0.0
100
AcDbText
 73
     1
  0
TEXT
  5
BD6
330
1E
100
AcDbEntity
  8
803
 62
     1
100
AcDbText
 10
1.500909
 20
5.140548
 30
0.0
 40
0.11
  1
CONDUCTOR AWG: #20 TINNED COPPER
  7
T1
 11
1.500909
 21
5.107548
 31
0.0
100
AcDbText
 73
     1
  0
TEXT
  5
BD7
330
1E
100
AcDbEntity
  8
803
 62
     1
100
AcDbText
 10
1.500909
 20
4.977886
 30
0.0
 40
0.11
  1
INSULATION TYPE: POLYVINYL CHLORIDE
  7
T1
 11
1.500909
 21
4.944886
 31
0.0
100
AcDbText
 73
     1
  0
TEXT
  5
BD8
330
1E
100
AcDbEntity
  8
803
 62
     1
100
AcDbText
 10
1.500909
 20
5.299486
 30
0.0
 40
0.11
  1
NUMBER REQUIRED: 2
  7
T1
 11
1.500909
 21
5.266486
 31
0.0
100
AcDbText
 73
     1
  0
TEXT
  5
BD9
330
1E
100
AcDbEntity
  8
803
 62
     1
100
AcDbText
 10
1.500909
 20
4.393959999999999
 30
0.0
 40
0.11
  1
NUMBER REQUIRED: 1 PAIR OF #20 AWG PRIMARIES
  7
T1
 11
1.500909
 21
4.360959999999999
 31
0.0
100
AcDbText
 73
     1
  0
TEXT
  5
DBC
330
1E
100
AcDbEntity
  8
803
 62
     1
100
AcDbText
 10
9.866027
 20
8.896718000000001
 30
0.0
 40
0.1125
  1
20 AWG WHITE/GRAY
 11
9.866027
 21
8.859218000000002
 31
0.0
100
AcDbText
 73
     1
  0
TEXT
  5
DDB
330
1E
100
AcDbEntity
  8
803
 62
     1
100
AcDbText
 10
10.16977699999999
 20
9.180764000000001
 30
0.0
 40
0.1125
  1
20 AWG GRAY
 11
10.16977699999999
 21
9.143264000000002
 31
0.0
100
AcDbText
 73
     1
  0
TEXT
  5
E3D
330
1E
100
AcDbEntity
  8
803
 62
     1
100
AcDbText
 10
14.307672
 20
10.98651216070319
 30
0.0
 40
0.1125
  1
TEMP+
  7
T1
 11
14.307672
 21
10.95276216070319
 31
0.0
100
AcDbText
 73
     1
  0
TEXT
  5
E3F
330
1E
100
AcDbEntity
  8
803
 62
     1
100
AcDbText
 10
14.99602799999999
 20
10.83727416070319
 30
0.0
 40
0.1125
  1
11
 41
1.333333333333344
  7
T1
 72
     5
 11
15.176028
 21
10.83727416070319
 31
0.0
100
AcDbText
  0
TEXT
  5
E75
330
1E
100
AcDbEntity
  8
4
 62
     1
100
AcDbText
 10
17.943696
 20
12.534544
 30
0.0
 40
0.15748
  1
 
 41
0.7777848333474299
  7
TDM
 72
     5
 11
18.05393299999999
 21
12.534544
 31
0.0
100
AcDbText
  0
INSERT
  5
E76
330
1E
100
AcDbEntity
  8
4
100
AcDbBlockReference
  2
MEDFUNV_6
 10
18.382967
 20
11.880667
 30
0.0
 41
0.03937
 42
0.03937
 50
54.415836
  0
LWPOLYLINE
  5
E77
330
1E
100
AcDbEntity
  8
4
  6
LDM
 62
     1
100
AcDbPolyline
 90
        3
 70
     0
 43
0.0
 10
18.382967
 20
11.880667
 10
18.934381
 20
12.65132499999999
 10
18.934381
 20
12.776325
  0
TEXT
  5
E78
330
1E
100
AcDbEntity
  8
4
 62
     1
100
AcDbText
 10
15.94732
 20
12.528602
 30
0.0
 40
0.15748
  1
 
 41
0.7777848333474299
  7
TDM
 72
     5
 11
16.057557
 21
12.528602
 31
0.0
100
AcDbText
  0
INSERT
  5
E79
330
1E
100
AcDbEntity
  8
4
100
AcDbBlockReference
  2
MEDFUNV_6
 10
17.637092
 20
11.880667
 30
0.0
 41
0.03937
 42
0.03937
 50
132.432848
  0
LWPOLYLINE
  5
E7A
330
1E
100
AcDbEntity
  8
4
  6
LDM
 62
     1
100
AcDbPolyline
 90
        3
 70
     0
 43
0.0
 10
17.637092
 20
11.880667
 10
16.938005
 20
12.645383
 10
16.938005
 20
12.770383
  0
INSERT
  5
E7B
330
1E
100
AcDbEntity
  8
4
100
AcDbBlockReference
  2
MEDFUNV_6
 10
17.49294899999999
 20
11.71136
 30
0.0
 41
0.03937
 42
0.03937
 50
217.667848
  0
LWPOLYLINE
  5
E7C
330
1E
100
AcDbEntity
  8
4
  6
LDM
 62
     1
100
AcDbPolyline
 90
        3
 70
     0
 43
0.0
 10
17.49294899999999
 20
11.71136
 10
16.43297
 20
10.89306499999999
 10
16.43297
 20
10.76806499999999
  0
TEXT
  5
E7D
330
1E
100
AcDbEntity
  8
4
 62
     1
100
AcDbText
 10
16.44641299999999
 20
10.50158499999999
 30
0.0
 40
0.15748
  1
 
 41
0.7777848333474548
  7
TDM
 72
     5
 11
16.55665
 21
10.50158499999999
 31
0.0
100
AcDbText
  0
INSERT
  5
E7E
330
1E
100
AcDbEntity
  8
4
100
AcDbBlockReference
  2
MEDFUNV_6
 10
17.637092
 20
11.54205299999999
 30
0.0
 41
0.03937
 42
0.03937
 50
252.2425
  0
LWPOLYLINE
  5
E7F
330
1E
100
AcDbEntity
  8
4
  6
LDM
 62
     1
100
AcDbPolyline
 90
        3
 70
     0
 43
0.0
 10
17.637092
 20
11.54205299999999
 10
17.43115799999999
 20
10.899007
 10
17.43115799999999
 20
10.774007
  0
TEXT
  5
E80
330
1E
100
AcDbEntity
  8
4
 62
     1
100
AcDbText
 10
18.454673
 20
10.50158499999999
 30
0.0
 40
0.15748
  1
 
 41
0.7777777777777809
  7
TDM
 72
     5
 11
18.564909
 21
10.50158499999999
 31
0.0
100
AcDbText
  0
INSERT
  5
E81
330
1E
100
AcDbEntity
  8
4
100
AcDbBlockReference
  2
MEDFUNV_6
 10
18.23882499999999
 20
11.71136
 30
0.0
 41
0.03937
 42
0.03937
 50
325.916658
  0
LWPOLYLINE
  5
E82
330
1E
100
AcDbEntity
  8
4
  6
LDM
 62
     1
100
AcDbPolyline
 90
        3
 70
     0
 43
0.0
 10
18.23882499999999
 20
11.71136
 10
19.439418
 20
10.899007
 10
19.439418
 20
10.774007
  0
TEXT
  5
E83
330
1E
100
AcDbEntity
  8
4
 62
     1
100
AcDbText
 10
17.955579
 20
10.50158499999999
 30
0.0
 40
0.15748
  1
 
 41
0.7777777777777809
  7
TDM
 72
     5
 11
18.065815
 21
10.50158499999999
 31
0.0
100
AcDbText
  0
INSERT
  5
E84
330
1E
100
AcDbEntity
  8
4
100
AcDbBlockReference
  2
MEDFUNV_6
 10
18.382967
 20
11.54205299999999
 30
0.0
 41
0.03937
 42
0.03937
 50
310.916877
  0
LWPOLYLINE
  5
E85
330
1E
100
AcDbEntity
  8
4
  6
LDM
 62
     1
100
AcDbPolyline
 90
        3
 70
     0
 43
0.0
 10
18.382967
 20
11.54205299999999
 10
18.940323
 20
10.899007
 10
18.940323
 20
10.774007
  0
LINE
  5
E86
330
1E
100
AcDbEntity
  8
803
  6
L0
 62
     1
100
AcDbLine
 10
7.343236
 20
8.856154999999997
 30
0.0
 11
14.930291
 21
8.856154999999999
 31
0.0
  0
LINE
  5
E87
330
1E
100
AcDbEntity
  8
803
  6
L0
 62
     1
100
AcDbLine
 10
8.562499999999998
 20
9.153218999999998
 30
0.0
 11
13.18749999999999
 21
9.153218999999994
 31
0.0
  0
LINE
  5
E88
330
1E
100
AcDbEntity
  8
803
  6
L3
 62
     4
100
AcDbLine
 10
9.183841000000001
 20
14.090548
 30
0.0
 11
12.581091
 21
14.090549
 31
0.0
  0
LINE
  5
E89
330
1E
100
AcDbEntity
  8
803
  6
L0
 62
     1
100
AcDbLine
 10
7.343236
 20
11.777645
 30
0.0
 11
14.930291
 21
11.777644
 31
0.0
  0
LINE
  5
E8A
330
1E
100
AcDbEntity
  8
803
  6
L0
 62
     1
100
AcDbLine
 10
7.343236
 20
13.766465
 30
0.0
 11
14.930291
 21
13.766465
 31
0.0
  0
LINE
  5
E8B
330
1E
100
AcDbEntity
  8
803
  6
L0
 62
     1
100
AcDbLine
 10
7.343236
 20
13.47484899999999
 30
0.0
 11
14.930291
 21
13.47484899999999
 31
0.0
  0
LINE
  5
E8C
330
1E
100
AcDbEntity
  8
803
  6
L0
 62
     1
100
AcDbLine
 10
7.343236
 20
12.909113
 30
0.0
 11
14.930291
 21
12.909113
 31
0.0
  0
LINE
  5
E8D
330
1E
100
AcDbEntity
  8
803
  6
L0
 62
     1
100
AcDbLine
 10
7.343236
 20
13.200729
 30
0.0
 11
14.930291
 21
13.200729
 31
0.0
  0
LINE
  5
E8E
330
1E
100
AcDbEntity
  8
803
  6
L0
 62
     1
100
AcDbLine
 10
7.343236
 20
12.63499499999999
 30
0.0
 11
14.930291
 21
12.63499499999999
 31
0.0
  0
LINE
  5
E8F
330
1E
100
AcDbEntity
  8
803
  6
L0
 62
     1
100
AcDbLine
 10
7.343236
 20
12.34337899999999
 30
0.0
 11
14.930291
 21
12.34337899999999
 31
0.0
  0
LINE
  5
E90
330
1E
100
AcDbEntity
  8
803
  6
L0
 62
     1
100
AcDbLine
 10
7.343236
 20
12.063427
 30
0.0
 11
14.930291
 21
12.063427
 31
0.0
  0
LINE
  5
E91
330
1E
100
AcDbEntity
  8
803
  6
L0
 62
     1
100
AcDbLine
 10
7.343236
 20
11.468532
 30
0.0
 11
14.930291
 21
11.468531
 31
0.0
  0
LINE
  5
E92
330
1E
100
AcDbEntity
  8
803
  6
L0
 62
     1
100
AcDbLine
 10
8.5625
 20
11.1944128392968
 30
0.0
 11
13.1875
 21
11.19441222970586
 31
0.0
  0
LINE
  5
E93
330
1E
100
AcDbEntity
  8
803
  6
L0
 62
     1
100
AcDbLine
 10
7.343236
 20
10.896964
 30
0.0
 11
14.930291
 21
10.896964
 31
0.0
  0
LINE
  5
E94
330
1E
100
AcDbEntity
  8
803
  6
L0
 62
     1
100
AcDbLine
 10
8.5625
 20
10.6053488392968
 30
0.0
 11
13.1875
 21
10.60534822970585
 31
0.0
  0
LINE
  5
E95
330
1E
100
AcDbEntity
  8
803
  6
L0
 62
     1
100
AcDbLine
 10
8.562499999999998
 20
9.736283999999999
 30
0.0
 11
13.1875
 21
9.736283999999999
 31
0.0
  0
LINE
  5
E96
330
1E
100
AcDbEntity
  8
803
  6
L0
 62
     1
100
AcDbLine
 10
7.343236
 20
10.31934799999999
 30
0.0
 11
14.930291
 21
10.31934799999999
 31
0.0
  0
LINE
  5
E97
330
1E
100
AcDbEntity
  8
803
  6
L3
 62
     4
100
AcDbLine
 10
14.93028999999999
 20
7.828900999999999
 30
0.0
 11
7.331761
 21
7.828900999999999
 31
0.0
  0
LINE
  5
E98
330
1E
100
AcDbEntity
  8
803
  6
L3
 62
     4
100
AcDbLine
 10
9.183841000000001
 20
7.730699999999999
 30
0.0
 11
12.581091
 21
7.730699999999999
 31
0.0
  0
LINE
  5
E99
330
1E
100
AcDbEntity
  8
803
  6
L0
 62
     1
100
AcDbLine
 10
8.5625
 20
9.439219999999998
 30
0.0
 11
13.1875
 21
9.439219999999998
 31
0.0
  0
LINE
  5
E9A
330
1E
100
AcDbEntity
  8
803
  6
L0
 62
     1
100
AcDbLine
 10
7.343236
 20
10.02228499999999
 30
0.0
 11
14.930291
 21
10.02228399999999
 31
0.0
  0
ARC
  5
E9B
330
1E
100
AcDbEntity
  8
803
  6
L0
 62
     1
100
AcDbCircle
 10
-10.71262285109722
 20
9.930805861498837
 30
0.0
 40
20.08033807300309
100
AcDbArc
 50
356.0347338701669
 51
358.355133650203
  0
ARC
  5
E9C
330
1E
100
AcDbEntity
  8
803
  6
L0
 62
     1
100
AcDbCircle
 10
29.08029535109722
 20
9.930799039711368
 30
0.0
 40
20.08032961444346
100
AcDbArc
 50
181.6443737222943
 51
183.9647735023305
  0
LINE
  5
E9D
330
1E
100
AcDbEntity
  8
803
  6
L5
 62
     2
100
AcDbLine
 10
7.031763999999999
 20
13.978245
 30
0.0
 11
7.031763999999999
 21
7.828900999999999
 31
0.0
  0
LINE
  5
E9E
330
1E
100
AcDbEntity
  8
803
  6
L5
 62
     2
100
AcDbLine
 10
7.343236
 20
7.828900999999999
 30
0.0
 11
7.343236
 21
13.978245
 31
0.0
  0
LINE
  5
E9F
330
1E
100
AcDbEntity
  8
803
  6
L3
 62
     4
100
AcDbLine
 10
9.183841000000001
 20
7.415497
 30
0.0
 11
7.1875
 21
7.415497
 31
0.0
  0
LINE
  5
EA0
330
1E
100
AcDbEntity
  8
803
  6
L3
 62
     4
100
AcDbLine
 10
7.1875
 20
7.953900999999999
 30
0.0
 11
7.1875
 21
7.415497
 31
0.0
  0
LINE
  5
EA1
330
1E
100
AcDbEntity
  8
803
  6
L5
 62
     2
100
AcDbLine
 10
7.031763999999999
 20
7.828900999999999
 30
0.0
 11
7.343236
 21
7.828900999999999
 31
0.0
  0
LINE
  5
EA3
330
1E
100
AcDbEntity
  8
803
  6
L0
 62
     1
100
AcDbLine
 10
7.343236
 20
8.262027999999999
 30
0.0
 11
7.611864999999998
 21
8.262027999999999
 31
0.0
  0
ARC
  5
EC2
330
1E
100
AcDbEntity
  8
803
  6
L0
 62
     1
100
AcDbCircle
 10
1.2675650166986
 20
9.100433837397847
 30
0.0
 40
8.071407693585392
100
AcDbArc
 50
350.5001200393853
 51
356.0347329135115
  0
ARC
  5
EC3
330
1E
100
AcDbEntity
  8
803
  6
L0
 62
     1
100
AcDbCircle
 10
17.10010948330138
 20
9.100427427899486
 30
0.0
 40
8.07139919504255
100
AcDbArc
 50
183.9647560276617
 51
189.4993689017878
  0
LINE
  5
EC4
330
1E
100
AcDbEntity
  8
803
  6
L3
 62
     4
100
AcDbLine
 10
9.183841000000001
 20
7.730699999999999
 30
0.0
 11
9.183841000000001
 21
7.415497
 31
0.0
  0
ARC
  5
EC5
330
1E
100
AcDbEntity
  8
803
  6
L0
 62
     1
100
AcDbCircle
 10
9.183841064086001
 20
7.775766131404662
 30
0.0
 40
0.045066131404707
100
AcDbArc
 50
189.5000957904733
 51
269.9999185229075
  0
ARC
  5
EC6
330
1E
100
AcDbEntity
  8
803
  6
L0
 62
     1
100
AcDbCircle
 10
9.183841764918382
 20
7.775765349812839
 30
0.0
 40
0.0450653498193319
100
AcDbArc
 50
269.9990274879683
 51
350.4994563748291
  0
ARC
  5
EDD
330
1E
100
AcDbEntity
  8
803
  6
L0
 62
     1
100
AcDbCircle
 10
1.267570016698599
 20
12.72081153945836
 30
0.0
 40
8.071402837196576
100
AcDbArc
 50
3.964975053004942
 51
9.499587927131081
  0
ARC
  5
EDE
330
1E
100
AcDbEntity
  8
803
  6
L0
 62
     1
100
AcDbCircle
 10
17.10011398330139
 20
12.72081285103024
 30
0.0
 40
8.071405265364772
100
AcDbArc
 50
170.5002660560831
 51
176.0348789302092
  0
LINE
  5
EE4
330
1E
100
AcDbEntity
  8
0
  6
L0
 62
     1
100
AcDbLine
 10
9.375910000000001
 20
10.449989
 30
0.0
 11
9.375910000000001
 21
11.31949499999999
 31
0.0
  0
LINE
  5
EE5
330
1E
100
AcDbEntity
  8
0
  6
L0
 62
     1
100
AcDbLine
 10
8.991811999999999
 20
10.444446
 30
0.0
 11
8.991770999999999
 21
11.319592
 31
0.0
  0
ARC
  5
EE6
330
1E
100
AcDbEntity
  8
803
  6
L0
 62
     1
100
AcDbCircle
 10
9.477860288439215
 20
11.21571322835798
 30
0.0
 40
0.2072927115793137
100
AcDbArc
 50
0.0007660828422224
 51
10.48613479907197
  0
ARC
  5
EE7
330
1E
100
AcDbEntity
  8
803
  6
L0
 62
     1
100
AcDbCircle
 10
9.80947172043461
 20
11.21571926378634
 30
0.0
 40
0.20729672044697
100
AcDbArc
 50
169.5154856867691
 51
180.0006256992525
  0
ARC
  5
EE8
330
1E
100
AcDbEntity
  8
803
  6
L0
 62
     1
100
AcDbCircle
 10
48.96599707905693
 20
10.50173488578963
 30
0.0
 40
39.97422607930955
100
AcDbArc
 50
179.999796305138
 51
181.6443861312979
  0
ARC
  5
EE9
330
1E
100
AcDbEntity
  8
803
  6
L0
 62
     1
100
AcDbCircle
 10
-30.59832107905687
 20
10.50175125135018
 30
0.0
 40
39.97423107958896
100
AcDbArc
 50
358.3551145500953
 51
359.9997043762552
  0
ARC
  5
EEA
330
1E
100
AcDbEntity
  8
803
  6
L0
 62
     1
100
AcDbCircle
 10
9.809466711560794
 20
8.892394228357979
 30
0.0
 40
0.2072927115793245
100
AcDbArc
 50
169.5138652009255
 51
179.9992339171553
  0
ARC
  5
EEB
330
1E
100
AcDbEntity
  8
803
  6
L0
 62
     1
100
AcDbCircle
 10
9.477859788439207
 20
8.892399677454358
 30
0.0
 40
0.2072922115780841
100
AcDbArc
 50
359.9992599488742
 51
10.48462866510406
  0
ARC
  5
EEC
330
1E
100
AcDbEntity
  8
803
  6
L0
 62
     1
100
AcDbCircle
 10
9.809466711560785
 20
8.892399771642022
 30
0.0
 40
0.2072927115793155
100
AcDbArc
 50
180.0007660828446
 51
190.4861347990743
  0
ARC
  5
EED
330
1E
100
AcDbEntity
  8
803
  6
L0
 62
     1
100
AcDbCircle
 10
9.727201309899651
 20
8.877170310919204
 30
0.0
 40
0.1236295012106476
100
AcDbArc
 50
190.4847401748781
 51
204.0749320267932
  0
ARC
  5
EEE
330
1E
100
AcDbEntity
  8
803
  6
L0
 62
     1
100
AcDbCircle
 10
9.675555242381111
 20
8.854094215844341
 30
0.0
 40
0.0670629359730002
100
AcDbArc
 50
204.0750842494925
 51
227.1674886236364
  0
ARC
  5
EEF
330
1E
100
AcDbEntity
  8
803
  6
L0
 62
     1
100
AcDbCircle
 10
9.643662764971731
 20
8.819693934601289
 30
0.0
 40
0.0201519346026588
100
AcDbArc
 50
227.1701234867748
 51
270.0006682300303
  0
ARC
  5
EF0
330
1E
100
AcDbEntity
  8
803
  6
L0
 62
     1
100
AcDbCircle
 10
9.643663546306695
 20
8.819693140907922
 30
0.0
 40
0.0201511409153274
100
AcDbArc
 50
269.9984466850721
 51
312.8307615981265
  0
ARC
  5
EF1
330
1E
100
AcDbEntity
  8
803
  6
L0
 62
     1
100
AcDbCircle
 10
9.611769718411446
 20
8.85409704968154
 30
0.0
 40
0.0670650408334312
100
AcDbArc
 50
312.8308899806692
 51
335.9230674905901
  0
ARC
  5
EF2
330
1E
100
AcDbEntity
  8
803
  6
L0
 62
     1
100
AcDbCircle
 10
9.560123201629895
 20
8.877174125743144
 30
0.0
 40
0.123632824377326
100
AcDbArc
 50
335.9233121095607
 51
349.5132755832767
  0
ARC
  5
EF3
330
1E
100
AcDbEntity
  8
803
  6
L0
 62
     1
100
AcDbCircle
 10
9.477859788439216
 20
8.892394322545644
 30
0.0
 40
0.2072922115780754
100
AcDbArc
 50
349.5153713348955
 51
0.00074005112529
  0
ARC
  5
EF4
330
1E
100
AcDbEntity
  8
803
  6
L0
 62
     1
100
AcDbCircle
 10
9.611764395123898
 20
9.090086300267046
 30
0.0
 40
0.0670679637177258
100
AcDbArc
 50
330.4386791484695
 51
335.9286271629496
  0
ARC
  5
EF5
330
1E
100
AcDbEntity
  8
803
  6
L0
 62
     1
100
AcDbCircle
 10
9.560125190100341
 20
9.113167507099984
 30
0.0
 40
0.1236307565225198
100
AcDbArc
 50
335.9231979204619
 51
349.513389772377
  0
ARC
  5
EF6
330
1E
100
AcDbEntity
  8
803
  6
L0
 62
     1
100
AcDbCircle
 10
9.477859788439216
 20
9.128387322545645
 30
0.0
 40
0.2072922115780754
100
AcDbArc
 50
349.5153713348955
 51
0.00074005112529
  0
ARC
  5
EF7
330
1E
100
AcDbEntity
  8
803
  6
L0
 62
     1
100
AcDbCircle
 10
9.477859788439207
 20
9.128392677454359
 30
0.0
 40
0.2072922115780841
100
AcDbArc
 50
359.9992599488742
 51
10.48462866510406
  0
ARC
  5
EF8
330
1E
100
AcDbEntity
  8
803
  6
L0
 62
     1
100
AcDbCircle
 10
9.56012519010035
 20
9.143613492900019
 30
0.0
 40
0.1236307565225108
100
AcDbArc
 50
10.48661022762372
 51
24.07680207953895
  0
ARC
  5
EF9
330
1E
100
AcDbEntity
  8
803
  6
L0
 62
     1
100
AcDbCircle
 10
9.611768310144096
 20
9.166692284155656
 30
0.0
 40
0.0670649665950693
100
AcDbArc
 50
24.07384127031377
 51
47.16624564445736
  0
ARC
  5
EFA
330
1E
100
AcDbEntity
  8
803
  6
L0
 62
     1
100
AcDbCircle
 10
9.643663312850256
 20
9.201094263828133
 30
0.0
 40
0.0201517361742976
100
AcDbArc
 50
47.16990221529605
 51
90.00088950148658
  0
ARC
  5
EFB
330
1E
100
AcDbEntity
  8
803
  6
L0
 62
     1
100
AcDbCircle
 10
9.64366249260172
 20
9.201094759883954
 30
0.0
 40
0.0201512401224362
100
AcDbArc
 50
89.99855732055232
 51
132.8306509626634
  0
ARC
  5
EFC
330
1E
100
AcDbEntity
  8
803
  6
L0
 62
     1
100
AcDbCircle
 10
9.675555742381114
 20
9.166690336680865
 30
0.0
 40
0.0670643909164468
100
AcDbArc
 50
132.8307765485579
 51
155.9231809227011
  0
ARC
  5
EFD
330
1E
100
AcDbEntity
  8
803
  6
L0
 62
     1
100
AcDbCircle
 10
9.727201309899651
 20
9.143617689080798
 30
0.0
 40
0.1236295012106474
100
AcDbArc
 50
155.9250679732067
 51
169.5152598251218
  0
ARC
  5
EFE
330
1E
100
AcDbEntity
  8
803
  6
L0
 62
     1
100
AcDbCircle
 10
9.809466711560785
 20
9.12838822835798
 30
0.0
 40
0.2072927115793154
100
AcDbArc
 50
169.5138652009256
 51
179.9992339171553
  0
ARC
  5
EFF
330
1E
100
AcDbEntity
  8
803
  6
L0
 62
     1
100
AcDbCircle
 10
9.809471220434611
 20
9.128394185429563
 30
0.0
 40
0.2072972204590859
100
AcDbArc
 50
180.0008804347177
 51
190.486020447201
  0
ARC
  5
F00
330
1E
100
AcDbEntity
  8
803
  6
L0
 62
     1
100
AcDbCircle
 10
9.727201309899651
 20
9.113164310919206
 30
0.0
 40
0.1236295012106479
100
AcDbArc
 50
190.4847401748789
 51
204.0749320267939
  0
ARC
  5
F01
330
1E
100
AcDbEntity
  8
803
  6
L0
 62
     1
100
AcDbCircle
 10
9.675553674279997
 20
9.090088063165289
 30
0.0
 40
0.0670614419973734
100
AcDbArc
 50
204.0755116801168
 51
209.5652306429567
  0
ARC
  5
F02
330
1E
100
AcDbEntity
  8
803
  6
L0
 62
     1
100
AcDbCircle
 10
9.675549178675611
 20
8.930691034459091
 30
0.0
 40
0.0670605617796406
100
AcDbArc
 50
150.4265799980056
 51
155.9167570641148
  0
ARC
  5
F03
330
1E
100
AcDbEntity
  8
803
  6
L0
 62
     1
100
AcDbCircle
 10
9.727201309899651
 20
8.907623689080796
 30
0.0
 40
0.1236295012106481
100
AcDbArc
 50
155.925067973206
 51
169.515259825121
  0
ARC
  5
F04
330
1E
100
AcDbEntity
  8
803
  6
L0
 62
     1
100
AcDbCircle
 10
9.560125190100341
 20
8.90761849290002
 30
0.0
 40
0.1236307565225192
100
AcDbArc
 50
10.48661022762216
 51
24.07680207953727
  0
ARC
  5
F05
330
1E
100
AcDbEntity
  8
803
  6
L0
 62
     1
100
AcDbCircle
 10
9.61177482362638
 20
8.930700199732957
 30
0.0
 40
0.0670586462004064
100
AcDbArc
 50
24.07539715429001
 51
29.56534516877008
  0
LINE
  5
F06
330
1E
100
AcDbEntity
  8
803
  6
L0
 62
     1
100
AcDbLine
 10
9.617224
 20
9.056999000000001
 30
0.0
 11
9.670101999999999
 21
8.963788000000002
 31
0.0
  0
LINE
  5
F07
330
1E
100
AcDbEntity
  8
803
  6
L0
 62
     1
100
AcDbLine
 10
9.670101999999999
 20
9.056999000000001
 30
0.0
 11
9.617224
 21
8.963788000000002
 31
0.0
  0
LINE
  5
F08
330
1E
100
AcDbEntity
  8
803
  6
L0
 62
     1
100
AcDbLine
 10
9.670101999999999
 20
9.640062999999999
 30
0.0
 11
9.617224
 21
9.546852000000001
 31
0.0
  0
LINE
  5
F09
330
1E
100
AcDbEntity
  8
803
  6
L0
 62
     1
100
AcDbLine
 10
9.617224
 20
9.640062999999999
 30
0.0
 11
9.670101999999999
 21
9.546852000000001
 31
0.0
  0
ARC
  5
F0A
330
1E
100
AcDbEntity
  8
803
  6
L0
 62
     1
100
AcDbCircle
 10
9.61177482362638
 20
9.513764199732955
 30
0.0
 40
0.0670586462004064
100
AcDbArc
 50
24.07539715429001
 51
29.56534516877008
  0
ARC
  5
F0B
330
1E
100
AcDbEntity
  8
803
  6
L0
 62
     1
100
AcDbCircle
 10
9.560125190100341
 20
9.490682492900017
 30
0.0
 40
0.1236307565225196
100
AcDbArc
 50
10.48661022762297
 51
24.07680207953803
  0
ARC
  5
F0C
330
1E
100
AcDbEntity
  8
803
  6
L0
 62
     1
100
AcDbCircle
 10
9.477859788439207
 20
9.475463677454357
 30
0.0
 40
0.2072922115780841
100
AcDbArc
 50
359.9992599488742
 51
10.48462866510406
  0
ARC
  5
F0D
330
1E
100
AcDbEntity
  8
803
  6
L0
 62
     1
100
AcDbCircle
 10
9.477859788439216
 20
9.475458322545641
 30
0.0
 40
0.207292211578075
100
AcDbArc
 50
349.5153713348959
 51
0.0007400511257809
  0
ARC
  5
F0E
330
1E
100
AcDbEntity
  8
803
  6
L0
 62
     1
100
AcDbCircle
 10
9.560123201629895
 20
9.460238125743142
 30
0.0
 40
0.123632824377326
100
AcDbArc
 50
335.9233121095607
 51
349.5132755832767
  0
ARC
  5
F0F
330
1E
100
AcDbEntity
  8
803
  6
L0
 62
     1
100
AcDbCircle
 10
9.611769718411446
 20
9.437161049681538
 30
0.0
 40
0.0670650408334312
100
AcDbArc
 50
312.8308899806692
 51
335.9230674905901
  0
ARC
  5
F10
330
1E
100
AcDbEntity
  8
803
  6
L0
 62
     1
100
AcDbCircle
 10
9.643663546306695
 20
9.402757140907922
 30
0.0
 40
0.0201511409153291
100
AcDbArc
 50
269.9984466850721
 51
312.830761598123
  0
ARC
  5
F11
330
1E
100
AcDbEntity
  8
803
  6
L0
 62
     1
100
AcDbCircle
 10
9.643662764971731
 20
9.402757934601286
 30
0.0
 40
0.0201519346026575
100
AcDbArc
 50
227.1701234867714
 51
270.0006682300303
  0
ARC
  5
F12
330
1E
100
AcDbEntity
  8
803
  6
L0
 62
     1
100
AcDbCircle
 10
9.675555242381111
 20
9.437158215844341
 30
0.0
 40
0.0670629359730009
100
AcDbArc
 50
204.0750842494939
 51
227.1674886236374
  0
ARC
  5
F13
330
1E
100
AcDbEntity
  8
803
  6
L0
 62
     1
100
AcDbCircle
 10
9.727201309899651
 20
9.460234310919204
 30
0.0
 40
0.1236295012106479
100
AcDbArc
 50
190.4847401748789
 51
204.0749320267939
  0
ARC
  5
F14
330
1E
100
AcDbEntity
  8
803
  6
L0
 62
     1
100
AcDbCircle
 10
9.809466711560785
 20
9.47546377164202
 30
0.0
 40
0.2072927115793155
100
AcDbArc
 50
180.0007660828446
 51
190.4861347990743
  0
ARC
  5
F15
330
1E
100
AcDbEntity
  8
803
  6
L0
 62
     1
100
AcDbCircle
 10
9.809466711560794
 20
9.475458228357979
 30
0.0
 40
0.2072927115793242
100
AcDbArc
 50
169.513865200926
 51
179.9992339171557
  0
ARC
  5
F16
330
1E
100
AcDbEntity
  8
803
  6
L0
 62
     1
100
AcDbCircle
 10
9.727201309899651
 20
9.490687689080797
 30
0.0
 40
0.1236295012106474
100
AcDbArc
 50
155.9250679732067
 51
169.5152598251218
  0
ARC
  5
F17
330
1E
100
AcDbEntity
  8
803
  6
L0
 62
     1
100
AcDbCircle
 10
9.675549178675611
 20
9.513755034459089
 30
0.0
 40
0.0670605617796406
100
AcDbArc
 50
150.4265799980056
 51
155.9167570641148
  0
ARC
  5
F18
330
1E
100
AcDbEntity
  8
803
  6
L0
 62
     1
100
AcDbCircle
 10
9.675553674279997
 20
9.673152063165289
 30
0.0
 40
0.0670614419973742
100
AcDbArc
 50
204.0755116801182
 51
209.565230642958
  0
ARC
  5
F19
330
1E
100
AcDbEntity
  8
803
  6
L0
 62
     1
100
AcDbCircle
 10
9.727201309899651
 20
9.696228310919202
 30
0.0
 40
0.1236295012106476
100
AcDbArc
 50
190.4847401748781
 51
204.0749320267932
  0
ARC
  5
F1A
330
1E
100
AcDbEntity
  8
803
  6
L0
 62
     1
100
AcDbCircle
 10
9.809471220434611
 20
9.711458185429561
 30
0.0
 40
0.2072972204590859
100
AcDbArc
 50
180.0008804347177
 51
190.486020447201
  0
ARC
  5
F1B
330
1E
100
AcDbEntity
  8
803
  6
L0
 62
     1
100
AcDbCircle
 10
9.809466711560785
 20
9.711452228357979
 30
0.0
 40
0.2072927115793154
100
AcDbArc
 50
169.5138652009256
 51
179.9992339171553
  0
ARC
  5
F1C
330
1E
100
AcDbEntity
  8
803
  6
L0
 62
     1
100
AcDbCircle
 10
9.727201309899651
 20
9.726681689080795
 30
0.0
 40
0.1236295012106481
100
AcDbArc
 50
155.925067973206
 51
169.515259825121
  0
ARC
  5
F1D
330
1E
100
AcDbEntity
  8
803
  6
L0
 62
     1
100
AcDbCircle
 10
9.675555742381114
 20
9.749754336680865
 30
0.0
 40
0.0670643909164455
100
AcDbArc
 50
132.830776548559
 51
155.9231809227025
  0
ARC
  5
F1E
330
1E
100
AcDbEntity
  8
803
  6
L0
 62
     1
100
AcDbCircle
 10
9.64366249260172
 20
9.784158759883952
 30
0.0
 40
0.0201512401224362
100
AcDbArc
 50
89.99855732055232
 51
132.8306509626634
  0
ARC
  5
F1F
330
1E
100
AcDbEntity
  8
803
  6
L0
 62
     1
100
AcDbCircle
 10
9.643663312850256
 20
9.784158263828132
 30
0.0
 40
0.0201517361742976
100
AcDbArc
 50
47.16990221529605
 51
90.00088950148658
  0
ARC
  5
F20
330
1E
100
AcDbEntity
  8
803
  6
L0
 62
     1
100
AcDbCircle
 10
9.611768310144096
 20
9.749756284155655
 30
0.0
 40
0.0670649665950693
100
AcDbArc
 50
24.07384127031377
 51
47.16624564445736
  0
ARC
  5
F21
330
1E
100
AcDbEntity
  8
803
  6
L0
 62
     1
100
AcDbCircle
 10
9.56012519010035
 20
9.726677492900018
 30
0.0
 40
0.1236307565225108
100
AcDbArc
 50
10.48661022762372
 51
24.07680207953895
  0
ARC
  5
F22
330
1E
100
AcDbEntity
  8
803
  6
L0
 62
     1
100
AcDbCircle
 10
9.477859788439207
 20
9.711456677454357
 30
0.0
 40
0.2072922115780841
100
AcDbArc
 50
359.9992599488742
 51
10.48462866510406
  0
ARC
  5
F23
330
1E
100
AcDbEntity
  8
803
  6
L0
 62
     1
100
AcDbCircle
 10
9.477859788439216
 20
9.711451322545642
 30
0.0
 40
0.207292211578075
100
AcDbArc
 50
349.5153713348959
 51
0.0007400511257809
  0
ARC
  5
F24
330
1E
100
AcDbEntity
  8
803
  6
L0
 62
     1
100
AcDbCircle
 10
9.560125190100341
 20
9.69623150709998
 30
0.0
 40
0.1236307565225191
100
AcDbArc
 50
335.9231979204627
 51
349.5133897723778
  0
ARC
  5
F25
330
1E
100
AcDbEntity
  8
803
  6
L0
 62
     1
100
AcDbCircle
 10
9.611764395123898
 20
9.673150300267044
 30
0.0
 40
0.0670679637177258
100
AcDbArc
 50
330.4386791484695
 51
335.9286271629496
  0
ARC
  5
F26
330
1E
100
AcDbEntity
  8
803
  6
L0
 62
     1
100
AcDbCircle
 10
9.643662771515387
 20
10.57144691569922
 30
0.0
 40
0.020152915700525
100
AcDbArc
 50
270.0006495935465
 51
312.8329645065958
  0
ARC
  5
F27
330
1E
100
AcDbEntity
  8
803
  6
L0
 62
     1
100
AcDbCircle
 10
9.643663845232765
 20
10.57144593853533
 30
0.0
 40
0.0201519385530622
100
AcDbArc
 50
227.1659457431159
 51
269.9975968430997
  0
LINE
  5
F28
330
1E
100
AcDbEntity
  8
803
  6
L0
 62
     1
100
AcDbLine
 10
9.670102999999999
 20
10.223127
 30
0.0
 11
9.617224999999999
 21
10.129916
 31
0.0
  0
LINE
  5
F29
330
1E
100
AcDbEntity
  8
803
  6
L0
 62
     1
100
AcDbLine
 10
9.617224999999999
 20
10.223127
 30
0.0
 11
9.670102999999999
 21
10.129916
 31
0.0
  0
ARC
  5
F2A
330
1E
100
AcDbEntity
  8
803
  6
L0
 62
     1
100
AcDbCircle
 10
9.611775823626395
 20
10.09682819973295
 30
0.0
 40
0.0670586462003925
100
AcDbArc
 50
24.07539715429697
 51
29.56534516877682
  0
ARC
  5
F2B
330
1E
100
AcDbEntity
  8
803
  6
L0
 62
     1
100
AcDbCircle
 10
9.56012569010034
 20
10.07375068908078
 30
0.0
 40
0.1236295012106576
100
AcDbArc
 50
10.48474017488062
 51
24.07493202679563
  0
ARC
  5
F2C
330
1E
100
AcDbEntity
  8
803
  6
L0
 62
     1
100
AcDbCircle
 10
9.477860288439206
 20
10.05852222835798
 30
0.0
 40
0.2072927115793226
100
AcDbArc
 50
0.0007660828417314
 51
10.48613479907153
  0
ARC
  5
F2D
330
1E
100
AcDbEntity
  8
803
  6
L0
 62
     1
100
AcDbCircle
 10
9.477860288439206
 20
10.05852777164201
 30
0.0
 40
0.2072927115793226
100
AcDbArc
 50
349.5138652009284
 51
359.9992339171582
  0
ARC
  5
F2E
330
1E
100
AcDbEntity
  8
803
  6
L0
 62
     1
100
AcDbCircle
 10
9.560127897881853
 20
10.04329842949119
 30
0.0
 40
0.1236275338513114
100
AcDbArc
 50
335.9246004027253
 51
349.5145638764413
  0
ARC
  5
F2F
330
1E
100
AcDbEntity
  8
803
  6
L0
 62
     1
100
AcDbCircle
 10
9.611770218411447
 20
10.02022260218204
 30
0.0
 40
0.0670635858758893
100
AcDbArc
 50
312.8326248084711
 51
335.9248023183922
  0
ARC
  5
F30
330
1E
100
AcDbEntity
  8
803
  6
L0
 62
     1
100
AcDbCircle
 10
9.643664046306694
 20
9.985822415699228
 30
0.0
 40
0.0201524157263912
100
AcDbArc
 50
269.9970252222602
 51
312.829340135312
  0
ARC
  5
F31
330
1E
100
AcDbEntity
  8
803
  6
L0
 62
     1
100
AcDbCircle
 10
9.643662764971731
 20
9.985821934601286
 30
0.0
 40
0.0201519346026575
100
AcDbArc
 50
227.1701234867714
 51
270.0006682300303
  0
ARC
  5
F32
330
1E
100
AcDbEntity
  8
803
  6
L0
 62
     1
100
AcDbCircle
 10
9.675558189855907
 20
10.02022516331913
 30
0.0
 40
0.0670664214944631
100
AcDbArc
 50
204.0755760725539
 51
227.1679804466973
  0
ARC
  5
F33
330
1E
100
AcDbEntity
  8
803
  6
L0
 62
     1
100
AcDbCircle
 10
9.727201309899644
 20
10.0432983109192
 30
0.0
 40
0.1236295012106409
100
AcDbArc
 50
190.4847401748795
 51
204.0749320267945
  0
ARC
  5
F34
330
1E
100
AcDbEntity
  8
803
  6
L0
 62
     1
100
AcDbCircle
 10
9.809467211560793
 20
10.05852232254564
 30
0.0
 40
0.2072922115780841
100
AcDbArc
 50
179.9992599488741
 51
190.484628665104
  0
ARC
  5
F35
330
1E
100
AcDbEntity
  8
803
  6
L0
 62
     1
100
AcDbCircle
 10
9.809467211560793
 20
10.05852767745435
 30
0.0
 40
0.2072922115780841
100
AcDbArc
 50
169.5153713348959
 51
180.0007400511257
  0
ARC
  5
F36
330
1E
100
AcDbEntity
  8
803
  6
L0
 62
     1
100
AcDbCircle
 10
9.727201309899651
 20
10.07375168908079
 30
0.0
 40
0.1236295012106474
100
AcDbArc
 50
155.9250679732067
 51
169.5152598251218
  0
ARC
  5
F37
330
1E
100
AcDbEntity
  8
803
  6
L0
 62
     1
100
AcDbCircle
 10
9.675549178675593
 20
10.09681903445908
 30
0.0
 40
0.0670605617796252
100
AcDbArc
 50
150.4265799979981
 51
155.9167570641073
  0
ARC
  5
F38
330
1E
100
AcDbEntity
  8
803
  6
L0
 62
     1
100
AcDbCircle
 10
9.675554174279998
 20
10.25622649210357
 30
0.0
 40
0.0670661535329179
100
AcDbArc
 50
204.0834719875273
 51
209.573190950367
  0
ARC
  5
F39
330
1E
100
AcDbEntity
  8
803
  6
L0
 62
     1
100
AcDbCircle
 10
9.727201309899651
 20
10.2792923109192
 30
0.0
 40
0.1236295012106476
100
AcDbArc
 50
190.4847401748781
 51
204.0749320267932
  0
ARC
  5
F3A
330
1E
100
AcDbEntity
  8
803
  6
L0
 62
     1
100
AcDbCircle
 10
9.80947172043461
 20
10.29451673621366
 30
0.0
 40
0.2072967204469701
100
AcDbArc
 50
179.9993743007474
 51
190.4845143132308
  0
ARC
  5
F3B
330
1E
100
AcDbEntity
  8
803
  6
L0
 62
     1
100
AcDbCircle
 10
9.809467211560784
 20
10.29452167745436
 30
0.0
 40
0.207292211578075
100
AcDbArc
 50
169.5153713348959
 51
180.0007400511257
  0
ARC
  5
F3C
330
1E
100
AcDbEntity
  8
803
  6
L0
 62
     1
100
AcDbCircle
 10
9.727201309899651
 20
10.30974568908079
 30
0.0
 40
0.1236295012106481
100
AcDbArc
 50
155.925067973206
 51
169.515259825121
  0
ARC
  5
F3D
330
1E
100
AcDbEntity
  8
803
  6
L0
 62
     1
100
AcDbCircle
 10
9.675555742381114
 20
10.33281833668086
 30
0.0
 40
0.0670643909164455
100
AcDbArc
 50
132.830776548559
 51
155.9231809227025
  0
ARC
  5
F3E
330
1E
100
AcDbEntity
  8
803
  6
L0
 62
     1
100
AcDbCircle
 10
9.643662992601718
 20
10.3672214850854
 30
0.0
 40
0.0201525149397751
100
AcDbArc
 50
89.99713585773541
 51
132.8292294998472
  0
ARC
  5
F3F
330
1E
100
AcDbEntity
  8
803
  6
L0
 62
     1
100
AcDbCircle
 10
9.643664312850255
 20
10.36722226382813
 30
0.0
 40
0.0201517361742976
100
AcDbArc
 50
47.16990221529605
 51
90.00088950148658
  0
ARC
  5
F40
330
1E
100
AcDbEntity
  8
803
  6
L0
 62
     1
100
AcDbCircle
 10
9.611771257618887
 20
10.33281833668086
 30
0.0
 40
0.0670643909164446
100
AcDbArc
 50
24.07681907729808
 51
47.16922345144209
  0
ARC
  5
F41
330
1E
100
AcDbEntity
  8
803
  6
L0
 62
     1
100
AcDbCircle
 10
9.560125690100349
 20
10.30974568908078
 30
0.0
 40
0.1236295012106492
100
AcDbArc
 50
10.48474017488218
 51
24.07493202679731
  0
ARC
  5
F42
330
1E
100
AcDbEntity
  8
803
  6
L0
 62
     1
100
AcDbCircle
 10
9.477860288439215
 20
10.29451522835798
 30
0.0
 40
0.2072927115793137
100
AcDbArc
 50
0.0007660828422224
 51
10.48613479907197
  0
ARC
  5
F43
330
1E
100
AcDbEntity
  8
803
  6
L0
 62
     1
100
AcDbCircle
 10
9.477860288439215
 20
10.29452077164201
 30
0.0
 40
0.2072927115793138
100
AcDbArc
 50
349.513865200928
 51
359.9992339171577
  0
ARC
  5
F44
330
1E
100
AcDbEntity
  8
803
  6
L0
 62
     1
100
AcDbCircle
 10
9.56012569010034
 20
10.27929131091921
 30
0.0
 40
0.1236295012106575
100
AcDbArc
 50
335.9250679732043
 51
349.5152598251194
  0
ARC
  5
F45
330
1E
100
AcDbEntity
  8
803
  6
L0
 62
     1
100
AcDbCircle
 10
9.611764395123879
 20
10.25621430026704
 30
0.0
 40
0.0670679637177428
100
AcDbArc
 50
330.4386791484777
 51
335.9286271629578
  0
ARC
  5
F46
330
1E
100
AcDbEntity
  8
803
  6
L0
 62
     1
100
AcDbCircle
 10
9.477860288439206
 20
10.88014222835798
 30
0.0
 40
0.2072927115793226
100
AcDbArc
 50
0.0007660828417314
 51
10.48613479907153
  0
ARC
  5
F47
330
1E
100
AcDbEntity
  8
803
  6
L0
 62
     1
100
AcDbCircle
 10
9.809467211560793
 20
10.88014767745435
 30
0.0
 40
0.2072922115780841
100
AcDbArc
 50
169.5153713348959
 51
180.0007400511257
  0
LINE
  5
F48
330
1E
100
AcDbEntity
  8
803
  6
L0
 62
     1
100
AcDbLine
 10
9.617224999999999
 20
10.80875299999999
 30
0.0
 11
9.670102999999999
 21
10.71554099999999
 31
0.0
  0
LINE
  5
F49
330
1E
100
AcDbEntity
  8
803
  6
L0
 62
     1
100
AcDbLine
 10
9.670102999999999
 20
10.80875299999999
 30
0.0
 11
9.617224999999999
 21
10.71554099999999
 31
0.0
  0
ARC
  5
F4A
330
1E
100
AcDbEntity
  8
803
  6
L0
 62
     1
100
AcDbCircle
 10
9.477860288439215
 20
10.88014777164201
 30
0.0
 40
0.2072927115793138
100
AcDbArc
 50
349.513865200928
 51
359.9992339171577
  0
ARC
  5
F4B
330
1E
100
AcDbEntity
  8
803
  6
L0
 62
     1
100
AcDbCircle
 10
9.560125690100349
 20
10.86491631091921
 30
0.0
 40
0.1236295012106486
100
AcDbArc
 50
335.9250679732034
 51
349.5152598251186
  0
ARC
  5
F4C
330
1E
100
AcDbEntity
  8
803
  6
L0
 62
     1
100
AcDbCircle
 10
9.61177482362638
 20
10.84184080026704
 30
0.0
 40
0.0670586462004064
100
AcDbArc
 50
330.4346548312299
 51
335.92460284571
  0
ARC
  5
F4D
330
1E
100
AcDbEntity
  8
803
  6
L0
 62
     1
100
AcDbCircle
 10
9.675562104876121
 20
10.84185172876954
 30
0.0
 40
0.0670726744023791
100
AcDbArc
 50
204.079332321329
 51
209.5692803358089
  0
ARC
  5
F4E
330
1E
100
AcDbEntity
  8
803
  6
L0
 62
     1
100
AcDbCircle
 10
9.727201309899644
 20
10.8649173109192
 30
0.0
 40
0.1236295012106409
100
AcDbArc
 50
190.4847401748795
 51
204.0749320267945
  0
ARC
  5
F4F
330
1E
100
AcDbEntity
  8
803
  6
L0
 62
     1
100
AcDbCircle
 10
9.809467211560784
 20
10.88014232254564
 30
0.0
 40
0.2072922115780753
100
AcDbArc
 50
179.9992599488741
 51
190.484628665104
  0
ARC
  5
F50
330
1E
100
AcDbEntity
  8
803
  6
L0
 62
     1
100
AcDbCircle
 10
9.611773325719999
 20
10.6824519368347
 30
0.0
 40
0.0670614419973758
100
AcDbArc
 50
24.0755116801176
 51
29.56523064295729
  0
ARC
  5
F51
330
1E
100
AcDbEntity
  8
803
  6
L0
 62
     1
100
AcDbCircle
 10
9.560125690100349
 20
10.65937668908079
 30
0.0
 40
0.1236295012106489
100
AcDbArc
 50
10.48474017488137
 51
24.07493202679656
  0
ARC
  5
F52
330
1E
100
AcDbEntity
  8
803
  6
L0
 62
     1
100
AcDbCircle
 10
9.477861228781289
 20
10.64414631457044
 30
0.0
 40
0.2072917712514714
100
AcDbArc
 50
0.0010186586650014
 51
10.48615867114829
  0
ARC
  5
F53
330
1E
100
AcDbEntity
  8
803
  6
L0
 62
     1
100
AcDbCircle
 10
9.477860288439206
 20
10.64415277164201
 30
0.0
 40
0.2072927115793226
100
AcDbArc
 50
349.5138652009284
 51
359.9992339171582
  0
ARC
  5
F54
330
1E
100
AcDbEntity
  8
803
  6
L0
 62
     1
100
AcDbCircle
 10
9.56012569010034
 20
10.62892231091921
 30
0.0
 40
0.1236295012106575
100
AcDbArc
 50
335.9250679732043
 51
349.5152598251194
  0
ARC
  5
F55
330
1E
100
AcDbEntity
  8
803
  6
L0
 62
     1
100
AcDbCircle
 10
9.611771296815769
 20
10.60584682951421
 30
0.0
 40
0.067062286083107
100
AcDbArc
 50
312.8323979442712
 51
335.9250291825919
  0
ARC
  5
F56
330
1E
100
AcDbEntity
  8
803
  6
L0
 62
     1
100
AcDbCircle
 10
9.675557650634319
 20
10.60584977696429
 30
0.0
 40
0.0670657715707898
100
AcDbArc
 50
204.075462640464
 51
227.1680938787843
  0
ARC
  5
F57
330
1E
100
AcDbEntity
  8
803
  6
L0
 62
     1
100
AcDbCircle
 10
9.727201309899651
 20
10.6289233109192
 30
0.0
 40
0.1236295012106476
100
AcDbArc
 50
190.4847401748781
 51
204.0749320267932
  0
ARC
  5
F58
330
1E
100
AcDbEntity
  8
803
  6
L0
 62
     1
100
AcDbCircle
 10
9.809467211560793
 20
10.64414732254564
 30
0.0
 40
0.2072922115780841
100
AcDbArc
 50
179.9992599488741
 51
190.484628665104
  0
ARC
  5
F59
330
1E
100
AcDbEntity
  8
803
  6
L0
 62
     1
100
AcDbCircle
 10
9.80947172043461
 20
10.64415226378634
 30
0.0
 40
0.20729672044697
100
AcDbArc
 50
169.5154856867691
 51
180.0006256992525
  0
ARC
  5
F5A
330
1E
100
AcDbEntity
  8
803
  6
L0
 62
     1
100
AcDbCircle
 10
9.727201309899651
 20
10.65937668908079
 30
0.0
 40
0.1236295012106474
100
AcDbArc
 50
155.9250679732067
 51
169.5152598251218
  0
ARC
  5
F5B
330
1E
100
AcDbEntity
  8
803
  6
L0
 62
     1
100
AcDbCircle
 10
9.675549178675593
 20
10.68244403445908
 30
0.0
 40
0.0670605617796252
100
AcDbArc
 50
150.4265799979981
 51
155.9167570641073
  0
ARC
  5
F5C
330
1E
100
AcDbEntity
  8
803
  6
L0
 62
     1
100
AcDbCircle
 10
9.6436630380155
 20
10.95284776382813
 30
0.0
 40
0.0201522361948293
100
AcDbArc
 50
47.16627765000668
 51
89.99726493619629
  0
ARC
  5
F5D
330
1E
100
AcDbEntity
  8
803
  6
L0
 62
     1
100
AcDbCircle
 10
9.611771257618887
 20
10.91844333668086
 30
0.0
 40
0.0670643909164446
100
AcDbArc
 50
24.07681907729808
 51
47.16922345144209
  0
ARC
  5
F5E
330
1E
100
AcDbEntity
  8
803
  6
L0
 62
     1
100
AcDbCircle
 10
9.56012569010034
 20
10.89537068908079
 30
0.0
 40
0.1236295012106576
100
AcDbArc
 50
10.48474017488062
 51
24.07493202679563
  0
ARC
  5
F5F
330
1E
100
AcDbEntity
  8
803
  6
L0
 62
     1
100
AcDbCircle
 10
9.727201309899651
 20
10.89537168908079
 30
0.0
 40
0.1236295012106474
100
AcDbArc
 50
155.9250679732067
 51
169.5152598251218
  0
ARC
  5
F60
330
1E
100
AcDbEntity
  8
803
  6
L0
 62
     1
100
AcDbCircle
 10
9.675554663997909
 20
10.91844410938297
 30
0.0
 40
0.0670630911214434
100
AcDbArc
 50
132.830549684404
 51
155.923407786856
  0
ARC
  5
F61
330
1E
100
AcDbEntity
  8
803
  6
L0
 62
     1
100
AcDbCircle
 10
9.643664267400266
 20
10.9528469850854
 30
0.0
 40
0.0201530149163703
100
AcDbArc
 50
90.00076022901877
 51
132.8328538711289
  0
ARC
  5
F62
330
1E
100
AcDbEntity
  8
803
  6
L0
 62
     1
100
AcDbCircle
 10
9.47786122878128
 20
11.21571968542955
 30
0.0
 40
0.2072917712514803
100
AcDbArc
 50
349.5138413288517
 51
359.998981341335
  0
ARC
  5
F63
330
1E
100
AcDbEntity
  8
803
  6
L0
 62
     1
100
AcDbCircle
 10
9.560125690100349
 20
11.20048931091921
 30
0.0
 40
0.1236295012106486
100
AcDbArc
 50
335.9250679732034
 51
349.5152598251186
  0
ARC
  5
F64
330
1E
100
AcDbEntity
  8
803
  6
L0
 62
     1
100
AcDbCircle
 10
9.611771296815769
 20
11.17741482951421
 30
0.0
 40
0.0670622860831057
100
AcDbArc
 50
312.8323979442722
 51
335.9250291825933
  0
ARC
  5
F65
330
1E
100
AcDbEntity
  8
803
  6
L0
 62
     1
100
AcDbCircle
 10
9.643662771515387
 20
11.14301391569922
 30
0.0
 40
0.0201529157005232
100
AcDbArc
 50
270.0006495935465
 51
312.8329645065993
  0
ARC
  5
F66
330
1E
100
AcDbEntity
  8
803
  6
L0
 62
     1
100
AcDbCircle
 10
9.643663845232765
 20
11.14301293853533
 30
0.0
 40
0.0201519385530609
100
AcDbArc
 50
227.1659457431125
 51
269.9975968430997
  0
ARC
  5
F67
330
1E
100
AcDbEntity
  8
803
  6
L0
 62
     1
100
AcDbCircle
 10
9.675557650634313
 20
11.17741777696429
 30
0.0
 40
0.0670657715707857
100
AcDbArc
 50
204.0754626404672
 51
227.1680938787877
  0
ARC
  5
F68
330
1E
100
AcDbEntity
  8
803
  6
L0
 62
     1
100
AcDbCircle
 10
9.727201309899651
 20
11.2004903109192
 30
0.0
 40
0.1236295012106479
100
AcDbArc
 50
190.4847401748789
 51
204.0749320267939
  0
ARC
  5
F69
330
1E
100
AcDbEntity
  8
803
  6
L0
 62
     1
100
AcDbCircle
 10
9.809467211560793
 20
11.21571432254564
 30
0.0
 40
0.2072922115780841
100
AcDbArc
 50
179.9992599488741
 51
190.484628665104
  0
ARC
  5
F6A
330
1E
100
AcDbEntity
  8
803
  6
L0
 62
     1
100
AcDbCircle
 10
-10.71261735109718
 20
11.89045458263503
 30
0.0
 40
20.08033203102327
100
AcDbArc
 50
1.644514473051875
 51
3.964914253088016
  0
ARC
  5
F6B
330
1E
100
AcDbEntity
  8
803
  6
L0
 62
     1
100
AcDbCircle
 10
29.08027566227047
 20
11.89046070498147
 30
0.0
 40
20.08030978341854
100
AcDbArc
 50
176.0349415482775
 51
178.3553413283136
  0
ARC
  5
F6C
330
1E
100
AcDbEntity
  8
803
  6
L0
 62
     1
100
AcDbCircle
 10
9.611764395123898
 20
12.57987030026704
 30
0.0
 40
0.0670679637177258
100
AcDbArc
 50
330.4386791484695
 51
335.9286271629496
  0
ARC
  5
F6D
330
1E
100
AcDbEntity
  8
803
  6
L0
 62
     1
100
AcDbCircle
 10
9.675562104876121
 20
12.57988172876954
 30
0.0
 40
0.0670726744023791
100
AcDbArc
 50
204.079332321329
 51
209.5692803358089
  0
ARC
  5
F6E
330
1E
100
AcDbEntity
  8
803
  6
L0
 62
     1
100
AcDbCircle
 10
48.96600007905693
 20
11.31952509487406
 30
0.0
 40
39.97422907911293
100
AcDbArc
 50
178.355314277523
 51
179.9999041036829
  0
LINE
  5
F6F
330
1E
100
AcDbEntity
  8
803
  6
L0
 62
     1
100
AcDbLine
 10
9.617224999999999
 20
11.97521599999999
 30
0.0
 11
9.670102999999999
 21
11.88200499999999
 31
0.0
  0
LINE
  5
F70
330
1E
100
AcDbEntity
  8
803
  6
L0
 62
     1
100
AcDbLine
 10
9.670102999999999
 20
11.97521599999999
 30
0.0
 11
9.617224999999999
 21
11.88200499999999
 31
0.0
  0
ARC
  5
F71
330
1E
100
AcDbEntity
  8
803
  6
L0
 62
     1
100
AcDbCircle
 10
-30.59831807905693
 20
11.31948376798612
 30
0.0
 40
39.97422807905703
100
AcDbArc
 50
359.9999960325957
 51
1.644585858755687
  0
ARC
  5
F72
330
1E
100
AcDbEntity
  8
803
  6
L0
 62
     1
100
AcDbCircle
 10
9.6436630380155
 20
11.52441476382813
 30
0.0
 40
0.020152236194828
100
AcDbArc
 50
47.16627765000324
 51
89.99726493619629
  0
ARC
  5
F73
330
1E
100
AcDbEntity
  8
803
  6
L0
 62
     1
100
AcDbCircle
 10
9.611771257618887
 20
11.49001133668086
 30
0.0
 40
0.0670643909164453
100
AcDbArc
 50
24.07681907729947
 51
47.16922345144312
  0
ARC
  5
F74
330
1E
100
AcDbEntity
  8
803
  6
L0
 62
     1
100
AcDbCircle
 10
9.560125690100349
 20
11.46693768908079
 30
0.0
 40
0.1236295012106489
100
AcDbArc
 50
10.48474017488137
 51
24.07493202679656
  0
ARC
  5
F75
330
1E
100
AcDbEntity
  8
803
  6
L0
 62
     1
100
AcDbCircle
 10
9.477860288439206
 20
11.45170922835798
 30
0.0
 40
0.2072927115793226
100
AcDbArc
 50
0.0007660828417314
 51
10.48613479907153
  0
ARC
  5
F76
330
1E
100
AcDbEntity
  8
803
  6
L0
 62
     1
100
AcDbCircle
 10
9.477860288439215
 20
11.451714771642
 30
0.0
 40
0.2072927115793135
100
AcDbArc
 50
349.5138652009284
 51
359.9992339171582
  0
ARC
  5
F77
330
1E
100
AcDbEntity
  8
803
  6
L0
 62
     1
100
AcDbCircle
 10
9.560125690100349
 20
11.43648331091921
 30
0.0
 40
0.1236295012106494
100
AcDbArc
 50
335.9250679732027
 51
349.5152598251178
  0
ARC
  5
F78
330
1E
100
AcDbEntity
  8
803
  6
L0
 62
     1
100
AcDbCircle
 10
9.727201309899644
 20
11.4364843109192
 30
0.0
 40
0.1236295012106409
100
AcDbArc
 50
190.4847401748795
 51
204.0749320267945
  0
ARC
  5
F79
330
1E
100
AcDbEntity
  8
803
  6
L0
 62
     1
100
AcDbCircle
 10
9.809467211560784
 20
11.45170932254564
 30
0.0
 40
0.2072922115780753
100
AcDbArc
 50
179.9992599488747
 51
190.4846286651045
  0
ARC
  5
F7A
330
1E
100
AcDbEntity
  8
803
  6
L0
 62
     1
100
AcDbCircle
 10
9.809467211560793
 20
11.45171467745435
 30
0.0
 40
0.2072922115780841
100
AcDbArc
 50
169.5153713348959
 51
180.0007400511257
  0
ARC
  5
F7B
330
1E
100
AcDbEntity
  8
803
  6
L0
 62
     1
100
AcDbCircle
 10
9.727199102118154
 20
11.46693757050881
 30
0.0
 40
0.1236275338513166
100
AcDbArc
 50
155.92460040273
 51
169.5145638764459
  0
ARC
  5
F7C
330
1E
100
AcDbEntity
  8
803
  6
L0
 62
     1
100
AcDbCircle
 10
9.675554663997909
 20
11.49001210938297
 30
0.0
 40
0.0670630911214434
100
AcDbArc
 50
132.830549684404
 51
155.923407786856
  0
ARC
  5
F7D
330
1E
100
AcDbEntity
  8
803
  6
L0
 62
     1
100
AcDbCircle
 10
9.611765395123896
 20
11.25401969973295
 30
0.0
 40
0.0670679637177274
100
AcDbArc
 50
24.07137283704976
 51
29.56132085152971
  0
ARC
  5
F7E
330
1E
100
AcDbEntity
  8
803
  6
L0
 62
     1
100
AcDbCircle
 10
9.560125690100349
 20
11.23094368908079
 30
0.0
 40
0.1236295012106492
100
AcDbArc
 50
10.48474017488218
 51
24.07493202679731
  0
ARC
  5
F7F
330
1E
100
AcDbEntity
  8
803
  6
L0
 62
     1
100
AcDbCircle
 10
9.727201309899651
 20
11.23094368908079
 30
0.0
 40
0.1236295012106481
100
AcDbArc
 50
155.925067973206
 51
169.515259825121
  0
ARC
  5
F80
330
1E
100
AcDbEntity
  8
803
  6
L0
 62
     1
100
AcDbCircle
 10
9.675549178675593
 20
11.25401103445909
 30
0.0
 40
0.0670605617796243
100
AcDbArc
 50
150.4265799979995
 51
155.9167570641087
  0
ARC
  5
F81
330
1E
100
AcDbEntity
  8
803
  6
L0
 62
     1
100
AcDbCircle
 10
9.61177482362638
 20
11.41340780026704
 30
0.0
 40
0.0670586462004064
100
AcDbArc
 50
330.4346548312299
 51
335.92460284571
  0
ARC
  5
F82
330
1E
100
AcDbEntity
  8
803
  6
L0
 62
     1
100
AcDbCircle
 10
9.675562104876121
 20
11.41341872876954
 30
0.0
 40
0.0670726744023791
100
AcDbArc
 50
204.079332321329
 51
209.5692803358089
  0
LINE
  5
F83
330
1E
100
AcDbEntity
  8
803
  6
L0
 62
     1
100
AcDbLine
 10
9.617224999999999
 20
11.38031999999999
 30
0.0
 11
9.670102999999999
 21
11.287108
 31
0.0
  0
LINE
  5
F84
330
1E
100
AcDbEntity
  8
803
  6
L0
 62
     1
100
AcDbLine
 10
9.670102999999999
 20
11.38031999999999
 30
0.0
 11
9.617224999999999
 21
11.287108
 31
0.0
  0
ARC
  5
F85
330
1E
100
AcDbEntity
  8
803
  6
L0
 62
     1
100
AcDbCircle
 10
9.643664267400266
 20
11.5244139850854
 30
0.0
 40
0.0201530149163685
100
AcDbArc
 50
90.00076022901877
 51
132.8328538711323
  0
ARC
  5
F86
330
1E
100
AcDbEntity
  8
803
  6
L0
 62
     1
100
AcDbCircle
 10
9.611775823626395
 20
11.84891719973295
 30
0.0
 40
0.0670586462003917
100
AcDbArc
 50
24.07539715429559
 51
29.5653451687755
  0
ARC
  5
F87
330
1E
100
AcDbEntity
  8
803
  6
L0
 62
     1
100
AcDbCircle
 10
9.56012569010034
 20
11.82583968908079
 30
0.0
 40
0.1236295012106576
100
AcDbArc
 50
10.48474017488062
 51
24.07493202679563
  0
ARC
  5
F88
330
1E
100
AcDbEntity
  8
803
  6
L0
 62
     1
100
AcDbCircle
 10
9.477860288439206
 20
11.81061122835798
 30
0.0
 40
0.2072927115793226
100
AcDbArc
 50
0.0007660828417314
 51
10.48613479907153
  0
ARC
  5
F89
330
1E
100
AcDbEntity
  8
803
  6
L0
 62
     1
100
AcDbCircle
 10
9.477860288439215
 20
11.81061677164201
 30
0.0
 40
0.2072927115793135
100
AcDbArc
 50
349.5138652009284
 51
359.9992339171582
  0
ARC
  5
F8A
330
1E
100
AcDbEntity
  8
803
  6
L0
 62
     1
100
AcDbCircle
 10
9.560125690100349
 20
11.7953863109192
 30
0.0
 40
0.1236295012106486
100
AcDbArc
 50
335.9250679732034
 51
349.5152598251186
  0
ARC
  5
F8B
330
1E
100
AcDbEntity
  8
803
  6
L0
 62
     1
100
AcDbCircle
 10
9.611770218411447
 20
11.77231160218203
 30
0.0
 40
0.067063585875888
100
AcDbArc
 50
312.8326248084722
 51
335.9248023183935
  0
ARC
  5
F8C
330
1E
100
AcDbEntity
  8
803
  6
L0
 62
     1
100
AcDbCircle
 10
9.643664046306691
 20
11.73791141569923
 30
0.0
 40
0.0201524157263929
100
AcDbArc
 50
269.9970252222703
 51
312.8293401353195
  0
ARC
  5
F8D
330
1E
100
AcDbEntity
  8
803
  6
L0
 62
     1
100
AcDbCircle
 10
9.643662764971734
 20
11.73791093460128
 30
0.0
 40
0.0201519346026599
100
AcDbArc
 50
227.170123486764
 51
270.0006682300202
  0
ARC
  5
F8E
330
1E
100
AcDbEntity
  8
803
  6
L0
 62
     1
100
AcDbCircle
 10
9.675558189855907
 20
11.77231416331913
 30
0.0
 40
0.0670664214944624
100
AcDbArc
 50
204.0755760725526
 51
227.1679804466963
  0
ARC
  5
F8F
330
1E
100
AcDbEntity
  8
803
  6
L0
 62
     1
100
AcDbCircle
 10
9.727201309899651
 20
11.7953873109192
 30
0.0
 40
0.1236295012106476
100
AcDbArc
 50
190.4847401748781
 51
204.0749320267932
  0
ARC
  5
F90
330
1E
100
AcDbEntity
  8
803
  6
L0
 62
     1
100
AcDbCircle
 10
9.809467211560784
 20
11.81061132254564
 30
0.0
 40
0.2072922115780753
100
AcDbArc
 50
179.9992599488747
 51
190.4846286651045
  0
ARC
  5
F91
330
1E
100
AcDbEntity
  8
803
  6
L0
 62
     1
100
AcDbCircle
 10
9.809467211560793
 20
11.81061667745435
 30
0.0
 40
0.2072922115780841
100
AcDbArc
 50
169.5153713348959
 51
180.0007400511257
  0
ARC
  5
F92
330
1E
100
AcDbEntity
  8
803
  6
L0
 62
     1
100
AcDbCircle
 10
9.727201309899651
 20
11.82584068908079
 30
0.0
 40
0.1236295012106481
100
AcDbArc
 50
155.925067973206
 51
169.515259825121
  0
ARC
  5
F93
330
1E
100
AcDbEntity
  8
803
  6
L0
 62
     1
100
AcDbCircle
 10
9.675549178675593
 20
11.84890803445908
 30
0.0
 40
0.0670605617796243
100
AcDbArc
 50
150.4265799979995
 51
155.9167570641087
  0
ARC
  5
F94
330
1E
100
AcDbEntity
  8
803
  6
L0
 62
     1
100
AcDbCircle
 10
9.643664312850258
 20
12.11931026382813
 30
0.0
 40
0.0201517361742952
100
AcDbArc
 50
47.16990221530346
 51
90.0008895014967
  0
ARC
  5
F95
330
1E
100
AcDbEntity
  8
803
  6
L0
 62
     1
100
AcDbCircle
 10
9.611771257618887
 20
12.08490733668086
 30
0.0
 40
0.0670643909164453
100
AcDbArc
 50
24.07681907729947
 51
47.16922345144312
  0
ARC
  5
F96
330
1E
100
AcDbEntity
  8
803
  6
L0
 62
     1
100
AcDbCircle
 10
9.560125690100349
 20
12.06183368908078
 30
0.0
 40
0.1236295012106492
100
AcDbArc
 50
10.48474017488218
 51
24.07493202679731
  0
ARC
  5
F97
330
1E
100
AcDbEntity
  8
803
  6
L0
 62
     1
100
AcDbCircle
 10
9.477854839342837
 20
12.04660472835798
 30
0.0
 40
0.2072981606696087
100
AcDbArc
 50
0.0006278661588223
 51
10.4859965823886
  0
ARC
  5
F98
330
1E
100
AcDbEntity
  8
803
  6
L0
 62
     1
100
AcDbCircle
 10
9.477860288439215
 20
12.04660977164201
 30
0.0
 40
0.2072927115793135
100
AcDbArc
 50
349.5138652009284
 51
359.9992339171582
  0
ARC
  5
F99
330
1E
100
AcDbEntity
  8
803
  6
L0
 62
     1
100
AcDbCircle
 10
9.56012569010034
 20
12.03138031091921
 30
0.0
 40
0.1236295012106575
100
AcDbArc
 50
335.9250679732043
 51
349.5152598251194
  0
ARC
  5
F9A
330
1E
100
AcDbEntity
  8
803
  6
L0
 62
     1
100
AcDbCircle
 10
9.611764395123879
 20
12.00830330026704
 30
0.0
 40
0.0670679637177436
100
AcDbArc
 50
330.4386791484763
 51
335.9286271629564
  0
ARC
  5
F9B
330
1E
100
AcDbEntity
  8
803
  6
L0
 62
     1
100
AcDbCircle
 10
9.675551676373602
 20
12.00831422876954
 30
0.0
 40
0.0670633575395102
100
AcDbArc
 50
204.0833574617065
 51
209.5733054761864
  0
ARC
  5
F9C
330
1E
100
AcDbEntity
  8
803
  6
L0
 62
     1
100
AcDbCircle
 10
9.727201309899651
 20
12.0313813109192
 30
0.0
 40
0.1236295012106479
100
AcDbArc
 50
190.4847401748789
 51
204.0749320267939
  0
ARC
  5
F9D
330
1E
100
AcDbEntity
  8
803
  6
L0
 62
     1
100
AcDbCircle
 10
9.80947172043461
 20
12.04660573621366
 30
0.0
 40
0.2072967204469701
100
AcDbArc
 50
179.9993743007474
 51
190.4845143132308
  0
ARC
  5
F9E
330
1E
100
AcDbEntity
  8
803
  6
L0
 62
     1
100
AcDbCircle
 10
9.809467211560784
 20
12.04661067745435
 30
0.0
 40
0.2072922115780754
100
AcDbArc
 50
169.5153713348954
 51
180.0007400511252
  0
ARC
  5
F9F
330
1E
100
AcDbEntity
  8
803
  6
L0
 62
     1
100
AcDbCircle
 10
9.727201309899651
 20
12.06183468908079
 30
0.0
 40
0.1236295012106474
100
AcDbArc
 50
155.9250679732067
 51
169.5152598251218
  0
ARC
  5
FA0
330
1E
100
AcDbEntity
  8
803
  6
L0
 62
     1
100
AcDbCircle
 10
9.675555742381114
 20
12.08490733668086
 30
0.0
 40
0.0670643909164468
100
AcDbArc
 50
132.8307765485579
 51
155.9231809227011
  0
ARC
  5
FA1
330
1E
100
AcDbEntity
  8
803
  6
L0
 62
     1
100
AcDbCircle
 10
9.643662992601717
 20
12.1193094850854
 30
0.0
 40
0.0201525149397733
100
AcDbArc
 50
89.99713585773037
 51
132.8292294998435
  0
LINE
  5
FA2
330
1E
100
AcDbEntity
  8
803
  6
L0
 62
     1
100
AcDbLine
 10
9.670102999999999
 20
12.546783
 30
0.0
 11
9.617224999999999
 21
12.453571
 31
0.0
  0
LINE
  5
FA3
330
1E
100
AcDbEntity
  8
803
  6
L0
 62
     1
100
AcDbLine
 10
9.617224999999999
 20
12.546783
 30
0.0
 11
9.670102999999999
 21
12.453571
 31
0.0
  0
ARC
  5
FA4
330
1E
100
AcDbEntity
  8
803
  6
L0
 62
     1
100
AcDbCircle
 10
9.611775823626395
 20
12.42048419973295
 30
0.0
 40
0.0670586462003925
100
AcDbArc
 50
24.07539715429697
 51
29.56534516877682
  0
ARC
  5
FA5
330
1E
100
AcDbEntity
  8
803
  6
L0
 62
     1
100
AcDbCircle
 10
9.56012569010034
 20
12.39740668908078
 30
0.0
 40
0.1236295012106576
100
AcDbArc
 50
10.48474017488062
 51
24.07493202679563
  0
ARC
  5
FA6
330
1E
100
AcDbEntity
  8
803
  6
L0
 62
     1
100
AcDbCircle
 10
9.477861228781289
 20
12.38217731457044
 30
0.0
 40
0.2072917712514714
100
AcDbArc
 50
0.0010186586650014
 51
10.48615867114829
  0
ARC
  5
FA7
330
1E
100
AcDbEntity
  8
803
  6
L0
 62
     1
100
AcDbCircle
 10
9.477860288439215
 20
12.38218377164201
 30
0.0
 40
0.2072927115793138
100
AcDbArc
 50
349.513865200928
 51
359.9992339171577
  0
ARC
  5
FA8
330
1E
100
AcDbEntity
  8
803
  6
L0
 62
     1
100
AcDbCircle
 10
9.560125690100349
 20
12.36695331091921
 30
0.0
 40
0.1236295012106494
100
AcDbArc
 50
335.9250679732027
 51
349.5152598251178
  0
ARC
  5
FA9
330
1E
100
AcDbEntity
  8
803
  6
L0
 62
     1
100
AcDbCircle
 10
9.611771296815769
 20
12.34387782951421
 30
0.0
 40
0.0670622860831057
100
AcDbArc
 50
312.8323979442722
 51
335.9250291825933
  0
ARC
  5
FAA
330
1E
100
AcDbEntity
  8
803
  6
L0
 62
     1
100
AcDbCircle
 10
9.643664201936369
 20
12.30947801884789
 30
0.0
 40
0.020152018883739
100
AcDbArc
 50
269.9965826807909
 51
312.8297826768019
  0
ARC
  5
FAB
330
1E
100
AcDbEntity
  8
803
  6
L0
 62
     1
100
AcDbCircle
 10
9.643662570419737
 20
12.30947743853533
 30
0.0
 40
0.0201514385399153
100
AcDbArc
 50
227.1695703083991
 51
270.0012214083863
  0
ARC
  5
FAC
330
1E
100
AcDbEntity
  8
803
  6
L0
 62
     1
100
AcDbCircle
 10
9.675558189855907
 20
12.34388116331913
 30
0.0
 40
0.0670664214944631
100
AcDbArc
 50
204.0755760725539
 51
227.1679804466973
  0
ARC
  5
FAD
330
1E
100
AcDbEntity
  8
803
  6
L0
 62
     1
100
AcDbCircle
 10
9.727201309899651
 20
12.3669543109192
 30
0.0
 40
0.1236295012106479
100
AcDbArc
 50
190.4847401748789
 51
204.0749320267939
  0
ARC
  5
FAE
330
1E
100
AcDbEntity
  8
803
  6
L0
 62
     1
100
AcDbCircle
 10
9.809467211560784
 20
12.38217832254564
 30
0.0
 40
0.2072922115780753
100
AcDbArc
 50
179.9992599488741
 51
190.484628665104
  0
ARC
  5
FAF
330
1E
100
AcDbEntity
  8
803
  6
L0
 62
     1
100
AcDbCircle
 10
9.809467211560793
 20
12.38218367745435
 30
0.0
 40
0.2072922115780841
100
AcDbArc
 50
169.5153713348959
 51
180.0007400511257
  0
ARC
  5
FB0
330
1E
100
AcDbEntity
  8
803
  6
L0
 62
     1
100
AcDbCircle
 10
9.727199102118154
 20
12.39740657050881
 30
0.0
 40
0.1236275338513166
100
AcDbArc
 50
155.92460040273
 51
169.5145638764459
  0
ARC
  5
FB1
330
1E
100
AcDbEntity
  8
803
  6
L0
 62
     1
100
AcDbCircle
 10
9.675549178675593
 20
12.42047503445908
 30
0.0
 40
0.0670605617796252
100
AcDbArc
 50
150.4265799979981
 51
155.9167570641073
  0
ARC
  5
FB2
330
1E
100
AcDbEntity
  8
803
  6
L0
 62
     1
100
AcDbCircle
 10
9.809467211560784
 20
13.18391267745435
 30
0.0
 40
0.207292211578075
100
AcDbArc
 50
169.5153713348959
 51
180.0007400511257
  0
ARC
  5
FB3
330
1E
100
AcDbEntity
  8
803
  6
L0
 62
     1
100
AcDbCircle
 10
9.477860288439215
 20
13.18390622835798
 30
0.0
 40
0.2072927115793137
100
AcDbArc
 50
0.0007660828422224
 51
10.48613479907197
  0
ARC
  5
FB4
330
1E
100
AcDbEntity
  8
803
  6
L0
 62
     1
100
AcDbCircle
 10
9.611770218411447
 20
12.90961360218204
 30
0.0
 40
0.0670635858758893
100
AcDbArc
 50
312.8326248084711
 51
335.9248023183922
  0
ARC
  5
FB5
330
1E
100
AcDbEntity
  8
803
  6
L0
 62
     1
100
AcDbCircle
 10
9.675558189855907
 20
12.90961616331913
 30
0.0
 40
0.0670664214944631
100
AcDbArc
 50
204.0755760725539
 51
227.1679804466973
  0
ARC
  5
FB6
330
1E
100
AcDbEntity
  8
803
  6
L0
 62
     1
100
AcDbCircle
 10
9.643664046306694
 20
12.87521341569922
 30
0.0
 40
0.0201524157263912
100
AcDbArc
 50
269.9970252222602
 51
312.829340135312
  0
ARC
  5
FB7
330
1E
100
AcDbEntity
  8
803
  6
L0
 62
     1
100
AcDbCircle
 10
9.643662764971731
 20
12.87521293460128
 30
0.0
 40
0.0201519346026575
100
AcDbArc
 50
227.1701234867714
 51
270.0006682300303
  0
ARC
  5
FB8
330
1E
100
AcDbEntity
  8
803
  6
L0
 62
     1
100
AcDbCircle
 10
9.643664312850258
 20
12.69087826382813
 30
0.0
 40
0.0201517361742965
100
AcDbArc
 50
47.1699022153069
 51
90.0008895014967
  0
ARC
  5
FB9
330
1E
100
AcDbEntity
  8
803
  6
L0
 62
     1
100
AcDbCircle
 10
9.611771257618883
 20
12.65647433668086
 30
0.0
 40
0.0670643909164479
100
AcDbArc
 50
24.07681907729684
 51
47.16922345144088
  0
ARC
  5
FBA
330
1E
100
AcDbEntity
  8
803
  6
L0
 62
     1
100
AcDbCircle
 10
9.560125690100349
 20
12.63340168908078
 30
0.0
 40
0.1236295012106492
100
AcDbArc
 50
10.48474017488218
 51
24.07493202679731
  0
ARC
  5
FBB
330
1E
100
AcDbEntity
  8
803
  6
L0
 62
     1
100
AcDbCircle
 10
9.477860288439215
 20
12.61817222835798
 30
0.0
 40
0.2072927115793137
100
AcDbArc
 50
0.0007660828422224
 51
10.48613479907197
  0
ARC
  5
FBC
330
1E
100
AcDbEntity
  8
803
  6
L0
 62
     1
100
AcDbCircle
 10
9.477860288439206
 20
12.61817777164201
 30
0.0
 40
0.2072927115793226
100
AcDbArc
 50
349.5138652009284
 51
359.9992339171582
  0
ARC
  5
FBD
330
1E
100
AcDbEntity
  8
803
  6
L0
 62
     1
100
AcDbCircle
 10
9.560127897881846
 20
12.60294842949119
 30
0.0
 40
0.1236275338513186
100
AcDbArc
 50
335.9246004027259
 51
349.5145638764419
  0
ARC
  5
FBE
330
1E
100
AcDbEntity
  8
803
  6
L0
 62
     1
100
AcDbCircle
 10
9.727201309899651
 20
12.6029483109192
 30
0.0
 40
0.1236295012106476
100
AcDbArc
 50
190.4847401748781
 51
204.0749320267932
  0
ARC
  5
FBF
330
1E
100
AcDbEntity
  8
803
  6
L0
 62
     1
100
AcDbCircle
 10
9.809467211560793
 20
12.61817232254564
 30
0.0
 40
0.2072922115780841
100
AcDbArc
 50
179.9992599488741
 51
190.484628665104
  0
ARC
  5
FC0
330
1E
100
AcDbEntity
  8
803
  6
L0
 62
     1
100
AcDbCircle
 10
9.809467211560784
 20
12.61817767745435
 30
0.0
 40
0.207292211578075
100
AcDbArc
 50
169.5153713348959
 51
180.0007400511257
  0
ARC
  5
FC1
330
1E
100
AcDbEntity
  8
803
  6
L0
 62
     1
100
AcDbCircle
 10
9.727201309899651
 20
12.63340268908079
 30
0.0
 40
0.1236295012106481
100
AcDbArc
 50
155.925067973206
 51
169.515259825121
  0
ARC
  5
FC2
330
1E
100
AcDbEntity
  8
803
  6
L0
 62
     1
100
AcDbCircle
 10
9.675554663997912
 20
12.65647510938297
 30
0.0
 40
0.0670630911214458
100
AcDbArc
 50
132.8305496844063
 51
155.9234077868586
  0
ARC
  5
FC3
330
1E
100
AcDbEntity
  8
803
  6
L0
 62
     1
100
AcDbCircle
 10
9.643662992601717
 20
12.6908774850854
 30
0.0
 40
0.0201525149397751
100
AcDbArc
 50
89.99713585773037
 51
132.8292294998401
  0
ARC
  5
FC4
330
1E
100
AcDbEntity
  8
803
  6
L0
 62
     1
100
AcDbCircle
 10
9.675562104876101
 20
13.14561672876954
 30
0.0
 40
0.0670726744023612
100
AcDbArc
 50
204.0793323213358
 51
209.5692803358158
  0
ARC
  5
FC5
330
1E
100
AcDbEntity
  8
803
  6
L0
 62
     1
100
AcDbCircle
 10
9.72720130989966
 20
13.1686833109192
 30
0.0
 40
0.1236295012106563
100
AcDbArc
 50
190.4847401748773
 51
204.0749320267922
  0
ARC
  5
FC6
330
1E
100
AcDbEntity
  8
803
  6
L0
 62
     1
100
AcDbCircle
 10
9.80947172043461
 20
13.18390773621366
 30
0.0
 40
0.2072967204469701
100
AcDbArc
 50
179.9993743007474
 51
190.4845143132308
  0
ARC
  5
FC7
330
1E
100
AcDbEntity
  8
803
  6
L0
 62
     1
100
AcDbCircle
 10
9.477860288439215
 20
13.18391177164201
 30
0.0
 40
0.2072927115793138
100
AcDbArc
 50
349.513865200928
 51
359.9992339171577
  0
ARC
  5
FC8
330
1E
100
AcDbEntity
  8
803
  6
L0
 62
     1
100
AcDbCircle
 10
9.56012569010034
 20
13.16868231091921
 30
0.0
 40
0.1236295012106575
100
AcDbArc
 50
335.9250679732043
 51
349.5152598251194
  0
ARC
  5
FC9
330
1E
100
AcDbEntity
  8
803
  6
L0
 62
     1
100
AcDbCircle
 10
9.611774823626397
 20
13.14560580026704
 30
0.0
 40
0.0670586462003909
100
AcDbArc
 50
330.4346548312224
 51
335.9246028457024
  0
ARC
  5
FCA
330
1E
100
AcDbEntity
  8
803
  6
L0
 62
     1
100
AcDbCircle
 10
9.611775823626377
 20
12.98621919973295
 30
0.0
 40
0.067058646200408
100
AcDbArc
 50
24.07539715428939
 51
29.56534516876933
  0
ARC
  5
FCB
330
1E
100
AcDbEntity
  8
803
  6
L0
 62
     1
100
AcDbCircle
 10
9.560125690100349
 20
12.96314168908079
 30
0.0
 40
0.1236295012106492
100
AcDbArc
 50
10.48474017488218
 51
24.07493202679731
  0
ARC
  5
FCC
330
1E
100
AcDbEntity
  8
803
  6
L0
 62
     1
100
AcDbCircle
 10
9.477860288439215
 20
12.94791322835799
 30
0.0
 40
0.2072927115793137
100
AcDbArc
 50
0.0007660828417314
 51
10.48613479907149
  0
ARC
  5
FCD
330
1E
100
AcDbEntity
  8
803
  6
L0
 62
     1
100
AcDbCircle
 10
9.477860288439206
 20
12.94791877164201
 30
0.0
 40
0.2072927115793226
100
AcDbArc
 50
349.5138652009284
 51
359.9992339171582
  0
ARC
  5
FCE
330
1E
100
AcDbEntity
  8
803
  6
L0
 62
     1
100
AcDbCircle
 10
9.560127897881846
 20
12.93268942949119
 30
0.0
 40
0.1236275338513179
100
AcDbArc
 50
335.9246004027267
 51
349.5145638764427
  0
ARC
  5
FCF
330
1E
100
AcDbEntity
  8
803
  6
L0
 62
     1
100
AcDbCircle
 10
9.727201309899651
 20
12.9326893109192
 30
0.0
 40
0.1236295012106479
100
AcDbArc
 50
190.4847401748789
 51
204.0749320267939
  0
ARC
  5
FD0
330
1E
100
AcDbEntity
  8
803
  6
L0
 62
     1
100
AcDbCircle
 10
9.809467211560793
 20
12.94791332254564
 30
0.0
 40
0.2072922115780841
100
AcDbArc
 50
179.9992599488741
 51
190.484628665104
  0
ARC
  5
FD1
330
1E
100
AcDbEntity
  8
803
  6
L0
 62
     1
100
AcDbCircle
 10
9.809467211560784
 20
12.94791867745435
 30
0.0
 40
0.2072922115780754
100
AcDbArc
 50
169.5153713348954
 51
180.0007400511252
  0
ARC
  5
FD2
330
1E
100
AcDbEntity
  8
803
  6
L0
 62
     1
100
AcDbCircle
 10
9.727201309899651
 20
12.96314268908079
 30
0.0
 40
0.1236295012106474
100
AcDbArc
 50
155.9250679732067
 51
169.5152598251218
  0
ARC
  5
FD3
330
1E
100
AcDbEntity
  8
803
  6
L0
 62
     1
100
AcDbCircle
 10
9.675549178675611
 20
12.98621003445909
 30
0.0
 40
0.0670605617796406
100
AcDbArc
 50
150.4265799980056
 51
155.9167570641148
  0
LINE
  5
FD4
330
1E
100
AcDbEntity
  8
803
  6
L0
 62
     1
100
AcDbLine
 10
9.617224999999999
 20
13.11251799999999
 30
0.0
 11
9.670102999999999
 21
13.019307
 31
0.0
  0
LINE
  5
FD5
330
1E
100
AcDbEntity
  8
803
  6
L0
 62
     1
100
AcDbLine
 10
9.670102999999999
 20
13.11251799999999
 30
0.0
 11
9.617224999999999
 21
13.019307
 31
0.0
  0
ARC
  5
FD6
330
1E
100
AcDbEntity
  8
803
  6
L0
 62
     1
100
AcDbCircle
 10
9.477860288439215
 20
13.51364722835799
 30
0.0
 40
0.2072927115793137
100
AcDbArc
 50
0.0007660828417314
 51
10.48613479907149
  0
ARC
  5
FD7
330
1E
100
AcDbEntity
  8
803
  6
L0
 62
     1
100
AcDbCircle
 10
9.809467211560784
 20
13.51365367745435
 30
0.0
 40
0.2072922115780754
100
AcDbArc
 50
169.5153713348954
 51
180.0007400511252
  0
ARC
  5
FD8
330
1E
100
AcDbEntity
  8
803
  6
L0
 62
     1
100
AcDbCircle
 10
9.72720130989966
 20
13.19913568908079
 30
0.0
 40
0.1236295012106562
100
AcDbArc
 50
155.9250679732077
 51
169.5152598251226
  0
ARC
  5
FD9
330
1E
100
AcDbEntity
  8
803
  6
L0
 62
     1
100
AcDbCircle
 10
9.675555742381114
 20
13.22220933668086
 30
0.0
 40
0.0670643909164468
100
AcDbArc
 50
132.8307765485579
 51
155.9231809227011
  0
ARC
  5
FDA
330
1E
100
AcDbEntity
  8
803
  6
L0
 62
     1
100
AcDbCircle
 10
9.643662836970451
 20
13.25661188194079
 30
0.0
 40
0.0201521180927706
100
AcDbArc
 50
89.99669331609251
 51
132.8296720414855
  0
ARC
  5
FDB
330
1E
100
AcDbEntity
  8
803
  6
L0
 62
     1
100
AcDbCircle
 10
9.643664468489468
 20
13.25661266067481
 30
0.0
 40
0.020151339330633
100
AcDbArc
 50
47.16945967284867
 51
90.0013320439355
  0
ARC
  5
FDC
330
1E
100
AcDbEntity
  8
803
  6
L0
 62
     1
100
AcDbCircle
 10
9.611768810144093
 20
13.22220883668086
 30
0.0
 40
0.0670664214944607
100
AcDbArc
 50
24.0755760725532
 51
47.16798044669743
  0
ARC
  5
FDD
330
1E
100
AcDbEntity
  8
803
  6
L0
 62
     1
100
AcDbCircle
 10
9.56012569010034
 20
13.19913568908078
 30
0.0
 40
0.1236295012106576
100
AcDbArc
 50
10.48474017488062
 51
24.07493202679563
  0
ARC
  5
FDE
330
1E
100
AcDbEntity
  8
803
  6
L0
 62
     1
100
AcDbCircle
 10
9.477860288439215
 20
13.51365277164201
 30
0.0
 40
0.2072927115793135
100
AcDbArc
 50
349.5138652009284
 51
359.9992339171582
  0
ARC
  5
FDF
330
1E
100
AcDbEntity
  8
803
  6
L0
 62
     1
100
AcDbCircle
 10
9.56012569010034
 20
13.49842231091921
 30
0.0
 40
0.1236295012106575
100
AcDbArc
 50
335.9250679732043
 51
349.5152598251194
  0
ARC
  5
FE0
330
1E
100
AcDbEntity
  8
803
  6
L0
 62
     1
100
AcDbCircle
 10
9.611771296815764
 20
13.47534782951421
 30
0.0
 40
0.0670622860831106
100
AcDbArc
 50
312.8323979442745
 51
335.9250291825951
  0
ARC
  5
FE1
330
1E
100
AcDbEntity
  8
803
  6
L0
 62
     1
100
AcDbCircle
 10
9.643662771515389
 20
13.44094691569923
 30
0.0
 40
0.0201529157005232
100
AcDbArc
 50
270.0006495935415
 51
312.8329645065922
  0
ARC
  5
FE2
330
1E
100
AcDbEntity
  8
803
  6
L0
 62
     1
100
AcDbCircle
 10
9.643664039820968
 20
13.44094643460128
 30
0.0
 40
0.0201524346281119
100
AcDbArc
 50
227.1664989214846
 51
269.9970436647436
  0
ARC
  5
FE3
330
1E
100
AcDbEntity
  8
803
  6
L0
 62
     1
100
AcDbCircle
 10
9.675557650634322
 20
13.47535077696429
 30
0.0
 40
0.0670657715707931
100
AcDbArc
 50
204.0754626404628
 51
227.1680938787832
  0
ARC
  5
FE4
330
1E
100
AcDbEntity
  8
803
  6
L0
 62
     1
100
AcDbCircle
 10
9.72720130989966
 20
13.4984233109192
 30
0.0
 40
0.1236295012106563
100
AcDbArc
 50
190.4847401748773
 51
204.0749320267922
  0
ARC
  5
FE5
330
1E
100
AcDbEntity
  8
803
  6
L0
 62
     1
100
AcDbCircle
 10
9.80947172043462
 20
13.51364873621366
 30
0.0
 40
0.2072967204469807
100
AcDbArc
 50
179.9993743007474
 51
190.4845143132307
  0
ARC
  5
FE6
330
1E
100
AcDbEntity
  8
803
  6
L0
 62
     1
100
AcDbCircle
 10
9.643663193683684
 20
13.82234816067481
 30
0.0
 40
0.0201518393413155
100
AcDbArc
 50
47.16583510756699
 51
89.99770747865568
  0
ARC
  5
FE7
330
1E
100
AcDbEntity
  8
803
  6
L0
 62
     1
100
AcDbCircle
 10
9.611770718411451
 20
13.78794395031846
 30
0.0
 40
0.0670650408334272
100
AcDbArc
 50
24.07693250941306
 51
47.16911001933416
  0
ARC
  5
FE8
330
1E
100
AcDbEntity
  8
803
  6
L0
 62
     1
100
AcDbCircle
 10
9.56012569010034
 20
13.76487068908079
 30
0.0
 40
0.1236295012106576
100
AcDbArc
 50
10.48474017488062
 51
24.07493202679563
  0
ARC
  5
FE9
330
1E
100
AcDbEntity
  8
803
  6
L0
 62
     1
100
AcDbCircle
 10
9.4778612287813
 20
13.74964131457044
 30
0.0
 40
0.2072917712514608
100
AcDbArc
 50
0.0010186586654924
 51
10.48615867114882
  0
ARC
  5
FEA
330
1E
100
AcDbEntity
  8
803
  6
L0
 62
     1
100
AcDbCircle
 10
9.477860288439195
 20
13.74964777164201
 30
0.0
 40
0.207292711579333
100
AcDbArc
 50
349.5138652009289
 51
359.9992339171587
  0
ARC
  5
FEB
330
1E
100
AcDbEntity
  8
803
  6
L0
 62
     1
100
AcDbCircle
 10
9.56012569010034
 20
13.73441731091921
 30
0.0
 40
0.1236295012106575
100
AcDbArc
 50
335.9250679732043
 51
349.5152598251194
  0
ARC
  5
FEC
330
1E
100
AcDbEntity
  8
803
  6
L0
 62
     1
100
AcDbCircle
 10
9.611774823626397
 20
13.71134080026704
 30
0.0
 40
0.0670586462003909
100
AcDbArc
 50
330.4346548312224
 51
335.9246028457024
  0
ARC
  5
FED
330
1E
100
AcDbEntity
  8
803
  6
L0
 62
     1
100
AcDbCircle
 10
9.675562104876101
 20
13.71135172876954
 30
0.0
 40
0.0670726744023612
100
AcDbArc
 50
204.0793323213358
 51
209.5692803358158
  0
ARC
  5
FEE
330
1E
100
AcDbEntity
  8
803
  6
L0
 62
     1
100
AcDbCircle
 10
9.727201309899651
 20
13.7344183109192
 30
0.0
 40
0.1236295012106479
100
AcDbArc
 50
190.4847401748789
 51
204.0749320267939
  0
ARC
  5
FEF
330
1E
100
AcDbEntity
  8
803
  6
L0
 62
     1
100
AcDbCircle
 10
9.809467211560804
 20
13.74964232254564
 30
0.0
 40
0.2072922115780948
100
AcDbArc
 50
179.9992599488741
 51
190.484628665104
  0
ARC
  5
FF0
330
1E
100
AcDbEntity
  8
803
  6
L0
 62
     1
100
AcDbCircle
 10
9.809467211560784
 20
13.74964767745435
 30
0.0
 40
0.207292211578075
100
AcDbArc
 50
169.5153713348959
 51
180.0007400511257
  0
ARC
  5
FF1
330
1E
100
AcDbEntity
  8
803
  6
L0
 62
     1
100
AcDbCircle
 10
9.72720130989966
 20
13.76487068908079
 30
0.0
 40
0.1236295012106562
100
AcDbArc
 50
155.9250679732077
 51
169.5152598251226
  0
ARC
  5
FF2
330
1E
100
AcDbEntity
  8
803
  6
L0
 62
     1
100
AcDbCircle
 10
9.675554663997903
 20
13.78794510938297
 30
0.0
 40
0.0670630911214385
100
AcDbArc
 50
132.8305496844017
 51
155.9234077868541
  0
ARC
  5
FF3
330
1E
100
AcDbEntity
  8
803
  6
L0
 62
     1
100
AcDbCircle
 10
9.643664267400261
 20
13.8223469850854
 30
0.0
 40
0.0201530149163668
100
AcDbArc
 50
90.0007602290036
 51
132.8328538711178
  0
ARC
  5
FF4
330
1E
100
AcDbEntity
  8
803
  6
L0
 62
     1
100
AcDbCircle
 10
9.611765395123876
 20
13.55195369973295
 30
0.0
 40
0.0670679637177452
100
AcDbArc
 50
24.07137283704295
 51
29.5613208515228
  0
ARC
  5
FF5
330
1E
100
AcDbEntity
  8
803
  6
L0
 62
     1
100
AcDbCircle
 10
9.56012569010034
 20
13.52887668908079
 30
0.0
 40
0.1236295012106576
100
AcDbArc
 50
10.48474017488062
 51
24.07493202679563
  0
ARC
  5
FF6
330
1E
100
AcDbEntity
  8
803
  6
L0
 62
     1
100
AcDbCircle
 10
9.72720130989966
 20
13.52887668908079
 30
0.0
 40
0.1236295012106562
100
AcDbArc
 50
155.9250679732077
 51
169.5152598251226
  0
LINE
  5
FF7
330
1E
100
AcDbEntity
  8
803
  6
L0
 62
     1
100
AcDbLine
 10
9.670102999999999
 20
13.678254
 30
0.0
 11
9.617224999999999
 21
13.585042
 31
0.0
  0
LINE
  5
FF8
330
1E
100
AcDbEntity
  8
803
  6
L0
 62
     1
100
AcDbLine
 10
9.617224999999999
 20
13.678254
 30
0.0
 11
9.670102999999999
 21
13.585042
 31
0.0
  0
ARC
  5
FF9
330
1E
100
AcDbEntity
  8
803
  6
L0
 62
     1
100
AcDbCircle
 10
9.675549178675593
 20
13.55194503445909
 30
0.0
 40
0.0670605617796243
100
AcDbArc
 50
150.4265799979995
 51
155.9167570641087
  0
LINE
  5
FFA
330
1E
100
AcDbEntity
  8
803
  6
L3
 62
     4
100
AcDbLine
 10
9.183841000000001
 20
14.461976
 30
0.0
 11
7.1875
 21
14.461976
 31
0.0
  0
LINE
  5
FFB
330
1E
100
AcDbEntity
  8
803
  6
L5
 62
     2
100
AcDbLine
 10
7.343236
 20
13.978245
 30
0.0
 11
7.031763999999999
 21
13.978245
 31
0.0
  0
LINE
  5
FFC
330
1E
100
AcDbEntity
  8
803
  6
L3
 62
     4
100
AcDbLine
 10
7.1875
 20
13.978245
 30
0.0
 11
7.1875
 21
14.461976
 31
0.0
  0
LINE
  5
FFD
330
1E
100
AcDbEntity
  8
803
  6
L3
 62
     4
100
AcDbLine
 10
9.183841000000001
 20
14.090549
 30
0.0
 11
9.183841000000001
 21
14.461976
 31
0.0
  0
ARC
  5
FFE
330
1E
100
AcDbEntity
  8
803
  6
L0
 62
     1
100
AcDbCircle
 10
9.183841416320358
 20
14.04548265018715
 30
0.0
 40
0.0450663498147633
100
AcDbArc
 50
90.00052929512866
 51
170.5009581819916
  0
ARC
  5
FFF
330
1E
100
AcDbEntity
  8
803
  6
L0
 62
     1
100
AcDbCircle
 10
9.183840583679641
 20
14.04548265018716
 30
0.0
 40
0.0450663498147617
100
AcDbArc
 50
9.499041818006164
 51
89.99947070486905
  0
ARC
  5
1000
330
1E
100
AcDbEntity
  8
803
  6
L0
 62
     1
100
AcDbCircle
 10
-7.315371851097225
 20
9.930805861498837
 30
0.0
 40
20.08033807300309
100
AcDbArc
 50
356.0347338701669
 51
358.355133650203
  0
ARC
  5
1001
330
1E
100
AcDbEntity
  8
803
  6
L0
 62
     1
100
AcDbCircle
 10
32.47754535109722
 20
9.930799039711413
 30
0.0
 40
20.08032961444346
100
AcDbArc
 50
181.6443737222945
 51
183.9647735023306
  0
LINE
  5
1002
330
1E
100
AcDbEntity
  8
803
  6
L5
 62
     2
100
AcDbLine
 10
14.930291
 20
13.978245
 30
0.0
 11
14.930291
 21
7.828900999999999
 31
0.0
  0
LINE
  5
1003
330
1E
100
AcDbEntity
  8
803
  6
L5
 62
     2
100
AcDbLine
 10
15.241764
 20
7.828900999999999
 30
0.0
 11
15.241764
 21
13.978245
 31
0.0
  0
LINE
  5
1004
330
1E
100
AcDbEntity
  8
803
  6
L3
 62
     4
100
AcDbLine
 10
12.581091
 20
7.415497
 30
0.0
 11
15.086028
 21
7.415497
 31
0.0
  0
ARC
  5
1005
330
1E
100
AcDbEntity
  8
803
  6
L0
 62
     1
100
AcDbCircle
 10
4.664815016698602
 20
9.100433837397828
 30
0.0
 40
8.071407693585388
100
AcDbArc
 50
350.5001200393854
 51
356.0347329135116
  0
ARC
  5
1006
330
1E
100
AcDbEntity
  8
803
  6
L0
 62
     1
100
AcDbCircle
 10
20.49735898330138
 20
9.10043777211356
 30
0.0
 40
8.071400409080784
100
AcDbArc
 50
183.9648290361315
 51
189.4994419102577
  0
LINE
  5
1007
330
1E
100
AcDbEntity
  8
803
  6
L3
 62
     4
100
AcDbLine
 10
12.581091
 20
7.730699999999999
 30
0.0
 11
12.581091
 21
7.415497
 31
0.0
  0
ARC
  5
1008
330
1E
100
AcDbEntity
  8
803
  6
L0
 62
     1
100
AcDbCircle
 10
12.58109150329361
 20
7.775765658838118
 30
0.0
 40
0.0450656588631926
100
AcDbArc
 50
269.9980887358147
 51
350.4991237759302
  0
ARC
  5
1009
330
1E
100
AcDbEntity
  8
803
  6
L0
 62
     1
100
AcDbCircle
 10
12.58109072301125
 20
7.775765728504871
 30
0.0
 40
0.045065728510673
100
AcDbArc
 50
189.4996621472988
 51
269.9990807761242
  0
LINE
  5
100A
330
1E
100
AcDbEntity
  8
803
  6
L3
 62
     4
100
AcDbLine
 10
15.086028
 20
7.953900999999999
 30
0.0
 11
15.086028
 21
7.415497
 31
0.0
  0
LINE
  5
100B
330
1E
100
AcDbEntity
  8
803
  6
L5
 62
     2
100
AcDbLine
 10
14.930291
 20
7.828900999999999
 30
0.0
 11
15.241764
 21
7.828900999999999
 31
0.0
  0
LINE
  5
100C
330
1E
100
AcDbEntity
  8
803
  6
L5
 62
     2
100
AcDbLine
 10
17.033598
 20
12.134449
 30
0.0
 11
18.8414
 21
12.134449
 31
0.0
  0
LINE
  5
100D
330
1E
100
AcDbEntity
  8
803
  6
L5
 62
     2
100
AcDbLine
 10
16.98878699999999
 20
12.239917
 30
0.0
 11
18.886212
 21
12.239917
 31
0.0
  0
LINE
  5
100E
330
1E
100
AcDbEntity
  8
803
  6
L5
 62
     2
100
AcDbLine
 10
16.98878699999999
 20
11.18523
 30
0.0
 11
18.886212
 21
11.18523
 31
0.0
  0
LINE
  5
100F
330
1E
100
AcDbEntity
  8
803
  6
L5
 62
     2
100
AcDbLine
 10
17.033598
 20
11.29069899999999
 30
0.0
 11
18.8414
 21
11.29069899999999
 31
0.0
  0
ARC
  5
1010
330
1E
100
AcDbEntity
  8
803
  6
L0
 62
     1
100
AcDbCircle
 10
20.49736398330139
 20
12.72081285103024
 30
0.0
 40
8.071405265364772
100
AcDbArc
 50
170.5002660560831
 51
176.0348789302092
  0
ARC
  5
1011
330
1E
100
AcDbEntity
  8
803
  6
L0
 62
     1
100
AcDbCircle
 10
4.6648200166986
 20
12.72081153945836
 30
0.0
 40
8.071402837196576
100
AcDbArc
 50
3.964975053004942
 51
9.499587927131081
  0
LINE
  5
1012
330
1E
100
AcDbEntity
  8
0
  6
L0
 62
     1
100
AcDbLine
 10
12.77316
 20
11.31949499999999
 30
0.0
 11
12.77316
 21
10.459475
 31
0.0
  0
LINE
  5
1013
330
1E
100
AcDbEntity
  8
0
  6
L0
 62
     1
100
AcDbLine
 10
12.77316
 20
10.459475
 30
0.0
 11
12.77316
 21
11.31949499999999
 31
0.0
  0
LINE
  5
1014
330
1E
100
AcDbEntity
  8
0
  6
L0
 62
     1
100
AcDbLine
 10
12.389022
 20
10.459475
 30
0.0
 11
12.389022
 21
11.319592
 31
0.0
  0
ARC
  5
1015
330
1E
100
AcDbEntity
  8
803
  6
L0
 62
     1
100
AcDbCircle
 10
11.97722928843921
 20
11.21571322835798
 30
0.0
 40
0.2072927115793137
100
AcDbArc
 50
0.0007660828422224
 51
10.48613479907197
  0
ARC
  5
1016
330
1E
100
AcDbEntity
  8
803
  6
L0
 62
     1
100
AcDbCircle
 10
12.3088402204346
 20
11.21571381457043
 30
0.0
 40
0.2072972204590842
100
AcDbArc
 50
169.5139795527988
 51
179.9991195652822
  0
ARC
  5
1017
330
1E
100
AcDbEntity
  8
803
  6
L0
 62
     1
100
AcDbCircle
 10
-27.20107057905687
 20
10.50171641479415
 30
0.0
 40
39.9742305794244
100
AcDbArc
 50
358.3551644819503
 51
359.9997543081103
  0
ARC
  5
1018
330
1E
100
AcDbEntity
  8
803
  6
L0
 62
     1
100
AcDbCircle
 10
52.36324807905693
 20
10.50173488578957
 30
0.0
 40
39.97422607930955
100
AcDbArc
 50
179.9997963051379
 51
181.6443861312978
  0
ARC
  5
1019
330
1E
100
AcDbEntity
  8
803
  6
L0
 62
     1
100
AcDbCircle
 10
11.9772282884392
 20
8.892394228357979
 30
0.0
 40
0.2072927115793226
100
AcDbArc
 50
0.0007660828446773
 51
10.48613479907452
  0
ARC
  5
101A
330
1E
100
AcDbEntity
  8
803
  6
L0
 62
     1
100
AcDbCircle
 10
12.30883571156079
 20
8.892394228357979
 30
0.0
 40
0.2072927115793227
100
AcDbArc
 50
169.5138652009255
 51
179.9992339171553
  0
ARC
  5
101B
330
1E
100
AcDbEntity
  8
803
  6
L0
 62
     1
100
AcDbCircle
 10
12.14303231285025
 20
8.819693736171867
 30
0.0
 40
0.0201517361742953
100
AcDbArc
 50
269.9991104985032
 51
312.8300977846965
  0
ARC
  5
101C
330
1E
100
AcDbEntity
  8
803
  6
L0
 62
     1
100
AcDbCircle
 10
12.30883521156078
 20
8.892394322545644
 30
0.0
 40
0.207292211578077
100
AcDbArc
 50
179.9992599488747
 51
190.4846286651044
  0
ARC
  5
101D
330
1E
100
AcDbEntity
  8
803
  6
L0
 62
     1
100
AcDbCircle
 10
12.22656980989965
 20
8.877174507099983
 30
0.0
 40
0.1236307565225126
100
AcDbArc
 50
190.4866102276235
 51
204.0768020795386
  0
ARC
  5
101E
330
1E
100
AcDbEntity
  8
803
  6
L0
 62
     1
100
AcDbCircle
 10
12.17492424238111
 20
8.854094215844344
 30
0.0
 40
0.0670629359730033
100
AcDbArc
 50
204.0750842494947
 51
227.1674886236385
  0
ARC
  5
101F
330
1E
100
AcDbEntity
  8
803
  6
L0
 62
     1
100
AcDbCircle
 10
12.14303149260172
 20
8.819693240116045
 30
0.0
 40
0.020151240122434
100
AcDbArc
 50
227.1693490373368
 51
270.0014426794476
  0
ARC
  5
1020
330
1E
100
AcDbEntity
  8
803
  6
L0
 62
     1
100
AcDbCircle
 10
12.11113921841144
 20
8.854094602182037
 30
0.0
 40
0.0670635858758866
100
AcDbArc
 50
312.8326248084754
 51
335.9248023183963
  0
ARC
  5
1021
330
1E
100
AcDbEntity
  8
803
  6
L0
 62
     1
100
AcDbCircle
 10
12.05949170162989
 20
8.877169929491184
 30
0.0
 40
0.123631569044465
100
AcDbArc
 50
335.9251821623053
 51
349.5151456360214
  0
ARC
  5
1022
330
1E
100
AcDbEntity
  8
803
  6
L0
 62
     1
100
AcDbCircle
 10
11.97722828843921
 20
8.892399771642022
 30
0.0
 40
0.2072927115793137
100
AcDbArc
 50
349.5138652009254
 51
359.9992339171553
  0
ARC
  5
1023
330
1E
100
AcDbEntity
  8
803
  6
L0
 62
     1
100
AcDbCircle
 10
12.14303300739828
 20
9.201093485085404
 30
0.0
 40
0.0201525149397773
100
AcDbArc
 50
47.17077050015247
 51
90.00286414226458
  0
LINE
  5
1024
330
1E
100
AcDbEntity
  8
803
  6
L0
 62
     1
100
AcDbLine
 10
12.169471
 20
9.056999000000001
 30
0.0
 11
12.11659299999999
 21
8.963788000000002
 31
0.0
  0
LINE
  5
1025
330
1E
100
AcDbEntity
  8
803
  6
L0
 62
     1
100
AcDbLine
 10
12.11659299999999
 20
9.056999000000001
 30
0.0
 11
12.169471
 21
8.963788000000002
 31
0.0
  0
ARC
  5
1026
330
1E
100
AcDbEntity
  8
803
  6
L0
 62
     1
100
AcDbCircle
 10
12.14303149260172
 20
9.201094759883956
 30
0.0
 40
0.0201512401224344
100
AcDbArc
 50
89.99855732055738
 51
132.8306509626668
  0
ARC
  5
1027
330
1E
100
AcDbEntity
  8
803
  6
L0
 62
     1
100
AcDbCircle
 10
12.17492528158855
 20
9.166689950318456
 30
0.0
 40
0.0670650408334339
100
AcDbArc
 50
132.8308899806649
 51
155.923067490586
  0
ARC
  5
1028
330
1E
100
AcDbEntity
  8
803
  6
L0
 62
     1
100
AcDbCircle
 10
12.22656980989965
 20
9.143613492900019
 30
0.0
 40
0.1236307565225126
100
AcDbArc
 50
155.9231979204613
 51
169.5133897723764
  0
ARC
  5
1029
330
1E
100
AcDbEntity
  8
803
  6
L0
 62
     1
100
AcDbCircle
 10
12.30883571156078
 20
9.12838822835798
 30
0.0
 40
0.2072927115793137
100
AcDbArc
 50
169.5138652009255
 51
179.9992339171553
  0
ARC
  5
102A
330
1E
100
AcDbEntity
  8
803
  6
L0
 62
     1
100
AcDbCircle
 10
12.30883972043461
 20
9.128388736213661
 30
0.0
 40
0.2072967204469719
100
AcDbArc
 50
179.9993743007474
 51
190.4845143132307
  0
ARC
  5
102B
330
1E
100
AcDbEntity
  8
803
  6
L0
 62
     1
100
AcDbCircle
 10
12.22656980989965
 20
9.113168507099983
 30
0.0
 40
0.1236307565225126
100
AcDbArc
 50
190.4866102276235
 51
204.0768020795386
  0
ARC
  5
102C
330
1E
100
AcDbEntity
  8
803
  6
L0
 62
     1
100
AcDbCircle
 10
12.17492267427999
 20
9.090088063165289
 30
0.0
 40
0.067061441997375
100
AcDbArc
 50
204.0755116801162
 51
209.5652306429559
  0
ARC
  5
102D
330
1E
100
AcDbEntity
  8
803
  6
L0
 62
     1
100
AcDbCircle
 10
12.17492017637362
 20
8.930700199732957
 30
0.0
 40
0.0670586462004079
100
AcDbArc
 50
150.4346548312306
 51
155.9246028457106
  0
ARC
  5
102E
330
1E
100
AcDbEntity
  8
803
  6
L0
 62
     1
100
AcDbCircle
 10
12.22656980989965
 20
8.907619492900019
 30
0.0
 40
0.1236307565225126
100
AcDbArc
 50
155.9231979204613
 51
169.5133897723764
  0
ARC
  5
102F
330
1E
100
AcDbEntity
  8
803
  6
L0
 62
     1
100
AcDbCircle
 10
12.11113339512389
 20
9.090086300267028
 30
0.0
 40
0.0670679637177185
100
AcDbArc
 50
330.4386791484834
 51
335.9286271629635
  0
ARC
  5
1030
330
1E
100
AcDbEntity
  8
803
  6
L0
 62
     1
100
AcDbCircle
 10
12.05949369010034
 20
9.113163310919205
 30
0.0
 40
0.1236295012106546
100
AcDbArc
 50
335.9250679732074
 51
349.5152598251224
  0
ARC
  5
1031
330
1E
100
AcDbEntity
  8
803
  6
L0
 62
     1
100
AcDbCircle
 10
11.97722828843921
 20
9.128392771642023
 30
0.0
 40
0.2072927115793137
100
AcDbArc
 50
349.5138652009254
 51
359.9992339171553
  0
ARC
  5
1032
330
1E
100
AcDbEntity
  8
803
  6
L0
 62
     1
100
AcDbCircle
 10
11.9772282884392
 20
9.128387228357979
 30
0.0
 40
0.2072927115793226
100
AcDbArc
 50
0.0007660828446773
 51
10.48613479907452
  0
ARC
  5
1033
330
1E
100
AcDbEntity
  8
803
  6
L0
 62
     1
100
AcDbCircle
 10
12.05949369010035
 20
9.143617689080798
 30
0.0
 40
0.1236295012106458
100
AcDbArc
 50
10.48474017487829
 51
24.07493202679356
  0
ARC
  5
1034
330
1E
100
AcDbEntity
  8
803
  6
L0
 62
     1
100
AcDbCircle
 10
12.11113731014409
 20
9.16669228415566
 30
0.0
 40
0.0670649665950679
100
AcDbArc
 50
24.07384127031101
 51
47.16624564445419
  0
ARC
  5
1035
330
1E
100
AcDbEntity
  8
803
  6
L0
 62
     1
100
AcDbCircle
 10
12.05949369010034
 20
8.907622689080797
 30
0.0
 40
0.1236295012106546
100
AcDbArc
 50
10.48474017487754
 51
24.07493202679263
  0
ARC
  5
1036
330
1E
100
AcDbEntity
  8
803
  6
L0
 62
     1
100
AcDbCircle
 10
12.11114382362638
 20
8.930700199732974
 30
0.0
 40
0.0670586462003991
100
AcDbArc
 50
24.07539715427615
 51
29.56534516875613
  0
LINE
  5
1037
330
1E
100
AcDbEntity
  8
803
  6
L0
 62
     1
100
AcDbLine
 10
12.11659299999999
 20
9.640062999999999
 30
0.0
 11
12.169471
 21
9.546852000000001
 31
0.0
  0
LINE
  5
1038
330
1E
100
AcDbEntity
  8
803
  6
L0
 62
     1
100
AcDbLine
 10
12.169471
 20
9.640062999999999
 30
0.0
 11
12.11659299999999
 21
9.546852000000001
 31
0.0
  0
ARC
  5
1039
330
1E
100
AcDbEntity
  8
803
  6
L0
 62
     1
100
AcDbCircle
 10
12.14303231285025
 20
9.402757736171867
 30
0.0
 40
0.0201517361742971
100
AcDbArc
 50
269.9991104985032
 51
312.8300977846931
  0
ARC
  5
103A
330
1E
100
AcDbEntity
  8
803
  6
L0
 62
     1
100
AcDbCircle
 10
12.14303149260172
 20
9.402757240116045
 30
0.0
 40
0.0201512401224353
100
AcDbArc
 50
227.1693490373402
 51
270.0014426794476
  0
ARC
  5
103B
330
1E
100
AcDbEntity
  8
803
  6
L0
 62
     1
100
AcDbCircle
 10
12.17492424238111
 20
9.437158215844345
 30
0.0
 40
0.067062935973004
100
AcDbArc
 50
204.075084249496
 51
227.1674886236395
  0
ARC
  5
103C
330
1E
100
AcDbEntity
  8
803
  6
L0
 62
     1
100
AcDbCircle
 10
12.22656980989965
 20
9.460238507099981
 30
0.0
 40
0.1236307565225126
100
AcDbArc
 50
190.4866102276235
 51
204.0768020795386
  0
ARC
  5
103D
330
1E
100
AcDbEntity
  8
803
  6
L0
 62
     1
100
AcDbCircle
 10
12.30883521156078
 20
9.475458322545641
 30
0.0
 40
0.207292211578077
100
AcDbArc
 50
179.9992599488741
 51
190.4846286651039
  0
ARC
  5
103E
330
1E
100
AcDbEntity
  8
803
  6
L0
 62
     1
100
AcDbCircle
 10
12.30883571156079
 20
9.475458228357979
 30
0.0
 40
0.2072927115793224
100
AcDbArc
 50
169.5138652009259
 51
179.9992339171557
  0
ARC
  5
103F
330
1E
100
AcDbEntity
  8
803
  6
L0
 62
     1
100
AcDbCircle
 10
12.22656980989965
 20
9.490683492900018
 30
0.0
 40
0.1236307565225126
100
AcDbArc
 50
155.9231979204613
 51
169.5133897723764
  0
ARC
  5
1040
330
1E
100
AcDbEntity
  8
803
  6
L0
 62
     1
100
AcDbCircle
 10
12.17492017637362
 20
9.513764199732955
 30
0.0
 40
0.0670586462004079
100
AcDbArc
 50
150.4346548312306
 51
155.9246028457106
  0
ARC
  5
1041
330
1E
100
AcDbEntity
  8
803
  6
L0
 62
     1
100
AcDbCircle
 10
12.11114382362638
 20
9.513764199732973
 30
0.0
 40
0.0670586462003991
100
AcDbArc
 50
24.07539715427615
 51
29.56534516875613
  0
ARC
  5
1042
330
1E
100
AcDbEntity
  8
803
  6
L0
 62
     1
100
AcDbCircle
 10
12.05949369010034
 20
9.490686689080796
 30
0.0
 40
0.1236295012106546
100
AcDbArc
 50
10.48474017487754
 51
24.07493202679263
  0
ARC
  5
1043
330
1E
100
AcDbEntity
  8
803
  6
L0
 62
     1
100
AcDbCircle
 10
11.9772282884392
 20
9.475458228357979
 30
0.0
 40
0.2072927115793226
100
AcDbArc
 50
0.0007660828441863
 51
10.48613479907403
  0
ARC
  5
1044
330
1E
100
AcDbEntity
  8
803
  6
L0
 62
     1
100
AcDbCircle
 10
11.97722828843921
 20
9.47546377164202
 30
0.0
 40
0.2072927115793137
100
AcDbArc
 50
349.5138652009254
 51
359.9992339171553
  0
ARC
  5
1045
330
1E
100
AcDbEntity
  8
803
  6
L0
 62
     1
100
AcDbCircle
 10
12.05949170162989
 20
9.460233929491181
 30
0.0
 40
0.1236315690444643
100
AcDbArc
 50
335.9251821623061
 51
349.5151456360222
  0
ARC
  5
1046
330
1E
100
AcDbEntity
  8
803
  6
L0
 62
     1
100
AcDbCircle
 10
12.11113921841144
 20
9.437158602182035
 30
0.0
 40
0.0670635858758866
100
AcDbArc
 50
312.8326248084754
 51
335.9248023183963
  0
ARC
  5
1047
330
1E
100
AcDbEntity
  8
803
  6
L0
 62
     1
100
AcDbCircle
 10
12.14303300739828
 20
9.784157485085401
 30
0.0
 40
0.0201525149397786
100
AcDbArc
 50
47.1707705001559
 51
90.00286414226458
  0
ARC
  5
1048
330
1E
100
AcDbEntity
  8
803
  6
L0
 62
     1
100
AcDbCircle
 10
12.17492267427999
 20
9.673152063165289
 30
0.0
 40
0.0670614419973758
100
AcDbArc
 50
204.0755116801176
 51
209.5652306429573
  0
ARC
  5
1049
330
1E
100
AcDbEntity
  8
803
  6
L0
 62
     1
100
AcDbCircle
 10
12.22656980989965
 20
9.696232507099981
 30
0.0
 40
0.1236307565225126
100
AcDbArc
 50
190.4866102276235
 51
204.0768020795386
  0
ARC
  5
104A
330
1E
100
AcDbEntity
  8
803
  6
L0
 62
     1
100
AcDbCircle
 10
12.30883972043461
 20
9.71145273621366
 30
0.0
 40
0.2072967204469719
100
AcDbArc
 50
179.9993743007474
 51
190.4845143132307
  0
ARC
  5
104B
330
1E
100
AcDbEntity
  8
803
  6
L0
 62
     1
100
AcDbCircle
 10
12.30883571156078
 20
9.711452228357979
 30
0.0
 40
0.2072927115793137
100
AcDbArc
 50
169.5138652009255
 51
179.9992339171553
  0
ARC
  5
104C
330
1E
100
AcDbEntity
  8
803
  6
L0
 62
     1
100
AcDbCircle
 10
12.22656980989965
 20
9.726677492900018
 30
0.0
 40
0.1236307565225126
100
AcDbArc
 50
155.9231979204613
 51
169.5133897723764
  0
ARC
  5
104D
330
1E
100
AcDbEntity
  8
803
  6
L0
 62
     1
100
AcDbCircle
 10
12.17492528158855
 20
9.749753950318456
 30
0.0
 40
0.0670650408334326
100
AcDbArc
 50
132.8308899806659
 51
155.9230674905873
  0
ARC
  5
104E
330
1E
100
AcDbEntity
  8
803
  6
L0
 62
     1
100
AcDbCircle
 10
12.14303149260172
 20
9.784158759883954
 30
0.0
 40
0.0201512401224344
100
AcDbArc
 50
89.99855732055738
 51
132.8306509626668
  0
ARC
  5
104F
330
1E
100
AcDbEntity
  8
803
  6
L0
 62
     1
100
AcDbCircle
 10
12.11113731014409
 20
9.749756284155658
 30
0.0
 40
0.0670649665950679
100
AcDbArc
 50
24.07384127031101
 51
47.16624564445419
  0
ARC
  5
1050
330
1E
100
AcDbEntity
  8
803
  6
L0
 62
     1
100
AcDbCircle
 10
12.05949369010035
 20
9.726681689080795
 30
0.0
 40
0.1236295012106462
100
AcDbArc
 50
10.4847401748791
 51
24.07493202679431
  0
ARC
  5
1051
330
1E
100
AcDbEntity
  8
803
  6
L0
 62
     1
100
AcDbCircle
 10
11.9772282884392
 20
9.711451228357979
 30
0.0
 40
0.2072927115793226
100
AcDbArc
 50
0.0007660828441863
 51
10.48613479907403
  0
ARC
  5
1052
330
1E
100
AcDbEntity
  8
803
  6
L0
 62
     1
100
AcDbCircle
 10
11.97722828843921
 20
9.711456771642021
 30
0.0
 40
0.2072927115793137
100
AcDbArc
 50
349.5138652009254
 51
359.9992339171553
  0
ARC
  5
1053
330
1E
100
AcDbEntity
  8
803
  6
L0
 62
     1
100
AcDbCircle
 10
12.05949369010034
 20
9.696227310919203
 30
0.0
 40
0.1236295012106546
100
AcDbArc
 50
335.9250679732074
 51
349.5152598251224
  0
ARC
  5
1054
330
1E
100
AcDbEntity
  8
803
  6
L0
 62
     1
100
AcDbCircle
 10
12.11113339512389
 20
9.673150300267026
 30
0.0
 40
0.0670679637177185
100
AcDbArc
 50
330.4386791484834
 51
335.9286271629635
  0
ARC
  5
1055
330
1E
100
AcDbEntity
  8
803
  6
L0
 62
     1
100
AcDbCircle
 10
12.1430320380155
 20
10.57144623617186
 30
0.0
 40
0.0201522361948279
100
AcDbArc
 50
270.0027350637987
 51
312.8337223499896
  0
ARC
  5
1056
330
1E
100
AcDbEntity
  8
803
  6
L0
 62
     1
100
AcDbCircle
 10
12.14303311174003
 20
10.57144661805921
 30
0.0
 40
0.0201526180595179
100
AcDbArc
 50
227.1667035872361
 51
269.9996823126287
  0
LINE
  5
1057
330
1E
100
AcDbEntity
  8
803
  6
L0
 62
     1
100
AcDbLine
 10
12.11659299999999
 20
10.223127
 30
0.0
 11
12.169471
 21
10.129916
 31
0.0
  0
LINE
  5
1058
330
1E
100
AcDbEntity
  8
803
  6
L0
 62
     1
100
AcDbLine
 10
12.169471
 20
10.223127
 30
0.0
 11
12.11659299999999
 21
10.129916
 31
0.0
  0
ARC
  5
1059
330
1E
100
AcDbEntity
  8
803
  6
L0
 62
     1
100
AcDbCircle
 10
12.14303331285026
 20
9.985821736171867
 30
0.0
 40
0.0201517361742971
100
AcDbArc
 50
269.9991104985032
 51
312.8300977846931
  0
ARC
  5
105A
330
1E
100
AcDbEntity
  8
803
  6
L0
 62
     1
100
AcDbCircle
 10
12.14303199260172
 20
9.985822514914595
 30
0.0
 40
0.0201525149397749
100
AcDbArc
 50
227.1707705001599
 51
270.0028641422696
  0
ARC
  5
105B
330
1E
100
AcDbEntity
  8
803
  6
L0
 62
     1
100
AcDbCircle
 10
12.1749276898559
 20
10.02022271584434
 30
0.0
 40
0.0670649665950718
100
AcDbArc
 50
204.073841270311
 51
227.1662456444551
  0
ARC
  5
105C
330
1E
100
AcDbEntity
  8
803
  6
L0
 62
     1
100
AcDbCircle
 10
12.22657030989964
 20
10.0432983109192
 30
0.0
 40
0.1236295012106392
100
AcDbArc
 50
190.4847401748797
 51
204.0749320267948
  0
ARC
  5
105D
330
1E
100
AcDbEntity
  8
803
  6
L0
 62
     1
100
AcDbCircle
 10
12.30883571156079
 20
10.05852777164202
 30
0.0
 40
0.2072927115793226
100
AcDbArc
 50
180.0007660828442
 51
190.486134799074
  0
ARC
  5
105E
330
1E
100
AcDbEntity
  8
803
  6
L0
 62
     1
100
AcDbCircle
 10
12.30883571156079
 20
10.05852222835798
 30
0.0
 40
0.2072927115793224
100
AcDbArc
 50
169.5138652009259
 51
179.9992339171557
  0
ARC
  5
105F
330
1E
100
AcDbEntity
  8
803
  6
L0
 62
     1
100
AcDbCircle
 10
12.22657030989965
 20
10.07375168908079
 30
0.0
 40
0.1236295012106457
100
AcDbArc
 50
155.9250679732064
 51
169.5152598251217
  0
ARC
  5
1060
330
1E
100
AcDbEntity
  8
803
  6
L0
 62
     1
100
AcDbCircle
 10
12.1749211763736
 20
10.09682819973295
 30
0.0
 40
0.0670586462003924
100
AcDbArc
 50
150.4346548312231
 51
155.924602845703
  0
ARC
  5
1061
330
1E
100
AcDbEntity
  8
803
  6
L0
 62
     1
100
AcDbCircle
 10
12.11114382362639
 20
10.09682819973297
 30
0.0
 40
0.0670586462003836
100
AcDbArc
 50
24.07539715428373
 51
29.56534516876362
  0
ARC
  5
1062
330
1E
100
AcDbEntity
  8
803
  6
L0
 62
     1
100
AcDbCircle
 10
12.05949469010034
 20
10.07375068908078
 30
0.0
 40
0.1236295012106576
100
AcDbArc
 50
10.48474017488062
 51
24.07493202679563
  0
ARC
  5
1063
330
1E
100
AcDbEntity
  8
803
  6
L0
 62
     1
100
AcDbCircle
 10
11.9772292884392
 20
10.05852222835798
 30
0.0
 40
0.2072927115793226
100
AcDbArc
 50
0.0007660828417314
 51
10.48613479907153
  0
ARC
  5
1064
330
1E
100
AcDbEntity
  8
803
  6
L0
 62
     1
100
AcDbCircle
 10
11.9772292884392
 20
10.05852777164201
 30
0.0
 40
0.2072927115793226
100
AcDbArc
 50
349.5138652009284
 51
359.9992339171582
  0
ARC
  5
1065
330
1E
100
AcDbEntity
  8
803
  6
L0
 62
     1
100
AcDbCircle
 10
12.05949639788185
 20
10.04330262574314
 30
0.0
 40
0.1236287892251447
100
AcDbArc
 50
335.9227302948538
 51
349.5126937685697
  0
ARC
  5
1066
330
1E
100
AcDbEntity
  8
803
  6
L0
 62
     1
100
AcDbCircle
 10
12.11113921841144
 20
10.02022260218203
 30
0.0
 40
0.0670635858758866
100
AcDbArc
 50
312.8326248084754
 51
335.9248023183963
  0
ARC
  5
1067
330
1E
100
AcDbEntity
  8
803
  6
L0
 62
     1
100
AcDbCircle
 10
12.14303350739828
 20
10.36722275988395
 30
0.0
 40
0.0201512401224365
100
AcDbArc
 50
47.1693490373366
 51
90.00144267944769
  0
ARC
  5
1068
330
1E
100
AcDbEntity
  8
803
  6
L0
 62
     1
100
AcDbCircle
 10
12.17492367428
 20
10.25621606316529
 30
0.0
 40
0.0670614419973758
100
AcDbArc
 50
204.0755116801176
 51
209.5652306429573
  0
ARC
  5
1069
330
1E
100
AcDbEntity
  8
803
  6
L0
 62
     1
100
AcDbCircle
 10
12.22657030989965
 20
10.2792923109192
 30
0.0
 40
0.1236295012106458
100
AcDbArc
 50
190.4847401748782
 51
204.0749320267936
  0
ARC
  5
106A
330
1E
100
AcDbEntity
  8
803
  6
L0
 62
     1
100
AcDbCircle
 10
12.3088402204346
 20
10.29452218542956
 30
0.0
 40
0.2072972204590842
100
AcDbArc
 50
180.0008804347177
 51
190.4860204472011
  0
ARC
  5
106B
330
1E
100
AcDbEntity
  8
803
  6
L0
 62
     1
100
AcDbCircle
 10
12.30883571156078
 20
10.29451622835797
 30
0.0
 40
0.2072927115793137
100
AcDbArc
 50
169.5138652009255
 51
179.9992339171553
  0
ARC
  5
106C
330
1E
100
AcDbEntity
  8
803
  6
L0
 62
     1
100
AcDbCircle
 10
12.22657030989965
 20
10.30974568908079
 30
0.0
 40
0.1236295012106465
100
AcDbArc
 50
155.9250679732057
 51
169.5152598251208
  0
ARC
  5
106D
330
1E
100
AcDbEntity
  8
803
  6
L0
 62
     1
100
AcDbCircle
 10
12.17492578158855
 20
10.33282039781795
 30
0.0
 40
0.0670635858758893
100
AcDbArc
 50
132.8326248084711
 51
155.9248023183922
  0
ARC
  5
106E
330
1E
100
AcDbEntity
  8
803
  6
L0
 62
     1
100
AcDbCircle
 10
12.14303199260172
 20
10.3672214850854
 30
0.0
 40
0.0201525149397751
100
AcDbArc
 50
89.99713585773541
 51
132.8292294998472
  0
ARC
  5
106F
330
1E
100
AcDbEntity
  8
803
  6
L0
 62
     1
100
AcDbCircle
 10
12.11113975761888
 20
10.33282078415565
 30
0.0
 40
0.0670629359730025
100
AcDbArc
 50
24.07508424949336
 51
47.16748862363636
  0
ARC
  5
1070
330
1E
100
AcDbEntity
  8
803
  6
L0
 62
     1
100
AcDbCircle
 10
12.05949469010034
 20
10.30974568908078
 30
0.0
 40
0.1236295012106492
100
AcDbArc
 50
10.48474017488218
 51
24.07493202679731
  0
ARC
  5
1071
330
1E
100
AcDbEntity
  8
803
  6
L0
 62
     1
100
AcDbCircle
 10
11.97722928843921
 20
10.29451522835798
 30
0.0
 40
0.2072927115793137
100
AcDbArc
 50
0.0007660828422224
 51
10.48613479907197
  0
ARC
  5
1072
330
1E
100
AcDbEntity
  8
803
  6
L0
 62
     1
100
AcDbCircle
 10
11.97722928843921
 20
10.29452077164201
 30
0.0
 40
0.2072927115793138
100
AcDbArc
 50
349.513865200928
 51
359.9992339171577
  0
ARC
  5
1073
330
1E
100
AcDbEntity
  8
803
  6
L0
 62
     1
100
AcDbCircle
 10
12.05949419010034
 20
10.27929550709998
 30
0.0
 40
0.1236307565225207
100
AcDbArc
 50
335.923197920463
 51
349.5133897723779
  0
ARC
  5
1074
330
1E
100
AcDbEntity
  8
803
  6
L0
 62
     1
100
AcDbCircle
 10
12.11113339512388
 20
10.25621430026702
 30
0.0
 40
0.0670679637177355
100
AcDbArc
 50
330.4386791484917
 51
335.9286271629716
  0
ARC
  5
1075
330
1E
100
AcDbEntity
  8
803
  6
L0
 62
     1
100
AcDbCircle
 10
11.9772292884392
 20
10.88014222835798
 30
0.0
 40
0.2072927115793226
100
AcDbArc
 50
0.0007660828417314
 51
10.48613479907153
  0
ARC
  5
1076
330
1E
100
AcDbEntity
  8
803
  6
L0
 62
     1
100
AcDbCircle
 10
12.30883571156079
 20
10.88014222835797
 30
0.0
 40
0.2072927115793224
100
AcDbArc
 50
169.5138652009259
 51
179.9992339171557
  0
LINE
  5
1077
330
1E
100
AcDbEntity
  8
803
  6
L0
 62
     1
100
AcDbLine
 10
12.169471
 20
10.80875299999999
 30
0.0
 11
12.11659299999999
 21
10.71554099999999
 31
0.0
  0
LINE
  5
1078
330
1E
100
AcDbEntity
  8
803
  6
L0
 62
     1
100
AcDbLine
 10
12.11659299999999
 20
10.80875299999999
 30
0.0
 11
12.169471
 21
10.71554099999999
 31
0.0
  0
ARC
  5
1079
330
1E
100
AcDbEntity
  8
803
  6
L0
 62
     1
100
AcDbCircle
 10
12.17493160487612
 20
10.84184130026704
 30
0.0
 40
0.0670679637177452
100
AcDbArc
 50
204.0713728370429
 51
209.5613208515227
  0
ARC
  5
107A
330
1E
100
AcDbEntity
  8
803
  6
L0
 62
     1
100
AcDbCircle
 10
12.22657030989964
 20
10.8649173109192
 30
0.0
 40
0.1236295012106392
100
AcDbArc
 50
190.4847401748797
 51
204.0749320267948
  0
ARC
  5
107B
330
1E
100
AcDbEntity
  8
803
  6
L0
 62
     1
100
AcDbCircle
 10
12.30883571156078
 20
10.88014777164202
 30
0.0
 40
0.2072927115793137
100
AcDbArc
 50
180.0007660828446
 51
190.4861347990744
  0
ARC
  5
107C
330
1E
100
AcDbEntity
  8
803
  6
L0
 62
     1
100
AcDbCircle
 10
12.1749276898559
 20
10.60584771584434
 30
0.0
 40
0.0670649665950726
100
AcDbArc
 50
204.0738412703125
 51
227.1662456444561
  0
ARC
  5
107D
330
1E
100
AcDbEntity
  8
803
  6
L0
 62
     1
100
AcDbCircle
 10
12.22657030989965
 20
10.6289233109192
 30
0.0
 40
0.1236295012106458
100
AcDbArc
 50
190.4847401748782
 51
204.0749320267936
  0
ARC
  5
107E
330
1E
100
AcDbEntity
  8
803
  6
L0
 62
     1
100
AcDbCircle
 10
12.30883571156079
 20
10.64415277164201
 30
0.0
 40
0.2072927115793226
100
AcDbArc
 50
180.0007660828442
 51
190.486134799074
  0
ARC
  5
107F
330
1E
100
AcDbEntity
  8
803
  6
L0
 62
     1
100
AcDbCircle
 10
12.3088402204346
 20
10.64414681457043
 30
0.0
 40
0.2072972204590842
100
AcDbArc
 50
169.5139795527988
 51
179.9991195652822
  0
ARC
  5
1080
330
1E
100
AcDbEntity
  8
803
  6
L0
 62
     1
100
AcDbCircle
 10
12.22657030989965
 20
10.65937668908079
 30
0.0
 40
0.1236295012106457
100
AcDbArc
 50
155.9250679732064
 51
169.5152598251217
  0
ARC
  5
1081
330
1E
100
AcDbEntity
  8
803
  6
L0
 62
     1
100
AcDbCircle
 10
12.1749211763736
 20
10.68245319973295
 30
0.0
 40
0.0670586462003924
100
AcDbArc
 50
150.4346548312231
 51
155.924602845703
  0
ARC
  5
1082
330
1E
100
AcDbEntity
  8
803
  6
L0
 62
     1
100
AcDbCircle
 10
11.97722928843921
 20
10.88014777164201
 30
0.0
 40
0.2072927115793138
100
AcDbArc
 50
349.513865200928
 51
359.9992339171577
  0
ARC
  5
1083
330
1E
100
AcDbEntity
  8
803
  6
L0
 62
     1
100
AcDbCircle
 10
12.05949419010035
 20
10.86492050709998
 30
0.0
 40
0.1236307565225126
100
AcDbArc
 50
335.9231979204614
 51
349.5133897723764
  0
ARC
  5
1084
330
1E
100
AcDbEntity
  8
803
  6
L0
 62
     1
100
AcDbCircle
 10
12.11114382362638
 20
10.84184080026702
 30
0.0
 40
0.0670586462003991
100
AcDbArc
 50
330.4346548312438
 51
335.9246028457238
  0
ARC
  5
1085
330
1E
100
AcDbEntity
  8
803
  6
L0
 62
     1
100
AcDbCircle
 10
12.11114132572
 20
10.68245193683472
 30
0.0
 40
0.0670614419973662
100
AcDbArc
 50
24.07551168010298
 51
29.56523064294276
  0
ARC
  5
1086
330
1E
100
AcDbEntity
  8
803
  6
L0
 62
     1
100
AcDbCircle
 10
12.05949469010034
 20
10.65937668908079
 30
0.0
 40
0.1236295012106489
100
AcDbArc
 50
10.48474017488137
 51
24.07493202679656
  0
ARC
  5
1087
330
1E
100
AcDbEntity
  8
803
  6
L0
 62
     1
100
AcDbCircle
 10
11.97723022878129
 20
10.64414631457044
 30
0.0
 40
0.2072917712514714
100
AcDbArc
 50
0.0010186586650014
 51
10.48615867114829
  0
ARC
  5
1088
330
1E
100
AcDbEntity
  8
803
  6
L0
 62
     1
100
AcDbCircle
 10
11.9772292884392
 20
10.64415277164201
 30
0.0
 40
0.2072927115793226
100
AcDbArc
 50
349.5138652009284
 51
359.9992339171582
  0
ARC
  5
1089
330
1E
100
AcDbEntity
  8
803
  6
L0
 62
     1
100
AcDbCircle
 10
12.05949419010034
 20
10.62892650709998
 30
0.0
 40
0.1236307565225207
100
AcDbArc
 50
335.923197920463
 51
349.5133897723779
  0
ARC
  5
108A
330
1E
100
AcDbEntity
  8
803
  6
L0
 62
     1
100
AcDbCircle
 10
12.11113975761888
 20
10.60584721584433
 30
0.0
 40
0.0670629359730014
100
AcDbArc
 50
312.8325113763646
 51
335.924915750508
  0
ARC
  5
108B
330
1E
100
AcDbEntity
  8
803
  6
L0
 62
     1
100
AcDbCircle
 10
12.14303223259973
 20
10.95284825988395
 30
0.0
 40
0.0201517401306592
100
AcDbArc
 50
47.16572447204176
 51
89.99781811415459
  0
ARC
  5
108C
330
1E
100
AcDbEntity
  8
803
  6
L0
 62
     1
100
AcDbCircle
 10
12.1430320380155
 20
11.14301323617186
 30
0.0
 40
0.0201522361948279
100
AcDbArc
 50
270.0027350637987
 51
312.8337223499896
  0
ARC
  5
108D
330
1E
100
AcDbEntity
  8
803
  6
L0
 62
     1
100
AcDbCircle
 10
12.22657030989965
 20
10.89537168908079
 30
0.0
 40
0.1236295012106457
100
AcDbArc
 50
155.9250679732064
 51
169.5152598251217
  0
ARC
  5
108E
330
1E
100
AcDbEntity
  8
803
  6
L0
 62
     1
100
AcDbCircle
 10
12.17492470318423
 20
10.91844617048578
 30
0.0
 40
0.0670622860831057
100
AcDbArc
 50
132.8323979442722
 51
155.9250291825932
  0
ARC
  5
108F
330
1E
100
AcDbEntity
  8
803
  6
L0
 62
     1
100
AcDbCircle
 10
12.14303326740026
 20
10.9528469850854
 30
0.0
 40
0.0201530149163703
100
AcDbArc
 50
90.00076022901877
 51
132.8328538711289
  0
ARC
  5
1090
330
1E
100
AcDbEntity
  8
803
  6
L0
 62
     1
100
AcDbCircle
 10
12.14303311174003
 20
11.1430136180592
 30
0.0
 40
0.0201526180595179
100
AcDbArc
 50
227.1667035872361
 51
269.9996823126287
  0
ARC
  5
1091
330
1E
100
AcDbEntity
  8
803
  6
L0
 62
     1
100
AcDbCircle
 10
12.1749276898559
 20
11.17741571584434
 30
0.0
 40
0.0670649665950693
100
AcDbArc
 50
204.0738412703138
 51
227.1662456444573
  0
ARC
  5
1092
330
1E
100
AcDbEntity
  8
803
  6
L0
 62
     1
100
AcDbCircle
 10
12.22657030989965
 20
11.2004903109192
 30
0.0
 40
0.1236295012106462
100
AcDbArc
 50
190.4847401748791
 51
204.0749320267943
  0
ARC
  5
1093
330
1E
100
AcDbEntity
  8
803
  6
L0
 62
     1
100
AcDbCircle
 10
12.30883571156079
 20
11.21571977164202
 30
0.0
 40
0.2072927115793226
100
AcDbArc
 50
180.0007660828446
 51
190.4861347990744
  0
ARC
  5
1094
330
1E
100
AcDbEntity
  8
803
  6
L0
 62
     1
100
AcDbCircle
 10
12.11113975761888
 20
10.91844578415565
 30
0.0
 40
0.0670629359730025
100
AcDbArc
 50
24.07508424949336
 51
47.16748862363636
  0
ARC
  5
1095
330
1E
100
AcDbEntity
  8
803
  6
L0
 62
     1
100
AcDbCircle
 10
12.05949469010034
 20
10.89537068908079
 30
0.0
 40
0.1236295012106576
100
AcDbArc
 50
10.48474017488062
 51
24.07493202679563
  0
ARC
  5
1096
330
1E
100
AcDbEntity
  8
803
  6
L0
 62
     1
100
AcDbCircle
 10
11.97723022878128
 20
11.21571968542955
 30
0.0
 40
0.2072917712514803
100
AcDbArc
 50
349.5138413288517
 51
359.998981341335
  0
ARC
  5
1097
330
1E
100
AcDbEntity
  8
803
  6
L0
 62
     1
100
AcDbCircle
 10
12.05949419010035
 20
11.20049350709998
 30
0.0
 40
0.1236307565225126
100
AcDbArc
 50
335.9231979204614
 51
349.5133897723764
  0
ARC
  5
1098
330
1E
100
AcDbEntity
  8
803
  6
L0
 62
     1
100
AcDbCircle
 10
12.11113975761888
 20
11.17741521584434
 30
0.0
 40
0.0670629359730027
100
AcDbArc
 50
312.8325113763636
 51
335.9249157505066
  0
ARC
  5
1099
330
1E
100
AcDbEntity
  8
803
  6
L0
 62
     1
100
AcDbCircle
 10
-7.315366351097182
 20
11.89045458263503
 30
0.0
 40
20.08033203102327
100
AcDbArc
 50
1.644514473051875
 51
3.964914253088016
  0
ARC
  5
109A
330
1E
100
AcDbEntity
  8
803
  6
L0
 62
     1
100
AcDbCircle
 10
12.11113339512389
 20
12.57987030026702
 30
0.0
 40
0.0670679637177185
100
AcDbArc
 50
330.4386791484834
 51
335.9286271629635
  0
ARC
  5
109B
330
1E
100
AcDbEntity
  8
803
  6
L0
 62
     1
100
AcDbCircle
 10
12.17493160487612
 20
12.57987130026704
 30
0.0
 40
0.0670679637177445
100
AcDbArc
 50
204.0713728370415
 51
209.5613208515215
  0
ARC
  5
109C
330
1E
100
AcDbEntity
  8
803
  6
L0
 62
     1
100
AcDbCircle
 10
32.47752616227046
 20
11.89043601615471
 30
0.0
 40
20.08031099181598
100
AcDbArc
 50
176.0348711728423
 51
178.3552709528785
  0
ARC
  5
109D
330
1E
100
AcDbEntity
  8
803
  6
L0
 62
     1
100
AcDbCircle
 10
-27.20106807905693
 20
11.31948376798612
 30
0.0
 40
39.97422807905703
100
AcDbArc
 50
359.9999960325957
 51
1.644585858755687
  0
ARC
  5
109E
330
1E
100
AcDbEntity
  8
803
  6
L0
 62
     1
100
AcDbCircle
 10
52.36325107905693
 20
11.31952509487412
 30
0.0
 40
39.97422907911291
100
AcDbArc
 50
178.3553142775231
 51
179.999904103683
  0
LINE
  5
109F
330
1E
100
AcDbEntity
  8
803
  6
L0
 62
     1
100
AcDbLine
 10
12.169471
 20
11.97521599999999
 30
0.0
 11
12.11659299999999
 21
11.88200499999999
 31
0.0
  0
LINE
  5
10A0
330
1E
100
AcDbEntity
  8
803
  6
L0
 62
     1
100
AcDbLine
 10
12.11659299999999
 20
11.97521599999999
 30
0.0
 11
12.169471
 21
11.88200499999999
 31
0.0
  0
ARC
  5
10A1
330
1E
100
AcDbEntity
  8
803
  6
L0
 62
     1
100
AcDbCircle
 10
12.14303223259973
 20
11.52441525988395
 30
0.0
 40
0.0201517401306605
100
AcDbArc
 50
47.1657244720452
 51
89.99781811415459
  0
LINE
  5
10A2
330
1E
100
AcDbEntity
  8
803
  6
L0
 62
     1
100
AcDbLine
 10
12.169471
 20
11.38031999999999
 30
0.0
 11
12.11659299999999
 21
11.287108
 31
0.0
  0
LINE
  5
10A3
330
1E
100
AcDbEntity
  8
803
  6
L0
 62
     1
100
AcDbLine
 10
12.11659299999999
 20
11.38031999999999
 30
0.0
 11
12.169471
 21
11.287108
 31
0.0
  0
ARC
  5
10A4
330
1E
100
AcDbEntity
  8
803
  6
L0
 62
     1
100
AcDbCircle
 10
12.22657030989964
 20
11.4364843109192
 30
0.0
 40
0.1236295012106392
100
AcDbArc
 50
190.4847401748797
 51
204.0749320267948
  0
ARC
  5
10A5
330
1E
100
AcDbEntity
  8
803
  6
L0
 62
     1
100
AcDbCircle
 10
12.30883571156078
 20
11.45171477164202
 30
0.0
 40
0.2072927115793137
100
AcDbArc
 50
180.0007660828446
 51
190.4861347990744
  0
ARC
  5
10A6
330
1E
100
AcDbEntity
  8
803
  6
L0
 62
     1
100
AcDbCircle
 10
12.30883571156079
 20
11.45170922835797
 30
0.0
 40
0.2072927115793227
100
AcDbArc
 50
169.5138652009255
 51
179.9992339171553
  0
ARC
  5
10A7
330
1E
100
AcDbEntity
  8
803
  6
L0
 62
     1
100
AcDbCircle
 10
12.22656810211815
 20
11.46693757050881
 30
0.0
 40
0.123627533851315
100
AcDbArc
 50
155.9246004027297
 51
169.5145638764458
  0
ARC
  5
10A8
330
1E
100
AcDbEntity
  8
803
  6
L0
 62
     1
100
AcDbCircle
 10
12.17492470318423
 20
11.49001417048578
 30
0.0
 40
0.067062286083107
100
AcDbArc
 50
132.8323979442712
 51
155.9250291825919
  0
ARC
  5
10A9
330
1E
100
AcDbEntity
  8
803
  6
L0
 62
     1
100
AcDbCircle
 10
12.14303326740026
 20
11.5244139850854
 30
0.0
 40
0.0201530149163685
100
AcDbArc
 50
90.00076022901877
 51
132.8328538711323
  0
ARC
  5
10AA
330
1E
100
AcDbEntity
  8
803
  6
L0
 62
     1
100
AcDbCircle
 10
12.22657030989965
 20
11.23094368908079
 30
0.0
 40
0.1236295012106465
100
AcDbArc
 50
155.9250679732057
 51
169.5152598251208
  0
ARC
  5
10AB
330
1E
100
AcDbEntity
  8
803
  6
L0
 62
     1
100
AcDbCircle
 10
12.1749211763736
 20
11.25402019973295
 30
0.0
 40
0.0670586462003916
100
AcDbArc
 50
150.4346548312244
 51
155.9246028457044
  0
ARC
  5
10AC
330
1E
100
AcDbEntity
  8
803
  6
L0
 62
     1
100
AcDbCircle
 10
12.17493160487612
 20
11.41340830026704
 30
0.0
 40
0.0670679637177445
100
AcDbArc
 50
204.0713728370415
 51
209.5613208515215
  0
ARC
  5
10AD
330
1E
100
AcDbEntity
  8
803
  6
L0
 62
     1
100
AcDbCircle
 10
12.11113975761888
 20
11.49001378415566
 30
0.0
 40
0.0670629359730018
100
AcDbArc
 50
24.07508424949197
 51
47.16748862363533
  0
ARC
  5
10AE
330
1E
100
AcDbEntity
  8
803
  6
L0
 62
     1
100
AcDbCircle
 10
12.05949469010034
 20
11.46693768908079
 30
0.0
 40
0.1236295012106489
100
AcDbArc
 50
10.48474017488137
 51
24.07493202679656
  0
ARC
  5
10AF
330
1E
100
AcDbEntity
  8
803
  6
L0
 62
     1
100
AcDbCircle
 10
11.9772292884392
 20
11.45170922835798
 30
0.0
 40
0.2072927115793226
100
AcDbArc
 50
0.0007660828417314
 51
10.48613479907153
  0
ARC
  5
10B0
330
1E
100
AcDbEntity
  8
803
  6
L0
 62
     1
100
AcDbCircle
 10
11.97722928843921
 20
11.451714771642
 30
0.0
 40
0.2072927115793135
100
AcDbArc
 50
349.5138652009284
 51
359.9992339171582
  0
ARC
  5
10B1
330
1E
100
AcDbEntity
  8
803
  6
L0
 62
     1
100
AcDbCircle
 10
12.05949419010035
 20
11.43648750709998
 30
0.0
 40
0.1236307565225126
100
AcDbArc
 50
335.9231979204614
 51
349.5133897723764
  0
ARC
  5
10B2
330
1E
100
AcDbEntity
  8
803
  6
L0
 62
     1
100
AcDbCircle
 10
12.11113339512389
 20
11.25401969973297
 30
0.0
 40
0.0670679637177185
100
AcDbArc
 50
24.07137283703653
 51
29.56132085151652
  0
ARC
  5
10B3
330
1E
100
AcDbEntity
  8
803
  6
L0
 62
     1
100
AcDbCircle
 10
12.05949469010034
 20
11.23094368908079
 30
0.0
 40
0.1236295012106492
100
AcDbArc
 50
10.48474017488218
 51
24.07493202679731
  0
ARC
  5
10B4
330
1E
100
AcDbEntity
  8
803
  6
L0
 62
     1
100
AcDbCircle
 10
12.11114382362638
 20
11.41340780026702
 30
0.0
 40
0.0670586462003991
100
AcDbArc
 50
330.4346548312438
 51
335.9246028457238
  0
ARC
  5
10B5
330
1E
100
AcDbEntity
  8
803
  6
L0
 62
     1
100
AcDbCircle
 10
12.14303331285025
 20
11.73791073617186
 30
0.0
 40
0.0201517361742971
100
AcDbArc
 50
269.9991104985134
 51
312.8300977847039
  0
ARC
  5
10B6
330
1E
100
AcDbEntity
  8
803
  6
L0
 62
     1
100
AcDbCircle
 10
12.14303199260172
 20
11.73791151491459
 30
0.0
 40
0.0201525149397748
100
AcDbArc
 50
227.1707705001527
 51
270.0028641422645
  0
ARC
  5
10B7
330
1E
100
AcDbEntity
  8
803
  6
L0
 62
     1
100
AcDbCircle
 10
12.1749276898559
 20
11.77231171584434
 30
0.0
 40
0.0670649665950726
100
AcDbArc
 50
204.0738412703125
 51
227.1662456444561
  0
ARC
  5
10B8
330
1E
100
AcDbEntity
  8
803
  6
L0
 62
     1
100
AcDbCircle
 10
12.22657030989965
 20
11.7953873109192
 30
0.0
 40
0.1236295012106458
100
AcDbArc
 50
190.4847401748782
 51
204.0749320267936
  0
ARC
  5
10B9
330
1E
100
AcDbEntity
  8
803
  6
L0
 62
     1
100
AcDbCircle
 10
12.30883571156078
 20
11.81061677164202
 30
0.0
 40
0.2072927115793137
100
AcDbArc
 50
180.0007660828446
 51
190.4861347990744
  0
ARC
  5
10BA
330
1E
100
AcDbEntity
  8
803
  6
L0
 62
     1
100
AcDbCircle
 10
12.30883571156079
 20
11.81061122835797
 30
0.0
 40
0.2072927115793227
100
AcDbArc
 50
169.5138652009255
 51
179.9992339171553
  0
ARC
  5
10BB
330
1E
100
AcDbEntity
  8
803
  6
L0
 62
     1
100
AcDbCircle
 10
12.22657030989965
 20
11.82584068908079
 30
0.0
 40
0.1236295012106465
100
AcDbArc
 50
155.9250679732057
 51
169.5152598251208
  0
ARC
  5
10BC
330
1E
100
AcDbEntity
  8
803
  6
L0
 62
     1
100
AcDbCircle
 10
12.1749211763736
 20
11.84891719973295
 30
0.0
 40
0.0670586462003916
100
AcDbArc
 50
150.4346548312244
 51
155.9246028457044
  0
ARC
  5
10BD
330
1E
100
AcDbEntity
  8
803
  6
L0
 62
     1
100
AcDbCircle
 10
12.11114382362639
 20
11.84891719973297
 30
0.0
 40
0.0670586462003829
100
AcDbArc
 50
24.07539715428235
 51
29.5653451687623
  0
ARC
  5
10BE
330
1E
100
AcDbEntity
  8
803
  6
L0
 62
     1
100
AcDbCircle
 10
12.05949469010034
 20
11.82583968908079
 30
0.0
 40
0.1236295012106576
100
AcDbArc
 50
10.48474017488062
 51
24.07493202679563
  0
ARC
  5
10BF
330
1E
100
AcDbEntity
  8
803
  6
L0
 62
     1
100
AcDbCircle
 10
11.9772292884392
 20
11.81061122835798
 30
0.0
 40
0.2072927115793226
100
AcDbArc
 50
0.0007660828417314
 51
10.48613479907153
  0
ARC
  5
10C0
330
1E
100
AcDbEntity
  8
803
  6
L0
 62
     1
100
AcDbCircle
 10
11.97722928843921
 20
11.81061677164201
 30
0.0
 40
0.2072927115793135
100
AcDbArc
 50
349.5138652009284
 51
359.9992339171582
  0
ARC
  5
10C1
330
1E
100
AcDbEntity
  8
803
  6
L0
 62
     1
100
AcDbCircle
 10
12.05949419010035
 20
11.79539050709998
 30
0.0
 40
0.1236307565225126
100
AcDbArc
 50
335.9231979204614
 51
349.5133897723764
  0
ARC
  5
10C2
330
1E
100
AcDbEntity
  8
803
  6
L0
 62
     1
100
AcDbCircle
 10
12.11113921841144
 20
11.77231160218203
 30
0.0
 40
0.0670635858758866
100
AcDbArc
 50
312.8326248084754
 51
335.9248023183963
  0
ARC
  5
10C3
330
1E
100
AcDbEntity
  8
803
  6
L0
 62
     1
100
AcDbCircle
 10
12.14303350739828
 20
12.11931075988395
 30
0.0
 40
0.0201512401224366
100
AcDbArc
 50
47.16934903734374
 51
90.00144267945271
  0
ARC
  5
10C4
330
1E
100
AcDbEntity
  8
803
  6
L0
 62
     1
100
AcDbCircle
 10
12.1749211763736
 20
12.00830380026704
 30
0.0
 40
0.0670586462003917
100
AcDbArc
 50
204.0753971542955
 51
209.5653451687755
  0
ARC
  5
10C5
330
1E
100
AcDbEntity
  8
803
  6
L0
 62
     1
100
AcDbCircle
 10
12.22657030989965
 20
12.0313813109192
 30
0.0
 40
0.1236295012106462
100
AcDbArc
 50
190.4847401748791
 51
204.0749320267943
  0
ARC
  5
10C6
330
1E
100
AcDbEntity
  8
803
  6
L0
 62
     1
100
AcDbCircle
 10
12.3088402204346
 20
12.04661118542956
 30
0.0
 40
0.2072972204590842
100
AcDbArc
 50
180.0008804347177
 51
190.4860204472011
  0
ARC
  5
10C7
330
1E
100
AcDbEntity
  8
803
  6
L0
 62
     1
100
AcDbCircle
 10
12.30883571156078
 20
12.04660522835798
 30
0.0
 40
0.2072927115793137
100
AcDbArc
 50
169.5138652009255
 51
179.9992339171553
  0
ARC
  5
10C8
330
1E
100
AcDbEntity
  8
803
  6
L0
 62
     1
100
AcDbCircle
 10
12.22657030989965
 20
12.06183468908079
 30
0.0
 40
0.1236295012106457
100
AcDbArc
 50
155.9250679732064
 51
169.5152598251217
  0
ARC
  5
10C9
330
1E
100
AcDbEntity
  8
803
  6
L0
 62
     1
100
AcDbCircle
 10
12.17492578158855
 20
12.08490939781796
 30
0.0
 40
0.067063585875888
100
AcDbArc
 50
132.8326248084721
 51
155.9248023183936
  0
ARC
  5
10CA
330
1E
100
AcDbEntity
  8
803
  6
L0
 62
     1
100
AcDbCircle
 10
12.14303199260172
 20
12.1193094850854
 30
0.0
 40
0.0201525149397733
100
AcDbArc
 50
89.99713585773037
 51
132.8292294998435
  0
ARC
  5
10CB
330
1E
100
AcDbEntity
  8
803
  6
L0
 62
     1
100
AcDbCircle
 10
12.11113975761888
 20
12.08490978415565
 30
0.0
 40
0.0670629359730018
100
AcDbArc
 50
24.07508424949197
 51
47.16748862363533
  0
ARC
  5
10CC
330
1E
100
AcDbEntity
  8
803
  6
L0
 62
     1
100
AcDbCircle
 10
12.05949469010034
 20
12.06183368908078
 30
0.0
 40
0.1236295012106492
100
AcDbArc
 50
10.48474017488218
 51
24.07493202679731
  0
ARC
  5
10CD
330
1E
100
AcDbEntity
  8
803
  6
L0
 62
     1
100
AcDbCircle
 10
11.97722383934283
 20
12.04660472835798
 30
0.0
 40
0.2072981606696087
100
AcDbArc
 50
0.0006278661588223
 51
10.4859965823886
  0
ARC
  5
10CE
330
1E
100
AcDbEntity
  8
803
  6
L0
 62
     1
100
AcDbCircle
 10
11.97722928843921
 20
12.04660977164201
 30
0.0
 40
0.2072927115793135
100
AcDbArc
 50
349.5138652009284
 51
359.9992339171582
  0
ARC
  5
10CF
330
1E
100
AcDbEntity
  8
803
  6
L0
 62
     1
100
AcDbCircle
 10
12.05949419010034
 20
12.03138450709998
 30
0.0
 40
0.1236307565225215
100
AcDbArc
 50
335.9231979204623
 51
349.5133897723771
  0
ARC
  5
10D0
330
1E
100
AcDbEntity
  8
803
  6
L0
 62
     1
100
AcDbCircle
 10
12.11113339512388
 20
12.00830330026702
 30
0.0
 40
0.0670679637177364
100
AcDbArc
 50
330.4386791484903
 51
335.9286271629702
  0
ARC
  5
10D1
330
1E
100
AcDbEntity
  8
803
  6
L0
 62
     1
100
AcDbCircle
 10
12.14303346848947
 20
12.30947733932518
 30
0.0
 40
0.020151339330631
100
AcDbArc
 50
269.9986679560644
 51
312.8305403271547
  0
LINE
  5
10D2
330
1E
100
AcDbEntity
  8
803
  6
L0
 62
     1
100
AcDbLine
 10
12.169471
 20
12.546783
 30
0.0
 11
12.11659299999999
 21
12.453571
 31
0.0
  0
LINE
  5
10D3
330
1E
100
AcDbEntity
  8
803
  6
L0
 62
     1
100
AcDbLine
 10
12.11659299999999
 20
12.546783
 30
0.0
 11
12.169471
 21
12.453571
 31
0.0
  0
ARC
  5
10D4
330
1E
100
AcDbEntity
  8
803
  6
L0
 62
     1
100
AcDbCircle
 10
12.14303183697045
 20
12.3094781180592
 30
0.0
 40
0.0201521180927697
100
AcDbArc
 50
227.1703279585144
 51
270.0033066839075
  0
ARC
  5
10D5
330
1E
100
AcDbEntity
  8
803
  6
L0
 62
     1
100
AcDbCircle
 10
12.1749276898559
 20
12.34387871584434
 30
0.0
 40
0.0670649665950718
100
AcDbArc
 50
204.073841270311
 51
227.1662456444551
  0
ARC
  5
10D6
330
1E
100
AcDbEntity
  8
803
  6
L0
 62
     1
100
AcDbCircle
 10
12.22657030989965
 20
12.3669543109192
 30
0.0
 40
0.1236295012106462
100
AcDbArc
 50
190.4847401748791
 51
204.0749320267943
  0
ARC
  5
10D7
330
1E
100
AcDbEntity
  8
803
  6
L0
 62
     1
100
AcDbCircle
 10
12.30883571156078
 20
12.38218377164202
 30
0.0
 40
0.2072927115793137
100
AcDbArc
 50
180.0007660828446
 51
190.4861347990744
  0
ARC
  5
10D8
330
1E
100
AcDbEntity
  8
803
  6
L0
 62
     1
100
AcDbCircle
 10
12.30883571156079
 20
12.38217822835798
 30
0.0
 40
0.2072927115793224
100
AcDbArc
 50
169.5138652009259
 51
179.9992339171557
  0
ARC
  5
10D9
330
1E
100
AcDbEntity
  8
803
  6
L0
 62
     1
100
AcDbCircle
 10
12.22656810211815
 20
12.39740657050881
 30
0.0
 40
0.123627533851315
100
AcDbArc
 50
155.9246004027297
 51
169.5145638764458
  0
ARC
  5
10DA
330
1E
100
AcDbEntity
  8
803
  6
L0
 62
     1
100
AcDbCircle
 10
12.1749211763736
 20
12.42048419973295
 30
0.0
 40
0.0670586462003924
100
AcDbArc
 50
150.4346548312231
 51
155.924602845703
  0
ARC
  5
10DB
330
1E
100
AcDbEntity
  8
803
  6
L0
 62
     1
100
AcDbCircle
 10
12.11114382362639
 20
12.42048419973297
 30
0.0
 40
0.0670586462003836
100
AcDbArc
 50
24.07539715428373
 51
29.56534516876362
  0
ARC
  5
10DC
330
1E
100
AcDbEntity
  8
803
  6
L0
 62
     1
100
AcDbCircle
 10
12.05949469010034
 20
12.39740668908078
 30
0.0
 40
0.1236295012106576
100
AcDbArc
 50
10.48474017488062
 51
24.07493202679563
  0
ARC
  5
10DD
330
1E
100
AcDbEntity
  8
803
  6
L0
 62
     1
100
AcDbCircle
 10
11.97723022878129
 20
12.38217731457044
 30
0.0
 40
0.2072917712514714
100
AcDbArc
 50
0.0010186586650014
 51
10.48615867114829
  0
ARC
  5
10DE
330
1E
100
AcDbEntity
  8
803
  6
L0
 62
     1
100
AcDbCircle
 10
11.97722928843921
 20
12.38218377164201
 30
0.0
 40
0.2072927115793138
100
AcDbArc
 50
349.513865200928
 51
359.9992339171577
  0
ARC
  5
10DF
330
1E
100
AcDbEntity
  8
803
  6
L0
 62
     1
100
AcDbCircle
 10
12.05949419010035
 20
12.36695750709998
 30
0.0
 40
0.1236307565225126
100
AcDbArc
 50
335.9231979204614
 51
349.5133897723764
  0
ARC
  5
10E0
330
1E
100
AcDbEntity
  8
803
  6
L0
 62
     1
100
AcDbCircle
 10
12.11113975761888
 20
12.34387821584434
 30
0.0
 40
0.0670629359730027
100
AcDbArc
 50
312.8325113763636
 51
335.9249157505066
  0
ARC
  5
10E1
330
1E
100
AcDbEntity
  8
803
  6
L0
 62
     1
100
AcDbCircle
 10
12.30883571156078
 20
13.18390722835798
 30
0.0
 40
0.2072927115793137
100
AcDbArc
 50
169.5138652009255
 51
179.9992339171553
  0
ARC
  5
10E2
330
1E
100
AcDbEntity
  8
803
  6
L0
 62
     1
100
AcDbCircle
 10
11.97722928843921
 20
13.18390622835798
 30
0.0
 40
0.2072927115793137
100
AcDbArc
 50
0.0007660828422224
 51
10.48613479907197
  0
ARC
  5
10E3
330
1E
100
AcDbEntity
  8
803
  6
L0
 62
     1
100
AcDbCircle
 10
12.11113921841144
 20
12.90961360218203
 30
0.0
 40
0.0670635858758866
100
AcDbArc
 50
312.8326248084754
 51
335.9248023183963
  0
ARC
  5
10E4
330
1E
100
AcDbEntity
  8
803
  6
L0
 62
     1
100
AcDbCircle
 10
12.1749276898559
 20
12.90961371584434
 30
0.0
 40
0.0670649665950718
100
AcDbArc
 50
204.073841270311
 51
227.1662456444551
  0
ARC
  5
10E5
330
1E
100
AcDbEntity
  8
803
  6
L0
 62
     1
100
AcDbCircle
 10
12.14303331285026
 20
12.87521273617186
 30
0.0
 40
0.0201517361742971
100
AcDbArc
 50
269.9991104985032
 51
312.8300977846931
  0
ARC
  5
10E6
330
1E
100
AcDbEntity
  8
803
  6
L0
 62
     1
100
AcDbCircle
 10
12.14303350739828
 20
12.69087875988395
 30
0.0
 40
0.0201512401224353
100
AcDbArc
 50
47.1693490373403
 51
90.00144267945271
  0
ARC
  5
10E7
330
1E
100
AcDbEntity
  8
803
  6
L0
 62
     1
100
AcDbCircle
 10
12.14303199260172
 20
12.87521351491459
 30
0.0
 40
0.0201525149397749
100
AcDbArc
 50
227.1707705001599
 51
270.0028641422696
  0
ARC
  5
10E8
330
1E
100
AcDbEntity
  8
803
  6
L0
 62
     1
100
AcDbCircle
 10
12.22657030989965
 20
12.6029483109192
 30
0.0
 40
0.1236295012106458
100
AcDbArc
 50
190.4847401748782
 51
204.0749320267936
  0
ARC
  5
10E9
330
1E
100
AcDbEntity
  8
803
  6
L0
 62
     1
100
AcDbCircle
 10
12.30883571156079
 20
12.61817777164202
 30
0.0
 40
0.2072927115793226
100
AcDbArc
 50
180.0007660828442
 51
190.486134799074
  0
ARC
  5
10EA
330
1E
100
AcDbEntity
  8
803
  6
L0
 62
     1
100
AcDbCircle
 10
12.30883571156078
 20
12.61817222835798
 30
0.0
 40
0.2072927115793137
100
AcDbArc
 50
169.5138652009255
 51
179.9992339171553
  0
ARC
  5
10EB
330
1E
100
AcDbEntity
  8
803
  6
L0
 62
     1
100
AcDbCircle
 10
12.22657030989965
 20
12.63340268908079
 30
0.0
 40
0.1236295012106465
100
AcDbArc
 50
155.9250679732057
 51
169.5152598251208
  0
ARC
  5
10EC
330
1E
100
AcDbEntity
  8
803
  6
L0
 62
     1
100
AcDbCircle
 10
12.17492470318423
 20
12.65647717048578
 30
0.0
 40
0.0670622860831106
100
AcDbArc
 50
132.8323979442745
 51
155.9250291825951
  0
ARC
  5
10ED
330
1E
100
AcDbEntity
  8
803
  6
L0
 62
     1
100
AcDbCircle
 10
12.14303199260172
 20
12.6908774850854
 30
0.0
 40
0.0201525149397751
100
AcDbArc
 50
89.99713585773037
 51
132.8292294998401
  0
ARC
  5
10EE
330
1E
100
AcDbEntity
  8
803
  6
L0
 62
     1
100
AcDbCircle
 10
12.11113975761888
 20
12.65647678415565
 30
0.0
 40
0.0670629359730051
100
AcDbArc
 50
24.07508424949074
 51
47.16748862363414
  0
ARC
  5
10EF
330
1E
100
AcDbEntity
  8
803
  6
L0
 62
     1
100
AcDbCircle
 10
12.05949469010034
 20
12.63340168908078
 30
0.0
 40
0.1236295012106492
100
AcDbArc
 50
10.48474017488218
 51
24.07493202679731
  0
ARC
  5
10F0
330
1E
100
AcDbEntity
  8
803
  6
L0
 62
     1
100
AcDbCircle
 10
11.97722928843921
 20
12.61817222835798
 30
0.0
 40
0.2072927115793137
100
AcDbArc
 50
0.0007660828422224
 51
10.48613479907197
  0
ARC
  5
10F1
330
1E
100
AcDbEntity
  8
803
  6
L0
 62
     1
100
AcDbCircle
 10
11.9772292884392
 20
12.61817777164201
 30
0.0
 40
0.2072927115793226
100
AcDbArc
 50
349.5138652009284
 51
359.9992339171582
  0
ARC
  5
10F2
330
1E
100
AcDbEntity
  8
803
  6
L0
 62
     1
100
AcDbCircle
 10
12.05949639788184
 20
12.60295262574314
 30
0.0
 40
0.1236287892251512
100
AcDbArc
 50
335.9227302948552
 51
349.5126937685711
  0
LINE
  5
10F3
330
1E
100
AcDbEntity
  8
803
  6
L0
 62
     1
100
AcDbLine
 10
12.11659299999999
 20
13.11251799999999
 30
0.0
 11
12.169471
 21
13.019307
 31
0.0
  0
LINE
  5
10F4
330
1E
100
AcDbEntity
  8
803
  6
L0
 62
     1
100
AcDbLine
 10
12.169471
 20
13.11251799999999
 30
0.0
 11
12.11659299999999
 21
13.019307
 31
0.0
  0
ARC
  5
10F5
330
1E
100
AcDbEntity
  8
803
  6
L0
 62
     1
100
AcDbCircle
 10
12.1749316048761
 20
13.14560630026704
 30
0.0
 40
0.0670679637177274
100
AcDbArc
 50
204.0713728370497
 51
209.5613208515297
  0
ARC
  5
10F6
330
1E
100
AcDbEntity
  8
803
  6
L0
 62
     1
100
AcDbCircle
 10
12.22657030989966
 20
13.1686833109192
 30
0.0
 40
0.1236295012106546
100
AcDbArc
 50
190.4847401748775
 51
204.0749320267926
  0
ARC
  5
10F7
330
1E
100
AcDbEntity
  8
803
  6
L0
 62
     1
100
AcDbCircle
 10
12.3088402204346
 20
13.18391318542956
 30
0.0
 40
0.2072972204590842
100
AcDbArc
 50
180.0008804347177
 51
190.4860204472011
  0
ARC
  5
10F8
330
1E
100
AcDbEntity
  8
803
  6
L0
 62
     1
100
AcDbCircle
 10
12.22657030989965
 20
12.9326893109192
 30
0.0
 40
0.1236295012106462
100
AcDbArc
 50
190.4847401748791
 51
204.0749320267943
  0
ARC
  5
10F9
330
1E
100
AcDbEntity
  8
803
  6
L0
 62
     1
100
AcDbCircle
 10
12.30883571156079
 20
12.94791877164202
 30
0.0
 40
0.2072927115793226
100
AcDbArc
 50
180.0007660828446
 51
190.4861347990744
  0
ARC
  5
10FA
330
1E
100
AcDbEntity
  8
803
  6
L0
 62
     1
100
AcDbCircle
 10
12.30883571156078
 20
12.94791322835798
 30
0.0
 40
0.2072927115793137
100
AcDbArc
 50
169.5138652009255
 51
179.9992339171553
  0
ARC
  5
10FB
330
1E
100
AcDbEntity
  8
803
  6
L0
 62
     1
100
AcDbCircle
 10
12.22657030989965
 20
12.96314268908079
 30
0.0
 40
0.1236295012106457
100
AcDbArc
 50
155.9250679732064
 51
169.5152598251217
  0
ARC
  5
10FC
330
1E
100
AcDbEntity
  8
803
  6
L0
 62
     1
100
AcDbCircle
 10
12.17492117637362
 20
12.98621919973295
 30
0.0
 40
0.0670586462004079
100
AcDbArc
 50
150.4346548312306
 51
155.9246028457106
  0
ARC
  5
10FD
330
1E
100
AcDbEntity
  8
803
  6
L0
 62
     1
100
AcDbCircle
 10
11.97722928843921
 20
13.18391177164201
 30
0.0
 40
0.2072927115793138
100
AcDbArc
 50
349.513865200928
 51
359.9992339171577
  0
ARC
  5
10FE
330
1E
100
AcDbEntity
  8
803
  6
L0
 62
     1
100
AcDbCircle
 10
12.05949419010034
 20
13.16868650709998
 30
0.0
 40
0.1236307565225207
100
AcDbArc
 50
335.923197920463
 51
349.5133897723779
  0
ARC
  5
10FF
330
1E
100
AcDbEntity
  8
803
  6
L0
 62
     1
100
AcDbCircle
 10
12.11114382362639
 20
13.14560580026702
 30
0.0
 40
0.0670586462003837
100
AcDbArc
 50
330.4346548312364
 51
335.9246028457162
  0
ARC
  5
1100
330
1E
100
AcDbEntity
  8
803
  6
L0
 62
     1
100
AcDbCircle
 10
12.11114382362638
 20
12.98621919973297
 30
0.0
 40
0.0670586462003991
100
AcDbArc
 50
24.07539715427615
 51
29.56534516875613
  0
ARC
  5
1101
330
1E
100
AcDbEntity
  8
803
  6
L0
 62
     1
100
AcDbCircle
 10
12.05949469010034
 20
12.96314168908079
 30
0.0
 40
0.1236295012106492
100
AcDbArc
 50
10.48474017488218
 51
24.07493202679731
  0
ARC
  5
1102
330
1E
100
AcDbEntity
  8
803
  6
L0
 62
     1
100
AcDbCircle
 10
11.97722928843921
 20
12.94791322835799
 30
0.0
 40
0.2072927115793137
100
AcDbArc
 50
0.0007660828417314
 51
10.48613479907149
  0
ARC
  5
1103
330
1E
100
AcDbEntity
  8
803
  6
L0
 62
     1
100
AcDbCircle
 10
11.9772292884392
 20
12.94791877164201
 30
0.0
 40
0.2072927115793226
100
AcDbArc
 50
349.5138652009284
 51
359.9992339171582
  0
ARC
  5
1104
330
1E
100
AcDbEntity
  8
803
  6
L0
 62
     1
100
AcDbCircle
 10
12.05949639788184
 20
12.93269362574314
 30
0.0
 40
0.1236287892251519
100
AcDbArc
 50
335.9227302948544
 51
349.5126937685703
  0
ARC
  5
1105
330
1E
100
AcDbEntity
  8
803
  6
L0
 62
     1
100
AcDbCircle
 10
11.97722928843921
 20
13.51364722835799
 30
0.0
 40
0.2072927115793137
100
AcDbArc
 50
0.0007660828417314
 51
10.48613479907149
  0
ARC
  5
1106
330
1E
100
AcDbEntity
  8
803
  6
L0
 62
     1
100
AcDbCircle
 10
12.30883571156078
 20
13.51364822835797
 30
0.0
 40
0.2072927115793137
100
AcDbArc
 50
169.5138652009255
 51
179.9992339171553
  0
ARC
  5
1107
330
1E
100
AcDbEntity
  8
803
  6
L0
 62
     1
100
AcDbCircle
 10
12.1430320380155
 20
13.44094623617186
 30
0.0
 40
0.0201522361948279
100
AcDbArc
 50
270.0027350637936
 51
312.8337223499824
  0
ARC
  5
1108
330
1E
100
AcDbEntity
  8
803
  6
L0
 62
     1
100
AcDbCircle
 10
12.14303366302954
 20
13.25661315671037
 30
0.0
 40
0.0201508433005352
100
AcDbArc
 50
47.16890649569799
 51
90.00188522109057
  0
ARC
  5
1109
330
1E
100
AcDbEntity
  8
803
  6
L0
 62
     1
100
AcDbCircle
 10
12.14303326740026
 20
13.44094701491459
 30
0.0
 40
0.0201530149163674
100
AcDbArc
 50
227.1671461288855
 51
269.9992397709964
  0
ARC
  5
110A
330
1E
100
AcDbEntity
  8
803
  6
L0
 62
     1
100
AcDbCircle
 10
12.17492768985591
 20
13.47534871584434
 30
0.0
 40
0.0670649665950767
100
AcDbArc
 50
204.0738412703093
 51
227.1662456444528
  0
ARC
  5
110B
330
1E
100
AcDbEntity
  8
803
  6
L0
 62
     1
100
AcDbCircle
 10
12.22657030989966
 20
13.4984233109192
 30
0.0
 40
0.1236295012106546
100
AcDbArc
 50
190.4847401748775
 51
204.0749320267926
  0
ARC
  5
110C
330
1E
100
AcDbEntity
  8
803
  6
L0
 62
     1
100
AcDbCircle
 10
12.30884022043462
 20
13.51365418542956
 30
0.0
 40
0.2072972204590948
100
AcDbArc
 50
180.0008804347177
 51
190.486020447201
  0
ARC
  5
110D
330
1E
100
AcDbEntity
  8
803
  6
L0
 62
     1
100
AcDbCircle
 10
12.22657030989966
 20
13.19913568908079
 30
0.0
 40
0.1236295012106546
100
AcDbArc
 50
155.9250679732073
 51
169.5152598251224
  0
ARC
  5
110E
330
1E
100
AcDbEntity
  8
803
  6
L0
 62
     1
100
AcDbCircle
 10
12.17492578158855
 20
13.22221139781796
 30
0.0
 40
0.067063585875888
100
AcDbArc
 50
132.8326248084721
 51
155.9248023183936
  0
ARC
  5
110F
330
1E
100
AcDbEntity
  8
803
  6
L0
 62
     1
100
AcDbCircle
 10
12.14303183697045
 20
13.25661188194079
 30
0.0
 40
0.0201521180927706
100
AcDbArc
 50
89.99669331609251
 51
132.8296720414855
  0
ARC
  5
1110
330
1E
100
AcDbEntity
  8
803
  6
L0
 62
     1
100
AcDbCircle
 10
11.97722928843921
 20
13.51365277164201
 30
0.0
 40
0.2072927115793135
100
AcDbArc
 50
349.5138652009284
 51
359.9992339171582
  0
ARC
  5
1111
330
1E
100
AcDbEntity
  8
803
  6
L0
 62
     1
100
AcDbCircle
 10
12.05949419010034
 20
13.49842650709998
 30
0.0
 40
0.1236307565225215
100
AcDbArc
 50
335.9231979204623
 51
349.5133897723771
  0
ARC
  5
1112
330
1E
100
AcDbEntity
  8
803
  6
L0
 62
     1
100
AcDbCircle
 10
12.11113975761888
 20
13.47534821584434
 30
0.0
 40
0.0670629359730051
100
AcDbArc
 50
312.8325113763658
 51
335.9249157505093
  0
ARC
  5
1113
330
1E
100
AcDbEntity
  8
803
  6
L0
 62
     1
100
AcDbCircle
 10
12.11113731014409
 20
13.22221128415566
 30
0.0
 40
0.0670649665950711
100
AcDbArc
 50
24.07384127030977
 51
47.16624564445298
  0
ARC
  5
1114
330
1E
100
AcDbEntity
  8
803
  6
L0
 62
     1
100
AcDbCircle
 10
12.05949469010034
 20
13.19913568908078
 30
0.0
 40
0.1236295012106576
100
AcDbArc
 50
10.48474017488062
 51
24.07493202679563
  0
ARC
  5
1115
330
1E
100
AcDbEntity
  8
803
  6
L0
 62
     1
100
AcDbCircle
 10
12.14303238825997
 20
13.82234865671037
 30
0.0
 40
0.0201513432989106
100
AcDbArc
 50
47.16528193041365
 51
89.99826065580714
  0
LINE
  5
1116
330
1E
100
AcDbEntity
  8
803
  6
L0
 62
     1
100
AcDbLine
 10
12.169471
 20
13.678254
 30
0.0
 11
12.11659299999999
 21
13.585042
 31
0.0
  0
LINE
  5
1117
330
1E
100
AcDbEntity
  8
803
  6
L0
 62
     1
100
AcDbLine
 10
12.11659299999999
 20
13.678254
 30
0.0
 11
12.169471
 21
13.585042
 31
0.0
  0
ARC
  5
1118
330
1E
100
AcDbEntity
  8
803
  6
L0
 62
     1
100
AcDbCircle
 10
12.1749316048761
 20
13.71134130026704
 30
0.0
 40
0.0670679637177274
100
AcDbArc
 50
204.0713728370497
 51
209.5613208515297
  0
ARC
  5
1119
330
1E
100
AcDbEntity
  8
803
  6
L0
 62
     1
100
AcDbCircle
 10
12.22657030989965
 20
13.7344183109192
 30
0.0
 40
0.1236295012106462
100
AcDbArc
 50
190.4847401748791
 51
204.0749320267943
  0
ARC
  5
111A
330
1E
100
AcDbEntity
  8
803
  6
L0
 62
     1
100
AcDbCircle
 10
12.3088357115608
 20
13.74964777164202
 30
0.0
 40
0.2072927115793332
100
AcDbArc
 50
180.0007660828442
 51
190.4861347990739
  0
ARC
  5
111B
330
1E
100
AcDbEntity
  8
803
  6
L0
 62
     1
100
AcDbCircle
 10
12.30883571156078
 20
13.74964222835798
 30
0.0
 40
0.2072927115793137
100
AcDbArc
 50
169.5138652009255
 51
179.9992339171553
  0
ARC
  5
111C
330
1E
100
AcDbEntity
  8
803
  6
L0
 62
     1
100
AcDbCircle
 10
12.22657030989966
 20
13.76487068908079
 30
0.0
 40
0.1236295012106546
100
AcDbArc
 50
155.9250679732073
 51
169.5152598251224
  0
ARC
  5
111D
330
1E
100
AcDbEntity
  8
803
  6
L0
 62
     1
100
AcDbCircle
 10
12.17492470318422
 20
13.78794717048578
 30
0.0
 40
0.0670622860831033
100
AcDbArc
 50
132.83239794427
 51
155.9250291825907
  0
ARC
  5
111E
330
1E
100
AcDbEntity
  8
803
  6
L0
 62
     1
100
AcDbCircle
 10
12.14303326740026
 20
13.8223469850854
 30
0.0
 40
0.0201530149163668
100
AcDbArc
 50
90.0007602290036
 51
132.8328538711178
  0
ARC
  5
111F
330
1E
100
AcDbEntity
  8
803
  6
L0
 62
     1
100
AcDbCircle
 10
12.22657030989966
 20
13.52887668908079
 30
0.0
 40
0.1236295012106546
100
AcDbArc
 50
155.9250679732073
 51
169.5152598251224
  0
ARC
  5
1120
330
1E
100
AcDbEntity
  8
803
  6
L0
 62
     1
100
AcDbCircle
 10
12.1749211763736
 20
13.55195419973295
 30
0.0
 40
0.0670586462003916
100
AcDbArc
 50
150.4346548312244
 51
155.9246028457044
  0
ARC
  5
1121
330
1E
100
AcDbEntity
  8
803
  6
L0
 62
     1
100
AcDbCircle
 10
12.11113339512388
 20
13.55195369973297
 30
0.0
 40
0.0670679637177363
100
AcDbArc
 50
24.07137283702972
 51
29.5613208515096
  0
ARC
  5
1122
330
1E
100
AcDbEntity
  8
803
  6
L0
 62
     1
100
AcDbCircle
 10
12.05949469010034
 20
13.52887668908079
 30
0.0
 40
0.1236295012106576
100
AcDbArc
 50
10.48474017488062
 51
24.07493202679563
  0
ARC
  5
1123
330
1E
100
AcDbEntity
  8
803
  6
L0
 62
     1
100
AcDbCircle
 10
12.11113921841145
 20
13.78794639781796
 30
0.0
 40
0.0670635858758836
100
AcDbArc
 50
24.07519768160486
 51
47.16737519152585
  0
ARC
  5
1124
330
1E
100
AcDbEntity
  8
803
  6
L0
 62
     1
100
AcDbCircle
 10
12.05949469010034
 20
13.76487068908079
 30
0.0
 40
0.1236295012106576
100
AcDbArc
 50
10.48474017488062
 51
24.07493202679563
  0
ARC
  5
1125
330
1E
100
AcDbEntity
  8
803
  6
L0
 62
     1
100
AcDbCircle
 10
11.9772302287813
 20
13.74964131457044
 30
0.0
 40
0.2072917712514608
100
AcDbArc
 50
0.0010186586654924
 51
10.48615867114882
  0
ARC
  5
1126
330
1E
100
AcDbEntity
  8
803
  6
L0
 62
     1
100
AcDbCircle
 10
11.97722928843919
 20
13.74964777164201
 30
0.0
 40
0.207292711579333
100
AcDbArc
 50
349.5138652009289
 51
359.9992339171587
  0
ARC
  5
1127
330
1E
100
AcDbEntity
  8
803
  6
L0
 62
     1
100
AcDbCircle
 10
12.05949419010034
 20
13.73442150709998
 30
0.0
 40
0.1236307565225207
100
AcDbArc
 50
335.923197920463
 51
349.5133897723779
  0
ARC
  5
1128
330
1E
100
AcDbEntity
  8
803
  6
L0
 62
     1
100
AcDbCircle
 10
12.11114382362639
 20
13.71134080026702
 30
0.0
 40
0.0670586462003837
100
AcDbArc
 50
330.4346548312364
 51
335.9246028457162
  0
ARC
  5
1129
330
1E
100
AcDbEntity
  8
803
  6
L5
 62
     2
100
AcDbCircle
 10
16.98878788174696
 20
11.34351688174845
 30
0.0
 40
0.1582868817509103
100
AcDbArc
 50
179.9995952217067
 51
269.9996808302807
  0
LINE
  5
112A
330
1E
100
AcDbEntity
  8
803
  6
L5
 62
     2
100
AcDbLine
 10
16.8305
 20
12.08163
 30
0.0
 11
16.8305
 21
11.343517
 31
0.0
  0
LINE
  5
112B
330
1E
100
AcDbEntity
  8
803
  6
L5
 62
     2
100
AcDbLine
 10
16.928131
 20
12.02898
 30
0.0
 11
16.928131
 21
11.396167
 31
0.0
  0
LINE
  5
112C
330
1E
100
AcDbEntity
  8
803
  6
L5
 62
     2
100
AcDbLine
 10
16.378788
 20
11.67069499999999
 30
0.0
 11
16.43678599999999
 21
12.009511
 31
0.0
  0
LINE
  5
112D
330
1E
100
AcDbEntity
  8
803
  6
L5
 62
     2
100
AcDbLine
 10
16.8305
 20
11.501637
 30
0.0
 11
16.39383999999999
 21
11.501637
 31
0.0
  0
LINE
  5
112E
330
1E
100
AcDbEntity
  8
803
  6
L5
 62
     2
100
AcDbLine
 10
16.375165
 20
11.43153099999999
 30
0.0
 11
16.463972
 21
11.764911
 31
0.0
  0
LINE
  5
112F
330
1E
100
AcDbEntity
  8
803
  6
L5
 62
     2
100
AcDbLine
 10
16.463972
 20
11.764911
 30
0.0
 11
16.378788
 21
11.67069499999999
 31
0.0
  0
ARC
  5
1130
330
1E
100
AcDbEntity
  8
803
  6
L5
 62
     2
100
AcDbCircle
 10
17.03359824116057
 20
11.39616724116303
 30
0.0
 40
0.1054682411633095
100
AcDbArc
 50
179.9995877606846
 51
269.999868989156
  0
LINE
  5
1131
330
1E
100
AcDbEntity
  8
803
  6
L5
 62
     2
100
AcDbLine
 10
16.8305
 20
11.92351199999999
 30
0.0
 11
16.422065
 21
11.92351199999999
 31
0.0
  0
ARC
  5
1132
330
1E
100
AcDbEntity
  8
803
  6
L5
 62
     2
100
AcDbCircle
 10
16.98878715195963
 20
12.08163084804037
 30
0.0
 40
0.1582861519597022
100
AcDbArc
 50
90.00005500573163
 51
179.9999449942696
  0
ARC
  5
1133
330
1E
100
AcDbEntity
  8
803
  6
L5
 62
     2
100
AcDbCircle
 10
17.03359828129858
 20
12.02898071870141
 30
0.0
 40
0.1054682812989614
100
AcDbArc
 50
90.00015281581694
 51
179.9998471841811
  0
LINE
  5
1134
330
1E
100
AcDbEntity
  8
803
  6
L5
 62
     2
100
AcDbLine
 10
17.543201
 20
12.026499
 30
0.0
 11
18.331796
 21
12.026499
 31
0.0
  0
LINE
  5
1135
330
1E
100
AcDbEntity
  8
803
  6
L5
 62
     2
100
AcDbLine
 10
17.580501
 20
11.398648
 30
0.0
 11
18.29449699999999
 21
11.398648
 31
0.0
  0
ARC
  5
1136
330
1E
100
AcDbEntity
  8
803
  6
L5
 62
     2
100
AcDbCircle
 10
17.54320108125065
 20
11.8183406445427
 30
0.0
 40
0.2081583554593276
100
AcDbArc
 50
89.99974711339508
 51
189.9998114655692
  0
ARC
  5
1137
330
1E
100
AcDbEntity
  8
803
  6
L5
 62
     2
100
AcDbCircle
 10
17.5805012373595
 20
11.60680746236787
 30
0.0
 40
0.2081594623715546
100
AcDbArc
 50
189.9997068268086
 51
269.9996594174668
  0
LINE
  5
1138
330
1E
100
AcDbEntity
  8
803
  6
L5
 62
     2
100
AcDbLine
 10
17.338205
 20
11.782193
 30
0.0
 11
17.37550399999999
 21
11.57066
 31
0.0
  0
ARC
  5
1139
330
1E
100
AcDbEntity
  8
803
  6
L5
 62
     2
100
AcDbCircle
 10
18.33179631527757
 20
11.81833999021363
 30
0.0
 40
0.2081590097874921
100
AcDbArc
 50
350.0001236773153
 51
89.99981153011246
  0
ARC
  5
113A
330
1E
100
AcDbEntity
  8
803
  6
L5
 62
     2
100
AcDbCircle
 10
18.29449695439509
 20
11.60680765412247
 30
0.0
 40
0.2081596541246581
100
AcDbArc
 50
269.999737303508
 51
349.9996898941661
  0
LINE
  5
113B
330
1E
100
AcDbEntity
  8
803
  6
L5
 62
     2
100
AcDbLine
 10
18.53679299999999
 20
11.782193
 30
0.0
 11
18.49949399999999
 21
11.57066
 31
0.0
  0
LINE
  5
113C
330
1E
100
AcDbEntity
  8
803
  6
L3
 62
     4
100
AcDbLine
 10
12.581091
 20
14.461976
 30
0.0
 11
15.086028
 21
14.461976
 31
0.0
  0
LINE
  5
113D
330
1E
100
AcDbEntity
  8
803
  6
L3
 62
     4
100
AcDbLine
 10
12.581091
 20
14.090549
 30
0.0
 11
12.581091
 21
14.461976
 31
0.0
  0
ARC
  5
113E
330
1E
100
AcDbEntity
  8
803
  6
L0
 62
     1
100
AcDbCircle
 10
12.58109058367964
 20
14.04548265018716
 30
0.0
 40
0.0450663498147617
100
AcDbArc
 50
9.499041818006164
 51
89.99947070486905
  0
ARC
  5
113F
330
1E
100
AcDbEntity
  8
803
  6
L0
 62
     1
100
AcDbCircle
 10
12.58109141632036
 20
14.04548265018715
 30
0.0
 40
0.0450663498147633
100
AcDbArc
 50
90.00052929512866
 51
170.5009581819916
  0
LINE
  5
1140
330
1E
100
AcDbEntity
  8
803
  6
L5
 62
     2
100
AcDbLine
 10
15.241764
 20
13.978245
 30
0.0
 11
14.930291
 21
13.978245
 31
0.0
  0
LINE
  5
1141
330
1E
100
AcDbEntity
  8
803
  6
L3
 62
     4
100
AcDbLine
 10
15.086028
 20
13.978245
 30
0.0
 11
15.086028
 21
14.461976
 31
0.0
  0
ARC
  5
1142
330
1E
100
AcDbEntity
  8
803
  6
L5
 62
     2
100
AcDbCircle
 10
18.88621161825229
 20
11.34351638174845
 30
0.0
 40
0.1582863817489175
100
AcDbArc
 50
270.0001381832866
 51
0.0002237918617256
  0
LINE
  5
1143
330
1E
100
AcDbEntity
  8
803
  6
L5
 62
     2
100
AcDbLine
 10
19.044498
 20
12.08163
 30
0.0
 11
19.044498
 21
11.343517
 31
0.0
  0
LINE
  5
1144
330
1E
100
AcDbEntity
  8
803
  6
L5
 62
     2
100
AcDbLine
 10
18.94686799999999
 20
12.02898
 30
0.0
 11
18.94686799999999
 21
11.396167
 31
0.0
  0
ARC
  5
1145
330
1E
100
AcDbEntity
  8
803
  6
L5
 62
     2
100
AcDbCircle
 10
18.84140057879252
 20
11.39616742120672
 30
0.0
 40
0.1054684212083146
100
AcDbArc
 50
269.9996855706322
 51
359.9997711792074
  0
ARC
  5
1146
330
1E
100
AcDbEntity
  8
803
  6
L5
 62
     2
100
AcDbCircle
 10
18.88621161825229
 20
12.08163061825154
 30
0.0
 40
0.158286381748915
100
AcDbArc
 50
359.9997762081382
 51
89.99986181671335
  0
ARC
  5
1147
330
1E
100
AcDbEntity
  8
803
  6
L5
 62
     2
100
AcDbCircle
 10
18.84140007879327
 20
12.02898007879327
 30
0.0
 40
0.1054689212067547
100
AcDbArc
 50
359.9999571957131
 51
90.00004280428782
  0
TEXT
  5
1161
330
1E
100
AcDbEntity
  8
0
  6
Continuous
 62
     1
100
AcDbText
 10
7.471703555766971
 20
8.892361103346672
 30
0.0
 40
0.125
  1
COM
100
AcDbText
  0
TEXT
  5
1167
330
1E
100
AcDbEntity
  8
803
 62
     1
100
AcDbText
 10
15.046653
 20
8.799904999999997
 30
0.0
 40
0.1125
  1
6
 41
1.166666666666684
  7
T1
 72
     5
 11
15.125403
 21
8.799904999999997
 31
0.0
100
AcDbText
  0
TEXT
  5
116A
330
1E
100
AcDbEntity
  8
803
 62
     1
100
AcDbText
 10
7.089201325210542
 20
8.19708503488723
 30
0.0
 40
0.1125
  1
14
 41
1.066666666666675
  7
T1
 72
     5
 11
7.269201325210543
 21
8.19708503488723
 31
0.0
100
AcDbText
  0
TEXT
  5
116C
330
1E
100
AcDbEntity
  8
803
 62
     1
100
AcDbText
 10
7.149495425660948
 20
8.801639390256426
 30
0.0
 40
0.1125
  1
6
  7
T1
 11
7.149495425660948
 21
8.767889390256426
 31
0.0
100
AcDbText
 73
     1
  0
TEXT
  5
1171
330
1E
100
AcDbEntity
  8
803
 62
     1
100
AcDbText
 10
7.089201325210542
 20
10.83202119559043
 30
0.0
 40
0.1125
  1
11
 41
1.333333333333344
  7
T1
 72
     5
 11
7.269201325210543
 21
10.83202119559043
 31
0.0
100
AcDbText
  0
TEXT
  5
1174
330
1E
100
AcDbEntity
  8
803
 62
     1
100
AcDbText
 10
7.089201325210542
 20
11.99848403488723
 30
0.0
 40
0.1125
  1
12
 41
1.066666666666675
  7
T1
 72
     5
 11
7.269201325210543
 21
11.99848403488723
 31
0.0
100
AcDbText
  0
TEXT
  5
1175
330
1E
100
AcDbEntity
  8
803
 62
     1
100
AcDbText
 10
7.089201325210542
 20
11.71270203488723
 30
0.0
 40
0.1125
  1
13
 41
1.066666666666675
  7
T1
 72
     5
 11
7.269201325210543
 21
11.71270203488723
 31
0.0
100
AcDbText
  0
TEXT
  5
1176
330
1E
100
AcDbEntity
  8
803
 62
     1
100
AcDbText
 10
7.159962983315214
 20
11.41376896631351
 30
0.0
 40
0.1125
  1
8
  7
T1
 11
7.159962983315214
 21
11.38001896631351
 31
0.0
100
AcDbText
 73
     1
  0
TEXT
  5
117A
330
1E
100
AcDbEntity
  8
803
 62
     1
100
AcDbText
 10
14.99602799999999
 20
11.721394
 30
0.0
 40
0.1125
  1
13
 41
1.066666666666675
  7
T1
 72
     5
 11
15.176028
 21
11.721394
 31
0.0
100
AcDbText
  0
TEXT
  5
117D
330
1E
100
AcDbEntity
  8
803
 62
     1
100
AcDbText
 10
15.05386199999999
 20
10.26309799999999
 30
0.0
 40
0.1125
  1
9
 41
1.166666666666684
  7
T1
 72
     5
 11
15.13261199999999
 21
10.26309799999999
 31
0.0
100
AcDbText
  0
TEXT
  5
117E
330
1E
100
AcDbEntity
  8
803
 62
     1
100
AcDbText
 10
15.00323699999999
 20
9.973658999999997
 30
0.0
 40
0.1125
  1
15
 41
1.066666666666675
  7
T1
 72
     5
 11
15.18323699999999
 21
9.973658999999997
 31
0.0
100
AcDbText
  0
TEXT
  5
3DB1
330
1E
100
AcDbEntity
  8
803
 62
     1
100
AcDbText
 10
7.432672
 20
10.98651216070319
 30
0.0
 40
0.1125
  1
TEMP+
  7
T1
 11
7.432672
 21
10.95276216070319
 31
0.0
100
AcDbText
 73
     1
  0
INSERT
  5
40FC
330
1E
100
AcDbEntity
  8
4
100
AcDbBlockReference
  2
MEDFUNV_6
 10
3.249940669979837
 20
11.30700997183206
 30
0.0
 41
0.03937
 42
0.03937
 50
220.6198522630543
  0
INSERT
  5
40FD
330
1E
100
AcDbEntity
  8
4
100
AcDbBlockReference
  2
MEDFUNV_6
 10
3.419992632341383
 20
11.20027234131544
 30
0.0
 41
0.03937
 42
0.03937
 50
235.6196332630543
  0
INSERT
  5
40FE
330
1E
100
AcDbEntity
  8
4
100
AcDbBlockReference
  2
MEDFUNV_6
 10
3.253807313129538
 20
12.05287494935531
 30
0.0
 41
0.03937
 42
0.03937
 50
161.9454752630543
  0
INSERT
  5
40FF
330
1E
100
AcDbEntity
  8
4
100
AcDbBlockReference
  2
MEDFUNV_6
 10
3.42385928067511
 20
11.94613831882526
 30
0.0
 41
0.03937
 42
0.03937
 50
127.3708232630543
  0
INSERT
  5
4100
330
1E
100
AcDbEntity
  8
4
100
AcDbBlockReference
  2
MEDFUNV_6
 10
3.592416763103134
 20
12.05111956205384
 30
0.0
 41
0.03937
 42
0.03937
 50
42.13582326305437
  0
INSERT
  5
4101
330
1E
100
AcDbEntity
  8
4
100
AcDbBlockReference
  2
MEDFUNV_6
 10
3.588550119953433
 20
11.3052545845306
 30
0.0
 41
0.03937
 42
0.03937
 50
324.1188112630543
  0
LINE
  5
4102
330
1E
100
AcDbEntity
  8
803
  6
L5
 62
     2
100
AcDbLine
 10
3.110697609896106
 20
11.98520860567025
 30
0.0
 11
3.106996228642801
 21
11.27122219978228
 31
0.0
  0
LINE
  5
4103
330
1E
100
AcDbEntity
  8
803
  6
L5
 62
     2
100
AcDbLine
 10
3.738733537889981
 20
12.01925330202478
 30
0.0
 11
3.734645432705288
 21
11.23066889853902
 31
0.0
  0
LINE
  5
4104
330
1E
100
AcDbEntity
  8
803
  6
L5
 62
     2
100
AcDbLine
 10
3.005585225488315
 20
12.53266386836676
 30
0.0
 11
2.996213514116703
 21
10.72488616017641
 31
0.0
  0
LINE
  5
4105
330
1E
100
AcDbEntity
  8
803
  6
L5
 62
     2
100
AcDbLine
 10
2.90034994455221
 20
12.57802102136713
 30
0.0
 11
2.890513624286338
 21
10.68062151745958
 31
0.0
  0
LINE
  5
4106
330
1E
100
AcDbEntity
  8
803
  6
L5
 62
     2
100
AcDbLine
 10
3.955022772504696
 20
12.57255348556875
 30
0.0
 11
3.945186452238823
 21
10.67515398166119
 31
0.0
  0
LINE
  5
4107
330
1E
100
AcDbEntity
  8
803
  6
L5
 62
     2
100
AcDbLine
 10
3.84932388784493
 20
12.52828983765444
 30
0.0
 11
3.839952176473317
 21
10.72051212946409
 31
0.0
  0
CIRCLE
  5
4108
330
1E
100
AcDbEntity
  8
803
  6
L0
 62
     1
100
AcDbCircle
 10
3.421925956508248
 20
11.57320533007035
 30
0.0
 40
0.03966
  0
ARC
  5
4109
330
1E
100
AcDbEntity
  8
803
  6
L5
 62
     2
100
AcDbCircle
 10
3.058634694796066
 20
12.57719957467542
 30
0.0
 40
0.1582868817509103
100
AcDbArc
 50
89.70257048476108
 51
179.7026560933351
  0
LWPOLYLINE
  5
410A
330
1E
100
AcDbEntity
  8
4
  6
LDM
 62
     1
100
AcDbPolyline
 90
        3
 70
     0
 43
0.0
 10
3.253807313129539
 20
12.05287494935531
 10
2.611837523223692
 20
12.26213975604828
 10
2.486839202874564
 20
12.26278776059825
  0
LWPOLYLINE
  5
410B
330
1E
100
AcDbEntity
  8
4
  6
LDM
 62
     1
100
AcDbPolyline
 90
        3
 70
     0
 43
0.0
 10
3.423859280675108
 20
11.94613831882526
 10
2.611070245993403
 20
13.01034514673381
 10
2.486071925644277
 20
13.01099315128378
  0
TEXT
  5
410C
330
1E
100
AcDbEntity
  8
803
 62
     1
100
AcDbText
 10
1.88617413251374
 20
12.94488015490551
 30
0.0
 40
0.126562
  1
PIN 10
 50
359.7029752630543
 41
0.8431378746090832
  7
T1
 72
     5
 11
2.430383819757272
 21
12.94205891416813
 31
0.0
100
AcDbText
  0
TEXT
  5
410D
330
1E
100
AcDbEntity
  8
803
 62
     1
100
AcDbText
 10
1.780023645213565
 20
12.20317011708249
 30
0.0
 40
0.126562
  1
PIN 15
 50
359.7029752630543
 41
1.019608772697935
  7
T1
 72
     5
 11
2.438137801878598
 21
12.19975838349495
 31
0.0
100
AcDbText
  0
LWPOLYLINE
  5
410E
330
1E
100
AcDbEntity
  8
4
  6
LDM
 62
     1
100
AcDbPolyline
 90
        3
 70
     0
 43
0.0
 10
3.592416763103134
 20
12.05111956205384
 10
4.360746579910586
 20
12.74623285269762
 10
4.485744900259712
 20
12.74558484814765
  0
ARC
  5
410F
330
1E
100
AcDbEntity
  8
803
  6
L5
 62
     2
100
AcDbCircle
 10
3.743857022287206
 20
12.52883630776891
 30
0.0
 40
0.1054682812989614
100
AcDbArc
 50
359.7031280788713
 51
89.70282244723547
  0
ARC
  5
4110
330
1E
100
AcDbEntity
  8
803
  6
L5
 62
     2
100
AcDbCircle
 10
3.111052048202577
 20
12.53211687600821
 30
0.0
 40
0.1054682411633095
100
AcDbArc
 50
89.70256302373902
 51
179.7028442522104
  0
LINE
  5
4112
330
1E
100
AcDbEntity
  8
803
  6
L5
 62
     2
100
AcDbLine
 10
3.744403049820689
 20
12.63430217560758
 30
0.0
 11
3.111598553059947
 21
12.63758270123384
 31
0.0
  0
LINE
  5
4113
330
1E
100
AcDbEntity
  8
803
  6
L5
 62
     2
100
AcDbLine
 10
3.79755846500949
 20
12.73165892420318
 30
0.0
 11
3.059455383186643
 21
12.73548532886233
 31
0.0
  0
ARC
  5
4118
330
1E
100
AcDbEntity
  8
803
  6
L5
 62
     2
100
AcDbCircle
 10
3.796738746681087
 20
12.5733738947845
 30
0.0
 40
0.1582861519597022
100
AcDbArc
 50
359.7030302687859
 51
89.70292025732403
  0
ARC
  5
4119
330
1E
100
AcDbEntity
  8
803
  6
L5
 62
     2
100
AcDbCircle
 10
3.530577979078381
 20
12.02033232126683
 30
0.0
 40
0.2081583554593276
100
AcDbArc
 50
359.7027223764494
 51
99.70278672862358
  0
ARC
  5
411A
330
1E
100
AcDbEntity
  8
803
  6
L5
 62
     2
100
AcDbCircle
 10
3.31885427395172
 20
11.98412926208406
 30
0.0
 40
0.2081594623715546
100
AcDbArc
 50
99.70268208986301
 51
179.7026346805211
  0
CIRCLE
  5
411B
330
1E
100
AcDbEntity
  8
803
  6
L0
 62
     1
100
AcDbCircle
 10
3.426989066486176
 20
12.44068505957772
 30
0.0
 40
0.079761
  0
CIRCLE
  5
411C
330
1E
100
AcDbEntity
  8
803
  6
L0
 62
     1
100
AcDbCircle
 10
3.426989066486176
 20
12.44068505957772
 30
0.0
 40
0.101698
  0
LINE
  5
411D
330
1E
100
AcDbEntity
  8
803
  6
L5
 62
     2
100
AcDbLine
 10
3.495493527406079
 20
12.22551303864779
 30
0.0
 11
3.283770010445108
 21
12.18931113461393
 31
0.0
  0
CIRCLE
  5
411E
330
1E
100
AcDbEntity
  8
803
  6
L0
 62
     1
100
AcDbCircle
 10
3.253807313129537
 20
12.05287494935531
 30
0.0
 40
0.03966
  0
CIRCLE
  5
411F
330
1E
100
AcDbEntity
  8
803
  6
L0
 62
     1
100
AcDbCircle
 10
3.42289261859168
 20
11.7596718244478
 30
0.0
 40
0.03966
  0
CIRCLE
  5
4120
330
1E
100
AcDbEntity
  8
803
  6
L0
 62
     1
100
AcDbCircle
 10
3.423859280675113
 20
11.94613831882525
 30
0.0
 40
0.03966
  0
CIRCLE
  5
4121
330
1E
100
AcDbEntity
  8
803
  6
L0
 62
     1
100
AcDbCircle
 10
3.252840656230141
 20
11.86640945496443
 30
0.0
 40
0.03966
  0
CIRCLE
  5
4122
330
1E
100
AcDbEntity
  8
803
  6
L0
 62
     1
100
AcDbCircle
 10
3.592416763103134
 20
12.05111956205384
 30
0.0
 40
0.03966
  0
CIRCLE
  5
4123
330
1E
100
AcDbEntity
  8
803
  6
L0
 62
     1
100
AcDbCircle
 10
3.591450106203738
 20
11.86465406766295
 30
0.0
 40
0.03966
  0
TEXT
  5
4124
330
1E
100
AcDbEntity
  8
803
 62
     1
100
AcDbText
 10
4.527562282927772
 20
12.68208621206944
 30
0.0
 40
0.126562
  1
PIN 5
 50
359.7029752630543
 41
1.023808395057274
  7
T1
 72
     5
 11
5.071770970184743
 21
12.67926497651609
 31
0.0
100
AcDbText
  0
ARC
  5
4125
330
1E
100
AcDbEntity
  8
803
  6
L5
 62
     2
100
AcDbCircle
 10
3.048797881086916
 20
10.67980133683758
 30
0.0
 40
0.1582863817489175
100
AcDbArc
 50
179.7031134463409
 51
269.703199054916
  0
LWPOLYLINE
  5
4126
330
1E
100
AcDbEntity
  8
4
  6
LDM
 62
     1
100
AcDbPolyline
 90
        3
 70
     0
 43
0.0
 10
3.249940669979837
 20
11.30700997183206
 10
2.604013956930396
 20
10.75299503501074
 10
2.479015636581268
 20
10.75364303956071
  0
LWPOLYLINE
  5
4127
330
1E
100
AcDbEntity
  8
4
  6
LDM
 62
     1
100
AcDbPolyline
 90
        3
 70
     0
 43
0.0
 10
3.419992632341383
 20
11.20027234131544
 10
2.60142663028345
 20
10.00390674145356
 10
2.476428309934322
 20
10.00455474600353
  0
TEXT
  5
4128
330
1E
100
AcDbEntity
  8
803
 62
     1
100
AcDbText
 10
1.766259158750715
 20
10.6940561944052
 30
0.0
 40
0.126562
  1
PIN 11
 50
359.7029752630543
 41
1.083332674894519
  7
T1
 72
     5
 11
2.424372315429186
 21
10.6906444660017
 31
0.0
100
AcDbText
  0
TEXT
  5
4129
330
1E
100
AcDbEntity
  8
803
 62
     1
100
AcDbText
 10
1.769643561001646
 20
9.95088002263045
 30
0.0
 40
0.126562
  1
PIN 6
 50
359.7029752630543
 41
1.238096366847492
  7
T1
 72
     5
 11
2.427757717666679
 21
9.947468289042911
 31
0.0
100
AcDbText
  0
LWPOLYLINE
  5
412A
330
1E
100
AcDbEntity
  8
4
  6
LDM
 62
     1
100
AcDbPolyline
 90
        3
 70
     0
 43
0.0
 10
3.588550119953433
 20
11.3052545845306
 10
4.356339214215026
 20
10.74985287487086
 10
4.481337534564154
 20
10.74920487032088
  0
CIRCLE
  5
412B
330
1E
100
AcDbEntity
  8
803
  6
L0
 62
     1
100
AcDbCircle
 10
3.418548335475455
 20
10.81249093825312
 30
0.0
 40
0.079761
  0
CIRCLE
  5
412C
330
1E
100
AcDbEntity
  8
803
  6
L0
 62
     1
100
AcDbCircle
 10
3.418548335475455
 20
10.81249093825312
 30
0.0
 40
0.101698
  0
ARC
  5
412D
330
1E
100
AcDbEntity
  8
803
  6
L5
 62
     2
100
AcDbCircle
 10
3.526489218360213
 20
11.23174768714936
 30
0.0
 40
0.2081590097874921
100
AcDbArc
 50
259.7030989403697
 51
359.7027867931668
  0
ARC
  5
412E
330
1E
100
AcDbEntity
  8
803
  6
L5
 62
     2
100
AcDbCircle
 10
3.315153085917331
 20
11.27014313816264
 30
0.0
 40
0.2081596541246581
100
AcDbArc
 50
179.7027125665624
 51
259.7026651572205
  0
CIRCLE
  5
412F
330
1E
100
AcDbEntity
  8
803
  6
L0
 62
     1
100
AcDbCircle
 10
3.420959294424815
 20
11.3867388356929
 30
0.0
 40
0.03966
  0
CIRCLE
  5
4130
330
1E
100
AcDbEntity
  8
803
  6
L0
 62
     1
100
AcDbCircle
 10
3.251873994146709
 20
11.67994296058698
 30
0.0
 40
0.03966
  0
CIRCLE
  5
4131
330
1E
100
AcDbEntity
  8
803
  6
L0
 62
     1
100
AcDbCircle
 10
3.250907332063276
 20
11.49347646620952
 30
0.0
 40
0.03966
  0
CIRCLE
  5
4132
330
1E
100
AcDbEntity
  8
803
  6
L0
 62
     1
100
AcDbCircle
 10
3.419992632341383
 20
11.20027234131544
 30
0.0
 40
0.03966
  0
LINE
  5
4133
330
1E
100
AcDbEntity
  8
803
  6
L5
 62
     2
100
AcDbLine
 10
3.489280003585728
 20
11.02694114432283
 30
0.0
 11
3.277943205372107
 21
11.0653362379002
 31
0.0
  0
CIRCLE
  5
4134
330
1E
100
AcDbEntity
  8
803
  6
L0
 62
     1
100
AcDbCircle
 10
3.249940669979844
 20
11.30700997183207
 30
0.0
 40
0.03966
  0
CIRCLE
  5
4135
330
1E
100
AcDbEntity
  8
803
  6
L0
 62
     1
100
AcDbCircle
 10
3.590483444120305
 20
11.6781875732855
 30
0.0
 40
0.03966
  0
CIRCLE
  5
4136
330
1E
100
AcDbEntity
  8
803
  6
L0
 62
     1
100
AcDbCircle
 10
3.589516782036873
 20
11.49172107890804
 30
0.0
 40
0.03966
  0
CIRCLE
  5
4137
330
1E
100
AcDbEntity
  8
803
  6
L0
 62
     1
100
AcDbCircle
 10
3.588550119953441
 20
11.30525458453059
 30
0.0
 40
0.03966
  0
LINE
  5
4138
330
1E
100
AcDbEntity
  8
803
  6
L5
 62
     2
100
AcDbLine
 10
3.733937843731087
 20
10.61559230179448
 30
0.0
 11
3.101133346970344
 21
10.61887282742074
 31
0.0
  0
LINE
  5
4139
330
1E
100
AcDbEntity
  8
803
  6
L5
 62
     2
100
AcDbLine
 10
3.786081018788427
 20
10.51769067415255
 30
0.0
 11
3.04797793696558
 21
10.52151707881171
 31
0.0
  0
ARC
  5
413A
330
1E
100
AcDbEntity
  8
803
  6
L5
 62
     2
100
AcDbCircle
 10
3.101680515121942
 20
10.7243388292571
 30
0.0
 40
0.1054684212083146
100
AcDbArc
 50
179.7026608336866
 51
269.7027464422618
  0
ARC
  5
413B
330
1E
100
AcDbEntity
  8
803
  6
L5
 62
     2
100
AcDbCircle
 10
3.734484672065845
 20
10.72105880539845
 30
0.0
 40
0.1054689212067547
100
AcDbArc
 50
269.7029324587674
 51
359.7030180673421
  0
ARC
  5
413C
330
1E
100
AcDbEntity
  8
803
  6
L5
 62
     2
100
AcDbCircle
 10
3.786902199396233
 20
10.67597492576835
 30
0.0
 40
0.158286381748915
100
AcDbArc
 50
269.7027514711926
 51
359.7028370797677
  0
TEXT
  5
413D
330
1E
100
AcDbEntity
  8
803
 62
     1
100
AcDbText
 10
4.517212997076097
 20
10.68573703778696
 30
0.0
 40
0.126562
  1
PIN 1
 50
359.7029752630543
 41
1.102562886984756
  7
T1
 72
     5
 11
5.061421684333068
 21
10.68291580223361
 31
0.0
100
AcDbText
  0
TEXT
  5
4159
330
1E
100
AcDbEntity
  8
0
  6
Continuous
100
AcDbText
 10
15.57777537041625
 20
3.136578740650499
 30
0.0
 40
0.2
  1
MATERIAL  M.1302.3047
100
AcDbText
  0
TEXT
  5
4181
330
1E
100
AcDbEntity
  8
803
 62
     1
100
AcDbText
 10
1.851174
 20
9.460546
 30
0.0
 40
0.131906
  1
15 POSITION HIGH DENSITY STR
 41
1.004016064257027
  7
T1
 72
     5
 11
5.148823999999997
 21
9.460546
 31
0.0
100
AcDbText
  0
TEXT
  5
4182
330
1E
100
AcDbEntity
  8
803
 62
     1
100
AcDbText
 10
1.446246999999999
 20
9.248114999999998
 30
0.0
 40
0.131906
  1
'D'-SUB RECPT WITH FEMALE SOC CONTACTS
 41
0.9233038795348457
  7
T1
 72
     5
 11
5.574904999999997
 21
9.248114999999998
 31
0.0
100
AcDbText
  0
TEXT
  5
4183
330
1E
100
AcDbEntity
  8
803
 62
     1
100
AcDbText
 10
2.055248999999999
 20
9.069540799999998
 30
0.0
 40
0.131906
  1
AND CINCH NUTS (FACE VIEW)
  7
T1
 11
2.055248999999999
 21
9.029968999999999
 31
0.0
100
AcDbText
 73
     1
  0
TEXT
  5
4188
330
1E
100
AcDbEntity
  8
0
  6
Continuous
 62
     1
100
AcDbText
 10
14.22170355576697
 20
8.892361103346672
 30
0.0
 40
0.125
  1
COM
100
AcDbText
  0
TEXT
  5
41BE
330
1E
100
AcDbEntity
  8
0
  6
Continuous
 62
     1
100
AcDbText
 10
14.18589358226038
 20
8.162333399993078
 30
0.0
 40
0.12
  1
N/C
100
AcDbText
  0
LINE
  5
41BF
330
1E
100
AcDbEntity
  8
0
  6
Continuous
 62
     1
100
AcDbLine
 10
14.930291
 20
8.231154999999999
 30
0.0
 11
14.555291
 21
8.231154999999999
 31
0.0
  0
TEXT
  5
41C0
330
1E
100
AcDbEntity
  8
803
 62
     1
100
AcDbText
 10
7.091923808474593
 20
12.29124489036551
 30
0.0
 40
0.1125
  1
10
 41
1.066666666666675
  7
T1
 72
     5
 11
7.271923808474594
 21
12.29124489036551
 31
0.0
100
AcDbText
  0
CIRCLE
  5
41CA
330
1E
100
AcDbEntity
  8
0
  6
L0
 62
     1
100
AcDbCircle
 10
8.5625
 20
8.856154999999997
 30
0.0
 40
0.025
  0
LINE
  5
41D4
330
1E
100
AcDbEntity
  8
0
  6
Continuous
100
AcDbLine
 10
8.1875
 20
9.736284210129491
 30
0.0
 11
8.187500000000001
 21
5.5
 31
0.0
  0
LINE
  5
41D5
330
1E
100
AcDbEntity
  8
0
  6
Continuous
100
AcDbLine
 10
7.343236
 20
9.736284321406396
 30
0.0
 11
8.1875
 21
9.73628421012949
 31
0.0
  0
LINE
  5
4201
330
1E
100
AcDbEntity
  8
0
  6
Continuous
100
AcDbLine
 10
8.562499999999998
 20
8.856154999999999
 30
0.0
 11
8.562499999999998
 21
5.937499999999999
 31
0.0
  0
LINE
  5
4202
330
1E
100
AcDbEntity
  8
0
  6
Continuous
100
AcDbLine
 10
8.562499999999996
 20
5.937499999999999
 30
0.0
 11
13.18749999999998
 21
5.9375
 31
0.0
  0
LINE
  5
4203
330
1E
100
AcDbEntity
  8
0
  6
Continuous
100
AcDbLine
 10
8.1875
 20
5.5
 30
0.0
 11
13.18749999999998
 21
5.5
 31
0.0
  0
TEXT
  5
4205
330
1E
100
AcDbEntity
  8
803
 62
     1
100
AcDbText
 10
9.866027
 20
5.959218000000001
 30
0.0
 40
0.1125
  1
22 AWG BLUE
 11
9.866027
 21
5.921718000000002
 31
0.0
100
AcDbText
 73
     1
  0
TEXT
  5
4207
330
1E
100
AcDbEntity
  8
803
 62
     1
100
AcDbText
 10
9.866027
 20
5.521718000000001
 30
0.0
 40
0.1125
  1
22 AWG WHITE/BLUE
 11
9.866027
 21
5.484218000000002
 31
0.0
100
AcDbText
 73
     1
  0
TEXT
  5
420A
330
1E
100
AcDbEntity
  8
0
  6
Continuous
100
AcDbText
 10
12.12547888587391
 20
5.978046607791547
 30
0.0
 40
0.12
  1
LET HANG
100
AcDbText
  0
TEXT
  5
420B
330
1E
100
AcDbEntity
  8
0
  6
Continuous
100
AcDbText
 10
12.12547888587391
 20
5.540546607791547
 30
0.0
 40
0.12
  1
LET HANG
100
AcDbText
  0
LINE
  5
4223
330
1E
100
AcDbEntity
  8
0
  6
Continuous
 62
     1
100
AcDbLine
 10
14.930291
 20
9.75
 30
0.0
 11
14.5625
 21
9.75
 31
0.0
  0
TEXT
  5
4225
330
1E
100
AcDbEntity
  8
0
  6
Continuous
 62
     1
100
AcDbText
 10
14.20031158226039
 20
9.681178399993079
 30
0.0
 40
0.12
  1
N/C
100
AcDbText
  0
TEXT
  5
4227
330
1E
100
AcDbEntity
  8
803
 62
     1
100
AcDbText
 10
7.149232633291719
 20
10.25762351850381
 30
0.0
 40
0.1125
  1
9
 41
1.166666666666684
  7
T1
 72
     5
 11
7.22798263329172
 21
10.25762351850381
 31
0.0
100
AcDbText
  0
TEXT
  5
4228
330
1E
100
AcDbEntity
  8
803
 62
     1
100
AcDbText
 10
7.098607633291718
 20
9.968184518503818
 30
0.0
 40
0.1125
  1
15
 41
1.066666666666675
  7
T1
 72
     5
 11
7.27860763329172
 21
9.968184518503818
 31
0.0
100
AcDbText
  0
TEXT
  5
422B
330
1E
100
AcDbEntity
  8
803
 62
     1
100
AcDbText
 10
7.432672
 20
10.37514616070319
 30
0.0
 40
0.1125
  1
+LIMIT
 41
1.019607843137253
  7
T1
 72
     5
 11
8.017671999999999
 21
10.37514616070319
 31
0.0
100
AcDbText
  0
TEXT
  5
422C
330
1E
100
AcDbEntity
  8
803
 62
     1
100
AcDbText
 10
7.432672
 20
10.07808316070319
 30
0.0
 40
0.1125
  1
-LIMIT
 41
1.019607843137253
  7
T1
 72
     5
 11
8.017671999999999
 21
10.07808316070319
 31
0.0
100
AcDbText
  0
TEXT
  5
422F
330
1E
100
AcDbEntity
  8
803
 62
     1
100
AcDbText
 10
14.24517199999999
 20
10.37514616070319
 30
0.0
 40
0.1125
  1
+LIMIT
 41
1.019607843137253
  7
T1
 72
     5
 11
14.83017199999999
 21
10.37514616070319
 31
0.0
100
AcDbText
  0
TEXT
  5
4230
330
1E
100
AcDbEntity
  8
803
 62
     1
100
AcDbText
 10
14.24517199999999
 20
10.07808216070319
 30
0.0
 40
0.1125
  1
-LIMIT
 41
1.019607843137253
  7
T1
 72
     5
 11
14.83017199999999
 21
10.07808216070319
 31
0.0
100
AcDbText
  0
INSERT
  5
4319
330
1E
100
AcDbEntity
  8
0
  6
Continuous
100
AcDbBlockReference
 66
     1
  2
ASSEMBLY_C
 10
0.0
 20
0.0
 30
0.0
  0
ATTRIB
  5
431B
330
4319
100
AcDbEntity
  8
TITLE BLOCK
  6
Continuous
100
AcDbText
 10
17.42499999999999
 20
1.875
 30
0.0
 40
0.1010611419
  1
G. MUMM
100
AcDbAttribute
  2
GEN-TITLE-NAME{5}
 70
     0
  0
ATTRIB
  5
431C
330
4319
100
AcDbEntity
  8
TITLE BLOCK
  6
Continuous
100
AcDbText
 10
17.42499999999999
 20
1.625
 30
0.0
 40
0.1010611419
  1

100
AcDbAttribute
  2
GEN-TITLE-CHKM{5}
 70
     0
  0
ATTRIB
  5
431D
330
4319
100
AcDbEntity
  8
TITLE BLOCK
  6
Continuous
100
AcDbText
 10
17.42499999999999
 20
1.375
 30
0.0
 40
0.1010611419
  1

100
AcDbAttribute
  2
GEN-TITLE-APPM{5}
 70
     0
  0
ATTRIB
  5
431E
330
4319
100
AcDbEntity
  8
TITLE BLOCK
  6
Continuous
100
AcDbText
 10
15.7
 20
0.95
 30
0.0
 40
0.126326427375
  1
CABLE, STEGMANN ADAPTER
 41
0.8
100
AcDbAttribute
  2
GEN-TITLE-DES1{15.54}
 70
     0
  0
ATTRIB
  5
431F
330
4319
100
AcDbEntity
  8
TITLE BLOCK
  6
Continuous
100
AcDbText
 10
20.89999999999999
 20
1.375
 30
0.0
 40
0.11808994431015
  1
2
 41
0.8
100
AcDbAttribute
  2
GEN-TITLE-SHEET-OF{2.62}
 70
     0
  0
ATTRIB
  5
4320
330
4319
100
AcDbEntity
  8
TITLE BLOCK
  6
Continuous
100
AcDbText
 10
20.5
 20
1.375
 30
0.0
 40
0.11808994431015
  1
2
 41
0.8
100
AcDbAttribute
  2
GEN-TITLE-SHEET{2.62}
 70
     0
  0
ATTRIB
  5
4321
330
4319
100
AcDbEntity
  8
TITLE BLOCK
  6
Continuous
100
AcDbText
 10
18.94999999999999
 20
1.375
 30
0.0
 40
0.1010611419
  1

 41
0.8
100
AcDbAttribute
  2
GEN-TITLE-MAT{11.15}
 70
     0
  0
ATTRIB
  5
4322
330
4319
100
AcDbEntity
  8
TITLE BLOCK
  6
Continuous
100
AcDbText
 10
18.94999999999999
 20
1.625
 30
0.0
 40
0.1010611419
  1

100
AcDbAttribute
  2
GEN-TITLE-MACH{5}
 70
     0
  0
ATTRIB
  5
4323
330
4319
100
AcDbEntity
  8
TITLE BLOCK
  6
Continuous
100
AcDbText
 10
18.94999999999999
 20
1.875
 30
0.0
 40
0.1010611419
  1

100
AcDbAttribute
  2
GEN-TITLE-REF{5}
 70
     0
  0
ATTRIB
  5
4324
330
4319
100
AcDbEntity
  8
TITLE BLOCK
  6
Continuous
100
AcDbText
 10
20.42499999999999
 20
1.625
 30
0.0
 40
0.1010611419
  1
24.10.02
100
AcDbAttribute
  2
GEN-TITLE-PLOT{5}
 70
     0
  0
ATTRIB
  5
4325
330
4319
100
AcDbEntity
  8
TITLE BLOCK
  6
Continuous
100
AcDbText
 10
18.89999999999999
 20
0.85
 30
0.0
 40
0.196816573850279
  1
MD.1000.7091
 41
0.8
100
AcDbAttribute
  2
GEN-TITLE-NR{13.37}
 70
     0
  0
SEQEND
  5
431A
330
4319
100
AcDbEntity
  8
0
  6
Continuous
  0
ENDSEC
  0
SECTION
  2
OBJECTS
  0
DICTIONARY
  5
C
330
0
100
AcDbDictionary
281
     1
  3
ACAD_GROUP
350
D
  3
ACAD_LAYOUT
350
19
  3
ACAD_MLINESTYLE
350
16
  3
ACAD_PLOTSETTINGS
350
18
  3
ACAD_PLOTSTYLENAME
350
E
  3
AcDbVariableDictionary
350
C19
  3
AcmDictionary
350
C2C
  3
AMG
350
C10
  3
AMGSNAPSETTINGS
350
C61
  3
ASE_INDEX_DICTIONARY
350
4326
  3
DWGPROPS
350
4265
  0
DICTIONARY
  5
D4B
330
1E
100
AcDbDictionary
280
     1
281
     1
  3
ACAD_INDEX
360
3EC5
  0
DICTIONARY
  5
D
102
{ACAD_REACTORS
330
C
102
}
330
C
100
AcDbDictionary
281
     1
  0
DICTIONARY
  5
19
102
{ACAD_REACTORS
330
C
102
}
330
C
100
AcDbDictionary
281
     1
  3
Layout1
350
1D
  3
Model
350
21
  0
DICTIONARY
  5
16
102
{ACAD_REACTORS
330
C
102
}
330
C
100
AcDbDictionary
281
     1
  3
Standard
350
17
  0
DICTIONARY
  5
18
102
{ACAD_REACTORS
330
C
102
}
330
C
100
AcDbDictionary
281
     1
  0
ACDBDICTIONARYWDFLT
  5
E
102
{ACAD_REACTORS
330
C
102
}
330
C
100
AcDbDictionary
281
     1
  3
Normal
350
F
100
AcDbDictionaryWithDefault
340
F
  0
DICTIONARY
  5
C19
102
{ACAD_REACTORS
330
C
102
}
330
C
100
AcDbDictionary
281
     1
  3
INDEXCTL
350
C1A
  0
DICTIONARY
  5
C2C
102
{ACAD_REACTORS
330
C
102
}
330
C
100
AcDbDictionary
281
     1
  3
AcmBOMDATA
350
C2D
  3
AcmStdDictionary
350
C32
  0
DICTIONARY
  5
C10
102
{ACAD_REACTORS
330
C
102
}
330
C
100
AcDbDictionary
281
     1
  3
AcMgSettings
350
C11
  3
AMGLAYCFG
350
C34
  0
DICTIONARY
  5
C61
102
{ACAD_REACTORS
330
C
102
}
330
C
100
AcDbDictionary
281
     1
  3
DIMENSION
350
C66
  3
FEA
350
C65
  3
HATCH (1)
350
C62
  3
HATCH (2)
350
C63
  3
SIMPLE WELD
350
C67
  3
SYMBOLS
350
C64
  0
DICTIONARY
  5
4326
102
{ACAD_REACTORS
330
C
102
}
330
C
100
AcDbDictionary
281
     1
  3
ASEBlockHierarchyIndexRecord
350
4327
1001
DCO15
1040
1450001259.733999
  0
XRECORD
  5
4265
102
{ACAD_REACTORS
330
C
102
}
330
C
100
AcDbXrecord
280
     1
  1
DWGPROPS COOKIE
  2

  3

  4

  6

  7

  8

  9

300
AmdtFileType=84
301
=
302
=
303
=
304
=
305
=
306
=
307
=
308
=
309
=
 40
0.3487852314814815
 41
2452303.590659919
 42
2452577.61682956
  1

 90
        1
  0
DICTIONARY
  5
3EC5
102
{ACAD_REACTORS
330
D4B
102
}
330
D4B
100
AcDbDictionary
281
     1
  3
*A1
350
3EC6
  0
LAYOUT
  5
1D
102
{ACAD_REACTORS
330
19
102
}
330
19
100
AcDbPlotSettings
  1

  2
\\CONTROLSFS1\LPS17B
  4

  6

 40
0.0
 41
0.0
 42
0.0
 43
0.0
 44
0.0
 45
0.0
 46
0.0
 47
0.0
 48
0.0
 49
0.0
140
0.0
141
0.0
142
1.0
143
1.0
 70
   688
 72
     0
 73
     0
 74
     5
  7
monochrome.ctb
 75
    16
147
1.0
148
0.0
149
0.0
100
AcDbLayout
  1
Layout1
 70
     0
 71
     1
 10
0.0
 20
0.0
 11
12.0
 21
9.0
 12
0.0
 22
0.0
 32
0.0
 14
1.000000000000000E+20
 24
1.000000000000000E+20
 34
1.000000000000000E+20
 15
-1.000000000000000E+20
 25
-1.000000000000000E+20
 35
-1.000000000000000E+20
146
0.0
 13
0.0
 23
0.0
 33
0.0
 16
1.0
 26
0.0
 36
0.0
 17
0.0
 27
1.0
 37
0.0
 76
     0
330
1A
  0
LAYOUT
  5
21
102
{ACAD_REACTORS
330
19
102
}
330
19
100
AcDbPlotSettings
  1

  2
\\CONTROLSFS1\HP LaserJet 5Si MX
  4
Legal
  6

 40
7.143749713897705
 41
6.127765178680419
 42
7.14373779296875
 43
7.14373779296875
 44
215.8999938964843
 45
355.6000061035156
 46
0.0
 47
38.862
 48
0.0
 49
0.0
140
0.0
141
0.0
142
1.0
143
2.110785546200101
 70
 11956
 72
     0
 73
     1
 74
     1
  7
monochrome.ctb
 75
     0
147
0.4737572709838901
148
0.0
149
-6.239235579618923
100
AcDbLayout
  1
Model
 70
     1
 71
     0
 10
0.0
 20
0.0
 11
12.0
 21
9.0
 12
0.0
 22
0.0
 32
0.0
 14
0.0
 24
0.0
 34
0.0
 15
0.0
 25
0.0
 35
0.0
146
0.0
 13
0.0
 23
0.0
 33
0.0
 16
1.0
 26
0.0
 36
0.0
 17
0.0
 27
1.0
 37
0.0
 76
     0
330
1E
  0
MLINESTYLE
  5
17
102
{ACAD_REACTORS
330
16
102
}
330
16
100
AcDbMlineStyle
  2
STANDARD
 70
     0
  3

 62
   256
 51
90.0
 52
90.0
 71
     2
 49
0.5
 62
   256
  6
BYLAYER
 49
-0.5
 62
   256
  6
BYLAYER
  0
ACDBPLACEHOLDER
  5
F
102
{ACAD_REACTORS
330
E
102
}
330
E
  0
DICTIONARYVAR
  5
C1A
102
{ACAD_REACTORS
330
C19
102
}
330
C19
100
DictionaryVariables
280
     0
  1
1
  0
ACMDATADICTIONARY
  5
C2D
102
{ACAD_REACTORS
330
C2C
102
}
330
C2C
100
AcDbDictionary
281
     1
  3
*A1
350
C2E
100
AcmDataDictionary
  0
DICTIONARY
  5
C32
102
{ACAD_REACTORS
330
C2C
102
}
330
C2C
100
AcDbDictionary
281
     1
  3
ANSI
350
C33
  0
DICTIONARY
  5
C11
102
{ACAD_REACTORS
330
C10
102
}
330
C10
100
AcDbDictionary
281
     1
  3
DWGSETTINGS
350
C12
  3
TRANSSETTINGS
350
C13
  0
ACAMGFILTERDAT
  5
C66
102
{ACAD_REACTORS
330
C61
102
}
330
C61
100
AcAmgFilterDat
 70
    15
  1
DIMENSION,AMDT_*_DIM
  2
*
  3
*
  4
*
  5
*
290
     1
  0
ACAMGFILTERDAT
  5
C65
102
{ACAD_REACTORS
330
C61
102
}
330
C61
100
AcAmgFilterDat
 70
    15
  1
*
  2
AM_FEA-AM_*
  3
*
  4
*
  5
*
290
     1
  0
ACAMGFILTERDAT
  5
C62
102
{ACAD_REACTORS
330
C61
102
}
330
C61
100
AcAmgFilterDat
 70
    15
  1
HATCH
  2
*
  3
*
  4
*
  5
*
290
     1
  0
ACAMGFILTERDAT
  5
C63
102
{ACAD_REACTORS
330
C61
102
}
330
C61
100
AcAmgFilterDat
 70
    15
  1
LINE
  2
8,8N,*-8,*-8N,AM_8,AM_8N,*-AM_8,*-AM_8N
  3
*
  4
*
  5
INSERT,STDPART2D
290
     1
  0
ACAMGFILTERDAT
  5
C67
102
{ACAD_REACTORS
330
C61
102
}
330
C61
100
AcAmgFilterDat
 70
    15
  1
ARC
  2
AM_5
  3
*
  4
2
  5
INSERT
290
     0
  0
ACAMGFILTERDAT
  5
C64
102
{ACAD_REACTORS
330
C61
102
}
330
C61
100
AcAmgFilterDat
 70
    15
  1
ACMFCFRAME,ACMDATUMTARGET,ACMDATUMID,ACMWELDSYM,ACMSURFSYM,ACMFEATID,ACMPARTREF,ACMBALLOON,AMDTEDGESYM
  2
*
  3
*
  4
*
  5
*
290
     1
  0
XRECORD
  5
4327
102
{ACAD_REACTORS
330
4326
102
}
330
4326
100
AcDbXrecord
280
     1
330
BBB
330
E76
330
E79
330
E7B
330
E7E
330
E81
330
E84
330
4319
330
40FC
330
40FD
330
40FE
330
40FF
330
4100
330
4101
330
3F
330
49
330
52
330
5C
330
66
330
91
  0
LAYER_INDEX
  5
3EC6
102
{ACAD_REACTORS
330
3EC5
102
}
330
3EC5
100
AcDbIndex
 40
2452585.633839514
100
AcDbLayerIndex
  8
0
360
3EC7
 90
       22
  8
22
360
3EC8
 90
        0
  8
2
360
3EC9
 90
        0
  8
803
360
3ECA
 90
      821
  8
4
360
3ECB
 90
       29
  8
BORDER
360
3ECC
 90
        0
  8
TITLE BLOCK
360
3ECD
 90
        0
  8
LAYER_1
360
3ECE
 90
        0
  0
ACMDATAENTRYBLOCK
  5
C2E
102
{ACAD_REACTORS
330
C2D
102
}
330
C2D
100
AcmDataEntry
100
AcmDataEntryBlock
  0
IDBUFFER
  5
3EC7
330
0
100
AcDbIdBuffer
330
4319
330
4223
330
4225
330
4201
330
4202
330
4203
330
420A
330
420B
330
41BE
330
41BF
330
41CA
330
41D4
330
41D5
330
BBB
330
EE4
330
EE5
330
1012
330
1013
330
1014
330
1161
330
4188
330
4159
  0
IDBUFFER
  5
3EC8
330
0
100
AcDbIdBuffer
  0
IDBUFFER
  5
3EC9
330
0
100
AcDbIdBuffer
  0
IDBUFFER
  5
3ECA
330
0
100
AcDbIdBuffer
330
4227
330
4228
330
422B
330
422C
330
422F
330
4230
330
4205
330
4207
330
41C0
330
4182
330
1DC
330
1DD
330
1DE
330
1DF
330
4181
330
2D1
330
2D9
330
2DB
330
2DC
330
485
330
486
330
488
330
489
330
48A
330
48B
330
48C
330
48D
330
48E
330
48F
330
5B4
330
5B5
330
5B6
330
5B7
330
5B8
330
5B9
330
816
330
817
330
818
330
819
330
81A
330
81B
330
81C
330
A2D
330
A2E
330
A2F
330
A30
330
A31
330
A32
330
A33
330
A50
330
A52
330
A56
330
A57
330
A58
330
4183
330
A5A
330
A5B
330
A5E
330
411C
330
A6A
330
A6B
330
A6C
330
A71
330
AA6
330
AA7
330
AA8
330
AA9
330
AAA
330
AAB
330
AAC
330
AAD
330
AAE
330
AAF
330
AB0
330
ABD
330
ABE
330
ABF
330
AC0
330
AC1
330
AC2
330
AC3
330
AC4
330
AD9
330
ADA
330
AF7
330
AF8
330
B95
330
B96
330
B97
330
BB4
330
BB5
330
BB6
330
BB7
330
BB8
330
BB9
330
BC2
330
BC6
330
BC8
330
BC9
330
BCA
330
BCB
330
BCC
330
BCD
330
BCE
330
BCF
330
BD0
330
BD1
330
BD2
330
BD3
330
BD4
330
BD5
330
BD6
330
BD7
330
BD8
330
BD9
330
DBC
330
DDB
330
E3D
330
E3F
330
E86
330
E87
330
E88
330
E89
330
E8A
330
E8B
330
E8C
330
E8D
330
E8E
330
E8F
330
E90
330
E91
330
E92
330
E93
330
E94
330
E95
330
E96
330
E97
330
E98
330
E99
330
E9A
330
E9B
330
E9C
330
E9D
330
E9E
330
E9F
330
EA0
330
EA1
330
EA3
330
413D
330
413C
330
413B
330
413A
330
4139
330
4138
330
4137
330
4136
330
4135
330
4134
330
4133
330
4132
330
4131
330
4130
330
412F
330
412E
330
412D
330
412C
330
412B
330
4129
330
4128
330
4125
330
4124
330
4123
330
4122
330
4121
330
4120
330
411F
330
411E
330
411D
330
EC2
330
EC3
330
EC4
330
EC5
330
EC6
330
EDD
330
EDE
330
EE6
330
EE7
330
EE8
330
EE9
330
EEA
330
EEB
330
EEC
330
EED
330
EEE
330
EEF
330
EF0
330
EF1
330
EF2
330
EF3
330
EF4
330
EF5
330
EF6
330
EF7
330
EF8
330
EF9
330
EFA
330
EFB
330
EFC
330
EFD
330
EFE
330
EFF
330
F00
330
F01
330
F02
330
F03
330
F04
330
F05
330
F06
330
F07
330
F08
330
F09
330
F0A
330
F0B
330
F0C
330
F0D
330
F0E
330
F0F
330
F10
330
F11
330
F12
330
F13
330
F14
330
F15
330
F16
330
F17
330
F18
330
F19
330
F1A
330
F1B
330
F1C
330
F1D
330
F1E
330
F1F
330
F20
330
F21
330
F22
330
F23
330
F24
330
F25
330
F26
330
F27
330
F28
330
F29
330
F2A
330
F2B
330
F2C
330
F2D
330
F2E
330
F2F
330
F30
330
F31
330
F32
330
F33
330
F34
330
F35
330
F36
330
F37
330
F38
330
F39
330
F3A
330
F3B
330
F3C
330
F3D
330
F3E
330
F3F
330
F40
330
F41
330
F42
330
F43
330
F44
330
F45
330
F46
330
F47
330
F48
330
F49
330
F4A
330
F4B
330
F4C
330
F4D
330
F4E
330
F4F
330
F50
330
F51
330
F52
330
F53
330
F54
330
F55
330
F56
330
F57
330
F58
330
F59
330
F5A
330
F5B
330
F5C
330
F5D
330
F5E
330
F5F
330
F60
330
F61
330
F62
330
F63
330
F64
330
F65
330
F66
330
F67
330
F68
330
F69
330
F6A
330
F6B
330
F6C
330
F6D
330
F6E
330
F6F
330
F70
330
F71
330
F72
330
F73
330
F74
330
F75
330
F76
330
F77
330
F78
330
F79
330
F7A
330
F7B
330
F7C
330
F7D
330
F7E
330
F7F
330
F80
330
F81
330
F82
330
F83
330
F84
330
F85
330
F86
330
F87
330
F88
330
F89
330
F8A
330
F8B
330
F8C
330
F8D
330
F8E
330
F8F
330
F90
330
F91
330
F92
330
F93
330
F94
330
F95
330
F96
330
F97
330
F98
330
F99
330
F9A
330
F9B
330
F9C
330
F9D
330
F9E
330
F9F
330
FA0
330
FA1
330
FA2
330
FA3
330
FA4
330
FA5
330
FA6
330
FA7
330
FA8
330
FA9
330
FAA
330
FAB
330
FAC
330
FAD
330
FAE
330
FAF
330
FB0
330
FB1
330
FB2
330
FB3
330
FB4
330
FB5
330
FB6
330
FB7
330
FB8
330
FB9
330
FBA
330
FBB
330
FBC
330
FBD
330
FBE
330
FBF
330
FC0
330
FC1
330
FC2
330
FC3
330
FC4
330
FC5
330
FC6
330
FC7
330
FC8
330
FC9
330
FCA
330
FCB
330
FCC
330
FCD
330
FCE
330
FCF
330
FD0
330
FD1
330
FD2
330
FD3
330
FD4
330
FD5
330
FD6
330
FD7
330
FD8
330
FD9
330
FDA
330
FDB
330
FDC
330
FDD
330
FDE
330
FDF
330
FE0
330
FE1
330
FE2
330
FE3
330
FE4
330
FE5
330
FE6
330
FE7
330
FE8
330
FE9
330
FEA
330
FEB
330
FEC
330
FED
330
FEE
330
FEF
330
FF0
330
FF1
330
FF2
330
FF3
330
FF4
330
FF5
330
FF6
330
FF7
330
FF8
330
FF9
330
FFA
330
FFB
330
FFC
330
FFD
330
FFE
330
FFF
330
1000
330
1001
330
1002
330
1003
330
1004
330
1005
330
1006
330
1007
330
1008
330
1009
330
100A
330
100B
330
100C
330
100D
330
100E
330
100F
330
1010
330
1011
330
1015
330
1016
330
1017
330
1018
330
1019
330
101A
330
101B
330
101C
330
101D
330
101E
330
101F
330
1020
330
1021
330
1022
330
1023
330
1024
330
1025
330
1026
330
1027
330
1028
330
1029
330
102A
330
102B
330
102C
330
102D
330
102E
330
102F
330
1030
330
1031
330
1032
330
1033
330
1034
330
1035
330
1036
330
1037
330
1038
330
1039
330
103A
330
103B
330
103C
330
103D
330
103E
330
103F
330
1040
330
1041
330
1042
330
1043
330
1044
330
1045
330
1046
330
1047
330
1048
330
1049
330
104A
330
104B
330
104C
330
104D
330
104E
330
104F
330
1050
330
1051
330
1052
330
1053
330
1054
330
1055
330
1056
330
1057
330
1058
330
1059
330
105A
330
105B
330
105C
330
105D
330
105E
330
105F
330
1060
330
1061
330
1062
330
1063
330
1064
330
1065
330
1066
330
1067
330
1068
330
1069
330
106A
330
106B
330
106C
330
106D
330
106E
330
106F
330
1070
330
1071
330
1072
330
1073
330
1074
330
1075
330
1076
330
1077
330
1078
330
1079
330
107A
330
107B
330
107C
330
107D
330
107E
330
107F
330
1080
330
1081
330
1082
330
1083
330
1084
330
1085
330
1086
330
1087
330
1088
330
1089
330
108A
330
108B
330
108C
330
108D
330
108E
330
108F
330
1090
330
1091
330
1092
330
1093
330
1094
330
1095
330
1096
330
1097
330
1098
330
1099
330
109A
330
109B
330
109C
330
109D
330
109E
330
109F
330
10A0
330
10A1
330
10A2
330
10A3
330
10A4
330
10A5
330
10A6
330
10A7
330
10A8
330
10A9
330
10AA
330
10AB
330
10AC
330
10AD
330
10AE
330
10AF
330
10B0
330
10B1
330
10B2
330
10B3
330
10B4
330
10B5
330
10B6
330
10B7
330
10B8
330
10B9
330
10BA
330
10BB
330
10BC
330
10BD
330
10BE
330
10BF
330
10C0
330
10C1
330
10C2
330
10C3
330
10C4
330
10C5
330
10C6
330
10C7
330
10C8
330
10C9
330
10CA
330
10CB
330
10CC
330
10CD
330
10CE
330
10CF
330
10D0
330
10D1
330
10D2
330
10D3
330
10D4
330
10D5
330
10D6
330
10D7
330
10D8
330
10D9
330
10DA
330
10DB
330
10DC
330
10DD
330
10DE
330
10DF
330
10E0
330
10E1
330
10E2
330
10E3
330
10E4
330
10E5
330
10E6
330
10E7
330
10E8
330
10E9
330
10EA
330
10EB
330
10EC
330
10ED
330
10EE
330
10EF
330
10F0
330
10F1
330
10F2
330
10F3
330
10F4
330
10F5
330
10F6
330
10F7
330
10F8
330
10F9
330
10FA
330
10FB
330
10FC
330
10FD
330
10FE
330
10FF
330
1100
330
1101
330
1102
330
1103
330
1104
330
1105
330
1106
330
1107
330
1108
330
1109
330
110A
330
110B
330
110C
330
110D
330
110E
330
110F
330
1110
330
1111
330
1112
330
1113
330
1114
330
1115
330
1116
330
1117
330
1118
330
1119
330
111A
330
111B
330
111C
330
111D
330
111E
330
111F
330
1120
330
1121
330
1122
330
1123
330
1124
330
1125
330
1126
330
1127
330
1128
330
1129
330
112A
330
112B
330
112C
330
112D
330
112E
330
112F
330
1130
330
1131
330
1132
330
1133
330
1134
330
1135
330
1136
330
1137
330
1138
330
1139
330
113A
330
113B
330
113C
330
113D
330
113E
330
113F
330
1140
330
1141
330
1142
330
1143
330
1144
330
1145
330
1146
330
1147
330
1167
330
116A
330
116C
330
411B
330
411A
330
1171
330
1174
330
1175
330
1176
330
117A
330
117D
330
117E
330
4119
330
4118
330
3DB1
330
4113
330
410D
330
4112
330
4110
330
410F
330
4102
330
4103
330
4104
330
4105
330
4106
330
4107
330
4108
330
4109
330
410C
  0
IDBUFFER
  5
3ECB
330
0
100
AcDbIdBuffer
330
E75
330
E76
330
E77
330
E78
330
E79
330
E7A
330
E7B
330
E7C
330
E7D
330
E7E
330
E7F
330
E80
330
E81
330
E82
330
E83
330
E84
330
E85
330
40FC
330
40FD
330
40FE
330
40FF
330
4100
330
4101
330
410A
330
410B
330
410E
330
4126
330
4127
330
412A
  0
IDBUFFER
  5
3ECC
330
0
100
AcDbIdBuffer
  0
IDBUFFER
  5
3ECD
330
0
100
AcDbIdBuffer
  0
IDBUFFER
  5
3ECE
330
0
100
AcDbIdBuffer
  0
ENDSEC
  0
EOF
