  0
SECTION
  2
HEADER
  9
$ACADVER
  1
AC1015
  9
$ACADMAINTVER
 70
    10
  9
$DWGCODEPAGE
  3
ANSI_1252
  9
$INSBASE
 10
0.0
 20
0.0
 30
0.0
  9
$EXTMIN
 10
0.0
 20
0.0
 30
0.0
  9
$EXTMAX
 10
44.0
 20
34.0
 30
0.0
  9
$LIMMIN
 10
0.0
 20
0.0
  9
$LIMMAX
 10
0.0
 20
0.0
  9
$ORTHOMODE
 70
     0
  9
$REGENMODE
 70
     1
  9
$FILLMODE
 70
     1
  9
$QTEXTMODE
 70
     0
  9
$MIRRTEXT
 70
     1
  9
$LTSCALE
 40
1.0
  9
$ATTMODE
 70
     1
  9
$TEXTSIZE
 40
0.0
  9
$TRACEWID
 40
0.05
  9
$TEXTSTYLE
  7
STANDARD
  9
$CLAYER
  8
0
  9
$CELTYPE
  6
CONTINUOUS
  9
$CECOLOR
 62
   256
  9
$CELTSCALE
 40
1.0
  9
$DISPSILH
 70
     0
  9
$DIMSCALE
 40
1.0
  9
$DIMASZ
 40
0.18
  9
$DIMEXO
 40
0.0393700787
  9
$DIMDLI
 40
0.38
  9
$DIMRND
 40
0.0
  9
$DIMDLE
 40
0.0393700787
  9
$DIMEXE
 40
0.18
  9
$DIMTP
 40
0.0
  9
$DIMTM
 40
0.0
  9
$DIMTXT
 40
0.18
  9
$DIMCEN
 40
0.09
  9
$DIMTSZ
 40
0.0
  9
$DIMTOL
 70
     0
  9
$DIMLIM
 70
     0
  9
$DIMTIH
 70
     1
  9
$DIMTOH
 70
     1
  9
$DIMSE1
 70
     0
  9
$DIMSE2
 70
     0
  9
$DIMTAD
 70
     1
  9
$DIMZIN
 70
     1
  9
$DIMBLK
  1

  9
$DIMASO
 70
     1
  9
$DIMSHO
 70
     1
  9
$DIMPOST
  1

  9
$DIMAPOST
  1

  9
$DIMALT
 70
     0
  9
$DIMALTD
 70
     2
  9
$DIMALTF
 40
25.4
  9
$DIMLFAC
 40
17.0
  9
$DIMTOFL
 70
     0
  9
$DIMTVP
 40
0.0
  9
$DIMTIX
 70
     0
  9
$DIMSOXD
 70
     0
  9
$DIMSAH
 70
     0
  9
$DIMBLK1
  1

  9
$DIMBLK2
  1

  9
$DIMSTYLE
  2
STANDARD
  9
$DIMCLRD
 70
     0
  9
$DIMCLRE
 70
     0
  9
$DIMCLRT
 70
     0
  9
$DIMTFAC
 40
1.0
  9
$DIMGAP
 40
0.0393700787
  9
$DIMJUST
 70
     0
  9
$DIMSD1
 70
     0
  9
$DIMSD2
 70
     0
  9
$DIMTOLJ
 70
     1
  9
$DIMTZIN
 70
     1
  9
$DIMALTZ
 70
     0
  9
$DIMALTTZ
 70
     0
  9
$DIMUPT
 70
     0
  9
$DIMDEC
 70
     4
  9
$DIMTDEC
 70
     4
  9
$DIMALTU
 70
     2
  9
$DIMALTTD
 70
     2
  9
$DIMTXSTY
  7
STANDARD
  9
$DIMAUNIT
 70
     0
  9
$DIMADEC
 70
     0
  9
$DIMALTRND
 40
0.0
  9
$DIMAZIN
 70
     0
  9
$DIMDSEP
 70
    46
  9
$DIMATFIT
 70
     3
  9
$DIMFRAC
 70
     0
  9
$DIMLDRBLK
  1

  9
$DIMLUNIT
 70
     2
  9
$DIMLWD
 70
    -2
  9
$DIMLWE
 70
    -2
  9
$DIMTMOVE
 70
     0
  9
$LUNITS
 70
     2
  9
$LUPREC
 70
     2
  9
$SKETCHINC
 40
0.1
  9
$FILLETRAD
 40
0.0
  9
$AUNITS
 70
     0
  9
$AUPREC
 70
     0
  9
$MENU
  1
acad
  9
$ELEVATION
 40
0.0
  9
$PELEVATION
 40
0.0
  9
$THICKNESS
 40
0.0
  9
$LIMCHECK
 70
     0
  9
$CHAMFERA
 40
0.0
  9
$CHAMFERB
 40
0.0
  9
$CHAMFERC
 40
0.0
  9
$CHAMFERD
 40
0.0
  9
$SKPOLY
 70
     0
  9
$TDCREATE
 40
2311942.262191423
  9
$TDUCREATE
 40
2311942.512191424
  9
$TDUPDATE
 40
2452655.299394155
  9
$TDUUPDATE
 40
2452655.549394155
  9
$TDINDWG
 40
0.0173161111
  9
$TDUSRTIMER
 40
0.0173159954
  9
$USRTIMER
 70
     1
  9
$ANGBASE
 50
0.0
  9
$ANGDIR
 70
     0
  9
$PDMODE
 70
     0
  9
$PDSIZE
 40
-1.0
  9
$PLINEWID
 40
0.0
  9
$SPLFRAME
 70
     0
  9
$SPLINETYPE
 70
     6
  9
$SPLINESEGS
 70
     8
  9
$HANDSEED
  5
46D
  9
$SURFTAB1
 70
     6
  9
$SURFTAB2
 70
     6
  9
$SURFTYPE
 70
     6
  9
$SURFU
 70
     6
  9
$SURFV
 70
     6
  9
$UCSBASE
  2

  9
$UCSNAME
  2

  9
$UCSORG
 10
0.0
 20
0.0
 30
0.0
  9
$UCSXDIR
 10
1.0
 20
0.0
 30
0.0
  9
$UCSYDIR
 10
0.0
 20
1.0
 30
0.0
  9
$UCSORTHOREF
  2

  9
$UCSORTHOVIEW
 70
     0
  9
$UCSORGTOP
 10
0.0
 20
0.0
 30
0.0
  9
$UCSORGBOTTOM
 10
0.0
 20
0.0
 30
0.0
  9
$UCSORGLEFT
 10
0.0
 20
0.0
 30
0.0
  9
$UCSORGRIGHT
 10
0.0
 20
0.0
 30
0.0
  9
$UCSORGFRONT
 10
0.0
 20
0.0
 30
0.0
  9
$UCSORGBACK
 10
0.0
 20
0.0
 30
0.0
  9
$PUCSBASE
  2

  9
$PUCSNAME
  2

  9
$PUCSORG
 10
0.0
 20
0.0
 30
0.0
  9
$PUCSXDIR
 10
1.0
 20
0.0
 30
0.0
  9
$PUCSYDIR
 10
0.0
 20
1.0
 30
0.0
  9
$PUCSORTHOREF
  2

  9
$PUCSORTHOVIEW
 70
     0
  9
$PUCSORGTOP
 10
0.0
 20
0.0
 30
0.0
  9
$PUCSORGBOTTOM
 10
0.0
 20
0.0
 30
0.0
  9
$PUCSORGLEFT
 10
0.0
 20
0.0
 30
0.0
  9
$PUCSORGRIGHT
 10
0.0
 20
0.0
 30
0.0
  9
$PUCSORGFRONT
 10
0.0
 20
0.0
 30
0.0
  9
$PUCSORGBACK
 10
0.0
 20
0.0
 30
0.0
  9
$USERI1
 70
     0
  9
$USERI2
 70
     0
  9
$USERI3
 70
     0
  9
$USERI4
 70
     0
  9
$USERI5
 70
     0
  9
$USERR1
 40
0.0
  9
$USERR2
 40
0.0
  9
$USERR3
 40
0.0
  9
$USERR4
 40
0.0
  9
$USERR5
 40
0.0
  9
$WORLDVIEW
 70
     1
  9
$SHADEDGE
 70
     3
  9
$SHADEDIF
 70
    70
  9
$TILEMODE
 70
     1
  9
$MAXACTVP
 70
    16
  9
$PINSBASE
 10
0.0
 20
0.0
 30
0.0
  9
$PLIMCHECK
 70
     0
  9
$PEXTMIN
 10
1.000000000000000E+20
 20
1.000000000000000E+20
 30
1.000000000000000E+20
  9
$PEXTMAX
 10
-1.000000000000000E+20
 20
-1.000000000000000E+20
 30
-1.000000000000000E+20
  9
$PLIMMIN
 10
0.0
 20
0.0
  9
$PLIMMAX
 10
12.0
 20
9.0
  9
$UNITMODE
 70
     0
  9
$VISRETAIN
 70
     0
  9
$PLINEGEN
 70
     1
  9
$PSLTSCALE
 70
     1
  9
$TREEDEPTH
 70
  3020
  9
$CMLSTYLE
  2
STANDARD
  9
$CMLJUST
 70
     0
  9
$CMLSCALE
 40
1.0
  9
$PROXYGRAPHICS
 70
     1
  9
$MEASUREMENT
 70
     0
  9
$CELWEIGHT
370
    -1
  9
$ENDCAPS
280
     0
  9
$JOINSTYLE
280
     0
  9
$LWDISPLAY
290
     0
  9
$INSUNITS
 70
     0
  9
$HYPERLINKBASE
  1

  9
$STYLESHEET
  1
monochrome.ctb
  9
$XEDIT
290
     1
  9
$CEPSNTYPE
380
     0
  9
$PSTYLEMODE
290
     1
  9
$FINGERPRINTGUID
  2
{7FF464CC-4505-411B-B9C1-0C7F5E71F4F8}
  9
$VERSIONGUID
  2
{4BB72BFF-0663-49C3-B159-290D5543DC11}
  9
$EXTNAMES
290
     1
  9
$PSVPSCALE
 40
0.0
  9
$OLESTARTUP
290
     0
  0
ENDSEC
  0
SECTION
  2
CLASSES
  0
CLASS
  1
LWPOLYLINE
  2
AcDbPolyline
  3
AutoCAD 2000
 90
    32768
280
     0
281
     1
  0
CLASS
  1
IMAGE
  2
AcDbRasterImage
  3
ISM
 90
    32895
280
     0
281
     1
  0
CLASS
  1
OLE2FRAME
  2
AcDbOle2Frame
  3
AutoCAD 2000
 90
    32768
280
     0
281
     1
  0
CLASS
  1
HATCH
  2
AcDbHatch
  3
AutoCAD 2000
 90
    32768
280
     0
281
     1
  0
CLASS
  1
DICTIONARYVAR
  2
AcDbDictionaryVar
  3
AutoCAD 2000
 90
        0
280
     0
281
     0
  0
CLASS
  1
RASTERVARIABLES
  2
AcDbRasterVariables
  3
ISM
 90
    32768
280
     0
281
     0
  0
CLASS
  1
IMAGEDEF
  2
AcDbRasterImageDef
  3
ISM
 90
    32768
280
     0
281
     0
  0
CLASS
  1
IMAGEDEF_REACTOR
  2
AcDbRasterImageDefReactor
  3
ISM
 90
    32769
280
     0
281
     0
  0
CLASS
  1
IDBUFFER
  2
AcDbIdBuffer
  3
AutoCAD 2000
 90
        0
280
     0
281
     0
  0
CLASS
  1
SPATIAL_FILTER
  2
AcDbSpatialFilter
  3
AutoCAD 2000
 90
    32768
280
     0
281
     0
  0
CLASS
  1
XRECORD
  2
AcDbXrecord
  3
AutoCAD 2000
 90
    32768
280
     0
281
     0
  0
CLASS
  1
SORTENTSTABLE
  2
AcDbSortentsTable
  3
AutoCAD 2000
 90
    32768
280
     0
281
     0
  0
CLASS
  1
LAYER_INDEX
  2
AcDbLayerIndex
  3
AutoCAD 2000
 90
        0
280
     0
281
     0
  0
CLASS
  1
SPATIAL_INDEX
  2
AcDbSpatialIndex
  3
AutoCAD 2000
 90
    32768
280
     0
281
     0
  0
CLASS
  1
OBJECT_PTR
  2
CAseDLPNTableRecord
  3
ASE-LPNTableRecord
 90
    32769
280
     0
281
     0
  0
CLASS
  1
LAYOUT
  2
AcDbLayout
  3
AutoCAD 2000
 90
        0
280
     0
281
     0
  0
CLASS
  1
PLOTSETTINGS
  2
AcDbPlotSettings
  3
AutoCAD 2000
 90
    32768
280
     0
281
     0
  0
CLASS
  1
ACDBDICTIONARYWDFLT
  2
AcDbDictionaryWithDefault
  3
AutoCAD 2000
 90
        0
280
     0
281
     0
  0
CLASS
  1
ACDBPLACEHOLDER
  2
AcDbPlaceHolder
  3
AutoCAD 2000
 90
        0
280
     0
281
     0
  0
CLASS
  1
VBA_PROJECT
  2
AcDbVbaProject
  3
acadvba
 90
    32768
280
     0
281
     0
  0
CLASS
  1
WIPEOUT
  2
AcDbWipeout
  3
WipeOut|AutoCAD Express Tool|expresstools@autodesk.com
 90
    32768
280
     0
281
     1
  0
CLASS
  1
WIPEOUTVARIABLES
  2
AcDbWipeoutVariables
  3
WipeOut|AutoCAD Express Tool|expresstools@autodesk.com
 90
    32768
280
     0
281
     0
  0
CLASS
  1
RTEXT
  2
RText
  3
RText|AutoCAD Express Tool|expresstools@autodesk.com
 90
    32768
280
     0
281
     1
  0
CLASS
  1
ARCALIGNEDTEXT
  2
AcDbArcAlignedText
  3
ATEXT|AutoCAD Express Tool|expresstools@autodesk.com
 90
    32768
280
     0
281
     1
  0
CLASS
  1
AMGSETTINGSOBJ
  2
AmgSettingsObj
  3
"AcadM|Product Description: AutoCAD Mechanical 2000|Company: Autodesk"
 90
        0
280
     0
281
     0
  0
CLASS
  1
ACME_DOCUMENT
  2
AcMeDbDoc
  3
AcMeServices
 90
        0
280
     0
281
     0
  0
CLASS
  1
ACMESCOPE
  2
AcMeScope
  3
AcMeServices
 90
        0
280
     0
281
     0
  0
CLASS
  1
ACMECOMMANDHISTORY
  2
AcMeCommandHistory
  3
AcMeServices
 90
        0
280
     0
281
     0
  0
CLASS
  1
ACIMSYSVARMAN
  2
AcImSysVarManager
  3
AcMeServices
 90
        0
280
     0
281
     0
  0
CLASS
  1
ACIMREALSYSVAR
  2
AcImRealSysVar
  3
AcMeServices
 90
        0
280
     0
281
     0
  0
CLASS
  1
ACIMINTSYSVAR
  2
AcImIntSysVar
  3
AcMeServices
 90
        0
280
     0
281
     0
  0
CLASS
  1
ACMEDRAWINGMAN
  2
AcMeDrawingMan
  3
AcMeServices
 90
        0
280
     0
281
     0
  0
CLASS
  1
ACMEVIEW
  2
AcMeView
  3
AcMeServices
 90
        0
280
     0
281
     0
  0
CLASS
  1
ACDBENTITYCACHE
  2
AcMeEntityCache
  3
AcMeServices
 90
        0
280
     0
281
     0
  0
CLASS
  1
GSMANAGER
  2
AcMeGSManager
  3
AcMeServices
 90
        0
280
     0
281
     0
  0
CLASS
  1
AmdtInternalReactor
  2
AmdtInternalReactor
  3
AcMeServices
 90
        0
280
     0
281
     0
  0
CLASS
  1
ACMESTATEMGR
  2
AcMeStateMgr
  3
AcMeServices
 90
        0
280
     0
281
     0
  0
CLASS
  1
ACGREFMASTER
  2
AcGrefMaster
  3
AcAttribServices
 90
        0
280
     0
281
     0
  0
CLASS
  1
ACME_DATABASE
  2
AcMeDbDatabase
  3
AcMeServices
 90
        0
280
     0
281
     0
  0
CLASS
  1
ACRFINSADJUSTERMGR
  2
AcRfInsAdjusterMgr
  3
AcMeServices
 90
        0
280
     0
281
     0
  0
CLASS
  1
ACGREFMASTER
  2
AcGrefacadMaster
  3
AcGrefServices
 90
        0
280
     0
281
     0
  0
CLASS
  1
AMIMASTER
  2
AmiMaster
  3
AmiServices
 90
        0
280
     0
281
     0
  0
CLASS
  1
ACMDATADICTIONARY
  2
AcmDataDictionary
  3
"AcmSymBB|Product Description: AutoCAD Mechanical 2000|Company: Autodesk"
 90
        0
280
     0
281
     0
  0
CLASS
  1
ACMDATAENTRYBLOCK
  2
AcmDataEntryBlock
  3
"AcmSymBB|Product Description: AutoCAD Mechanical 2000|Company: Autodesk"
 90
        0
280
     0
281
     0
  0
CLASS
  1
ACIMSTRSYSVAR
  2
AcImStrSysVar
  3
AcMeServices
 90
        0
280
     0
281
     0
  0
CLASS
  1
ACMSTANDARDANSI
  2
AcmStandardANSI
  3
"Amdt_StdImp|Product Description: AutoCAD Mechanical 2000|Company: Autodesk"
 90
        0
280
     0
281
     0
  0
CLASS
  1
AMGOBJPROPCFG
  2
AmgObjPropCfg
  3
"AmgLay|Product Description: AutoCAD Mechanical 2000|Company: Autodesk"
 90
        1
280
     0
281
     0
  0
CLASS
  1
ACMSURFSTANDARDANSI
  2
AcmSurfTextStdANSI
  3
"Amdt_StdImp|Product Description: AutoCAD Mechanical 2000|Company: Autodesk"
 90
        0
280
     0
281
     0
  0
CLASS
  1
ACMFCFSTANDARDANSI
  2
AcmFCFStdANSI
  3
"Amdt_StdImp|Product Description: AutoCAD Mechanical 2000|Company: Autodesk"
 90
        0
280
     0
281
     0
  0
CLASS
  1
ACMWELDSTANDARDANSI
  2
AcmWeldingStdANSI
  3
"Amdt_StdImp|Product Description: AutoCAD Mechanical 2000|Company: Autodesk"
 90
        0
280
     0
281
     0
  0
CLASS
  1
ACMIDSTANDARDANSI
  2
AcmIdStdANSI
  3
"Amdt_StdImp|Product Description: AutoCAD Mechanical 2000|Company: Autodesk"
 90
        0
280
     0
281
     0
  0
CLASS
  1
ACMDATUMSTANDARDANSI
  2
AcmDatumStdANSI
  3
"Amdt_StdImp|Product Description: AutoCAD Mechanical 2000|Company: Autodesk"
 90
        0
280
     0
281
     0
  0
CLASS
  1
ACMBOMSTANDARDANSI
  2
AcmBOMStdANSI
  3
"Amdt_StdImp|Product Description: AutoCAD Mechanical 2000|Company: Autodesk"
 90
        0
280
     0
281
     0
  0
CLASS
  1
ACMDETAILSTANDARDANSI
  2
AmdtDetailSymStdANSI
  3
"Amdt_StdImp|Product Description: AutoCAD Mechanical 2000|Company: Autodesk"
 90
        0
280
     0
281
     0
  0
CLASS
  1
ACMSECTIONSTANDARDANSI
  2
AmdtSectionSymStdANSI
  3
"Amdt_StdImp|Product Description: AutoCAD Mechanical 2000|Company: Autodesk"
 90
        0
280
     0
281
     0
  0
CLASS
  1
ACMCENTERLINESTANDARDANSI
  2
AmdtCenterLineStdANSI
  3
"Amdt_StdImp|Product Description: AutoCAD Mechanical 2000|Company: Autodesk"
 90
        0
280
     0
281
     0
  0
CLASS
  1
ACMThreadLineSTANDARDANSI
  2
AmdtThreadLineStdANSI
  3
"Amdt_StdImp|Product Description: AutoCAD Mechanical 2000|Company: Autodesk"
 90
        0
280
     0
281
     0
  0
CLASS
  1
"AcAmgLayStd"
  2
AcAmgLayStd
  3
"AcAmgLayStd|Product Description: AutoCAD Mechanical 2000|Company: Autodesk"
 90
        0
280
     0
281
     0
  0
CLASS
  1
"AcAmgDimStd"
  2
AcAmgDimStd
  3
"AcAmgDimStd|Product Description: AutoCAD Mechanical 2000|Company: Autodesk"
 90
        0
280
     0
281
     0
  0
CLASS
  1
AcAmgTitleStd
  2
AcAmgTitleStd
  3
"TITLEAPP"
 90
        0
280
     0
281
     0
  0
CLASS
  1
ACAMGFILTERDAT
  2
AcAmgFilterDat
  3
"AcadM|Product Description: AutoCAD Mechanical 2000|Company: Autodesk"
 90
        0
280
     0
281
     0
  0
CLASS
  1
AMDTFORMULAUPDATEDISPATCHER
  2
AmdtFormulaUpdateDispatcher
  3
AcMeServices
 90
        0
280
     0
281
     0
  0
ENDSEC
  0
SECTION
  2
TABLES
  0
TABLE
  2
VPORT
  5
7
330
0
100
AcDbSymbolTable
 70
     3
  0
VPORT
  5
46C
330
7
100
AcDbSymbolTableRecord
100
AcDbViewportTableRecord
  2
*Active
 70
     0
 10
0.0
 20
0.0
 11
1.0
 21
1.0
 12
22.00016693275431
 22
16.99971364492072
 13
0.0
 23
0.0
 14
1.0
 24
1.0
 15
0.0
 25
0.0
 16
0.0
 26
0.0
 36
1.0
 17
0.0
 27
0.0
 37
0.0
 40
34.3744072346055
 41
1.666666666666666
 42
50.0
 43
0.0
 44
0.0
 50
0.0
 51
0.0
 71
     0
 72
  2000
 73
     1
 74
     1
 75
     0
 76
     0
 77
     0
 78
     0
281
     0
 65
     1
110
0.0
120
0.0
130
0.0
111
1.0
121
0.0
131
0.0
112
0.0
122
1.0
132
0.0
 79
     0
146
0.0
  0
ENDTAB
  0
TABLE
  2
LTYPE
  5
4
330
0
100
AcDbSymbolTable
 70
    23
  0
LTYPE
  5
11
330
4
100
AcDbSymbolTableRecord
100
AcDbLinetypeTableRecord
  2
BYBLOCK
 70
     0
  3

 72
    65
 73
     0
 40
0.0
  0
LTYPE
  5
12
330
4
100
AcDbSymbolTableRecord
100
AcDbLinetypeTableRecord
  2
BYLAYER
 70
     0
  3

 72
    65
 73
     0
 40
0.0
  0
LTYPE
  5
13
330
4
100
AcDbSymbolTableRecord
100
AcDbLinetypeTableRecord
  2
CONTINUOUS
 70
     0
  3
Solid line
 72
    65
 73
     0
 40
0.0
  0
LTYPE
  5
1E
330
4
100
AcDbSymbolTableRecord
100
AcDbLinetypeTableRecord
  2
HIDDEN
 70
     0
  3
Hidden __ __ __ __ __ __ __ __ __ __ __ __ __ __
 72
    65
 73
     2
 40
0.075
 49
0.05
 74
     0
 49
-0.025
 74
     0
  0
LTYPE
  5
1F
330
4
100
AcDbSymbolTableRecord
100
AcDbLinetypeTableRecord
  2
PHANTOM
 70
     0
  3
Phantom ______  __  __  ______  __  __  ______
 72
    65
 73
     6
 40
0.5
 49
0.25
 74
     0
 49
-0.05
 74
     0
 49
0.05
 74
     0
 49
-0.05
 74
     0
 49
0.05
 74
     0
 49
-0.05
 74
     0
  0
LTYPE
  5
20
330
4
100
AcDbSymbolTableRecord
100
AcDbLinetypeTableRecord
  2
CENTER
 70
     0
  3
Center ____ _ ____ _ ____ _ ____ _ ____ _ ____
 72
    65
 73
     4
 40
0.4
 49
0.25
 74
     0
 49
-0.05
 74
     0
 49
0.05
 74
     0
 49
-0.05
 74
     0
  0
LTYPE
  5
21
330
4
100
AcDbSymbolTableRecord
100
AcDbLinetypeTableRecord
  2
CENTERX2
 70
     0
  3
Center (2x) ________  __  ________  __  _____
 72
    65
 73
     4
 40
0.8
 49
0.5
 74
     0
 49
-0.1
 74
     0
 49
0.1
 74
     0
 49
-0.1
 74
     0
  0
LTYPE
  5
22
330
4
100
AcDbSymbolTableRecord
100
AcDbLinetypeTableRecord
  2
DOT2
 70
     0
  3
Dot (.5x) ........................................
 72
    65
 73
     2
 40
0.025
 49
0.0
 74
     0
 49
-0.025
 74
     0
  0
LTYPE
  5
31A
330
4
100
AcDbSymbolTableRecord
100
AcDbLinetypeTableRecord
  2
AM_ISO02W050
 70
     0
  3
__ __ __ __ __ __ __ __ __ __ __ __ __ __ __
 72
    65
 73
     2
 40
7.5
 49
6.0
 74
     0
 49
-1.5
 74
     0
  0
LTYPE
  5
31B
330
4
100
AcDbSymbolTableRecord
100
AcDbLinetypeTableRecord
  2
AM_ISO08W050
 70
     0
  3
____ . ____ . ____ . ____ . ____ . ____ . ____
 72
    65
 73
     4
 40
18.0
 49
12.0
 74
     0
 49
-1.5
 74
     0
 49
3.0
 74
     0
 49
-1.5
 74
     0
  0
LTYPE
  5
31C
330
4
100
AcDbSymbolTableRecord
100
AcDbLinetypeTableRecord
  2
AM_ISO09W050
 70
     0
  3
_____ . . _____ . . _____ . . ____ .. ____
 72
    65
 73
     6
 40
22.5
 49
12.0
 74
     0
 49
-1.5
 74
     0
 49
3.0
 74
     0
 49
-1.5
 74
     0
 49
3.0
 74
     0
 49
-1.5
 74
     0
  0
LTYPE
  5
31D
330
4
100
AcDbSymbolTableRecord
100
AcDbLinetypeTableRecord
  2
Amconstr
 70
     0
  3
_______________________
 72
    65
 73
     2
 40
9999.0
 49
9999.0
 74
     0
 49
0.0
 74
     0
  0
LTYPE
  5
31E
330
4
100
AcDbSymbolTableRecord
100
AcDbLinetypeTableRecord
  2
AM_ISO08W050x2
 70
     0
  3
__ . __ . __ . __ . __ . __
 72
    65
 73
     4
 40
9.0
 49
6.0
 74
     0
 49
-0.75
 74
     0
 49
1.5
 74
     0
 49
-0.75
 74
     0
  0
LTYPE
  5
31F
330
4
100
AcDbSymbolTableRecord
100
AcDbLinetypeTableRecord
  2
AM_ISO02W050x2
 70
     0
  3
 _ _ _ _ _ _ _ _ _ _ _ _
 72
    65
 73
     2
 40
3.75
 49
3.0
 74
     0
 49
-0.75
 74
     0
  0
LTYPE
  5
322
330
4
100
AcDbSymbolTableRecord
100
AcDbLinetypeTableRecord
  2
Amzigzag
 70
     0
  3
/\/-/\/-/\/-/\/-/\/-/\/
 72
    65
 73
     2
 40
11.00009999999999
 49
0.0001
 74
     4
 75
   135
340
321
 46
0.04
 50
0.0
 44
0.0
 45
0.0
 49
-11.0
 74
     0
  0
LTYPE
  5
323
330
4
100
AcDbSymbolTableRecord
100
AcDbLinetypeTableRecord
  2
PHANTOM2
 70
     0
  3
Phantom (.5x) ___ _ _ ___ _ _ ___ _ _ ___ _ _
 72
    65
 73
     6
 40
1.25
 49
0.625
 74
     0
 49
-0.125
 74
     0
 49
0.125
 74
     0
 49
-0.125
 74
     0
 49
0.125
 74
     0
 49
-0.125
 74
     0
  0
LTYPE
  5
324
330
4
100
AcDbSymbolTableRecord
100
AcDbLinetypeTableRecord
  2
CENTER2
 70
     0
  3
Center (.5x) ___ _ ___ _ ___ _ ___ _ ___ _ ___
 72
    65
 73
     4
 40
1.125
 49
0.75
 74
     0
 49
-0.125
 74
     0
 49
0.125
 74
     0
 49
-0.125
 74
     0
  0
LTYPE
  5
325
330
4
100
AcDbSymbolTableRecord
100
AcDbLinetypeTableRecord
  2
HIDDEN2
 70
     0
  3
Hidden (.5x) _ _ _ _ _ _ _ _ _ _ _ _ _ _ _ _ _
 72
    65
 73
     2
 40
0.1875
 49
0.125
 74
     0
 49
-0.0625
 74
     0
  0
LTYPE
  5
326
330
4
100
AcDbSymbolTableRecord
100
AcDbLinetypeTableRecord
  2
Amzigzag2
 70
     0
  3
/\/-/\/-/\/-/\/-/\/-/\/
 72
    65
 73
     2
 40
0.4401
 49
0.0001
 74
     4
 75
   135
340
321
 46
0.0016
 50
0.0
 44
0.0
 45
0.0
 49
-0.4400000000000001
 74
     0
  0
LTYPE
  5
333
330
4
100
AcDbSymbolTableRecord
100
AcDbLinetypeTableRecord
  2
ACANSTGB
 70
     0
  3
__ . . __ . .
 72
    65
 73
     6
 40
0.35433070866
 49
0.15748031496
 74
     0
 49
-0.03937007874
 74
     0
 49
0.03937007874
 74
     0
 49
-0.03937007874
 74
     0
 49
0.03937007874
 74
     0
 49
-0.03937007874
 74
     0
  0
LTYPE
  5
334
330
4
100
AcDbSymbolTableRecord
100
AcDbLinetypeTableRecord
  2
ACANSTGL
 70
     0
  3
_ _ _ _ _
 72
    65
 73
     2
 40
0.11811023622
 49
0.07874015748
 74
     0
 49
-0.03937007874
 74
     0
  0
LTYPE
  5
353
330
4
100
AcDbSymbolTableRecord
100
AcDbLinetypeTableRecord
  2
MS
 70
     0
  3
MEDIUM_SOLID
 72
    65
 73
     0
 40
0.0
  0
LTYPE
  5
354
330
4
100
AcDbSymbolTableRecord
100
AcDbLinetypeTableRecord
  2
LS
 70
     0
  3
LIGHT_SOLID
 72
    65
 73
     0
 40
0.0
  0
LTYPE
  5
355
330
4
100
AcDbSymbolTableRecord
100
AcDbLinetypeTableRecord
  2
LP
 70
     0
  3
LIGHT_PHANTOM
 72
    65
 73
     6
 40
1.5
 49
0.75
 74
     0
 49
-0.14999998
 74
     0
 49
0.14999998
 74
     0
 49
-0.14999998
 74
     0
 49
0.14999998
 74
     0
 49
-0.14999998
 74
     0
  0
LTYPE
  5
356
330
4
100
AcDbSymbolTableRecord
100
AcDbLinetypeTableRecord
  2
NC
 70
     0
  3
NUMERIC_CONTROL
 72
    65
 73
     0
 40
0.0
  0
ENDTAB
  0
TABLE
  2
LAYER
  5
2
330
0
100
AcDbSymbolTable
 70
    12
  0
LAYER
  5
14
330
2
100
AcDbSymbolTableRecord
100
AcDbLayerTableRecord
  2
0
 70
     0
 62
     7
  6
CONTINUOUS
370
    -3
390
2EE
  0
LAYER
  5
26
330
2
100
AcDbSymbolTableRecord
100
AcDbLayerTableRecord
  2
DEFPOINTS
 70
     0
 62
     7
  6
CONTINUOUS
290
     0
370
    -3
390
2EE
  0
LAYER
  5
28
330
2
100
AcDbSymbolTableRecord
100
AcDbLayerTableRecord
  2
1
 70
     0
 62
     7
  6
CONTINUOUS
370
    -3
390
2EE
  0
LAYER
  5
29
330
2
100
AcDbSymbolTableRecord
100
AcDbLayerTableRecord
  2
5
 70
     0
 62
     7
  6
CONTINUOUS
370
    -3
390
2EE
  0
LAYER
  5
2A
330
2
100
AcDbSymbolTableRecord
100
AcDbLayerTableRecord
  2
6
 70
     0
 62
     7
  6
CONTINUOUS
370
    -3
390
2EE
  0
LAYER
  5
2B
330
2
100
AcDbSymbolTableRecord
100
AcDbLayerTableRecord
  2
11
 70
     0
 62
     7
  6
CONTINUOUS
370
    -3
390
2EE
  0
LAYER
  5
2C
330
2
100
AcDbSymbolTableRecord
100
AcDbLayerTableRecord
  2
2
 70
     0
 62
     7
  6
CONTINUOUS
370
    -3
390
2EE
  0
LAYER
  5
2D
330
2
100
AcDbSymbolTableRecord
100
AcDbLayerTableRecord
  2
4
 70
     0
 62
     7
  6
CONTINUOUS
370
    -3
390
2EE
  0
LAYER
  5
2E
330
2
100
AcDbSymbolTableRecord
100
AcDbLayerTableRecord
  2
90
 70
     0
 62
     7
  6
CONTINUOUS
370
    -3
390
2EE
  0
LAYER
  5
2F
330
2
100
AcDbSymbolTableRecord
100
AcDbLayerTableRecord
  2
7
 70
     0
 62
     7
  6
CONTINUOUS
370
    -3
390
2EE
  0
LAYER
  5
357
330
2
100
AcDbSymbolTableRecord
100
AcDbLayerTableRecord
  2
BORDER
 70
     0
 62
    15
  6
CONTINUOUS
370
    -3
390
2EE
  0
LAYER
  5
358
330
2
100
AcDbSymbolTableRecord
100
AcDbLayerTableRecord
  2
TITLE BLOCK
 70
     0
 62
     2
  6
CONTINUOUS
370
    -3
390
2EE
  0
ENDTAB
  0
TABLE
  2
STYLE
  5
3
330
0
100
AcDbSymbolTable
 70
     7
  0
STYLE
  5
17
330
3
100
AcDbSymbolTableRecord
100
AcDbTextStyleTableRecord
  2
STANDARD
 70
     0
 40
0.0
 41
1.0
 50
0.0
 71
     0
 42
0.0
  3
txt
  4

  0
STYLE
  5
28D
330
3
100
AcDbSymbolTableRecord
100
AcDbTextStyleTableRecord
  2
SLDTEXTSTYLE0
 70
     0
 40
0.0
 41
0.675
 50
0.0
 71
     0
 42
0.0
  3
txt
  4

  0
STYLE
  5
321
330
3
100
AcDbSymbolTableRecord
100
AcDbTextStyleTableRecord
  2

 70
     1
 40
0.0
 41
1.0
 50
0.0
 71
     0
 42
0.1377952756
  3
ltypeshp.shx
  4

  0
STYLE
  5
327
330
3
100
AcDbSymbolTableRecord
100
AcDbTextStyleTableRecord
  2
ACANSTS
 70
     0
 40
1.0
 41
1.0
 50
0.0
 71
     0
 42
0.1377952756
  3
romans.shx
  4

  0
STYLE
  5
332
330
3
100
AcDbSymbolTableRecord
100
AcDbTextStyleTableRecord
  2
ACANSGDT
 70
     0
 40
0.0
 41
1.0
 50
0.0
 71
     0
 42
0.1377952756
  3
amgdtans.shx
  4

  0
STYLE
  5
359
330
3
100
AcDbSymbolTableRecord
100
AcDbTextStyleTableRecord
  2
AE
 70
     0
 40
0.0
 41
1.0
 50
0.0
 71
     0
 42
0.16408998
  3
MIGRATOR
  4

  0
STYLE
  5
35A
330
3
100
AcDbSymbolTableRecord
100
AcDbTextStyleTableRecord
  2

 70
     1
 40
0.0
 41
1.0
 50
0.0
 71
     0
 42
1.0
  3
symtb128
  4

  0
ENDTAB
  0
TABLE
  2
VIEW
  5
5
330
0
100
AcDbSymbolTable
 70
     0
  0
ENDTAB
  0
TABLE
  2
UCS
  5
6
330
0
100
AcDbSymbolTable
 70
     0
  0
ENDTAB
  0
TABLE
  2
APPID
  5
8
330
0
100
AcDbSymbolTable
 70
     7
  0
APPID
  5
16
330
8
100
AcDbSymbolTableRecord
100
AcDbRegAppTableRecord
  2
ACAD
 70
     0
  0
APPID
  5
2FA
330
8
100
AcDbSymbolTableRecord
100
AcDbRegAppTableRecord
  2
MCAD_NO_VIS
 70
     0
  0
APPID
  5
2FB
330
8
100
AcDbSymbolTableRecord
100
AcDbRegAppTableRecord
  2
ACAD_TEMP_GRAPHIC
 70
     0
  0
APPID
  5
30E
330
8
100
AcDbSymbolTableRecord
100
AcDbRegAppTableRecord
  2
ACATTRIBSERVICES
 70
     0
  0
APPID
  5
35C
330
8
100
AcDbSymbolTableRecord
100
AcDbRegAppTableRecord
  2
GENIUS_GENBLLY_14
 70
     0
  0
APPID
  5
35D
330
8
100
AcDbSymbolTableRecord
100
AcDbRegAppTableRecord
  2
GENIUS_GENTRA_14
 70
     0
  0
APPID
  5
35E
330
8
100
AcDbSymbolTableRecord
100
AcDbRegAppTableRecord
  2
DCO15
 70
     0
  0
ENDTAB
  0
TABLE
  2
DIMSTYLE
  5
9
330
0
100
AcDbSymbolTable
 70
     8
100
AcDbDimStyleTable
 71
     0
  0
DIMSTYLE
105
18
330
9
100
AcDbSymbolTableRecord
100
AcDbDimStyleTableRecord
  2
STANDARD
 70
     0
340
17
  0
DIMSTYLE
105
338
330
9
100
AcDbSymbolTableRecord
100
AcDbDimStyleTableRecord
  2
AM_ANSI
 70
     0
  4
mm
 41
0.1
 42
0.05
 43
0.5
 44
0.1
 47
0.1
 48
0.1
 78
     7
 79
     2
140
0.12
141
0.0
146
0.71
147
0.06
176
   256
177
   256
178
     2
274
     4
284
     7
340
17
371
    -1
372
    -1
  0
DIMSTYLE
105
339
330
9
100
AcDbSymbolTableRecord
100
AcDbDimStyleTableRecord
  2
AM_ANSI$3
 70
     0
  4
mm
 41
0.1
 42
0.05
 43
0.5
 44
0.1
 47
0.1
 48
0.1
 78
     7
 79
     2
140
0.12
141
0.0
146
0.71
147
0.06
176
   256
177
   256
178
     2
274
     4
284
     7
288
     1
289
     0
340
17
371
    -1
372
    -1
  0
DIMSTYLE
105
33A
330
9
100
AcDbSymbolTableRecord
100
AcDbDimStyleTableRecord
  2
AM_ANSI$4
 70
     0
  4
mm
 41
0.1
 42
0.05
 43
0.5
 44
0.1
 47
0.1
 48
0.1
 78
     7
 79
     2
140
0.12
141
0.0
146
0.71
147
0.06
176
   256
177
   256
178
     2
274
     4
284
     7
288
     1
289
     0
340
17
371
    -1
372
    -1
  0
DIMSTYLE
105
33B
330
9
100
AcDbSymbolTableRecord
100
AcDbDimStyleTableRecord
  2
AM_ANSI$7
 70
     0
  4
mm
 41
0.1
 42
0.05
 43
0.5
 44
0.1
 47
0.1
 48
0.1
 78
     7
 79
     2
140
0.24
141
0.0
146
0.71
147
0.06
176
   256
177
   256
178
     2
274
     4
284
     7
340
17
371
    -1
372
    -1
  0
DIMSTYLE
105
33C
330
9
100
AcDbSymbolTableRecord
100
AcDbDimStyleTableRecord
  2
AM_ANSI$SF
 70
     0
  4
mm
 41
0.1
 42
0.05
 43
0.5
 44
0.1
 47
0.1
 48
0.1
 75
     1
 76
     1
 78
     7
 79
     2
140
0.12
141
0.0
146
0.71
147
0.06
176
   256
177
   256
178
     2
274
     4
284
     7
340
17
371
    -1
372
    -1
  0
DIMSTYLE
105
341
330
9
100
AcDbSymbolTableRecord
100
AcDbDimStyleTableRecord
  2
AM_ANSI$SH
 70
     0
  4
mm
 41
0.1
 42
0.05
 43
0.5
 44
0.1
 47
0.1
 48
0.1
 75
     1
 76
     1
 78
     7
 79
     2
140
0.12
141
0.0
146
0.71
147
0.06
173
     1
176
   256
177
   256
178
     2
274
     4
284
     7
340
17
343
33D
371
    -1
372
    -1
  0
DIMSTYLE
105
35B
330
9
100
AcDbSymbolTableRecord
100
AcDbDimStyleTableRecord
  2
GEN-ANSI
 70
     0
  3
<>
  4
mm
 41
0.14
 42
0.125
 43
0.5
 44
0.125
 47
0.1
 48
0.1
 73
     0
 74
     0
 77
     1
 78
     7
140
0.12
141
0.0
146
0.71
147
0.06
176
   256
177
   256
178
     2
274
     4
340
17
  0
ENDTAB
  0
TABLE
  2
BLOCK_RECORD
  5
1
330
0
100
AcDbSymbolTable
 70
     3
  0
BLOCK_RECORD
  5
A
102
{ACAD_XDICTIONARY
360
44A
102
}
330
1
100
AcDbSymbolTableRecord
100
AcDbBlockTableRecord
  2
*MODEL_SPACE
340
2F1
  0
BLOCK_RECORD
  5
B
330
1
100
AcDbSymbolTableRecord
100
AcDbBlockTableRecord
  2
*PAPER_SPACE
340
2F2
  0
BLOCK_RECORD
  5
33D
330
1
100
AcDbSymbolTableRecord
100
AcDbBlockTableRecord
  2
GENAXEH
340
0
  0
BLOCK_RECORD
  5
34F
330
1
100
AcDbSymbolTableRecord
100
AcDbBlockTableRecord
  2
A$C215E2678
340
0
  0
BLOCK_RECORD
  5
35F
330
1
100
AcDbSymbolTableRecord
100
AcDbBlockTableRecord
  2
BM_E
340
0
102
{BLKREFS
331
438
102
}
  0
ENDTAB
  0
ENDSEC
  0
SECTION
  2
BLOCKS
  0
BLOCK
  5
D
330
A
100
AcDbEntity
  8
0
100
AcDbBlockBegin
  2
*MODEL_SPACE
 70
     0
 10
0.0
 20
0.0
 30
0.0
  3
*MODEL_SPACE
  1

  0
ENDBLK
  5
E
330
A
100
AcDbEntity
  8
0
100
AcDbBlockEnd
  0
BLOCK
  5
F
330
B
100
AcDbEntity
 67
     1
  8
0
100
AcDbBlockBegin
  2
*PAPER_SPACE
 70
     0
 10
0.0
 20
0.0
 30
0.0
  3
*PAPER_SPACE
  1

  0
ENDBLK
  5
10
330
B
100
AcDbEntity
 67
     1
  8
0
100
AcDbBlockEnd
  0
BLOCK
  5
33F
330
33D
100
AcDbEntity
  8
0
100
AcDbBlockBegin
  2
GENAXEH
 70
     0
 10
0.0
 20
0.0
 30
0.0
  3
GENAXEH
  1

  0
LINE
  5
33E
330
33D
100
AcDbEntity
  8
0
100
AcDbLine
 10
-1.0
 20
0.0
 30
0.0
 11
1.0
 21
0.0
 31
0.0
  0
ENDBLK
  5
340
330
33D
100
AcDbEntity
  8
0
100
AcDbBlockEnd
  0
BLOCK
  5
351
330
34F
100
AcDbEntity
  8
0
100
AcDbBlockBegin
  2
A$C215E2678
 70
     0
 10
0.0
 20
0.0
 30
0.0
  3
A$C215E2678
  1

  0
TEXT
  5
350
330
34F
100
AcDbEntity
  8
BORDER
100
AcDbText
 10
-0.375
 20
-2.3125
 30
0.0
 40
0.375
  1
2
 72
     1
 11
-0.25
 21
-2.125
 31
0.0
100
AcDbText
 73
     2
  0
ENDBLK
  5
352
330
34F
100
AcDbEntity
  8
0
100
AcDbBlockEnd
  0
BLOCK
  5
434
330
35F
100
AcDbEntity
  8
0
100
AcDbBlockBegin
  2
BM_E
 70
     2
 10
0.0
 20
0.0
 30
0.0
  3
BM_E
  1

  0
LINE
  5
360
330
35F
100
AcDbEntity
  8
BORDER
100
AcDbLine
 10
0.3000030000000038
 20
17.099998
 30
0.0
 11
0.5
 21
17.0
 31
0.0
  0
LINE
  5
361
330
35F
100
AcDbEntity
  8
BORDER
100
AcDbLine
 10
0.299987999999999
 20
16.90000299999999
 30
0.0
 11
0.4999849999999953
 21
17.00000099999999
 31
0.0
  0
LINE
  5
362
330
35F
100
AcDbEntity
  8
BORDER
100
AcDbLine
 10
0.1000060000000005
 20
17.00002899999999
 30
0.0
 11
0.3000030000000038
 21
17.00002899999999
 31
0.0
  0
LINE
  5
363
330
35F
100
AcDbEntity
  8
BORDER
100
AcDbLine
 10
0.3000030000000038
 20
16.90002299999999
 30
0.0
 11
0.3000030000000038
 21
17.10002
 31
0.0
  0
ATTDEF
  5
364
330
35F
100
AcDbEntity
  8
TITLE BLOCK
  6
Continuous
100
AcDbText
 10
35.34999999999999
 20
3.250068621953476
 30
0.0
 40
0.2021222838
  1

100
AcDbAttributeDefinition
  3
Drawn by
  2
GEN-TITLE-NAME{5}
 70
     0
1001
GENIUS_GENBLLY_14
1000
BOR2
  0
ATTDEF
  5
365
330
35F
100
AcDbEntity
  8
TITLE BLOCK
  6
Continuous
100
AcDbText
 10
35.34999999999999
 20
2.750068621953476
 30
0.0
 40
0.2021222838
  1

100
AcDbAttributeDefinition
  3
Check by
  2
GEN-TITLE-CHKM{5}
 70
     0
1001
GENIUS_GENBLLY_14
1000
BOR2
  0
ATTDEF
  5
366
330
35F
100
AcDbEntity
  8
TITLE BLOCK
  6
Continuous
100
AcDbText
 10
35.34999999999999
 20
2.250068621953476
 30
0.0
 40
0.2021222838
  1

100
AcDbAttributeDefinition
  3
Approved by
  2
GEN-TITLE-APPM{5}
 70
     0
1001
GENIUS_GENBLLY_14
1000
BOR2
1001
GENIUS_GENTRA_14
1002
{
1070
     3
1000
GENTRAPR,%s,(GENMSG gentitus 73)
1000
Approved by
1000
gb
1070
     0
1002
}
  0
TEXT
  5
367
330
35F
100
AcDbEntity
  8
TITLE BLOCK
  6
Continuous
100
AcDbText
 10
34.91338965445351
 20
4.192395147082805
 30
0.0
 40
0.2021222838
  1
  DRAWING
 50
0.09999996
  7
AE
100
AcDbText
  0
TEXT
  5
368
330
35F
100
AcDbEntity
  8
TITLE BLOCK
  6
Continuous
100
AcDbText
 10
34.91338965445351
 20
4.611161697456088
 30
0.0
 40
0.2021222838
  1
DO NOT SCALE
 50
0.09999996
  7
AE
100
AcDbText
  0
LINE
  5
369
330
35F
100
AcDbEntity
  8
TITLE BLOCK
  6
Continuous
100
AcDbLine
 10
31.69931278063705
 20
2.100068621953476
 30
0.0
 11
43.5
 21
2.100068621953476
 31
0.0
  0
LINE
  5
36A
330
35F
100
AcDbEntity
  8
TITLE BLOCK
  6
Continuous
100
AcDbLine
 10
34.65037991030702
 20
2.600068621953476
 30
0.0
 11
43.5
 21
2.600068621953476
 31
0.0
  0
LINE
  5
36B
330
35F
100
AcDbEntity
  8
TITLE BLOCK
  6
Continuous
100
AcDbLine
 10
34.65037991030702
 20
3.100068621953475
 30
0.0
 11
43.5
 21
3.100068621953475
 31
0.0
  0
LINE
  5
36C
330
35F
100
AcDbEntity
  8
TITLE BLOCK
  6
Continuous
100
AcDbLine
 10
34.65037991030702
 20
3.600068621953475
 30
0.0
 11
43.5
 21
3.600068621953475
 31
0.0
  0
LINE
  5
36D
330
35F
100
AcDbEntity
  8
TITLE BLOCK
  6
Continuous
100
AcDbLine
 10
26.0
 20
5.000068621953477
 30
0.0
 11
43.5
 21
5.000068621953477
 31
0.0
  0
LINE
  5
36E
330
35F
100
AcDbEntity
  8
BORDER
100
AcDbLine
 10
22.0
 20
0.9999985699999999
 30
0.0
 11
22.099991
 21
0.79999936
 31
0.0
  0
LINE
  5
36F
330
35F
100
AcDbEntity
  8
BORDER
100
AcDbLine
 10
21.899994
 20
0.80000037
 30
0.0
 11
22.0
 21
1.0
 31
0.0
  0
LINE
  5
370
330
35F
100
AcDbEntity
  8
BORDER
100
AcDbLine
 10
21.899994
 20
0.7999999500000001
 30
0.0
 11
22.099991
 21
0.7999999500000001
 31
0.0
  0
LINE
  5
371
330
35F
100
AcDbEntity
  8
BORDER
100
AcDbLine
 10
21.999985
 20
0.5999999000000001
 30
0.0
 11
21.999985
 21
0.7999999500000001
 31
0.0
  0
LINE
  5
372
330
35F
100
AcDbEntity
  8
BORDER
100
AcDbLine
 10
21.999985
 20
0.5999999000000001
 30
0.0
 11
21.999985
 21
0.7999999500000001
 31
0.0
  0
TEXT
  5
373
330
35F
100
AcDbEntity
  8
TITLE BLOCK
  6
Continuous
100
AcDbText
 10
28.24708615700002
 20
1.180117028838981
 30
0.0
 40
0.1518741343009839
  1
REVISION
 50
0.09999996
  7
AE
100
AcDbText
  0
LINE
  5
374
330
35F
100
AcDbEntity
  8
TITLE BLOCK
  6
Continuous
100
AcDbLine
 10
26.0
 20
1.500068621953476
 30
0.0
 11
31.69931278063705
 21
1.500068621953476
 31
0.0
  0
LINE
  5
375
330
35F
100
AcDbEntity
  8
TITLE BLOCK
  6
Continuous
100
AcDbLine
 10
26.0
 20
3.000068621953476
 30
0.0
 11
31.69931278063705
 21
3.000068621953476
 31
0.0
  0
LINE
  5
376
330
35F
100
AcDbEntity
  8
TITLE BLOCK
  6
Continuous
100
AcDbLine
 10
26.0
 20
3.500068621953476
 30
0.0
 11
31.69931278063705
 21
3.500068621953476
 31
0.0
  0
LINE
  5
377
330
35F
100
AcDbEntity
  8
TITLE BLOCK
  6
Continuous
100
AcDbLine
 10
26.0
 20
4.000068621953476
 30
0.0
 11
31.69931278063705
 21
4.000068621953476
 31
0.0
  0
LINE
  5
378
330
35F
100
AcDbEntity
  8
TITLE BLOCK
  6
Continuous
100
AcDbLine
 10
26.0
 20
4.500068621953476
 30
0.0
 11
31.69931278063705
 21
4.500068621953476
 31
0.0
  0
LINE
  5
379
330
35F
100
AcDbEntity
  8
TITLE BLOCK
  6
Continuous
100
AcDbLine
 10
26.0
 20
2.500068621953476
 30
0.0
 11
31.69931278063705
 21
2.500068621953476
 31
0.0
  0
LINE
  5
37A
330
35F
100
AcDbEntity
  8
TITLE BLOCK
  6
Continuous
100
AcDbLine
 10
26.0
 20
2.000068621953476
 30
0.0
 11
31.69931278063705
 21
2.000068621953476
 31
0.0
  0
TEXT
  5
37B
330
35F
100
AcDbEntity
  8
BORDER
100
AcDbText
 10
36.702981
 20
0.5829867509767382
 30
0.0
 40
0.04
  1
FULL SIZE   50   02
 50
0.0999999600000001
 41
0.7749084200000001
  7
AE
100
AcDbText
  0
LINE
  5
37C
330
35F
100
AcDbEntity
  8
TITLE BLOCK
  6
Continuous
100
AcDbLine
 10
28.3
 20
1.500068621953476
 30
0.0
 11
28.3
 21
5.000068621953477
 31
0.0
  0
TEXT
  5
37D
330
35F
100
AcDbEntity
  8
TITLE BLOCK
  6
Continuous
100
AcDbText
 10
27.30274804469479
 20
1.681984803701876
 30
0.0
 40
0.1518741343009839
  1
DATE
 50
0.09999996
  7
AE
100
AcDbText
  0
TEXT
  5
37E
330
35F
100
AcDbEntity
  8
TITLE BLOCK
  6
Continuous
100
AcDbText
 10
26.17648426449007
 20
1.680768250149125
 30
0.0
 40
0.1543041553225475
  1
NO.
 50
0.09999996
  7
AE
100
AcDbText
  0
LINE
  5
37F
330
35F
100
AcDbEntity
  8
TITLE BLOCK
  6
Continuous
100
AcDbLine
 10
26.0
 20
1.0
 30
0.0
 11
26.0
 21
5.000068621953477
 31
0.0
  0
LINE
  5
380
330
35F
100
AcDbEntity
  8
TITLE BLOCK
  6
Continuous
100
AcDbLine
 10
26.7
 20
1.500068621953476
 30
0.0
 11
26.7
 21
5.000068621953477
 31
0.0
  0
LINE
  5
381
330
35F
100
AcDbEntity
  8
BORDER
  6
LS
100
AcDbLine
 10
36.9000015
 20
0.8100341909767383
 30
0.0
 11
36.9000015
 21
0.950034240976738
 31
0.0
  0
LINE
  5
382
330
35F
100
AcDbEntity
  8
BORDER
  6
LS
100
AcDbLine
 10
37.0000019
 20
0.8100341909767383
 30
0.0
 11
37.0000019
 21
0.950034240976738
 31
0.0
  0
LINE
  5
383
330
35F
100
AcDbEntity
  8
BORDER
  6
LS
100
AcDbLine
 10
36.880002
 20
0.8900342409767381
 30
0.0
 11
36.880002
 21
0.950034240976738
 31
0.0
  0
LINE
  5
384
330
35F
100
AcDbEntity
  8
BORDER
  6
LS
100
AcDbLine
 10
36.920002
 20
0.8900342409767381
 30
0.0
 11
36.920002
 21
0.950034240976738
 31
0.0
  0
LINE
  5
385
330
35F
100
AcDbEntity
  8
BORDER
  6
LS
100
AcDbLine
 10
36.9400025
 20
0.8500342109767382
 30
0.0
 11
36.9400025
 21
0.950034240976738
 31
0.0
  0
LINE
  5
386
330
35F
100
AcDbEntity
  8
BORDER
  6
LS
100
AcDbLine
 10
36.9600029
 20
0.8500342109767382
 30
0.0
 11
36.9600029
 21
0.950034240976738
 31
0.0
  0
LINE
  5
387
330
35F
100
AcDbEntity
  8
BORDER
  6
LS
100
AcDbLine
 10
36.9800024
 20
0.8900342409767381
 30
0.0
 11
36.9800024
 21
0.950034240976738
 31
0.0
  0
LINE
  5
388
330
35F
100
AcDbEntity
  8
BORDER
  6
LS
100
AcDbLine
 10
36.7000008
 20
0.8100341909767383
 30
0.0
 11
36.7000008
 21
0.950034240976738
 31
0.0
  0
LINE
  5
389
330
35F
100
AcDbEntity
  8
BORDER
  6
LS
100
AcDbLine
 10
36.8000012
 20
0.8100341909767383
 30
0.0
 11
36.8000012
 21
0.950034240976738
 31
0.0
  0
LINE
  5
38A
330
35F
100
AcDbEntity
  8
BORDER
  6
LS
100
AcDbLine
 10
36.7200012
 20
0.8900342409767381
 30
0.0
 11
36.7200012
 21
0.950034240976738
 31
0.0
  0
LINE
  5
38B
330
35F
100
AcDbEntity
  8
BORDER
  6
LS
100
AcDbLine
 10
36.74000170000001
 20
0.8500342109767382
 30
0.0
 11
36.74000170000001
 21
0.950034240976738
 31
0.0
  0
LINE
  5
38C
330
35F
100
AcDbEntity
  8
BORDER
  6
LS
100
AcDbLine
 10
36.7600021
 20
0.8500342109767382
 30
0.0
 11
36.7600021
 21
0.950034240976738
 31
0.0
  0
LINE
  5
38D
330
35F
100
AcDbEntity
  8
BORDER
  6
LS
100
AcDbLine
 10
36.7800016
 20
0.8900342409767381
 30
0.0
 11
36.7800016
 21
0.950034240976738
 31
0.0
  0
LINE
  5
38E
330
35F
100
AcDbEntity
  8
BORDER
  6
LS
100
AcDbLine
 10
36.8200016
 20
0.8900342409767381
 30
0.0
 11
36.8200016
 21
0.950034240976738
 31
0.0
  0
LINE
  5
38F
330
35F
100
AcDbEntity
  8
BORDER
  6
LS
100
AcDbLine
 10
36.8400021
 20
0.8500342109767382
 30
0.0
 11
36.8400021
 21
0.950034240976738
 31
0.0
  0
LINE
  5
390
330
35F
100
AcDbEntity
  8
BORDER
  6
LS
100
AcDbLine
 10
36.86000250000001
 20
0.8500342109767382
 30
0.0
 11
36.86000250000001
 21
0.950034240976738
 31
0.0
  0
LINE
  5
391
330
35F
100
AcDbEntity
  8
BORDER
  6
LS
100
AcDbLine
 10
37.0200024
 20
0.8900342409767381
 30
0.0
 11
37.0200024
 21
0.950034240976738
 31
0.0
  0
LINE
  5
392
330
35F
100
AcDbEntity
  8
BORDER
  6
LS
100
AcDbLine
 10
36.5
 20
0.7500341909767383
 30
0.0
 11
36.5
 21
0.950034240976738
 31
0.0
  0
LINE
  5
393
330
35F
100
AcDbEntity
  8
BORDER
  6
LS
100
AcDbLine
 10
36.5200005
 20
0.8900342409767381
 30
0.0
 11
36.5200005
 21
0.950034240976738
 31
0.0
  0
LINE
  5
394
330
35F
100
AcDbEntity
  8
BORDER
  6
LS
100
AcDbLine
 10
36.5400009
 20
0.8500342109767382
 30
0.0
 11
36.5400009
 21
0.950034240976738
 31
0.0
  0
LINE
  5
395
330
35F
100
AcDbEntity
  8
BORDER
  6
LS
100
AcDbLine
 10
36.6000004
 20
0.8100341909767383
 30
0.0
 11
36.6000004
 21
0.950034240976738
 31
0.0
  0
LINE
  5
396
330
35F
100
AcDbEntity
  8
BORDER
  6
LS
100
AcDbLine
 10
36.5600014
 20
0.8500342109767382
 30
0.0
 11
36.5600014
 21
0.950034240976738
 31
0.0
  0
LINE
  5
397
330
35F
100
AcDbEntity
  8
BORDER
  6
LS
100
AcDbLine
 10
36.5800009
 20
0.8900342409767381
 30
0.0
 11
36.5800009
 21
0.950034240976738
 31
0.0
  0
LINE
  5
398
330
35F
100
AcDbEntity
  8
BORDER
  6
LS
100
AcDbLine
 10
36.6200008
 20
0.8900342409767381
 30
0.0
 11
36.6200008
 21
0.950034240976738
 31
0.0
  0
LINE
  5
399
330
35F
100
AcDbEntity
  8
BORDER
  6
LS
100
AcDbLine
 10
36.64000130000001
 20
0.8500342109767382
 30
0.0
 11
36.64000130000001
 21
0.950034240976738
 31
0.0
  0
LINE
  5
39A
330
35F
100
AcDbEntity
  8
BORDER
  6
LS
100
AcDbLine
 10
36.6600018
 20
0.8500342109767382
 30
0.0
 11
36.6600018
 21
0.950034240976738
 31
0.0
  0
LINE
  5
39B
330
35F
100
AcDbEntity
  8
BORDER
  6
LS
100
AcDbLine
 10
36.6800013
 20
0.8900342409767381
 30
0.0
 11
36.6800013
 21
0.950034240976738
 31
0.0
  0
TEXT
  5
39C
330
35F
100
AcDbEntity
  8
BORDER
100
AcDbText
 10
36.4714985
 20
0.6099843209767384
 30
0.0
 40
0.07999998
  1
0
 50
0.0999999600000001
  7
AE
100
AcDbText
  0
TEXT
  5
39D
330
35F
100
AcDbEntity
  8
BORDER
100
AcDbText
 10
36.8715
 20
0.669984320976738
 30
0.0
 40
0.07999998
  1
4
 50
0.0999999600000001
  7
AE
100
AcDbText
  0
TEXT
  5
39E
330
35F
100
AcDbEntity
  8
BORDER
100
AcDbText
 10
36.6714993
 20
0.669984320976738
 30
0.0
 40
0.07999998
  1
2
 50
0.0999999600000001
  7
AE
100
AcDbText
  0
TEXT
  5
39F
330
35F
100
AcDbEntity
  8
TITLE BLOCK
  6
Continuous
100
AcDbText
 10
31.79999999999999
 20
1.800068621953476
 30
0.0
 40
0.1518741343009839
  1
DRAWING NAME
 50
0.09999996
  7
AE
100
AcDbText
  0
TEXT
  5
3A0
330
35F
100
AcDbEntity
  8
TITLE BLOCK
  6
Continuous
100
AcDbText
 10
31.73
 20
4.700068621953477
 30
0.0
 40
0.1290930102982315
  1
NOTICE: This drawing or material
 50
0.09999996
 41
0.7005041199999999
  7
AE
100
AcDbText
  0
LINE
  5
3A1
330
35F
100
AcDbEntity
  8
TITLE BLOCK
  6
Continuous
100
AcDbLine
 10
34.65037991030702
 20
2.200068621953476
 30
0.0
 11
34.65037991030702
 21
5.000068621953477
 31
0.0
  0
LINE
  5
3A2
330
35F
100
AcDbEntity
  8
TITLE BLOCK
  6
Continuous
100
AcDbLine
 10
31.69931278063705
 20
1.0
 30
0.0
 11
31.69931278063705
 21
5.000068621953477
 31
0.0
  0
TEXT
  5
3A3
330
35F
100
AcDbEntity
  8
TITLE BLOCK
  6
Continuous
100
AcDbText
 10
31.74259510702569
 20
3.41256624687789
 30
0.0
 40
0.1290930102982315
  1
reproduced, will be used only for
 50
0.09999996
 41
0.6799434399999999
  7
AE
100
AcDbText
  0
TEXT
  5
3A4
330
35F
100
AcDbEntity
  8
TITLE BLOCK
  6
Continuous
100
AcDbText
 10
31.77028788782436
 20
2.390146850986036
 30
0.0
 40
0.1290930102982315
  1
consent of G & L Motion Control Inc..
 50
0.09999996
 41
0.79688752
  7
AE
100
AcDbText
  0
TEXT
  5
3A5
330
35F
100
AcDbEntity
  8
TITLE BLOCK
  6
Continuous
100
AcDbText
 10
31.73775362006189
 20
2.670168072300595
 30
0.0
 40
0.1290930102982315
  1
as authorized by specific written
 50
0.09999996
 41
0.6799434399999999
  7
AE
100
AcDbText
  0
TEXT
  5
3A6
330
35F
100
AcDbEntity
  8
TITLE BLOCK
  6
Continuous
100
AcDbText
 10
31.73784003041041
 20
2.913869365335577
 30
0.0
 40
0.1290930102982315
  1
used or disclosed to anyone except
 50
0.09999996
 41
0.6605569100000001
  7
AE
100
AcDbText
  0
TEXT
  5
3A7
330
35F
100
AcDbEntity
  8
TITLE BLOCK
  6
Continuous
100
AcDbText
 10
31.73129714682869
 20
3.170479940112326
 30
0.0
 40
0.1290930102982315
  1
your information, and will not be
 50
0.09999996
 41
0.6799434399999999
  7
AE
100
AcDbText
  0
TEXT
  5
3A8
330
35F
100
AcDbEntity
  8
TITLE BLOCK
  6
Continuous
100
AcDbText
 10
31.74064161593091
 20
3.674823969390883
 30
0.0
 40
0.1290930102982315
  1
will not be copied or otherwise
 50
0.09999996
 41
0.72234601
  7
AE
100
AcDbText
  0
TEXT
  5
3A9
330
35F
100
AcDbEntity
  8
TITLE BLOCK
  6
Continuous
100
AcDbText
 10
31.72896291013545
 20
3.937088828472806
 30
0.0
 40
0.1290930102982315
  1
in confidence on condition that it
 50
0.09999996
 41
0.6605569100000001
  7
AE
100
AcDbText
  0
TEXT
  5
3AA
330
35F
100
AcDbEntity
  8
TITLE BLOCK
  6
Continuous
100
AcDbText
 10
31.72550842499454
 20
4.455149536187693
 30
0.0
 40
0.1290930102982315
  1
contains proprietary information
 50
0.09999996
 41
0.7005041199999999
  7
AE
100
AcDbText
  0
TEXT
  5
3AB
330
35F
100
AcDbEntity
  8
TITLE BLOCK
  6
Continuous
100
AcDbText
 10
31.736946030487
 20
4.192082488177751
 30
0.0
 40
0.1290930102982315
  1
of G & L Motion Control Inc., is submitted
 50
0.09999996
 41
0.6799434399999999
  7
AE
100
AcDbText
  0
TEXT
  5
3AC
330
35F
100
AcDbEntity
  8
TITLE BLOCK
  6
Continuous
100
AcDbText
 10
34.7
 20
3.400068621953476
 30
0.0
 40
0.1518741343009839
  1
DR
 50
0.09999996
  7
AE
100
AcDbText
  0
TEXT
  5
3AD
330
35F
100
AcDbEntity
  8
TITLE BLOCK
  6
Continuous
100
AcDbText
 10
34.7
 20
3.150068621953476
 30
0.0
 40
0.1518741343009839
  1
BY
 50
0.09999996
  7
AE
100
AcDbText
  0
TEXT
  5
3AE
330
35F
100
AcDbEntity
  8
TITLE BLOCK
  6
Continuous
100
AcDbText
 10
34.71240074512235
 20
2.650068621953475
 30
0.0
 40
0.1518741343009839
  1
BY
 50
0.09999996
  7
AE
100
AcDbText
  0
TEXT
  5
3AF
330
35F
100
AcDbEntity
  8
TITLE BLOCK
  6
Continuous
100
AcDbText
 10
34.7
 20
2.900068621953476
 30
0.0
 40
0.1518741343009839
  1
CHK
 50
0.09999996
  7
AE
100
AcDbText
  0
TEXT
  5
3B0
330
35F
100
AcDbEntity
  8
TITLE BLOCK
  6
Continuous
100
AcDbText
 10
34.71999999999999
 20
2.400068621953476
 30
0.0
 40
0.1518741343009839
  1
APPD
 50
0.09999996
  7
AE
100
AcDbText
  0
TEXT
  5
3B1
330
35F
100
AcDbEntity
  8
TITLE BLOCK
  6
Continuous
100
AcDbText
 10
34.7
 20
2.150068621953476
 30
0.0
 40
0.1518741343009839
  1
BY
 50
0.09999996
  7
AE
100
AcDbText
  0
ATTDEF
  5
3B2
330
35F
100
AcDbEntity
  8
TITLE BLOCK
  6
Continuous
100
AcDbText
 10
32.0
 20
1.25
 30
0.0
 40
0.3
  1

 41
0.8
100
AcDbAttributeDefinition
  3
Drawing Name
  2
GEN-TITLE-DES1{15.54}
 70
     0
1001
GENIUS_GENBLLY_14
1000
BOR5
  0
LINE
  5
3B3
330
35F
100
AcDbEntity
  8
BORDER
  6
LS
100
AcDbLine
 10
39.5
 20
0.7500341909767383
 30
0.0
 11
39.5
 21
0.950034240976738
 31
0.0
  0
TEXT
  5
3B4
330
35F
100
AcDbEntity
  8
BORDER
100
AcDbText
 10
39.4714985
 20
0.6099843209767384
 30
0.0
 40
0.07999998
  1
3
 50
0.0999999600000001
  7
AE
100
AcDbText
  0
LINE
  5
3B5
330
35F
100
AcDbEntity
  8
BORDER
  6
LS
100
AcDbLine
 10
38.5
 20
0.7500341909767383
 30
0.0
 11
38.5
 21
0.950034240976738
 31
0.0
  0
LINE
  5
3B6
330
35F
100
AcDbEntity
  8
BORDER
  6
LS
100
AcDbLine
 10
38.3000059
 20
0.8100341909767383
 30
0.0
 11
38.3000059
 21
0.950034240976738
 31
0.0
  0
LINE
  5
3B7
330
35F
100
AcDbEntity
  8
BORDER
  6
LS
100
AcDbLine
 10
38.1000052
 20
0.8100341909767383
 30
0.0
 11
38.1000052
 21
0.950034240976738
 31
0.0
  0
TEXT
  5
3B8
330
35F
100
AcDbEntity
  8
BORDER
100
AcDbText
 10
38.4714985
 20
0.6099843209767384
 30
0.0
 40
0.07999998
  1
2
 50
0.0999999600000001
  7
AE
100
AcDbText
  0
TEXT
  5
3B9
330
35F
100
AcDbEntity
  8
BORDER
100
AcDbText
 10
38.2715044
 20
0.669984320976738
 30
0.0
 40
0.07999998
  1
8
 50
0.0999999600000001
  7
AE
100
AcDbText
  0
TEXT
  5
3BA
330
35F
100
AcDbEntity
  8
BORDER
100
AcDbText
 10
38.07150359999999
 20
0.669984320976738
 30
0.0
 40
0.07999998
  1
6
 50
0.0999999600000001
  7
AE
100
AcDbText
  0
LINE
  5
3BB
330
35F
100
AcDbEntity
  8
BORDER
  6
LS
100
AcDbLine
 10
37.9000044
 20
0.8100341909767383
 30
0.0
 11
37.9000044
 21
0.950034240976738
 31
0.0
  0
LINE
  5
3BC
330
35F
100
AcDbEntity
  8
BORDER
  6
LS
100
AcDbLine
 10
37.7000046
 20
0.8100341909767383
 30
0.0
 11
37.7000046
 21
0.950034240976738
 31
0.0
  0
LINE
  5
3BD
330
35F
100
AcDbEntity
  8
BORDER
  6
LS
100
AcDbLine
 10
37.4000034
 20
0.8100341909767383
 30
0.0
 11
37.4000034
 21
0.950034240976738
 31
0.0
  0
LINE
  5
3BE
330
35F
100
AcDbEntity
  8
BORDER
  6
LS
100
AcDbLine
 10
37.4200039
 20
0.8900342409767381
 30
0.0
 11
37.4200039
 21
0.950034240976738
 31
0.0
  0
LINE
  5
3BF
330
35F
100
AcDbEntity
  8
BORDER
  6
LS
100
AcDbLine
 10
37.4400044
 20
0.8500342109767382
 30
0.0
 11
37.4400044
 21
0.950034240976738
 31
0.0
  0
LINE
  5
3C0
330
35F
100
AcDbEntity
  8
BORDER
  6
LS
100
AcDbLine
 10
37.32000349999999
 20
0.8900342409767381
 30
0.0
 11
37.32000349999999
 21
0.950034240976738
 31
0.0
  0
LINE
  5
3C1
330
35F
100
AcDbEntity
  8
BORDER
  6
LS
100
AcDbLine
 10
37.34000400000001
 20
0.8500342109767382
 30
0.0
 11
37.34000400000001
 21
0.950034240976738
 31
0.0
  0
LINE
  5
3C2
330
35F
100
AcDbEntity
  8
BORDER
  6
LS
100
AcDbLine
 10
37.3600044
 20
0.8500342109767382
 30
0.0
 11
37.3600044
 21
0.950034240976738
 31
0.0
  0
LINE
  5
3C3
330
35F
100
AcDbEntity
  8
BORDER
  6
LS
100
AcDbLine
 10
37.3800039
 20
0.8900342409767381
 30
0.0
 11
37.3800039
 21
0.950034240976738
 31
0.0
  0
LINE
  5
3C4
330
35F
100
AcDbEntity
  8
BORDER
  6
LS
100
AcDbLine
 10
37.2000027
 20
0.8100341909767383
 30
0.0
 11
37.2000027
 21
0.950034240976738
 31
0.0
  0
LINE
  5
3C5
330
35F
100
AcDbEntity
  8
BORDER
  6
LS
100
AcDbLine
 10
37.3000031
 20
0.8100341909767383
 30
0.0
 11
37.3000031
 21
0.950034240976738
 31
0.0
  0
LINE
  5
3C6
330
35F
100
AcDbEntity
  8
BORDER
  6
LS
100
AcDbLine
 10
37.1600037
 20
0.8500342109767382
 30
0.0
 11
37.1600037
 21
0.950034240976738
 31
0.0
  0
LINE
  5
3C7
330
35F
100
AcDbEntity
  8
BORDER
  6
LS
100
AcDbLine
 10
37.1800032
 20
0.8900342409767381
 30
0.0
 11
37.1800032
 21
0.950034240976738
 31
0.0
  0
LINE
  5
3C8
330
35F
100
AcDbEntity
  8
BORDER
  6
LS
100
AcDbLine
 10
37.2200031
 20
0.8900342409767381
 30
0.0
 11
37.2200031
 21
0.950034240976738
 31
0.0
  0
LINE
  5
3C9
330
35F
100
AcDbEntity
  8
BORDER
  6
LS
100
AcDbLine
 10
37.2400036
 20
0.8500342109767382
 30
0.0
 11
37.2400036
 21
0.950034240976738
 31
0.0
  0
LINE
  5
3CA
330
35F
100
AcDbEntity
  8
BORDER
  6
LS
100
AcDbLine
 10
37.2600041
 20
0.8500342109767382
 30
0.0
 11
37.2600041
 21
0.950034240976738
 31
0.0
  0
LINE
  5
3CB
330
35F
100
AcDbEntity
  8
BORDER
  6
LS
100
AcDbLine
 10
37.2800036
 20
0.8900342409767381
 30
0.0
 11
37.2800036
 21
0.950034240976738
 31
0.0
  0
LINE
  5
3CC
330
35F
100
AcDbEntity
  8
BORDER
  6
LS
100
AcDbLine
 10
37.5
 20
0.7500341909767383
 30
0.0
 11
37.5
 21
0.950034240976738
 31
0.0
  0
LINE
  5
3CD
330
35F
100
AcDbEntity
  8
BORDER
  6
LS
100
AcDbLine
 10
37.46000480000001
 20
0.8500342109767382
 30
0.0
 11
37.46000480000001
 21
0.950034240976738
 31
0.0
  0
LINE
  5
3CE
330
35F
100
AcDbEntity
  8
BORDER
  6
LS
100
AcDbLine
 10
37.4800043
 20
0.8900342409767381
 30
0.0
 11
37.4800043
 21
0.950034240976738
 31
0.0
  0
TEXT
  5
3CF
330
35F
100
AcDbEntity
  8
BORDER
100
AcDbText
 10
37.4714985
 20
0.6099843209767384
 30
0.0
 40
0.07999998
  1
1
 50
0.0999999600000001
  7
AE
100
AcDbText
  0
TEXT
  5
3D0
330
35F
100
AcDbEntity
  8
BORDER
100
AcDbText
 10
37.2715016
 20
0.669984320976738
 30
0.0
 40
0.07999998
  1
8
 50
0.0999999600000001
  7
AE
100
AcDbText
  0
TEXT
  5
3D1
330
35F
100
AcDbEntity
  8
BORDER
100
AcDbText
 10
37.8715029
 20
0.669984320976738
 30
0.0
 40
0.07999998
  1
4
 50
0.0999999600000001
  7
AE
100
AcDbText
  0
TEXT
  5
3D2
330
35F
100
AcDbEntity
  8
BORDER
100
AcDbText
 10
37.6715031
 20
0.669984320976738
 30
0.0
 40
0.07999998
  1
2
 50
0.0999999600000001
  7
AE
100
AcDbText
  0
LINE
  5
3D3
330
35F
100
AcDbEntity
  8
BORDER
  6
LS
100
AcDbLine
 10
37.1000023
 20
0.8100341909767383
 30
0.0
 11
37.1000023
 21
0.950034240976738
 31
0.0
  0
LINE
  5
3D4
330
35F
100
AcDbEntity
  8
BORDER
  6
LS
100
AcDbLine
 10
37.0400028
 20
0.8500342109767382
 30
0.0
 11
37.0400028
 21
0.950034240976738
 31
0.0
  0
LINE
  5
3D5
330
35F
100
AcDbEntity
  8
BORDER
  6
LS
100
AcDbLine
 10
37.0600033
 20
0.8500342109767382
 30
0.0
 11
37.0600033
 21
0.950034240976738
 31
0.0
  0
LINE
  5
3D6
330
35F
100
AcDbEntity
  8
BORDER
  6
LS
100
AcDbLine
 10
37.0800028
 20
0.8900342409767381
 30
0.0
 11
37.0800028
 21
0.950034240976738
 31
0.0
  0
LINE
  5
3D7
330
35F
100
AcDbEntity
  8
BORDER
  6
LS
100
AcDbLine
 10
37.1200028
 20
0.8900342409767381
 30
0.0
 11
37.1200028
 21
0.950034240976738
 31
0.0
  0
LINE
  5
3D8
330
35F
100
AcDbEntity
  8
BORDER
  6
LS
100
AcDbLine
 10
37.1400032
 20
0.8500342109767382
 30
0.0
 11
37.1400032
 21
0.950034240976738
 31
0.0
  0
TEXT
  5
3D9
330
35F
100
AcDbEntity
  8
BORDER
100
AcDbText
 10
37.0715008
 20
0.669984320976738
 30
0.0
 40
0.07999998
  1
6
 50
0.0999999600000001
  7
AE
100
AcDbText
  0
ATTDEF
  5
3DA
330
35F
100
AcDbEntity
  8
TITLE BLOCK
  6
Continuous
100
AcDbText
 10
42.29999999999999
 20
2.250068621953476
 30
0.0
 40
0.2361798886203
  1

 41
0.8
100
AcDbAttributeDefinition
  3
Sheet of
  2
GEN-TITLE-SHEET-OF{2.62}
 70
     0
1001
GENIUS_GENBLLY_14
1000
BOR3
  0
ATTDEF
  5
3DB
330
35F
100
AcDbEntity
  8
TITLE BLOCK
  6
Continuous
100
AcDbText
 10
41.5
 20
2.250068621953476
 30
0.0
 40
0.2361798886203
  1

 41
0.8
100
AcDbAttributeDefinition
  3
Sheet
  2
GEN-TITLE-SHEET{2.62}
 70
     0
1001
GENIUS_GENBLLY_14
1000
BOR3
  0
TEXT
  5
3DC
330
35F
100
AcDbEntity
  8
TITLE BLOCK
  6
Continuous
100
AcDbText
 10
40.65
 20
2.900068621953476
 30
0.0
 40
0.1518741343009839
  1
DATE
 50
0.09999996
  7
AE
100
AcDbText
  0
TEXT
  5
3DD
330
35F
100
AcDbEntity
  8
TITLE BLOCK
  6
Continuous
100
AcDbText
 10
40.65
 20
2.400068621953476
 30
0.0
 40
0.1518741343009839
  1
SHEET   OF
 50
0.09999996
  7
AE
100
AcDbText
  0
ATTDEF
  5
3DE
330
35F
100
AcDbEntity
  8
TITLE BLOCK
  6
Continuous
100
AcDbText
 10
38.4
 20
2.250068621953476
 30
0.0
 40
0.2021222838
  1

 41
0.8
100
AcDbAttributeDefinition
  3
Material
  2
GEN-TITLE-MAT{11.15}
 70
     0
1001
GENIUS_GENBLLY_14
1000
BOR3
  0
ATTDEF
  5
3DF
330
35F
100
AcDbEntity
  8
TITLE BLOCK
  6
Continuous
100
AcDbText
 10
38.4
 20
2.750068621953476
 30
0.0
 40
0.2021222838
  1

100
AcDbAttributeDefinition
  3
Machine
  2
GEN-TITLE-MACH{5}
 70
     0
1001
GENIUS_GENBLLY_14
1000
BOR2
  0
ATTDEF
  5
3E0
330
35F
100
AcDbEntity
  8
TITLE BLOCK
  6
Continuous
100
AcDbText
 10
38.4
 20
3.250068621953476
 30
0.0
 40
0.2021222838
  1

100
AcDbAttributeDefinition
  3
Ref. No.
  2
GEN-TITLE-REF{5}
 70
     0
1001
GENIUS_GENBLLY_14
1000
BOR2
  0
TEXT
  5
3E1
330
35F
100
AcDbEntity
  8
TITLE BLOCK
  6
Continuous
100
AcDbText
 10
37.7
 20
2.400068621953476
 30
0.0
 40
0.1518741343009839
  1
MATL
 50
0.09999996
  7
AE
100
AcDbText
  0
TEXT
  5
3E2
330
35F
100
AcDbEntity
  8
TITLE BLOCK
  6
Continuous
100
AcDbText
 10
37.7
 20
2.900068621953476
 30
0.0
 40
0.1518741343009839
  1
MACH
 50
0.09999996
  7
AE
100
AcDbText
  0
TEXT
  5
3E3
330
35F
100
AcDbEntity
  8
TITLE BLOCK
  6
Continuous
100
AcDbText
 10
37.7
 20
3.400068621953476
 30
0.0
 40
0.1518741343009839
  1
REF
 50
0.09999996
  7
AE
100
AcDbText
  0
TEXT
  5
3E4
330
35F
100
AcDbEntity
  8
TITLE BLOCK
  6
Continuous
100
AcDbText
 10
37.7
 20
1.800068621953476
 30
0.0
 40
0.1518741343009839
  1
DRAWING NUMBER
 50
0.09999996
  7
AE
100
AcDbText
  0
LINE
  5
3E5
330
35F
100
AcDbEntity
  8
TITLE BLOCK
  6
Continuous
100
AcDbLine
 10
37.59999999999999
 20
1.0
 30
0.0
 11
37.59999999999999
 21
5.000068621953477
 31
0.0
  0
LINE
  5
3E6
330
35F
100
AcDbEntity
  8
TITLE BLOCK
  6
Continuous
100
AcDbLine
 10
40.55251436252715
 20
2.100068621953476
 30
0.0
 11
40.55251436252707
 21
3.100068621953475
 31
0.0
  0
ATTDEF
  5
3E7
330
35F
100
AcDbEntity
  8
TITLE BLOCK
  6
Continuous
100
AcDbText
 10
41.35
 20
2.750068621953476
 30
0.0
 40
0.2021222838
  1

100
AcDbAttributeDefinition
  3
Date
  2
GEN-TITLE-PLOT{5}
 70
     0
1001
GENIUS_GENBLLY_14
1000
BOR2
  0
ATTDEF
  5
3E8
330
35F
100
AcDbEntity
  8
TITLE BLOCK
  6
Continuous
100
AcDbText
 10
38.0
 20
1.25
 30
0.0
 40
0.3
  1

 41
0.8
100
AcDbAttributeDefinition
  3
Drawing Number
  2
GEN-TITLE-NR{13.37}
 70
     0
1001
GENIUS_GENBLLY_14
1000
BOR5
  0
LINE
  5
3E9
330
35F
100
AcDbEntity
  8
BORDER
100
AcDbLine
 10
21.999954
 20
33.19999699999999
 30
0.0
 11
21.999954
 21
33.39999399999999
 31
0.0
  0
LINE
  5
3EA
330
35F
100
AcDbEntity
  8
BORDER
100
AcDbLine
 10
21.899963
 20
33.19999699999999
 30
0.0
 11
22.09996
 21
33.19999699999999
 31
0.0
  0
LINE
  5
3EB
330
35F
100
AcDbEntity
  8
BORDER
100
AcDbLine
 10
21.899994
 20
33.19999699999999
 30
0.0
 11
22.0
 21
33.0
 31
0.0
  0
LINE
  5
3EC
330
35F
100
AcDbEntity
  8
BORDER
100
AcDbLine
 10
21.999984
 20
33.000015
 30
0.0
 11
22.099991
 21
33.200012
 31
0.0
  0
LINE
  5
3ED
330
35F
100
AcDbEntity
  8
BORDER
100
AcDbLine
 10
43.70000414999999
 20
17.00001799999999
 30
0.0
 11
43.90000109999999
 21
17.00001799999999
 31
0.0
  0
LINE
  5
3EE
330
35F
100
AcDbEntity
  8
BORDER
100
AcDbLine
 10
43.5
 20
17.0
 30
0.0
 11
43.69999579999999
 21
17.099997
 31
0.0
  0
LINE
  5
3EF
330
35F
100
AcDbEntity
  8
BORDER
100
AcDbLine
 10
43.70000414999999
 20
16.90001199999999
 30
0.0
 11
43.70000414999999
 21
17.100009
 31
0.0
  0
LINE
  5
3F0
330
35F
100
AcDbEntity
  8
BORDER
100
AcDbLine
 10
43.50001304
 20
16.99999799999999
 30
0.0
 11
43.70000885999999
 21
16.90000099999999
 31
0.0
  0
LINE
  5
3F1
330
35F
100
AcDbEntity
  8
BORDER
  6
Continuous
100
AcDbLine
 10
44.0
 20
22.0
 30
0.0
 11
44.0
 21
0.0
 31
0.0
  0
LINE
  5
3F2
330
35F
100
AcDbEntity
  8
BORDER
  6
Continuous
100
AcDbLine
 10
44.0
 20
0.0
 30
0.0
 11
0.0
 21
0.0
 31
0.0
  0
LINE
  5
3F3
330
35F
100
AcDbEntity
  8
BORDER
100
AcDbLine
 10
10.0
 20
0.0
 30
0.0
 11
10.0
 21
0.0
 31
0.0
  0
MTEXT
  5
3F4
330
35F
100
AcDbEntity
  8
BORDER
  6
Continuous
100
AcDbMText
 10
40.50617958671742
 20
4.700068621953477
 30
0.0
 40
0.25
 41
5.326
 71
     2
 72
     5
  1
{\fArial|b0|i0|c0|p34;\C1;G & L Motion Control Inc.}
 73
     1
 44
1.0
  0
MTEXT
  5
3F5
330
35F
100
AcDbEntity
  8
BORDER
  6
Continuous
100
AcDbMText
 10
40.50825715527895
 20
4.056598296564496
 30
0.0
 40
0.15748
 41
5.724
 71
     5
 72
     1
  1
{\Fromans.shx;\C9;672 South Military Road\PFond du Lac, Wisconsin 54936 U.S.A.}
 73
     1
 44
1.0
  0
LINE
  5
3F6
330
35F
100
AcDbEntity
  8
BORDER
100
AcDbLine
 10
44.0
 20
34.0
 30
0.0
 11
44.0
 21
0.0
 31
0.0
  0
LINE
  5
3F7
330
35F
100
AcDbEntity
  8
BORDER
100
AcDbLine
 10
44.0
 20
34.0
 30
0.0
 11
0.0
 21
34.0
 31
0.0
  0
LINE
  5
3F8
330
35F
100
AcDbEntity
  8
BORDER
100
AcDbLine
 10
0.0
 20
34.0
 30
0.0
 11
0.0
 21
0.0
 31
0.0
  0
LINE
  5
3F9
330
35F
100
AcDbEntity
  8
BORDER
100
AcDbLine
 10
0.5
 20
1.0
 30
0.0
 11
0.5
 21
33.0
 31
0.0
  0
LINE
  5
3FA
330
35F
100
AcDbEntity
  8
BORDER
100
AcDbLine
 10
43.5
 20
1.0
 30
0.0
 11
43.5
 21
33.0
 31
0.0
  0
LINE
  5
3FB
330
35F
100
AcDbEntity
  8
BORDER
100
AcDbLine
 10
0.5
 20
33.0
 30
0.0
 11
43.5
 21
33.0
 31
0.0
  0
LINE
  5
3FC
330
35F
100
AcDbEntity
  8
BORDER
100
AcDbLine
 10
0.5
 20
1.0
 30
0.0
 11
43.5
 21
1.0
 31
0.0
  0
LINE
  5
3FD
330
35F
100
AcDbEntity
  8
BORDER
100
AcDbLine
 10
38.5
 20
33.5
 30
0.0
 11
38.5
 21
33.0
 31
0.0
  0
LINE
  5
3FE
330
35F
100
AcDbEntity
  8
BORDER
100
AcDbLine
 10
33.0
 20
33.5
 30
0.0
 11
33.0
 21
33.0
 31
0.0
  0
LINE
  5
3FF
330
35F
100
AcDbEntity
  8
BORDER
100
AcDbLine
 10
27.5
 20
33.5
 30
0.0
 11
27.5
 21
33.0
 31
0.0
  0
LINE
  5
400
330
35F
100
AcDbEntity
  8
BORDER
100
AcDbLine
 10
16.5
 20
33.5
 30
0.0
 11
16.5
 21
33.0
 31
0.0
  0
LINE
  5
401
330
35F
100
AcDbEntity
  8
BORDER
100
AcDbLine
 10
11.0
 20
33.5
 30
0.0
 11
11.0
 21
33.0
 31
0.0
  0
LINE
  5
402
330
35F
100
AcDbEntity
  8
BORDER
100
AcDbLine
 10
5.5
 20
33.5
 30
0.0
 11
5.5
 21
33.0
 31
0.0
  0
LINE
  5
403
330
35F
100
AcDbEntity
  8
BORDER
100
AcDbLine
 10
44.0
 20
29.75
 30
0.0
 11
43.5
 21
29.75
 31
0.0
  0
LINE
  5
404
330
35F
100
AcDbEntity
  8
BORDER
100
AcDbLine
 10
44.0
 20
25.5
 30
0.0
 11
43.5
 21
25.5
 31
0.0
  0
LINE
  5
405
330
35F
100
AcDbEntity
  8
BORDER
100
AcDbLine
 10
44.0
 20
21.25
 30
0.0
 11
43.5
 21
21.25
 31
0.0
  0
LINE
  5
406
330
35F
100
AcDbEntity
  8
BORDER
100
AcDbLine
 10
44.0
 20
12.75
 30
0.0
 11
43.5
 21
12.75
 31
0.0
  0
LINE
  5
407
330
35F
100
AcDbEntity
  8
BORDER
100
AcDbLine
 10
44.0
 20
8.5
 30
0.0
 11
43.5
 21
8.5
 31
0.0
  0
LINE
  5
408
330
35F
100
AcDbEntity
  8
BORDER
100
AcDbLine
 10
44.0
 20
4.25
 30
0.0
 11
43.5
 21
4.25
 31
0.0
  0
LINE
  5
409
330
35F
100
AcDbEntity
  8
BORDER
100
AcDbLine
 10
0.5
 20
29.75
 30
0.0
 11
0.0
 21
29.75
 31
0.0
  0
LINE
  5
40A
330
35F
100
AcDbEntity
  8
BORDER
100
AcDbLine
 10
0.5
 20
25.5
 30
0.0
 11
0.0
 21
25.5
 31
0.0
  0
LINE
  5
40B
330
35F
100
AcDbEntity
  8
BORDER
100
AcDbLine
 10
0.5
 20
21.25
 30
0.0
 11
0.0
 21
21.25
 31
0.0
  0
LINE
  5
40C
330
35F
100
AcDbEntity
  8
BORDER
100
AcDbLine
 10
0.5
 20
12.75
 30
0.0
 11
0.0
 21
12.75
 31
0.0
  0
LINE
  5
40D
330
35F
100
AcDbEntity
  8
BORDER
100
AcDbLine
 10
0.5
 20
8.5
 30
0.0
 11
0.0
 21
8.5
 31
0.0
  0
LINE
  5
40E
330
35F
100
AcDbEntity
  8
BORDER
100
AcDbLine
 10
0.5
 20
4.25
 30
0.0
 11
0.0
 21
4.25
 31
0.0
  0
LINE
  5
40F
330
35F
100
AcDbEntity
  8
BORDER
100
AcDbLine
 10
5.5
 20
1.0
 30
0.0
 11
5.5
 21
0.5
 31
0.0
  0
LINE
  5
410
330
35F
100
AcDbEntity
  8
BORDER
100
AcDbLine
 10
11.0
 20
1.0
 30
0.0
 11
11.0
 21
0.5
 31
0.0
  0
LINE
  5
411
330
35F
100
AcDbEntity
  8
BORDER
100
AcDbLine
 10
16.5
 20
1.0
 30
0.0
 11
16.5
 21
0.5
 31
0.0
  0
LINE
  5
412
330
35F
100
AcDbEntity
  8
BORDER
100
AcDbLine
 10
27.5
 20
1.0
 30
0.0
 11
27.5
 21
0.5
 31
0.0
  0
LINE
  5
413
330
35F
100
AcDbEntity
  8
BORDER
100
AcDbLine
 10
33.0
 20
1.0
 30
0.0
 11
33.0
 21
0.5
 31
0.0
  0
TEXT
  5
414
330
35F
100
AcDbEntity
  8
BORDER
100
AcDbText
 10
35.625
 20
33.3125
 30
0.0
 40
0.375
  1
2
 72
     1
 11
35.75
 21
33.5
 31
0.0
100
AcDbText
 73
     2
  0
TEXT
  5
415
330
35F
100
AcDbEntity
  8
BORDER
100
AcDbText
 10
41.1875
 20
33.3125
 30
0.0
 40
0.375
  1
1
 72
     1
 11
41.25
 21
33.5
 31
0.0
100
AcDbText
 73
     2
  0
TEXT
  5
416
330
35F
100
AcDbEntity
  8
BORDER
100
AcDbText
 10
30.125
 20
33.3125
 30
0.0
 40
0.375
  1
3
 72
     1
 11
30.25
 21
33.5
 31
0.0
100
AcDbText
 73
     2
  0
TEXT
  5
417
330
35F
100
AcDbEntity
  8
BORDER
100
AcDbText
 10
8.125
 20
33.3125
 30
0.0
 40
0.375
  1
7
 72
     1
 11
8.25
 21
33.5
 31
0.0
100
AcDbText
 73
     2
  0
TEXT
  5
418
330
35F
100
AcDbEntity
  8
BORDER
100
AcDbText
 10
13.625
 20
33.3125
 30
0.0
 40
0.375
  1
6
 72
     1
 11
13.75
 21
33.5
 31
0.0
100
AcDbText
 73
     2
  0
TEXT
  5
419
330
35F
100
AcDbEntity
  8
BORDER
100
AcDbText
 10
19.125
 20
33.3125
 30
0.0
 40
0.375
  1
5
 72
     1
 11
19.25
 21
33.5
 31
0.0
100
AcDbText
 73
     2
  0
TEXT
  5
41A
330
35F
100
AcDbEntity
  8
BORDER
100
AcDbText
 10
2.625
 20
33.3125
 30
0.0
 40
0.375
  1
8
 72
     1
 11
2.75
 21
33.5
 31
0.0
100
AcDbText
 73
     2
  0
TEXT
  5
41B
330
35F
100
AcDbEntity
  8
BORDER
100
AcDbText
 10
24.625
 20
33.3125
 30
0.0
 40
0.375
  1
4
 72
     1
 11
24.75
 21
33.5
 31
0.0
100
AcDbText
 73
     2
  0
TEXT
  5
41C
330
35F
100
AcDbEntity
  8
BORDER
100
AcDbText
 10
43.62499999999999
 20
27.4375
 30
0.0
 40
0.375
  1
G
 72
     1
 11
43.75
 21
27.625
 31
0.0
100
AcDbText
 73
     2
  0
TEXT
  5
41D
330
35F
100
AcDbEntity
  8
BORDER
100
AcDbText
 10
43.62499999999999
 20
31.6875
 30
0.0
 40
0.375
  1
H
 72
     1
 11
43.75
 21
31.875
 31
0.0
100
AcDbText
 73
     2
  0
TEXT
  5
41E
330
35F
100
AcDbEntity
  8
BORDER
100
AcDbText
 10
43.62499999999999
 20
23.1875
 30
0.0
 40
0.375
  1
F
 72
     1
 11
43.75
 21
23.37499999999999
 31
0.0
100
AcDbText
 73
     2
  0
TEXT
  5
41F
330
35F
100
AcDbEntity
  8
BORDER
100
AcDbText
 10
43.62499999999999
 20
14.6875
 30
0.0
 40
0.375
  1
D
 72
     1
 11
43.75
 21
14.875
 31
0.0
100
AcDbText
 73
     2
  0
TEXT
  5
420
330
35F
100
AcDbEntity
  8
BORDER
100
AcDbText
 10
43.62499999999999
 20
1.9375
 30
0.0
 40
0.375
  1
A
 72
     1
 11
43.75
 21
2.125
 31
0.0
100
AcDbText
 73
     2
  0
TEXT
  5
421
330
35F
100
AcDbEntity
  8
BORDER
100
AcDbText
 10
43.62499999999999
 20
6.1875
 30
0.0
 40
0.375
  1
B
 72
     1
 11
43.75
 21
6.375
 31
0.0
100
AcDbText
 73
     2
  0
TEXT
  5
422
330
35F
100
AcDbEntity
  8
BORDER
100
AcDbText
 10
43.62499999999999
 20
10.43749999999999
 30
0.0
 40
0.375
  1
C
 72
     1
 11
43.75
 21
10.625
 31
0.0
100
AcDbText
 73
     2
  0
TEXT
  5
423
330
35F
100
AcDbEntity
  8
BORDER
100
AcDbText
 10
43.62499999999999
 20
18.9375
 30
0.0
 40
0.375
  1
E
 72
     1
 11
43.75
 21
19.125
 31
0.0
100
AcDbText
 73
     2
  0
TEXT
  5
424
330
35F
100
AcDbEntity
  8
BORDER
100
AcDbText
 10
0.125
 20
1.9375
 30
0.0
 40
0.375
  1
A
 72
     1
 11
0.25
 21
2.125
 31
0.0
100
AcDbText
 73
     2
  0
TEXT
  5
425
330
35F
100
AcDbEntity
  8
BORDER
100
AcDbText
 10
0.125
 20
6.1875
 30
0.0
 40
0.375
  1
B
 72
     1
 11
0.25
 21
6.375
 31
0.0
100
AcDbText
 73
     2
  0
TEXT
  5
426
330
35F
100
AcDbEntity
  8
BORDER
100
AcDbText
 10
0.125
 20
10.43749999999999
 30
0.0
 40
0.375
  1
C
 72
     1
 11
0.25
 21
10.625
 31
0.0
100
AcDbText
 73
     2
  0
TEXT
  5
427
330
35F
100
AcDbEntity
  8
BORDER
100
AcDbText
 10
0.125
 20
14.6875
 30
0.0
 40
0.375
  1
D
 72
     1
 11
0.25
 21
14.875
 31
0.0
100
AcDbText
 73
     2
  0
TEXT
  5
428
330
35F
100
AcDbEntity
  8
BORDER
100
AcDbText
 10
0.125
 20
18.9375
 30
0.0
 40
0.375
  1
E
 72
     1
 11
0.25
 21
19.125
 31
0.0
100
AcDbText
 73
     2
  0
TEXT
  5
429
330
35F
100
AcDbEntity
  8
BORDER
100
AcDbText
 10
0.125
 20
23.1875
 30
0.0
 40
0.375
  1
F
 72
     1
 11
0.25
 21
23.37499999999999
 31
0.0
100
AcDbText
 73
     2
  0
TEXT
  5
42A
330
35F
100
AcDbEntity
  8
BORDER
100
AcDbText
 10
0.125
 20
27.4375
 30
0.0
 40
0.375
  1
G
 72
     1
 11
0.25
 21
27.625
 31
0.0
100
AcDbText
 73
     2
  0
TEXT
  5
42B
330
35F
100
AcDbEntity
  8
BORDER
100
AcDbText
 10
0.125
 20
31.6875
 30
0.0
 40
0.375
  1
H
 72
     1
 11
0.25
 21
31.875
 31
0.0
100
AcDbText
 73
     2
  0
TEXT
  5
42C
330
35F
100
AcDbEntity
  8
BORDER
100
AcDbText
 10
41.1875
 20
0.3125
 30
0.0
 40
0.375
  1
1
 72
     1
 11
41.25
 21
0.5
 31
0.0
100
AcDbText
 73
     2
  0
TEXT
  5
42D
330
35F
100
AcDbEntity
  8
BORDER
100
AcDbText
 10
35.625
 20
0.3125
 30
0.0
 40
0.375
  1
2
 72
     1
 11
35.75
 21
0.5
 31
0.0
100
AcDbText
 73
     2
  0
TEXT
  5
42E
330
35F
100
AcDbEntity
  8
BORDER
100
AcDbText
 10
30.125
 20
0.3125
 30
0.0
 40
0.375
  1
3
 72
     1
 11
30.25
 21
0.5
 31
0.0
100
AcDbText
 73
     2
  0
TEXT
  5
42F
330
35F
100
AcDbEntity
  8
BORDER
100
AcDbText
 10
24.625
 20
0.3125
 30
0.0
 40
0.375
  1
4
 72
     1
 11
24.75
 21
0.5
 31
0.0
100
AcDbText
 73
     2
  0
TEXT
  5
430
330
35F
100
AcDbEntity
  8
BORDER
100
AcDbText
 10
19.125
 20
0.3125
 30
0.0
 40
0.375
  1
5
 72
     1
 11
19.25
 21
0.5
 31
0.0
100
AcDbText
 73
     2
  0
TEXT
  5
431
330
35F
100
AcDbEntity
  8
BORDER
100
AcDbText
 10
13.625
 20
0.3125
 30
0.0
 40
0.375
  1
6
 72
     1
 11
13.75
 21
0.5
 31
0.0
100
AcDbText
 73
     2
  0
TEXT
  5
432
330
35F
100
AcDbEntity
  8
BORDER
100
AcDbText
 10
8.125
 20
0.3125
 30
0.0
 40
0.375
  1
7
 72
     1
 11
8.25
 21
0.5
 31
0.0
100
AcDbText
 73
     2
  0
TEXT
  5
433
330
35F
100
AcDbEntity
  8
BORDER
100
AcDbText
 10
2.625
 20
0.3125
 30
0.0
 40
0.375
  1
8
 72
     1
 11
2.75
 21
0.5
 31
0.0
100
AcDbText
 73
     2
  0
ENDBLK
  5
435
330
35F
100
AcDbEntity
  8
0
100
AcDbBlockEnd
  0
ENDSEC
  0
SECTION
  2
ENTITIES
  0
LINE
  5
30
330
A
100
AcDbEntity
  8
1
  6
Continuous
 62
    92
100
AcDbLine
 10
8.781272439499996
 20
10.6400047751
 30
0.0
 11
24.516879811
 21
10.6400047751
 31
0.0
  0
LINE
  5
31
330
A
100
AcDbEntity
  8
1
  6
Continuous
 62
    92
100
AcDbLine
 10
8.781272439499996
 20
9.8557101979
 30
0.0
 11
24.516879811
 21
9.855710197899998
 31
0.0
  0
LINE
  5
32
330
A
100
AcDbEntity
  8
1
  6
Continuous
 62
    92
100
AcDbLine
 10
8.781272439499996
 20
9.0713572783
 30
0.0
 11
24.516879811
 21
9.0713572783
 31
0.0
  0
LINE
  5
33
330
A
100
AcDbEntity
  8
1
  6
Continuous
 62
    92
100
AcDbLine
 10
8.781272439499996
 20
8.287063149799999
 30
0.0
 11
24.516879811
 21
8.287063149799999
 31
0.0
  0
LINE
  5
34
330
A
100
AcDbEntity
  8
1
  6
Continuous
 62
    92
100
AcDbLine
 10
8.781272439499996
 20
7.502769021399999
 30
0.0
 11
24.516879811
 21
7.502769021399999
 31
0.0
  0
LINE
  5
35
330
A
100
AcDbEntity
  8
1
  6
Continuous
 62
    92
100
AcDbLine
 10
8.781272439499996
 20
6.718433604499999
 30
0.0
 11
24.516879811
 21
6.718433604499999
 31
0.0
  0
LINE
  5
36
330
A
100
AcDbEntity
  8
1
  6
Continuous
 62
    92
100
AcDbLine
 10
8.781272439499996
 20
5.934104021899998
 30
0.0
 11
24.516879811
 21
5.934104021899999
 31
0.0
  0
LINE
  5
37
330
A
100
AcDbEntity
  8
1
  6
Continuous
 62
    92
100
AcDbLine
 10
8.781272439499996
 20
5.1498098934
 30
0.0
 11
24.516879811
 21
5.1498098934
 31
0.0
  0
LINE
  5
38
330
A
100
AcDbEntity
  8
1
  6
Continuous
 62
    92
100
AcDbLine
 10
8.781272439499996
 20
10.6400047751
 30
0.0
 11
8.781272439499996
 21
5.1498098934
 31
0.0
  0
LINE
  5
3A
330
A
100
AcDbEntity
  8
1
  6
Continuous
 62
    92
100
AcDbLine
 10
15.65134923599999
 20
10.6400047751
 30
0.0
 11
15.65134923599999
 21
5.1497991225
 31
0.0
  0
LINE
  5
3B
330
A
100
AcDbEntity
  8
1
  6
Continuous
 62
    92
100
AcDbLine
 10
18.6065260943
 20
10.6400047751
 30
0.0
 11
18.6065260943
 21
5.1497991225
 31
0.0
  0
LINE
  5
3C
330
A
100
AcDbEntity
  8
1
  6
Continuous
 62
    92
100
AcDbLine
 10
21.56170295269999
 20
10.6400047751
 30
0.0
 11
21.56170295269999
 21
5.1497991225
 31
0.0
  0
LINE
  5
3D
330
A
100
AcDbEntity
  8
1
  6
Continuous
 62
    92
100
AcDbLine
 10
24.516879811
 20
10.6400047751
 30
0.0
 11
24.516879811
 21
5.1497991225
 31
0.0
  0
LINE
  5
3E
330
A
100
AcDbEntity
  8
1
  6
Continuous
 62
    92
100
AcDbLine
 10
30.3268719841
 20
26.4241548426
 30
0.0
 11
23.9199326459
 21
26.4241548426
 31
0.0
  0
LINE
  5
3F
330
A
100
AcDbEntity
  8
1
  6
Continuous
 62
    92
100
AcDbLine
 10
23.9199326459
 20
26.4241548426
 30
0.0
 11
23.35681511369999
 21
24.11350743909999
 31
0.0
  0
LINE
  5
40
330
A
100
AcDbEntity
  8
11
  6
Continuous
 62
    92
100
AcDbLine
 10
2.0
 20
26.25591233195
 30
0.0
 11
7.808586569399999
 21
26.25591233195
 31
0.0
  0
LINE
  5
41
330
A
100
AcDbEntity
  8
11
  6
Continuous
 62
    92
100
AcDbLine
 10
7.808586569399999
 20
26.25591233195
 30
0.0
 11
7.808586569399999
 21
23.74408766805
 31
0.0
  0
LINE
  5
42
330
A
100
AcDbEntity
  8
11
  6
Continuous
 62
    92
100
AcDbLine
 10
7.808586569399999
 20
23.74408766805
 30
0.0
 11
2.0
 21
23.74408766805
 31
0.0
  0
LINE
  5
43
330
A
100
AcDbEntity
  8
11
  6
Continuous
 62
    92
100
AcDbLine
 10
2.0
 20
23.74408766805
 30
0.0
 11
2.0
 21
26.25591233195
 31
0.0
  0
LINE
  5
44
330
A
100
AcDbEntity
  8
11
  6
Continuous
 62
    92
100
AcDbLine
 10
2.0
 20
24.99997038005
 30
0.0
 11
7.808586569399999
 21
24.99997038005
 31
0.0
  0
LINE
  5
45
330
A
100
AcDbEntity
  8
11
  6
Continuous
 62
    92
100
AcDbLine
 10
5.767703785599998
 20
26.25591233195
 30
0.0
 11
5.767703785599998
 21
23.74408766805
 31
0.0
  0
LINE
  5
46
330
A
100
AcDbEntity
  8
11
  6
Continuous
 62
    92
100
AcDbLine
 10
9.309590059199999
 20
20.00641048659999
 30
0.0
 11
9.4343548943
 21
19.88164565139999
 31
0.0
  0
LINE
  5
47
330
A
100
AcDbEntity
  8
11
  6
Continuous
 62
    92
100
AcDbLine
 10
9.4343548943
 20
19.88164565139999
 30
0.0
 11
8.824413524
 21
19.39782176299999
 31
0.0
  0
LINE
  5
48
330
A
100
AcDbEntity
  8
11
  6
Continuous
 62
    92
100
AcDbLine
 10
7.674001357099999
 20
18.4853515625
 30
0.0
 11
7.454531501299999
 21
18.3112918629
 31
0.0
  0
LINE
  5
49
330
A
100
AcDbEntity
  8
11
  6
Continuous
 62
    92
100
AcDbLine
 10
7.2761194566
 20
18.1697621065
 30
0.0
 11
6.3736491484
 21
17.4539399989
 31
0.0
  0
LINE
  5
4A
330
A
100
AcDbEntity
  8
11
  6
Continuous
 62
    92
100
AcDbLine
 10
6.3736491484
 20
17.4539399989
 30
0.0
 11
6.3736491484
 21
13.8955867992
 31
0.0
  0
LINE
  5
4B
330
A
100
AcDbEntity
  8
11
  6
Continuous
 62
    92
100
AcDbLine
 10
6.3736491484
 20
13.8955867992
 30
0.0
 11
14.8775311638
 21
13.9140571145
 31
0.0
  0
LINE
  5
4C
330
A
100
AcDbEntity
  8
11
  6
CENTERX2
 62
    92
100
AcDbLine
 10
38.4762501436
 20
7.048134298899999
 30
0.0
 11
40.53043141079999
 21
7.048134298899999
 31
0.0
  0
LINE
  5
4D
330
A
100
AcDbEntity
  8
11
  6
CENTERX2
 62
    92
100
AcDbLine
 10
40.0539622587
 20
7.5418342142
 30
0.0
 11
40.0539622587
 21
6.554963728999999
 31
0.0
  0
LINE
  5
4E
330
A
100
AcDbEntity
  8
11
  6
Continuous
 62
    92
100
AcDbLine
 10
39.4063720703
 20
7.048134298899999
 30
0.0
 11
39.4063720703
 21
7.479852115399999
 31
0.0
  0
LINE
  5
4F
330
A
100
AcDbEntity
  8
11
  6
Continuous
 62
    92
100
AcDbLine
 10
39.4063720703
 20
7.479852115399999
 30
0.0
 11
38.5429256664
 21
7.263993207099999
 31
0.0
  0
LINE
  5
50
330
A
100
AcDbEntity
  8
11
  6
Continuous
 62
    92
100
AcDbLine
 10
38.5429256664
 20
7.263993207099999
 30
0.0
 11
38.5429256664
 21
7.048134298899999
 31
0.0
  0
LINE
  5
51
330
A
100
AcDbEntity
  8
11
  6
Continuous
 62
    92
100
AcDbLine
 10
39.4063720703
 20
7.048134298899999
 30
0.0
 11
39.4063720703
 21
6.616416706799999
 31
0.0
  0
LINE
  5
52
330
A
100
AcDbEntity
  8
11
  6
Continuous
 62
    92
100
AcDbLine
 10
39.4063720703
 20
6.616416706799999
 30
0.0
 11
38.5429256664
 21
6.832275390599999
 31
0.0
  0
LINE
  5
53
330
A
100
AcDbEntity
  8
11
  6
Continuous
 62
    92
100
AcDbLine
 10
38.5429256664
 20
6.832275390599999
 30
0.0
 11
38.5429256664
 21
7.048134298899999
 31
0.0
  0
LINE
  5
56
330
A
100
AcDbEntity
  8
4
 62
    92
100
AcDbLine
 10
36.5679428998
 20
25.2512332692
 30
0.0
 11
36.70911937039999
 21
25.2041744457
 31
0.0
  0
LINE
  5
57
330
A
100
AcDbEntity
  8
4
 62
    92
100
AcDbLine
 10
36.70911937039999
 20
25.2041744457
 30
0.0
 11
36.70911937039999
 21
25.29829209269999
 31
0.0
  0
LINE
  5
58
330
A
100
AcDbEntity
  8
4
 62
    92
100
AcDbLine
 10
36.70911937039999
 20
25.29829209269999
 30
0.0
 11
36.5679428998
 21
25.2512332692
 31
0.0
  0
LINE
  5
59
330
A
100
AcDbEntity
  8
4
  6
Continuous
 62
    92
100
AcDbLine
 10
36.5679428998
 20
25.2512332692
 30
0.0
 11
38.450295841
 21
25.2512332692
 31
0.0
  0
LINE
  5
5A
330
A
100
AcDbEntity
  8
4
 62
    92
100
AcDbLine
 10
38.450295841
 20
25.2512332692
 30
0.0
 11
38.30911937039999
 21
25.29829209269999
 31
0.0
  0
LINE
  5
5B
330
A
100
AcDbEntity
  8
4
 62
    92
100
AcDbLine
 10
38.30911937039999
 20
25.29829209269999
 30
0.0
 11
38.30911937039999
 21
25.2041744457
 31
0.0
  0
LINE
  5
5C
330
A
100
AcDbEntity
  8
4
 62
    92
100
AcDbLine
 10
38.30911937039999
 20
25.2041744457
 30
0.0
 11
38.450295841
 21
25.2512332692
 31
0.0
  0
LINE
  5
5D
330
A
100
AcDbEntity
  8
4
  6
Continuous
 62
    92
100
AcDbLine
 10
36.5679428998
 20
23.8959978889
 30
0.0
 11
36.5679428998
 21
25.2512332692
 31
0.0
  0
LINE
  5
5E
330
A
100
AcDbEntity
  8
4
  6
Continuous
 62
    92
100
AcDbLine
 10
38.450295841
 20
23.9831740435
 30
0.0
 11
38.450295841
 21
25.2512332692
 31
0.0
  0
LINE
  5
5F
330
A
100
AcDbEntity
  8
4
  6
Continuous
 62
    92
100
AcDbLine
 10
12.4096491197
 20
16.4225284352
 30
0.0
 11
11.6696490119
 21
16.4225284352
 31
0.0
  0
LINE
  5
60
330
A
100
AcDbEntity
  8
4
 62
    92
100
AcDbLine
 10
11.6696490119
 20
16.4225284352
 30
0.0
 11
11.8108254825
 21
16.3754696117
 31
0.0
  0
LINE
  5
61
330
A
100
AcDbEntity
  8
4
 62
    92
100
AcDbLine
 10
11.8108254825
 20
16.3754696117
 30
0.0
 11
11.8108254825
 21
16.4695872587
 31
0.0
  0
LINE
  5
62
330
A
100
AcDbEntity
  8
4
 62
    92
100
AcDbLine
 10
11.8108254825
 20
16.4695872587
 30
0.0
 11
11.6696490119
 21
16.4225284352
 31
0.0
  0
LINE
  5
63
330
A
100
AcDbEntity
  8
4
  6
Continuous
 62
    92
100
AcDbLine
 10
11.6696490119
 20
16.4225284352
 30
0.0
 11
11.1990607767
 21
16.4225284352
 31
0.0
  0
LINE
  5
64
330
A
100
AcDbEntity
  8
4
 62
    92
100
AcDbLine
 10
11.1990607767
 20
16.4225284352
 30
0.0
 11
11.05788430609999
 21
16.4695872587
 31
0.0
  0
LINE
  5
65
330
A
100
AcDbEntity
  8
4
 62
    92
100
AcDbLine
 10
11.05788430609999
 20
16.4695872587
 30
0.0
 11
11.05788430609999
 21
16.3754696117
 31
0.0
  0
LINE
  5
66
330
A
100
AcDbEntity
  8
4
 62
    92
100
AcDbLine
 10
11.05788430609999
 20
16.3754696117
 30
0.0
 11
11.1990607767
 21
16.4225284352
 31
0.0
  0
LINE
  5
67
330
A
100
AcDbEntity
  8
4
  6
Continuous
 62
    92
100
AcDbLine
 10
11.1990607767
 20
16.4225284352
 30
0.0
 11
10.7872960708
 21
16.4225284352
 31
0.0
  0
LINE
  5
68
330
A
100
AcDbEntity
  8
4
  6
Continuous
 62
    92
100
AcDbLine
 10
11.6696490119
 20
17.5755274156
 30
0.0
 11
11.6696490119
 21
16.4225284352
 31
0.0
  0
LINE
  5
69
330
A
100
AcDbEntity
  8
4
  6
Continuous
 62
    92
100
AcDbLine
 10
11.1990607767
 20
17.70629164749999
 30
0.0
 11
11.1990607767
 21
16.4225284352
 31
0.0
  0
LINE
  5
6A
330
A
100
AcDbEntity
  8
4
 62
    92
100
AcDbLine
 10
34.7444134881
 20
15.4192334343
 30
0.0
 11
34.8855899586
 21
15.3721746108
 31
0.0
  0
LINE
  5
6B
330
A
100
AcDbEntity
  8
4
 62
    92
100
AcDbLine
 10
34.8855899586
 20
15.3721746108
 30
0.0
 11
34.8855899586
 21
15.4662922579
 31
0.0
  0
LINE
  5
6C
330
A
100
AcDbEntity
  8
4
 62
    92
100
AcDbLine
 10
34.8855899586
 20
15.4662922579
 30
0.0
 11
34.7444134881
 21
15.4192334343
 31
0.0
  0
LINE
  5
6D
330
A
100
AcDbEntity
  8
4
  6
Continuous
 62
    92
100
AcDbLine
 10
34.7444134881
 20
15.4192334343
 30
0.0
 11
40.2738252528
 21
15.4192334343
 31
0.0
  0
LINE
  5
6E
330
A
100
AcDbEntity
  8
4
 62
    92
100
AcDbLine
 10
40.2738252528
 20
15.4192334343
 30
0.0
 11
40.1326487822
 21
15.4662922579
 31
0.0
  0
LINE
  5
6F
330
A
100
AcDbEntity
  8
4
 62
    92
100
AcDbLine
 10
40.1326487822
 20
15.4662922579
 30
0.0
 11
40.1326487822
 21
15.3721746108
 31
0.0
  0
LINE
  5
70
330
A
100
AcDbEntity
  8
4
 62
    92
100
AcDbLine
 10
40.1326487822
 20
15.3721746108
 30
0.0
 11
40.2738252528
 21
15.4192334343
 31
0.0
  0
LINE
  5
71
330
A
100
AcDbEntity
  8
4
  6
Continuous
 62
    92
100
AcDbLine
 10
34.7444134881
 20
19.88164565139999
 30
0.0
 11
34.7444134881
 21
15.4192334343
 31
0.0
  0
LINE
  5
72
330
A
100
AcDbEntity
  8
4
  6
Continuous
 62
    92
100
AcDbLine
 10
40.2738252528
 20
19.88164565139999
 30
0.0
 11
40.2738252528
 21
16.9908213896
 31
0.0
  0
LINE
  5
73
330
A
100
AcDbEntity
  8
4
  6
Continuous
 62
    92
100
AcDbLine
 10
40.2738252528
 20
16.3215278177
 30
0.0
 11
40.2738252528
 21
15.4192334343
 31
0.0
  0
LINE
  5
74
330
A
100
AcDbEntity
  8
7
 62
    92
100
AcDbLine
 10
30.4706995347
 20
17.62707878559999
 30
0.0
 11
30.5374876565
 21
17.49409504409999
 31
0.0
  0
LINE
  5
75
330
A
100
AcDbEntity
  8
7
 62
    92
100
AcDbLine
 10
30.5374876565
 20
17.49409504409999
 30
0.0
 11
30.60392027699999
 21
17.5607646654
 31
0.0
  0
LINE
  5
76
330
A
100
AcDbEntity
  8
7
 62
    92
100
AcDbLine
 10
30.60392027699999
 20
17.5607646654
 30
0.0
 11
30.4706995347
 21
17.62707878559999
 31
0.0
  0
LINE
  5
77
330
A
100
AcDbEntity
  8
7
  6
Continuous
 62
    92
100
AcDbLine
 10
30.4706995347
 20
17.62707878559999
 30
0.0
 11
35.2795553768
 21
12.83550756119999
 31
0.0
  0
LINE
  5
78
330
A
100
AcDbEntity
  8
7
 62
    92
100
AcDbLine
 10
35.2795553768
 20
12.83550756119999
 30
0.0
 11
35.2127672551
 21
12.9684913027
 31
0.0
  0
LINE
  5
79
330
A
100
AcDbEntity
  8
7
 62
    92
100
AcDbLine
 10
35.2127672551
 20
12.9684913027
 30
0.0
 11
35.1463346345
 21
12.9018216814
 31
0.0
  0
LINE
  5
7A
330
A
100
AcDbEntity
  8
7
 62
    92
100
AcDbLine
 10
35.1463346345
 20
12.9018216814
 30
0.0
 11
35.2795553768
 21
12.83550756119999
 31
0.0
  0
LINE
  5
7B
330
A
100
AcDbEntity
  8
7
  6
Continuous
 62
    92
100
AcDbLine
 10
35.1083661248
 20
22.281474394
 30
0.0
 11
30.4706995347
 21
17.62707878559999
 31
0.0
  0
LINE
  5
7C
330
A
100
AcDbEntity
  8
7
  6
Continuous
 62
    92
100
AcDbLine
 10
39.9172219669
 20
17.4899022719
 30
0.0
 11
35.2795553768
 21
12.83550756119999
 31
0.0
  0
LINE
  5
7D
330
A
100
AcDbEntity
  8
4
 62
    92
100
AcDbLine
 10
42.184706744
 20
24.4103519215
 30
0.0
 11
42.1376479205
 21
24.2691754509
 31
0.0
  0
LINE
  5
7E
330
A
100
AcDbEntity
  8
4
 62
    92
100
AcDbLine
 10
42.1376479205
 20
24.2691754509
 30
0.0
 11
42.2317655676
 21
24.2691754509
 31
0.0
  0
LINE
  5
7F
330
A
100
AcDbEntity
  8
4
 62
    92
100
AcDbLine
 10
42.2317655676
 20
24.2691754509
 30
0.0
 11
42.184706744
 21
24.4103519215
 31
0.0
  0
LINE
  5
80
330
A
100
AcDbEntity
  8
4
  6
Continuous
 62
    92
100
AcDbLine
 10
42.184706744
 20
24.4103519215
 30
0.0
 11
42.184706744
 21
19.88164565139999
 31
0.0
  0
LINE
  5
81
330
A
100
AcDbEntity
  8
4
 62
    92
100
AcDbLine
 10
42.184706744
 20
19.88164565139999
 30
0.0
 11
42.2317655676
 21
20.022822122
 31
0.0
  0
LINE
  5
82
330
A
100
AcDbEntity
  8
4
 62
    92
100
AcDbLine
 10
42.2317655676
 20
20.022822122
 30
0.0
 11
42.1376479205
 21
20.022822122
 31
0.0
  0
LINE
  5
83
330
A
100
AcDbEntity
  8
4
 62
    92
100
AcDbLine
 10
42.1376479205
 20
20.022822122
 30
0.0
 11
42.184706744
 21
19.88164565139999
 31
0.0
  0
LINE
  5
84
330
A
100
AcDbEntity
  8
4
  6
Continuous
 62
    92
100
AcDbLine
 10
38.7308277803
 20
24.4103519215
 30
0.0
 11
42.184706744
 21
24.4103519215
 31
0.0
  0
LINE
  5
85
330
A
100
AcDbEntity
  8
4
  6
Continuous
 62
    92
100
AcDbLine
 10
40.1530043658
 20
19.88164565139999
 30
0.0
 11
42.184706744
 21
19.88164565139999
 31
0.0
  0
LINE
  5
86
330
A
100
AcDbEntity
  8
4
 62
    92
100
AcDbLine
 10
35.0260584214
 20
18.3052924661
 30
0.0
 11
35.1704672928
 21
18.341228612
 31
0.0
  0
LINE
  5
87
330
A
100
AcDbEntity
  8
4
 62
    92
100
AcDbLine
 10
35.1704672928
 20
18.341228612
 30
0.0
 11
35.120023831
 21
18.42068670559999
 31
0.0
  0
LINE
  5
88
330
A
100
AcDbEntity
  8
4
 62
    92
100
AcDbLine
 10
35.120023831
 20
18.42068670559999
 30
0.0
 11
35.0260584214
 21
18.3052924661
 31
0.0
  0
LINE
  5
89
330
A
100
AcDbEntity
  8
4
  6
Continuous
 62
    92
100
AcDbLine
 10
35.0260584214
 20
18.3052924661
 30
0.0
 11
39.9922377642
 21
21.4579395967
 31
0.0
  0
LINE
  5
8A
330
A
100
AcDbEntity
  8
4
 62
    92
100
AcDbLine
 10
39.9922377642
 20
21.4579395967
 30
0.0
 11
39.8478288928
 21
21.4220034509
 31
0.0
  0
LINE
  5
8B
330
A
100
AcDbEntity
  8
4
 62
    92
100
AcDbLine
 10
39.8478288928
 20
21.4220034509
 30
0.0
 11
39.8982723546
 21
21.34254535719999
 31
0.0
  0
LINE
  5
8C
330
A
100
AcDbEntity
  8
4
 62
    92
100
AcDbLine
 10
39.8982723546
 20
21.34254535719999
 30
0.0
 11
39.9922377642
 21
21.4579395967
 31
0.0
  0
LINE
  5
8D
330
A
100
AcDbEntity
  8
4
  6
Continuous
 62
    92
100
AcDbLine
 10
39.9922377642
 20
21.4579395967
 30
0.0
 11
35.0260584214
 21
18.3052924661
 31
0.0
  0
LINE
  5
8E
330
A
100
AcDbEntity
  8
4
 62
    92
100
AcDbLine
 10
26.9038839901
 20
17.2345868279
 30
0.0
 11
26.9509428136
 21
17.3757632985
 31
0.0
  0
LINE
  5
8F
330
A
100
AcDbEntity
  8
4
 62
    92
100
AcDbLine
 10
26.9509428136
 20
17.3757632985
 30
0.0
 11
26.8568251666
 21
17.3757632985
 31
0.0
  0
LINE
  5
90
330
A
100
AcDbEntity
  8
4
 62
    92
100
AcDbLine
 10
26.8568251666
 20
17.3757632985
 30
0.0
 11
26.9038839901
 21
17.2345868279
 31
0.0
  0
LINE
  5
91
330
A
100
AcDbEntity
  8
4
  6
Continuous
 62
    92
100
AcDbLine
 10
26.9038839901
 20
17.2345868279
 30
0.0
 11
26.9038839901
 21
22.528704475
 31
0.0
  0
LINE
  5
92
330
A
100
AcDbEntity
  8
4
 62
    92
100
AcDbLine
 10
26.9038839901
 20
22.528704475
 30
0.0
 11
26.8568251666
 21
22.38752800439999
 31
0.0
  0
LINE
  5
93
330
A
100
AcDbEntity
  8
4
 62
    92
100
AcDbLine
 10
26.8568251666
 20
22.38752800439999
 30
0.0
 11
26.9509428136
 21
22.38752800439999
 31
0.0
  0
LINE
  5
94
330
A
100
AcDbEntity
  8
4
 62
    92
100
AcDbLine
 10
26.9509428136
 20
22.38752800439999
 30
0.0
 11
26.9038839901
 21
22.528704475
 31
0.0
  0
LINE
  5
95
330
A
100
AcDbEntity
  8
4
  6
Continuous
 62
    92
100
AcDbLine
 10
23.4268260283
 20
17.2345868279
 30
0.0
 11
26.9038839901
 21
17.2345868279
 31
0.0
  0
LINE
  5
96
330
A
100
AcDbEntity
  8
4
  6
Continuous
 62
    92
100
AcDbLine
 10
23.8027074477
 20
22.528704475
 30
0.0
 11
26.9038839901
 21
22.528704475
 31
0.0
  0
LINE
  5
97
330
A
100
AcDbEntity
  8
4
 62
    92
100
AcDbLine
 10
11.1990607767
 20
25.2512332692
 30
0.0
 11
11.3402372472
 21
25.2041744457
 31
0.0
  0
LINE
  5
98
330
A
100
AcDbEntity
  8
4
 62
    92
100
AcDbLine
 10
11.3402372472
 20
25.2041744457
 30
0.0
 11
11.3402372472
 21
25.29829209269999
 31
0.0
  0
LINE
  5
99
330
A
100
AcDbEntity
  8
4
 62
    92
100
AcDbLine
 10
11.3402372472
 20
25.29829209269999
 30
0.0
 11
11.1990607767
 21
25.2512332692
 31
0.0
  0
LINE
  5
9A
330
A
100
AcDbEntity
  8
4
  6
Continuous
 62
    92
100
AcDbLine
 10
11.1990607767
 20
25.2512332692
 30
0.0
 11
19.1402372472
 21
25.2512332692
 31
0.0
  0
LINE
  5
9B
330
A
100
AcDbEntity
  8
4
 62
    92
100
AcDbLine
 10
19.1402372472
 20
25.2512332692
 30
0.0
 11
18.9990607767
 21
25.29829209269999
 31
0.0
  0
LINE
  5
9C
330
A
100
AcDbEntity
  8
4
 62
    92
100
AcDbLine
 10
18.9990607767
 20
25.29829209269999
 30
0.0
 11
18.9990607767
 21
25.2041744457
 31
0.0
  0
LINE
  5
9D
330
A
100
AcDbEntity
  8
4
 62
    92
100
AcDbLine
 10
18.9990607767
 20
25.2041744457
 30
0.0
 11
19.1402372472
 21
25.2512332692
 31
0.0
  0
LINE
  5
9E
330
A
100
AcDbEntity
  8
4
  6
Continuous
 62
    92
100
AcDbLine
 10
11.1990607767
 20
22.7229973288
 30
0.0
 11
11.1990607767
 21
25.2512332692
 31
0.0
  0
LINE
  5
9F
330
A
100
AcDbEntity
  8
4
  6
Continuous
 62
    92
100
AcDbLine
 10
19.1402372472
 20
22.32170374249999
 30
0.0
 11
19.1402372472
 21
25.2512332692
 31
0.0
  0
LINE
  5
A0
330
A
100
AcDbEntity
  8
4
 62
    92
100
AcDbLine
 10
11.1990607767
 20
26.2946454216
 30
0.0
 11
11.3402372472
 21
26.2475865981
 31
0.0
  0
LINE
  5
A1
330
A
100
AcDbEntity
  8
4
 62
    92
100
AcDbLine
 10
11.3402372472
 20
26.2475865981
 30
0.0
 11
11.3402372472
 21
26.3417042452
 31
0.0
  0
LINE
  5
A2
330
A
100
AcDbEntity
  8
4
 62
    92
100
AcDbLine
 10
11.3402372472
 20
26.3417042452
 30
0.0
 11
11.1990607767
 21
26.2946454216
 31
0.0
  0
LINE
  5
A3
330
A
100
AcDbEntity
  8
4
  6
Continuous
 62
    92
100
AcDbLine
 10
11.1990607767
 20
26.2946454216
 30
0.0
 11
22.6108254825
 21
26.2946454216
 31
0.0
  0
LINE
  5
A4
330
A
100
AcDbEntity
  8
4
 62
    92
100
AcDbLine
 10
22.6108254825
 20
26.2946454216
 30
0.0
 11
22.4696490119
 21
26.3417042452
 31
0.0
  0
LINE
  5
A5
330
A
100
AcDbEntity
  8
4
 62
    92
100
AcDbLine
 10
22.4696490119
 20
26.3417042452
 30
0.0
 11
22.4696490119
 21
26.2475865981
 31
0.0
  0
LINE
  5
A6
330
A
100
AcDbEntity
  8
4
 62
    92
100
AcDbLine
 10
22.4696490119
 20
26.2475865981
 30
0.0
 11
22.6108254825
 21
26.2946454216
 31
0.0
  0
LINE
  5
A7
330
A
100
AcDbEntity
  8
4
  6
Continuous
 62
    92
100
AcDbLine
 10
11.1990607767
 20
22.8835269704
 30
0.0
 11
11.1990607767
 21
26.2946454216
 31
0.0
  0
LINE
  5
A8
330
A
100
AcDbEntity
  8
4
  6
Continuous
 62
    92
100
AcDbLine
 10
22.6108254825
 20
22.32170374249999
 30
0.0
 11
22.6108254825
 21
26.2946454216
 31
0.0
  0
LINE
  5
A9
330
A
100
AcDbEntity
  8
4
 62
    92
100
AcDbLine
 10
9.4343548943
 20
15.4192334343
 30
0.0
 11
9.575531364899999
 21
15.3721746108
 31
0.0
  0
LINE
  5
AA
330
A
100
AcDbEntity
  8
4
 62
    92
100
AcDbLine
 10
9.575531364899999
 20
15.3721746108
 30
0.0
 11
9.575531364899999
 21
15.4662922579
 31
0.0
  0
LINE
  5
AB
330
A
100
AcDbEntity
  8
4
 62
    92
100
AcDbLine
 10
9.575531364899999
 20
15.4662922579
 30
0.0
 11
9.4343548943
 21
15.4192334343
 31
0.0
  0
LINE
  5
AC
330
A
100
AcDbEntity
  8
4
  6
Continuous
 62
    92
100
AcDbLine
 10
9.4343548943
 20
15.4192334343
 30
0.0
 11
25.0225901884
 21
15.4192334343
 31
0.0
  0
LINE
  5
AD
330
A
100
AcDbEntity
  8
4
 62
    92
100
AcDbLine
 10
25.0225901884
 20
15.4192334343
 30
0.0
 11
24.8814137178
 21
15.4662922579
 31
0.0
  0
LINE
  5
AE
330
A
100
AcDbEntity
  8
4
 62
    92
100
AcDbLine
 10
24.8814137178
 20
15.4662922579
 30
0.0
 11
24.8814137178
 21
15.3721746108
 31
0.0
  0
LINE
  5
AF
330
A
100
AcDbEntity
  8
4
 62
    92
100
AcDbLine
 10
24.8814137178
 20
15.3721746108
 30
0.0
 11
25.0225901884
 21
15.4192334343
 31
0.0
  0
LINE
  5
B0
330
A
100
AcDbEntity
  8
4
  6
Continuous
 62
    92
100
AcDbLine
 10
9.4343548943
 20
16.6632923799
 30
0.0
 11
9.4343548943
 21
15.4192334343
 31
0.0
  0
LINE
  5
B1
330
A
100
AcDbEntity
  8
4
  6
Continuous
 62
    92
100
AcDbLine
 10
25.0225901884
 20
19.88164565139999
 30
0.0
 11
25.0225901884
 21
15.4192334343
 31
0.0
  0
LINE
  5
B2
330
A
100
AcDbEntity
  8
4
  6
Continuous
 62
    92
100
AcDbLine
 10
4.973237879099997
 20
20.7687036851
 30
0.0
 11
4.973237879099997
 21
20.028704475
 31
0.0
  0
LINE
  5
B3
330
A
100
AcDbEntity
  8
4
 62
    92
100
AcDbLine
 10
4.973237879099997
 20
20.028704475
 30
0.0
 11
5.020296702700001
 21
20.1698809455
 31
0.0
  0
LINE
  5
B4
330
A
100
AcDbEntity
  8
4
 62
    92
100
AcDbLine
 10
5.020296702700001
 20
20.1698809455
 30
0.0
 11
4.926179055599998
 21
20.1698809455
 31
0.0
  0
LINE
  5
B5
330
A
100
AcDbEntity
  8
4
 62
    92
100
AcDbLine
 10
4.926179055599998
 20
20.1698809455
 30
0.0
 11
4.973237879099997
 21
20.028704475
 31
0.0
  0
LINE
  5
B6
330
A
100
AcDbEntity
  8
4
  6
Continuous
 62
    92
100
AcDbLine
 10
4.973237879099997
 20
20.028704475
 30
0.0
 11
4.973237879099997
 21
19.73458682789999
 31
0.0
  0
LINE
  5
B7
330
A
100
AcDbEntity
  8
4
 62
    92
100
AcDbLine
 10
4.973237879099997
 20
19.73458682789999
 30
0.0
 11
4.926179055599998
 21
19.5934103573
 31
0.0
  0
LINE
  5
B8
330
A
100
AcDbEntity
  8
4
 62
    92
100
AcDbLine
 10
4.926179055599998
 20
19.5934103573
 30
0.0
 11
5.020296702700001
 21
19.5934103573
 31
0.0
  0
LINE
  5
B9
330
A
100
AcDbEntity
  8
4
 62
    92
100
AcDbLine
 10
5.020296702700001
 20
19.5934103573
 30
0.0
 11
4.973237879099997
 21
19.73458682789999
 31
0.0
  0
LINE
  5
BA
330
A
100
AcDbEntity
  8
4
  6
Continuous
 62
    92
100
AcDbLine
 10
4.973237879099997
 20
19.73458682789999
 30
0.0
 11
4.973237879099997
 21
19.322822122
 31
0.0
  0
LINE
  5
BB
330
A
100
AcDbEntity
  8
4
  6
Continuous
 62
    92
100
AcDbLine
 10
4.250883214600001
 20
20.028704475
 30
0.0
 11
4.973237879099997
 21
20.028704475
 31
0.0
  0
LINE
  5
BC
330
A
100
AcDbEntity
  8
4
  6
Continuous
 62
    92
100
AcDbLine
 10
4.318057789499999
 20
19.73458682789999
 30
0.0
 11
4.973237879099997
 21
19.73458682789999
 31
0.0
  0
LINE
  5
BD
330
A
100
AcDbEntity
  8
4
 62
    92
100
AcDbLine
 10
3.376884909200001
 20
21.1579392377
 30
0.0
 11
3.518061379799998
 21
21.11088041419999
 31
0.0
  0
LINE
  5
BE
330
A
100
AcDbEntity
  8
4
 62
    92
100
AcDbLine
 10
3.518061379799998
 20
21.11088041419999
 30
0.0
 11
3.518061379799998
 21
21.20499806119999
 31
0.0
  0
LINE
  5
BF
330
A
100
AcDbEntity
  8
4
 62
    92
100
AcDbLine
 10
3.518061379799998
 20
21.20499806119999
 30
0.0
 11
3.376884909200001
 21
21.1579392377
 31
0.0
  0
LINE
  5
C0
330
A
100
AcDbEntity
  8
4
  6
Continuous
 62
    92
100
AcDbLine
 10
3.376884909200001
 20
21.1579392377
 30
0.0
 11
4.318057789499999
 21
21.1579392377
 31
0.0
  0
LINE
  5
C1
330
A
100
AcDbEntity
  8
4
 62
    92
100
AcDbLine
 10
4.318057789499999
 20
21.1579392377
 30
0.0
 11
4.176881318899997
 21
21.20499806119999
 31
0.0
  0
LINE
  5
C2
330
A
100
AcDbEntity
  8
4
 62
    92
100
AcDbLine
 10
4.176881318899997
 20
21.20499806119999
 30
0.0
 11
4.176881318899997
 21
21.11088041419999
 31
0.0
  0
LINE
  5
C3
330
A
100
AcDbEntity
  8
4
 62
    92
100
AcDbLine
 10
4.176881318899997
 20
21.11088041419999
 30
0.0
 11
4.318057789499999
 21
21.1579392377
 31
0.0
  0
LINE
  5
C4
330
A
100
AcDbEntity
  8
4
  6
Continuous
 62
    92
100
AcDbLine
 10
3.376884909200001
 20
19.88164565139999
 30
0.0
 11
3.376884909200001
 21
21.1579392377
 31
0.0
  0
LINE
  5
C5
330
A
100
AcDbEntity
  8
4
  6
Continuous
 62
    92
100
AcDbLine
 10
4.318057789499999
 20
19.88164565139999
 30
0.0
 11
4.318057789499999
 21
21.1579392377
 31
0.0
  0
LINE
  5
C6
330
A
100
AcDbEntity
  8
4
  6
Continuous
 62
    92
100
AcDbLine
 10
36.5732565487
 20
16.5184092802
 30
0.0
 11
35.6347225414
 21
16.5184092802
 31
0.0
  0
LINE
  5
C7
330
A
100
AcDbEntity
  8
4
 62
    92
100
AcDbLine
 10
35.6347225414
 20
16.5184092802
 30
0.0
 11
35.7758990119
 21
16.4713504567
 31
0.0
  0
LINE
  5
C8
330
A
100
AcDbEntity
  8
4
 62
    92
100
AcDbLine
 10
35.7758990119
 20
16.4713504567
 30
0.0
 11
35.7758990119
 21
16.5654681037
 31
0.0
  0
LINE
  5
C9
330
A
100
AcDbEntity
  8
4
 62
    92
100
AcDbLine
 10
35.7758990119
 20
16.5654681037
 30
0.0
 11
35.6347225414
 21
16.5184092802
 31
0.0
  0
LINE
  5
CA
330
A
100
AcDbEntity
  8
4
  6
Continuous
 62
    92
100
AcDbLine
 10
35.6347225414
 20
16.5184092802
 30
0.0
 11
35.2236112707
 21
16.5184092802
 31
0.0
  0
LINE
  5
CB
330
A
100
AcDbEntity
  8
4
 62
    92
100
AcDbLine
 10
35.2236112707
 20
16.5184092802
 30
0.0
 11
35.0824348001
 21
16.5654681037
 31
0.0
  0
LINE
  5
CC
330
A
100
AcDbEntity
  8
4
 62
    92
100
AcDbLine
 10
35.0824348001
 20
16.5654681037
 30
0.0
 11
35.0824348001
 21
16.4713504567
 31
0.0
  0
LINE
  5
CD
330
A
100
AcDbEntity
  8
4
 62
    92
100
AcDbLine
 10
35.0824348001
 20
16.4713504567
 30
0.0
 11
35.2236112707
 21
16.5184092802
 31
0.0
  0
LINE
  5
CE
330
A
100
AcDbEntity
  8
4
  6
Continuous
 62
    92
100
AcDbLine
 10
35.2236112707
 20
16.5184092802
 30
0.0
 11
34.81184656479999
 21
16.5184092802
 31
0.0
  0
LINE
  5
CF
330
A
100
AcDbEntity
  8
4
  6
Continuous
 62
    92
100
AcDbLine
 10
35.6347225414
 20
17.7872924805
 30
0.0
 11
35.6347225414
 21
16.5184092802
 31
0.0
  0
LINE
  5
D0
330
A
100
AcDbEntity
  8
4
  6
Continuous
 62
    92
100
AcDbLine
 10
35.2236112707
 20
17.80829216449999
 30
0.0
 11
35.2236112707
 21
16.5184092802
 31
0.0
  0
LINE
  5
D1
330
A
100
AcDbEntity
  8
4
  6
Continuous
 62
    92
100
AcDbLine
 10
8.540237426799999
 20
17.9640574736
 30
0.0
 11
8.540237426799999
 21
19.46988094549999
 31
0.0
  0
LINE
  5
D2
330
A
100
AcDbEntity
  8
4
 62
    92
100
AcDbLine
 10
8.540237426799999
 20
19.46988094549999
 30
0.0
 11
8.4931786032
 21
19.328704475
 31
0.0
  0
LINE
  5
D3
330
A
100
AcDbEntity
  8
4
 62
    92
100
AcDbLine
 10
8.4931786032
 20
19.328704475
 30
0.0
 11
8.587296250299999
 21
19.328704475
 31
0.0
  0
LINE
  5
D4
330
A
100
AcDbEntity
  8
4
 62
    92
100
AcDbLine
 10
8.587296250299999
 20
19.328704475
 30
0.0
 11
8.540237426799999
 21
19.46988094549999
 31
0.0
  0
LINE
  5
D5
330
A
100
AcDbEntity
  8
4
  6
Continuous
 62
    92
100
AcDbLine
 10
8.540237426799999
 20
19.46988094549999
 30
0.0
 11
8.540237426799999
 21
20.2934103573
 31
0.0
  0
LINE
  5
D6
330
A
100
AcDbEntity
  8
4
 62
    92
100
AcDbLine
 10
8.540237426799999
 20
20.2934103573
 30
0.0
 11
8.587296250299999
 21
20.43458682789999
 31
0.0
  0
LINE
  5
D7
330
A
100
AcDbEntity
  8
4
 62
    92
100
AcDbLine
 10
8.587296250299999
 20
20.43458682789999
 30
0.0
 11
8.4931786032
 21
20.43458682789999
 31
0.0
  0
LINE
  5
D8
330
A
100
AcDbEntity
  8
4
 62
    92
100
AcDbLine
 10
8.4931786032
 20
20.43458682789999
 30
0.0
 11
8.540237426799999
 21
20.2934103573
 31
0.0
  0
LINE
  5
D9
330
A
100
AcDbEntity
  8
4
  6
Continuous
 62
    92
100
AcDbLine
 10
8.540237426799999
 20
20.2934103573
 30
0.0
 11
8.540237426799999
 21
20.70517506319999
 31
0.0
  0
LINE
  5
DA
330
A
100
AcDbEntity
  8
4
  6
Continuous
 62
    92
100
AcDbLine
 10
9.750001795199999
 20
19.46988094549999
 30
0.0
 11
8.540237426799999
 21
19.46988094549999
 31
0.0
  0
LINE
  5
DB
330
A
100
AcDbEntity
  8
4
  6
Continuous
 62
    92
100
AcDbLine
 10
9.877001594099999
 20
20.2934103573
 30
0.0
 11
8.540237426799999
 21
20.2934103573
 31
0.0
  0
LINE
  5
DC
330
A
100
AcDbEntity
  8
11
  6
CENTERX2
 62
    92
100
AcDbLine
 10
34.33300063189999
 20
19.88164565139999
 30
0.0
 11
40.68841193699999
 21
19.88164565139999
 31
0.0
  0
LINE
  5
DD
330
A
100
AcDbEntity
  8
11
  6
CENTERX2
 62
    92
100
AcDbLine
 10
37.5091193704
 20
23.05405740179999
 30
0.0
 11
37.5091193704
 21
16.7135871438
 31
0.0
  0
LINE
  5
DE
330
A
100
AcDbEntity
  8
11
  6
HIDDEN
 62
    92
100
AcDbLine
 10
35.21712000229999
 20
21.6555857939
 30
0.0
 11
35.418004653
 21
21.6379986931
 31
0.0
  0
LINE
  5
DF
330
A
100
AcDbEntity
  8
11
  6
HIDDEN
 62
    92
100
AcDbLine
 10
35.7507683249
 20
21.9989983054
 30
0.0
 11
35.71276855469999
 21
22.43276259479999
 31
0.0
  0
LINE
  5
E0
330
A
100
AcDbEntity
  8
11
  6
HIDDEN
 62
    92
100
AcDbLine
 10
35.8007094439
 20
22.52866498159999
 30
0.0
 11
36.2271225873
 21
22.52866498159999
 31
0.0
  0
LINE
  5
E1
330
A
100
AcDbEntity
  8
11
  6
CENTERX2
 62
    92
100
AcDbLine
 10
35.23447552849999
 20
22.1562930836
 30
0.0
 11
35.6241167854
 21
21.76664464609999
 31
0.0
  0
LINE
  5
E2
330
A
100
AcDbEntity
  8
11
  6
Continuous
 62
    92
100
AcDbLine
 10
37.8937629251
 20
20.028704475
 30
0.0
 11
38.0385311351
 21
20.028704475
 31
0.0
  0
LINE
  5
E3
330
A
100
AcDbEntity
  8
11
  6
Continuous
 62
    92
100
AcDbLine
 10
38.0385311351
 20
20.028704475
 30
0.0
 11
38.0385311351
 21
19.73458682789999
 31
0.0
  0
LINE
  5
E4
330
A
100
AcDbEntity
  8
11
  6
Continuous
 62
    92
100
AcDbLine
 10
38.0385311351
 20
19.73458682789999
 30
0.0
 11
37.8937629251
 21
19.73458682789999
 31
0.0
  0
LINE
  5
E5
330
A
100
AcDbEntity
  8
11
  6
CENTERX2
 62
    92
100
AcDbLine
 10
34.6309455423
 20
19.88164565139999
 30
0.0
 11
37.6869399127
 21
19.88164565139999
 31
0.0
  0
LINE
  5
E6
330
A
100
AcDbEntity
  8
11
  6
Continuous
 62
    92
100
AcDbLine
 10
35.6714154412
 20
22.52870088469999
 30
0.0
 11
37.5091193704
 21
22.52870088469999
 31
0.0
  0
LINE
  5
E7
330
A
100
AcDbEntity
  8
11
  6
CENTERX2
 62
    92
100
AcDbLine
 10
3.2435320686
 20
19.88164565139999
 30
0.0
 11
4.458000631899999
 21
19.88164565139999
 31
0.0
  0
LINE
  5
E8
330
A
100
AcDbEntity
  8
11
  6
CENTERX2
 62
    92
100
AcDbLine
 10
3.788649615100002
 20
20.4486460966
 30
0.0
 11
3.788649615100002
 21
19.2975284352
 31
0.0
  0
LINE
  5
E9
330
A
100
AcDbEntity
  8
11
  6
Continuous
 62
    92
100
AcDbLine
 10
4.173296760100001
 20
20.028704475
 30
0.0
 11
4.318057789499999
 21
20.028704475
 31
0.0
  0
LINE
  5
EA
330
A
100
AcDbEntity
  8
11
  6
Continuous
 62
    92
100
AcDbLine
 10
4.318057789499999
 20
20.028704475
 30
0.0
 11
4.318057789499999
 21
19.73458682789999
 31
0.0
  0
LINE
  5
EB
330
A
100
AcDbEntity
  8
11
  6
Continuous
 62
    92
100
AcDbLine
 10
4.318057789499999
 20
19.73458682789999
 30
0.0
 11
4.173296760100001
 21
19.73458682789999
 31
0.0
  0
LINE
  5
EC
330
A
100
AcDbEntity
  8
4
 62
    92
100
AcDbLine
 10
7.7777665082
 20
22.2345868279
 30
0.0
 11
7.7307076847
 21
22.0934103573
 31
0.0
  0
LINE
  5
ED
330
A
100
AcDbEntity
  8
4
 62
    92
100
AcDbLine
 10
7.7307076847
 20
22.0934103573
 30
0.0
 11
7.824825331699999
 21
22.0934103573
 31
0.0
  0
LINE
  5
EE
330
A
100
AcDbEntity
  8
4
 62
    92
100
AcDbLine
 10
7.824825331699999
 20
22.0934103573
 30
0.0
 11
7.7777665082
 21
22.2345868279
 31
0.0
  0
LINE
  5
EF
330
A
100
AcDbEntity
  8
4
  6
Continuous
 62
    92
100
AcDbLine
 10
7.7777665082
 20
22.2345868279
 30
0.0
 11
7.7777665082
 21
17.528704475
 31
0.0
  0
LINE
  5
F0
330
A
100
AcDbEntity
  8
4
 62
    92
100
AcDbLine
 10
7.7777665082
 20
17.528704475
 30
0.0
 11
7.824825331699999
 21
17.6698809455
 31
0.0
  0
LINE
  5
F1
330
A
100
AcDbEntity
  8
4
 62
    92
100
AcDbLine
 10
7.824825331699999
 20
17.6698809455
 30
0.0
 11
7.7307076847
 21
17.6698809455
 31
0.0
  0
LINE
  5
F2
330
A
100
AcDbEntity
  8
4
 62
    92
100
AcDbLine
 10
7.7307076847
 20
17.6698809455
 30
0.0
 11
7.7777665082
 21
17.528704475
 31
0.0
  0
LINE
  5
F3
330
A
100
AcDbEntity
  8
4
  6
Continuous
 62
    92
100
AcDbLine
 10
11.0319429285
 20
22.2345868279
 30
0.0
 11
7.7777665082
 21
22.2345868279
 31
0.0
  0
LINE
  5
F4
330
A
100
AcDbEntity
  8
4
  6
Continuous
 62
    92
100
AcDbLine
 10
11.0996488683
 20
17.528704475
 30
0.0
 11
7.7777665082
 21
17.528704475
 31
0.0
  0
LINE
  5
F5
330
A
100
AcDbEntity
  8
4
 62
    92
100
AcDbLine
 10
9.4343548943
 20
16.4225284352
 30
0.0
 11
9.575531364899999
 21
16.3754696117
 31
0.0
  0
LINE
  5
F6
330
A
100
AcDbEntity
  8
4
 62
    92
100
AcDbLine
 10
9.575531364899999
 20
16.3754696117
 30
0.0
 11
9.575531364899999
 21
16.4695872587
 31
0.0
  0
LINE
  5
F7
330
A
100
AcDbEntity
  8
4
 62
    92
100
AcDbLine
 10
9.575531364899999
 20
16.4695872587
 30
0.0
 11
9.4343548943
 21
16.4225284352
 31
0.0
  0
LINE
  5
F8
330
A
100
AcDbEntity
  8
4
  6
Continuous
 62
    92
100
AcDbLine
 10
9.4343548943
 20
16.4225284352
 30
0.0
 11
11.1990607767
 21
16.4225284352
 31
0.0
  0
LINE
  5
F9
330
A
100
AcDbEntity
  8
4
 62
    92
100
AcDbLine
 10
11.1990607767
 20
16.4225284352
 30
0.0
 11
11.05788430609999
 21
16.4695872587
 31
0.0
  0
LINE
  5
FA
330
A
100
AcDbEntity
  8
4
 62
    92
100
AcDbLine
 10
11.05788430609999
 20
16.4695872587
 30
0.0
 11
11.05788430609999
 21
16.3754696117
 31
0.0
  0
LINE
  5
FB
330
A
100
AcDbEntity
  8
4
 62
    92
100
AcDbLine
 10
11.05788430609999
 20
16.3754696117
 30
0.0
 11
11.1990607767
 21
16.4225284352
 31
0.0
  0
LINE
  5
FC
330
A
100
AcDbEntity
  8
4
  6
Continuous
 62
    92
100
AcDbLine
 10
9.4343548943
 20
19.713233499
 30
0.0
 11
9.4343548943
 21
16.4225284352
 31
0.0
  0
LINE
  5
FD
330
A
100
AcDbEntity
  8
4
  6
Continuous
 62
    92
100
AcDbLine
 10
11.1990607767
 20
18.54946899409999
 30
0.0
 11
11.1990607767
 21
16.4225284352
 31
0.0
  0
LINE
  5
FE
330
A
100
AcDbEntity
  8
4
  6
Continuous
 62
    92
100
AcDbLine
 10
10.2825900807
 20
23.7664094813
 30
0.0
 11
11.02259018839999
 21
23.7664094813
 31
0.0
  0
LINE
  5
FF
330
A
100
AcDbEntity
  8
4
 62
    92
100
AcDbLine
 10
11.02259018839999
 20
23.7664094813
 30
0.0
 11
10.88141371779999
 21
23.8134683048
 31
0.0
  0
LINE
  5
100
330
A
100
AcDbEntity
  8
4
 62
    92
100
AcDbLine
 10
10.88141371779999
 20
23.8134683048
 30
0.0
 11
10.88141371779999
 21
23.7193506577
 31
0.0
  0
LINE
  5
101
330
A
100
AcDbEntity
  8
4
 62
    92
100
AcDbLine
 10
10.88141371779999
 20
23.7193506577
 30
0.0
 11
11.02259018839999
 21
23.7664094813
 31
0.0
  0
LINE
  5
102
330
A
100
AcDbEntity
  8
4
  6
Continuous
 62
    92
100
AcDbLine
 10
11.02259018839999
 20
23.7664094813
 30
0.0
 11
11.1990607767
 21
23.7664094813
 31
0.0
  0
LINE
  5
103
330
A
100
AcDbEntity
  8
4
 62
    92
100
AcDbLine
 10
11.1990607767
 20
23.7664094813
 30
0.0
 11
11.3402372472
 21
23.7193506577
 31
0.0
  0
LINE
  5
104
330
A
100
AcDbEntity
  8
4
 62
    92
100
AcDbLine
 10
11.3402372472
 20
23.7193506577
 30
0.0
 11
11.3402372472
 21
23.8134683048
 31
0.0
  0
LINE
  5
105
330
A
100
AcDbEntity
  8
4
 62
    92
100
AcDbLine
 10
11.3402372472
 20
23.8134683048
 30
0.0
 11
11.1990607767
 21
23.7664094813
 31
0.0
  0
LINE
  5
106
330
A
100
AcDbEntity
  8
4
  6
Continuous
 62
    92
100
AcDbLine
 10
11.1990607767
 20
23.7664094813
 30
0.0
 11
11.6108254825
 21
23.7664094813
 31
0.0
  0
LINE
  5
107
330
A
100
AcDbEntity
  8
4
  6
Continuous
 62
    92
100
AcDbLine
 10
11.02259018839999
 20
21.7598805147
 30
0.0
 11
11.02259018839999
 21
23.7664094813
 31
0.0
  0
LINE
  5
108
330
A
100
AcDbEntity
  8
4
  6
Continuous
 62
    92
100
AcDbLine
 10
11.1990607767
 20
22.0006444594
 30
0.0
 11
11.1990607767
 21
23.7664094813
 31
0.0
  0
LINE
  5
109
330
A
100
AcDbEntity
  8
4
  6
Continuous
 62
    92
100
AcDbLine
 10
8.694354786599999
 20
21.2381753361
 30
0.0
 11
9.4343548943
 21
21.2381753361
 31
0.0
  0
LINE
  5
10A
330
A
100
AcDbEntity
  8
4
 62
    92
100
AcDbLine
 10
9.4343548943
 20
21.2381753361
 30
0.0
 11
9.2931784237
 21
21.2852341596
 31
0.0
  0
LINE
  5
10B
330
A
100
AcDbEntity
  8
4
 62
    92
100
AcDbLine
 10
9.2931784237
 20
21.2852341596
 30
0.0
 11
9.2931784237
 21
21.19111651249999
 31
0.0
  0
LINE
  5
10C
330
A
100
AcDbEntity
  8
4
 62
    92
100
AcDbLine
 10
9.2931784237
 20
21.19111651249999
 30
0.0
 11
9.4343548943
 21
21.2381753361
 31
0.0
  0
LINE
  5
10D
330
A
100
AcDbEntity
  8
4
  6
Continuous
 62
    92
100
AcDbLine
 10
9.4343548943
 20
21.2381753361
 30
0.0
 11
9.610825482499999
 21
21.2381753361
 31
0.0
  0
LINE
  5
10E
330
A
100
AcDbEntity
  8
4
 62
    92
100
AcDbLine
 10
9.610825482499999
 20
21.2381753361
 30
0.0
 11
9.752001953099998
 21
21.19111651249999
 31
0.0
  0
LINE
  5
10F
330
A
100
AcDbEntity
  8
4
 62
    92
100
AcDbLine
 10
9.752001953099998
 20
21.19111651249999
 30
0.0
 11
9.752001953099998
 21
21.2852341596
 31
0.0
  0
LINE
  5
110
330
A
100
AcDbEntity
  8
4
 62
    92
100
AcDbLine
 10
9.752001953099998
 20
21.2852341596
 30
0.0
 11
9.610825482499999
 21
21.2381753361
 31
0.0
  0
LINE
  5
111
330
A
100
AcDbEntity
  8
4
  6
Continuous
 62
    92
100
AcDbLine
 10
9.610825482499999
 20
21.2381753361
 30
0.0
 11
10.0225901884
 21
21.2381753361
 31
0.0
  0
LINE
  5
112
330
A
100
AcDbEntity
  8
4
  6
Continuous
 62
    92
100
AcDbLine
 10
9.4343548943
 20
20.11452708519999
 30
0.0
 11
9.4343548943
 21
21.2381753361
 31
0.0
  0
LINE
  5
113
330
A
100
AcDbEntity
  8
4
  6
Continuous
 62
    92
100
AcDbLine
 10
9.610825482499999
 20
19.88164565139999
 30
0.0
 11
9.610825482499999
 21
21.2381753361
 31
0.0
  0
LINE
  5
114
330
A
100
AcDbEntity
  8
4
 62
    92
100
AcDbLine
 10
9.610825482499999
 20
21.2381753361
 30
0.0
 11
9.752001953099998
 21
21.19111651249999
 31
0.0
  0
LINE
  5
115
330
A
100
AcDbEntity
  8
4
 62
    92
100
AcDbLine
 10
9.752001953099998
 20
21.19111651249999
 30
0.0
 11
9.752001953099998
 21
21.2852341596
 31
0.0
  0
LINE
  5
116
330
A
100
AcDbEntity
  8
4
 62
    92
100
AcDbLine
 10
9.752001953099998
 20
21.2852341596
 30
0.0
 11
9.610825482499999
 21
21.2381753361
 31
0.0
  0
LINE
  5
117
330
A
100
AcDbEntity
  8
4
  6
Continuous
 62
    92
100
AcDbLine
 10
9.610825482499999
 20
21.2381753361
 30
0.0
 11
10.9049431296
 21
21.2381753361
 31
0.0
  0
LINE
  5
118
330
A
100
AcDbEntity
  8
4
 62
    92
100
AcDbLine
 10
10.9049431296
 20
21.2381753361
 30
0.0
 11
10.763766659
 21
21.2852341596
 31
0.0
  0
LINE
  5
119
330
A
100
AcDbEntity
  8
4
 62
    92
100
AcDbLine
 10
10.763766659
 20
21.2852341596
 30
0.0
 11
10.763766659
 21
21.19111651249999
 31
0.0
  0
LINE
  5
11A
330
A
100
AcDbEntity
  8
4
 62
    92
100
AcDbLine
 10
10.763766659
 20
21.19111651249999
 30
0.0
 11
10.9049431296
 21
21.2381753361
 31
0.0
  0
LINE
  5
11B
330
A
100
AcDbEntity
  8
4
  6
Continuous
 62
    92
100
AcDbLine
 10
9.610825482499999
 20
19.88164565139999
 30
0.0
 11
9.610825482499999
 21
21.2381753361
 31
0.0
  0
LINE
  5
11C
330
A
100
AcDbEntity
  8
4
  6
Continuous
 62
    92
100
AcDbLine
 10
10.9049431296
 20
19.88164565139999
 30
0.0
 11
10.9049431296
 21
21.2381753361
 31
0.0
  0
LINE
  5
11D
330
A
100
AcDbEntity
  8
11
  6
HIDDEN
 62
    92
100
AcDbLine
 10
35.21712000229999
 20
18.1077037138
 30
0.0
 11
35.418004653
 21
18.1252926097
 31
0.0
  0
LINE
  5
11E
330
A
100
AcDbEntity
  8
11
  6
HIDDEN
 62
    92
100
AcDbLine
 10
35.7507683249
 20
17.7642929975
 30
0.0
 11
35.71276855469999
 21
17.33052691289999
 31
0.0
  0
LINE
  5
11F
330
A
100
AcDbEntity
  8
11
  6
HIDDEN
 62
    92
100
AcDbLine
 10
35.8007094439
 20
17.2345688764
 30
0.0
 11
36.2271225873
 21
17.2345688764
 31
0.0
  0
LINE
  5
120
330
A
100
AcDbEntity
  8
11
  6
CENTERX2
 62
    92
100
AcDbLine
 10
35.23447552849999
 20
17.6069982192
 30
0.0
 11
35.6241167854
 21
17.9966448616
 31
0.0
  0
LINE
  5
121
330
A
100
AcDbEntity
  8
11
  6
Continuous
 62
    92
100
AcDbLine
 10
35.6714154412
 20
17.2345616958
 30
0.0
 11
37.5091193704
 21
17.2345616958
 31
0.0
  0
LINE
  5
122
330
A
100
AcDbEntity
  8
11
  6
HIDDEN
 62
    92
100
AcDbLine
 10
39.8011187385
 20
18.1077037138
 30
0.0
 11
39.6002340878
 21
18.1252926097
 31
0.0
  0
LINE
  5
123
330
A
100
AcDbEntity
  8
11
  6
HIDDEN
 62
    92
100
AcDbLine
 10
39.2674704159
 20
17.7642929975
 30
0.0
 11
39.3054701861
 21
17.33052691289999
 31
0.0
  0
LINE
  5
124
330
A
100
AcDbEntity
  8
11
  6
HIDDEN
 62
    92
100
AcDbLine
 10
39.2175292969
 20
17.2345688764
 30
0.0
 11
38.7911161535
 21
17.2345688764
 31
0.0
  0
LINE
  5
125
330
A
100
AcDbEntity
  8
11
  6
CENTERX2
 62
    92
100
AcDbLine
 10
39.7837632123
 20
17.6069982192
 30
0.0
 11
39.3941219554
 21
17.9966448616
 31
0.0
  0
LINE
  5
126
330
A
100
AcDbEntity
  8
11
  6
Continuous
 62
    92
100
AcDbLine
 10
39.34682329959999
 20
17.2345616958
 30
0.0
 11
37.5091193704
 21
17.2345616958
 31
0.0
  0
LINE
  5
127
330
A
100
AcDbEntity
  8
11
  6
HIDDEN
 62
    92
100
AcDbLine
 10
39.8011187385
 20
21.6555857939
 30
0.0
 11
39.6002340878
 21
21.6379986931
 31
0.0
  0
LINE
  5
128
330
A
100
AcDbEntity
  8
11
  6
HIDDEN
 62
    92
100
AcDbLine
 10
39.2674704159
 20
21.9989983054
 30
0.0
 11
39.3054701861
 21
22.43276259479999
 31
0.0
  0
LINE
  5
129
330
A
100
AcDbEntity
  8
11
  6
HIDDEN
 62
    92
100
AcDbLine
 10
39.2175292969
 20
22.52866498159999
 30
0.0
 11
38.7911161535
 21
22.52866498159999
 31
0.0
  0
LINE
  5
12A
330
A
100
AcDbEntity
  8
11
  6
CENTERX2
 62
    92
100
AcDbLine
 10
39.7837632123
 20
22.1562930836
 30
0.0
 11
39.3941219554
 21
21.76664464609999
 31
0.0
  0
LINE
  5
12B
330
A
100
AcDbEntity
  8
11
  6
Continuous
 62
    92
100
AcDbLine
 10
39.34682329959999
 20
22.52870088469999
 30
0.0
 11
37.5091193704
 21
22.52870088469999
 31
0.0
  0
LINE
  5
12C
330
A
100
AcDbEntity
  8
11
  6
Continuous
 62
    92
100
AcDbLine
 10
11.8461196002
 20
22.528704475
 30
0.0
 11
13.61082548249999
 21
22.528704475
 31
0.0
  0
LINE
  5
12D
330
A
100
AcDbEntity
  8
11
  6
Continuous
 62
    92
100
AcDbLine
 10
13.61082548249999
 20
21.65623384359999
 30
0.0
 11
11.8461196002
 21
21.65623384359999
 31
0.0
  0
LINE
  5
12E
330
A
100
AcDbEntity
  8
11
  6
Continuous
 62
    92
100
AcDbLine
 10
11.8461196002
 20
17.234588623
 30
0.0
 11
13.61082548249999
 21
17.234588623
 31
0.0
  0
LINE
  5
12F
330
A
100
AcDbEntity
  8
11
  6
Continuous
 62
    92
100
AcDbLine
 10
13.61082548249999
 20
18.10705925439999
 30
0.0
 11
11.8461196002
 21
18.10705925439999
 31
0.0
  0
LINE
  5
130
330
A
100
AcDbEntity
  8
11
  6
Continuous
 62
    92
100
AcDbLine
 10
11.6696490119
 20
22.528704475
 30
0.0
 11
11.6696490119
 21
21.34958603799999
 31
0.0
  0
LINE
  5
131
330
A
100
AcDbEntity
  8
11
  6
Continuous
 62
    92
100
AcDbLine
 10
11.6696490119
 20
21.65623384359999
 30
0.0
 11
11.8461196002
 21
21.65623384359999
 31
0.0
  0
LINE
  5
132
330
A
100
AcDbEntity
  8
11
  6
Continuous
 62
    92
100
AcDbLine
 10
13.61082368739999
 20
21.65623384359999
 30
0.0
 11
24.5278840906
 21
21.65623384359999
 31
0.0
  0
LINE
  5
133
330
A
100
AcDbEntity
  8
11
  6
Continuous
 62
    92
100
AcDbLine
 10
9.757884306099999
 20
20.02865959619999
 30
0.0
 11
10.7578843061
 21
20.02865959619999
 31
0.0
  0
LINE
  5
134
330
A
100
AcDbEntity
  8
11
  6
Continuous
 62
    92
100
AcDbLine
 10
10.90491889499999
 20
19.88164565139999
 30
0.0
 11
10.9049431296
 21
19.88164565139999
 31
0.0
  0
LINE
  5
135
330
A
100
AcDbEntity
  8
11
  6
Continuous
 62
    92
100
AcDbLine
 10
21.08141371779999
 20
22.528704475
 30
0.0
 11
21.08141371779999
 21
19.88164565139999
 31
0.0
  0
LINE
  5
136
330
A
100
AcDbEntity
  8
11
  6
Continuous
 62
    92
100
AcDbLine
 10
20.4343548943
 20
22.528704475
 30
0.0
 11
20.4343548943
 21
19.88164565139999
 31
0.0
  0
LINE
  5
137
330
A
100
AcDbEntity
  8
11
  6
Continuous
 62
    92
100
AcDbLine
 10
11.8461196002
 20
22.528704475
 30
0.0
 11
11.8461196002
 21
19.88164565139999
 31
0.0
  0
LINE
  5
138
330
A
100
AcDbEntity
  8
11
  6
Continuous
 62
    92
100
AcDbLine
 10
9.493178423699999
 20
20.2934103573
 30
0.0
 11
9.493178423699999
 21
19.88164565139999
 31
0.0
  0
LINE
  5
139
330
A
100
AcDbEntity
  8
11
  6
Continuous
 62
    92
100
AcDbLine
 10
11.1990607767
 20
22.2345868279
 30
0.0
 11
11.1990607767
 21
19.88164565139999
 31
0.0
  0
LINE
  5
13A
330
A
100
AcDbEntity
  8
11
  6
Continuous
 62
    92
100
AcDbLine
 10
11.02259018839999
 20
20.2934103573
 30
0.0
 11
11.02259018839999
 21
19.88164565139999
 31
0.0
  0
LINE
  5
13B
330
A
100
AcDbEntity
  8
11
  6
Continuous
 62
    92
100
AcDbLine
 10
24.0225901884
 20
22.528704475
 30
0.0
 11
24.0225901884
 21
19.88164565139999
 31
0.0
  0
LINE
  5
13C
330
A
100
AcDbEntity
  8
11
  6
CENTERX2
 62
    92
100
AcDbLine
 10
25.4644721536
 20
19.88164565139999
 30
0.0
 11
15.4223327637
 21
19.88164565139999
 31
0.0
  0
LINE
  5
13D
330
A
100
AcDbEntity
  8
11
  6
CENTERX2
 62
    92
100
AcDbLine
 10
12.4889813591
 20
19.88164565139999
 30
0.0
 11
9.1750883215
 21
19.88164565139999
 31
0.0
  0
LINE
  5
13E
330
A
100
AcDbEntity
  8
11
  6
Continuous
 62
    92
100
AcDbLine
 10
9.4343548943
 20
19.88164565139999
 30
0.0
 11
9.4343548943
 21
20.23458682789999
 31
0.0
  0
LINE
  5
13F
330
A
100
AcDbEntity
  8
11
  6
Continuous
 62
    92
100
AcDbLine
 10
9.4343548943
 20
20.23458682789999
 30
0.0
 11
9.493178423699999
 21
20.2934103573
 31
0.0
  0
LINE
  5
140
330
A
100
AcDbEntity
  8
11
  6
Continuous
 62
    92
100
AcDbLine
 10
9.493178423699999
 20
20.2934103573
 30
0.0
 11
11.02259018839999
 21
20.2934103573
 31
0.0
  0
LINE
  5
141
330
A
100
AcDbEntity
  8
11
  6
Continuous
 62
    92
100
AcDbLine
 10
11.02259018839999
 20
20.2934103573
 30
0.0
 11
11.02259018839999
 21
22.2345868279
 31
0.0
  0
LINE
  5
142
330
A
100
AcDbEntity
  8
11
  6
Continuous
 62
    92
100
AcDbLine
 10
11.02259018839999
 20
22.2345868279
 30
0.0
 11
11.1990607767
 21
22.2345868279
 31
0.0
  0
LINE
  5
143
330
A
100
AcDbEntity
  8
11
  6
Continuous
 62
    92
100
AcDbLine
 10
11.1990607767
 20
22.2345868279
 30
0.0
 11
11.1990607767
 21
22.528704475
 31
0.0
  0
LINE
  5
144
330
A
100
AcDbEntity
  8
11
  6
Continuous
 62
    92
100
AcDbLine
 10
11.1990607767
 20
22.528704475
 30
0.0
 11
11.8461196002
 21
22.528704475
 31
0.0
  0
LINE
  5
145
330
A
100
AcDbEntity
  8
11
  6
Continuous
 62
    92
100
AcDbLine
 10
13.61082548249999
 20
22.528704475
 30
0.0
 11
20.68588436349999
 21
22.528704475
 31
0.0
  0
LINE
  5
146
330
A
100
AcDbEntity
  8
11
  6
Continuous
 62
    92
100
AcDbLine
 10
20.68588436349999
 20
22.528704475
 30
0.0
 11
20.8623549517
 21
22.528704475
 31
0.0
  0
LINE
  5
147
330
A
100
AcDbEntity
  8
11
  6
Continuous
 62
    92
100
AcDbLine
 10
20.8623549517
 20
22.528704475
 30
0.0
 11
24.3622957117
 21
22.528704475
 31
0.0
  0
LINE
  5
148
330
A
100
AcDbEntity
  8
11
  6
Continuous
 62
    92
100
AcDbLine
 10
11.6696490119
 20
17.2345868279
 30
0.0
 11
11.6696490119
 21
18.41370346969999
 31
0.0
  0
LINE
  5
149
330
A
100
AcDbEntity
  8
11
  6
Continuous
 62
    92
100
AcDbLine
 10
11.6696490119
 20
18.10705745919999
 30
0.0
 11
11.8461196002
 21
18.10705745919999
 31
0.0
  0
LINE
  5
14A
330
A
100
AcDbEntity
  8
11
  6
Continuous
 62
    92
100
AcDbLine
 10
13.61082368739999
 20
18.10705745919999
 30
0.0
 11
24.5278840906
 21
18.10705745919999
 31
0.0
  0
LINE
  5
14B
330
A
100
AcDbEntity
  8
11
  6
Continuous
 62
    92
100
AcDbLine
 10
9.7578842997
 20
19.73458503279999
 30
0.0
 11
10.7578843061
 21
19.7345850327
 31
0.0
  0
LINE
  5
14C
330
A
100
AcDbEntity
  8
11
  6
Continuous
 62
    92
100
AcDbLine
 10
10.90491889499999
 20
19.88164565139999
 30
0.0
 11
10.9049431296
 21
19.88164565139999
 31
0.0
  0
LINE
  5
14D
330
A
100
AcDbEntity
  8
11
  6
Continuous
 62
    92
100
AcDbLine
 10
21.08141371779999
 20
17.2345868279
 30
0.0
 11
21.08141371779999
 21
19.88164565139999
 31
0.0
  0
LINE
  5
14E
330
A
100
AcDbEntity
  8
11
  6
Continuous
 62
    92
100
AcDbLine
 10
20.4343548943
 20
17.2345868279
 30
0.0
 11
20.4343548943
 21
19.88164565139999
 31
0.0
  0
LINE
  5
14F
330
A
100
AcDbEntity
  8
11
  6
Continuous
 62
    92
100
AcDbLine
 10
11.8461196002
 20
17.2345868279
 30
0.0
 11
11.8461196002
 21
19.88164565139999
 31
0.0
  0
LINE
  5
150
330
A
100
AcDbEntity
  8
11
  6
Continuous
 62
    92
100
AcDbLine
 10
9.493178423699999
 20
19.46988094549999
 30
0.0
 11
9.493178423699999
 21
19.88164565139999
 31
0.0
  0
LINE
  5
151
330
A
100
AcDbEntity
  8
11
  6
Continuous
 62
    92
100
AcDbLine
 10
11.1990607767
 20
17.528704475
 30
0.0
 11
11.1990607767
 21
19.88164565139999
 31
0.0
  0
LINE
  5
152
330
A
100
AcDbEntity
  8
11
  6
Continuous
 62
    92
100
AcDbLine
 10
11.02259018839999
 20
19.46988094549999
 30
0.0
 11
11.02259018839999
 21
19.88164565139999
 31
0.0
  0
LINE
  5
153
330
A
100
AcDbEntity
  8
11
  6
Continuous
 62
    92
100
AcDbLine
 10
24.0225901884
 20
17.2345868279
 30
0.0
 11
24.0225901884
 21
19.88164565139999
 31
0.0
  0
LINE
  5
154
330
A
100
AcDbEntity
  8
11
  6
Continuous
 62
    92
100
AcDbLine
 10
9.4343548943
 20
19.88164565139999
 30
0.0
 11
9.4343548943
 21
19.528704475
 31
0.0
  0
LINE
  5
155
330
A
100
AcDbEntity
  8
11
  6
Continuous
 62
    92
100
AcDbLine
 10
9.4343548943
 20
19.528704475
 30
0.0
 11
9.493178423699999
 21
19.46988094549999
 31
0.0
  0
LINE
  5
156
330
A
100
AcDbEntity
  8
11
  6
Continuous
 62
    92
100
AcDbLine
 10
9.493178423699999
 20
19.46988094549999
 30
0.0
 11
11.02259018839999
 21
19.46988094549999
 31
0.0
  0
LINE
  5
157
330
A
100
AcDbEntity
  8
11
  6
Continuous
 62
    92
100
AcDbLine
 10
11.02259018839999
 20
19.46988094549999
 30
0.0
 11
11.02259018839999
 21
17.528704475
 31
0.0
  0
LINE
  5
158
330
A
100
AcDbEntity
  8
11
  6
Continuous
 62
    92
100
AcDbLine
 10
11.02259018839999
 20
17.528704475
 30
0.0
 11
11.1990607767
 21
17.528704475
 31
0.0
  0
LINE
  5
159
330
A
100
AcDbEntity
  8
11
  6
Continuous
 62
    92
100
AcDbLine
 10
11.1990607767
 20
17.528704475
 30
0.0
 11
11.1990607767
 21
17.2345868279
 31
0.0
  0
LINE
  5
15A
330
A
100
AcDbEntity
  8
11
  6
Continuous
 62
    92
100
AcDbLine
 10
11.1990607767
 20
17.2345868279
 30
0.0
 11
11.8461196002
 21
17.2345868279
 31
0.0
  0
LINE
  5
15B
330
A
100
AcDbEntity
  8
11
  6
Continuous
 62
    92
100
AcDbLine
 10
13.61082548249999
 20
17.2345868279
 30
0.0
 11
20.68588436349999
 21
17.2345868279
 31
0.0
  0
LINE
  5
15C
330
A
100
AcDbEntity
  8
11
  6
Continuous
 62
    92
100
AcDbLine
 10
20.68588436349999
 20
17.2345868279
 30
0.0
 11
20.8623549517
 21
17.2345868279
 31
0.0
  0
LINE
  5
15D
330
A
100
AcDbEntity
  8
11
  6
Continuous
 62
    92
100
AcDbLine
 10
20.8623549517
 20
17.2345868279
 30
0.0
 11
24.3622957117
 21
17.2345868279
 31
0.0
  0
LINE
  5
15E
330
A
100
AcDbEntity
  8
11
  6
Continuous
 62
    92
100
AcDbLine
 10
38.7442985983
 20
24.4103519215
 30
0.0
 11
38.7442985983
 21
24.38640998389999
 31
0.0
  0
LINE
  5
15F
330
A
100
AcDbEntity
  8
11
  6
Continuous
 62
    92
100
AcDbLine
 10
38.156332577
 20
24.38640998389999
 30
0.0
 11
38.156332577
 21
24.4103519215
 31
0.0
  0
LINE
  5
160
330
A
100
AcDbEntity
  8
11
  6
Continuous
 62
    92
100
AcDbLine
 10
38.156332577
 20
24.4103519215
 30
0.0
 11
38.7442985983
 21
24.4103519215
 31
0.0
  0
LINE
  5
161
330
A
100
AcDbEntity
  8
11
  6
Continuous
 62
    92
100
AcDbLine
 10
39.1559412339
 20
22.6698213465
 30
0.0
 11
39.1559412339
 21
23.4695273007
 31
0.0
  0
LINE
  5
162
330
A
100
AcDbEntity
  8
11
  6
Continuous
 62
    92
100
AcDbLine
 10
37.7447078929
 20
22.6698213465
 30
0.0
 11
37.7447078929
 21
23.4695273007
 31
0.0
  0
LINE
  5
163
330
A
100
AcDbEntity
  8
11
  6
CENTERX2
 62
    92
100
AcDbLine
 10
38.450295841
 20
24.5047032973
 30
0.0
 11
38.450295841
 21
22.44729255229999
 31
0.0
  0
LINE
  5
164
330
A
100
AcDbEntity
  8
11
  6
CENTERX2
 62
    92
100
AcDbLine
 10
37.6564725988
 20
23.6753504136
 30
0.0
 11
39.2441190832
 21
23.6753504136
 31
0.0
  0
LINE
  5
165
330
A
100
AcDbEntity
  8
11
  6
Continuous
 62
    92
100
AcDbLine
 10
37.7152961282
 20
22.528704475
 30
0.0
 11
39.1852955538
 21
22.528704475
 31
0.0
  0
LINE
  5
166
330
A
100
AcDbEntity
  8
11
  6
Continuous
 62
    92
100
AcDbLine
 10
39.1852955538
 20
22.528704475
 30
0.0
 11
39.1852955538
 21
22.6698213465
 31
0.0
  0
LINE
  5
167
330
A
100
AcDbEntity
  8
11
  6
Continuous
 62
    92
100
AcDbLine
 10
39.1852955538
 20
22.6698213465
 30
0.0
 11
37.7152961282
 21
22.6698213465
 31
0.0
  0
LINE
  5
168
330
A
100
AcDbEntity
  8
11
  6
Continuous
 62
    92
100
AcDbLine
 10
37.7152961282
 20
22.6698213465
 30
0.0
 11
37.7152961282
 21
22.528704475
 31
0.0
  0
LINE
  5
169
330
A
100
AcDbEntity
  8
11
  6
Continuous
 62
    92
100
AcDbLine
 10
36.86194565719999
 20
24.4087039723
 30
0.0
 11
36.86194565719999
 21
24.3847620347
 31
0.0
  0
LINE
  5
16A
330
A
100
AcDbEntity
  8
11
  6
Continuous
 62
    92
100
AcDbLine
 10
36.2739652746
 20
24.3847620347
 30
0.0
 11
36.2739652746
 21
24.4087039723
 31
0.0
  0
LINE
  5
16B
330
A
100
AcDbEntity
  8
11
  6
Continuous
 62
    92
100
AcDbLine
 10
36.2739652746
 20
24.4087039723
 30
0.0
 11
36.86194565719999
 21
24.4087039723
 31
0.0
  0
LINE
  5
16C
330
A
100
AcDbEntity
  8
11
  6
Continuous
 62
    92
100
AcDbLine
 10
37.27353084789999
 20
22.66817519239999
 30
0.0
 11
37.27353084789999
 21
23.4678811466
 31
0.0
  0
LINE
  5
16D
330
A
100
AcDbEntity
  8
11
  6
Continuous
 62
    92
100
AcDbLine
 10
35.8622975069
 20
22.66817519239999
 30
0.0
 11
35.8622975069
 21
23.4678811466
 31
0.0
  0
LINE
  5
16E
330
A
100
AcDbEntity
  8
11
  6
CENTERX2
 62
    92
100
AcDbLine
 10
36.5679428998
 20
24.50305714329999
 30
0.0
 11
36.5679428998
 21
22.44564460309999
 31
0.0
  0
LINE
  5
16F
330
A
100
AcDbEntity
  8
11
  6
CENTERX2
 62
    92
100
AcDbLine
 10
35.7741196576
 20
23.67370425949999
 30
0.0
 11
37.361766142
 21
23.67370425949999
 31
0.0
  0
LINE
  5
170
330
A
100
AcDbEntity
  8
11
  6
Continuous
 62
    92
100
AcDbLine
 10
35.832943187
 20
22.52705652569999
 30
0.0
 11
37.3029426126
 21
22.52705652569999
 31
0.0
  0
LINE
  5
171
330
A
100
AcDbEntity
  8
11
  6
Continuous
 62
    92
100
AcDbLine
 10
37.3029426126
 20
22.52705652569999
 30
0.0
 11
37.3029426126
 21
22.66817519239999
 31
0.0
  0
LINE
  5
172
330
A
100
AcDbEntity
  8
11
  6
Continuous
 62
    92
100
AcDbLine
 10
37.3029426126
 20
22.66817519239999
 30
0.0
 11
35.832943187
 21
22.66817519239999
 31
0.0
  0
LINE
  5
173
330
A
100
AcDbEntity
  8
11
  6
Continuous
 62
    92
100
AcDbLine
 10
35.832943187
 20
22.66817519239999
 30
0.0
 11
35.832943187
 21
22.52705652569999
 31
0.0
  0
LINE
  5
174
330
A
100
AcDbEntity
  8
11
  6
Continuous
 62
    92
100
AcDbLine
 10
18.4052375345
 20
22.528704475
 30
0.0
 11
19.8752962
 21
22.528704475
 31
0.0
  0
LINE
  5
175
330
A
100
AcDbEntity
  8
11
  6
Continuous
 62
    92
100
AcDbLine
 10
19.8752962
 20
22.528704475
 30
0.0
 11
19.8752962
 21
22.6698213465
 31
0.0
  0
LINE
  5
176
330
A
100
AcDbEntity
  8
11
  6
Continuous
 62
    92
100
AcDbLine
 10
19.8752962
 20
22.6698213465
 30
0.0
 11
18.4052375345
 21
22.6698213465
 31
0.0
  0
LINE
  5
177
330
A
100
AcDbEntity
  8
11
  6
Continuous
 62
    92
100
AcDbLine
 10
18.4052375345
 20
22.6698213465
 30
0.0
 11
18.4052375345
 21
22.528704475
 31
0.0
  0
LINE
  5
178
330
A
100
AcDbEntity
  8
11
  6
Continuous
 62
    92
100
AcDbLine
 10
19.7870609059
 20
22.6698213465
 30
0.0
 11
19.7870609059
 21
24.4103519215
 31
0.0
  0
LINE
  5
179
330
A
100
AcDbEntity
  8
11
  6
Continuous
 62
    92
100
AcDbLine
 10
19.7870609059
 20
24.4103519215
 30
0.0
 11
18.4934135886
 21
24.4103519215
 31
0.0
  0
LINE
  5
17A
330
A
100
AcDbEntity
  8
11
  6
Continuous
 62
    92
100
AcDbLine
 10
18.4934135886
 20
24.4103519215
 30
0.0
 11
17.6702378217
 21
24.4103519215
 31
0.0
  0
LINE
  5
17B
330
A
100
AcDbEntity
  8
11
  6
Continuous
 62
    92
100
AcDbLine
 10
18.4934135886
 20
22.94029146079999
 30
0.0
 11
17.6702378217
 21
22.94029146079999
 31
0.0
  0
LINE
  5
17C
330
A
100
AcDbEntity
  8
11
  6
Continuous
 62
    92
100
AcDbLine
 10
19.7870609059
 20
24.4103519215
 30
0.0
 11
19.7279429716
 21
24.34129243739999
 31
0.0
  0
LINE
  5
17D
330
A
100
AcDbEntity
  8
11
  6
Continuous
 62
    92
100
AcDbLine
 10
19.7279429716
 20
24.34129243739999
 30
0.0
 11
19.6400318208
 21
24.2276911935
 31
0.0
  0
LINE
  5
17E
330
A
100
AcDbEntity
  8
11
  6
Continuous
 62
    92
100
AcDbLine
 10
19.6400318208
 20
24.2276911935
 30
0.0
 11
19.56500133009999
 21
24.09900676679999
 31
0.0
  0
LINE
  5
17F
330
A
100
AcDbEntity
  8
11
  6
Continuous
 62
    92
100
AcDbLine
 10
19.56500133009999
 20
24.09900676679999
 30
0.0
 11
19.5061202597
 21
23.957304524
 31
0.0
  0
LINE
  5
180
330
A
100
AcDbEntity
  8
11
  6
Continuous
 62
    92
100
AcDbLine
 10
19.5061202597
 20
23.957304524
 30
0.0
 11
19.4661269949
 21
23.80559607119999
 31
0.0
  0
LINE
  5
181
330
A
100
AcDbEntity
  8
11
  6
Continuous
 62
    92
100
AcDbLine
 10
19.4661269949
 20
23.80559607119999
 30
0.0
 11
19.4469152954
 21
23.64767029159999
 31
0.0
  0
LINE
  5
182
330
A
100
AcDbEntity
  8
11
  6
Continuous
 62
    92
100
AcDbLine
 10
19.4469152954
 20
23.64767029159999
 30
0.0
 11
19.4493018788
 21
23.48779851159999
 31
0.0
  0
LINE
  5
183
330
A
100
AcDbEntity
  8
11
  6
Continuous
 62
    92
100
AcDbLine
 10
19.4493018788
 20
23.48779851159999
 30
0.0
 11
19.47292790779999
 21
23.3303579753
 31
0.0
  0
LINE
  5
184
330
A
100
AcDbEntity
  8
11
  6
Continuous
 62
    92
100
AcDbLine
 10
19.47292790779999
 20
23.3303579753
 30
0.0
 11
19.5163168878
 21
23.1794412246
 31
0.0
  0
LINE
  5
185
330
A
100
AcDbEntity
  8
11
  6
Continuous
 62
    92
100
AcDbLine
 10
19.5163168878
 20
23.1794412246
 30
0.0
 11
19.5770738068
 21
23.0385223838
 31
0.0
  0
LINE
  5
186
330
A
100
AcDbEntity
  8
11
  6
Continuous
 62
    92
100
AcDbLine
 10
19.5770738068
 20
23.0385223838
 30
0.0
 11
19.652178596
 21
22.9102334415
 31
0.0
  0
LINE
  5
187
330
A
100
AcDbEntity
  8
11
  6
Continuous
 62
    92
100
AcDbLine
 10
19.652178596
 20
22.9102334415
 30
0.0
 11
19.7870609059
 21
22.7140574736
 31
0.0
  0
LINE
  5
188
330
A
100
AcDbEntity
  8
11
  6
Continuous
 62
    92
100
AcDbLine
 10
18.4934135886
 20
22.6698213465
 30
0.0
 11
18.4934135886
 21
22.94029146079999
 31
0.0
  0
LINE
  5
189
330
A
100
AcDbEntity
  8
11
  6
Continuous
 62
    92
100
AcDbLine
 10
19.7870609059
 20
22.6698213465
 30
0.0
 11
19.1402372472
 21
23.6753504136
 31
0.0
  0
LINE
  5
18A
330
A
100
AcDbEntity
  8
11
  6
Continuous
 62
    92
100
AcDbLine
 10
19.1402372472
 20
23.6753504136
 30
0.0
 11
17.6702378217
 21
23.6753504136
 31
0.0
  0
LINE
  5
18B
330
A
100
AcDbEntity
  8
11
  6
Continuous
 62
    92
100
AcDbLine
 10
16.7588249655
 20
24.30746818989999
 30
0.0
 11
16.7588249655
 21
23.0432326373
 31
0.0
  0
LINE
  5
18C
330
A
100
AcDbEntity
  8
11
  6
Continuous
 62
    92
100
AcDbLine
 10
16.7588249655
 20
23.0432326373
 30
0.0
 11
16.8175892549
 21
22.99911499019999
 31
0.0
  0
LINE
  5
18D
330
A
100
AcDbEntity
  8
11
  6
Continuous
 62
    92
100
AcDbLine
 10
16.8175892549
 20
22.99911499019999
 30
0.0
 11
17.229178036
 21
22.99911499019999
 31
0.0
  0
LINE
  5
18E
330
A
100
AcDbEntity
  8
11
  6
Continuous
 62
    92
100
AcDbLine
 10
17.229178036
 20
22.99911499019999
 30
0.0
 11
17.2880015654
 21
23.0432326373
 31
0.0
  0
LINE
  5
18F
330
A
100
AcDbEntity
  8
11
  6
Continuous
 62
    92
100
AcDbLine
 10
17.2880015654
 20
23.0432326373
 30
0.0
 11
17.2880015654
 21
24.30746818989999
 31
0.0
  0
LINE
  5
190
330
A
100
AcDbEntity
  8
11
  6
Continuous
 62
    92
100
AcDbLine
 10
17.2880015654
 20
24.30746818989999
 30
0.0
 11
17.229178036
 21
24.3515283921
 31
0.0
  0
LINE
  5
191
330
A
100
AcDbEntity
  8
11
  6
Continuous
 62
    92
100
AcDbLine
 10
17.229178036
 20
24.3515283921
 30
0.0
 11
16.8175892549
 21
24.3515283921
 31
0.0
  0
LINE
  5
192
330
A
100
AcDbEntity
  8
11
  6
Continuous
 62
    92
100
AcDbLine
 10
16.8175892549
 20
24.3515283921
 30
0.0
 11
16.7588249655
 21
24.30746818989999
 31
0.0
  0
LINE
  5
193
330
A
100
AcDbEntity
  8
11
  6
Continuous
 62
    92
100
AcDbLine
 10
17.2880015654
 20
24.30746818989999
 30
0.0
 11
16.7588249655
 21
24.30746818989999
 31
0.0
  0
LINE
  5
194
330
A
100
AcDbEntity
  8
11
  6
Continuous
 62
    92
100
AcDbLine
 10
17.2880015654
 20
23.0432326373
 30
0.0
 11
16.7588249655
 21
23.0432326373
 31
0.0
  0
LINE
  5
195
330
A
100
AcDbEntity
  8
11
  6
Continuous
 62
    92
100
AcDbLine
 10
17.43500114889999
 20
24.2927623076
 30
0.0
 11
17.43500114889999
 21
23.0579385196
 31
0.0
  0
LINE
  5
196
330
A
100
AcDbEntity
  8
11
  6
Continuous
 62
    92
100
AcDbLine
 10
17.43500114889999
 20
23.0579385196
 30
0.0
 11
17.55259076289999
 21
23.0579385196
 31
0.0
  0
LINE
  5
197
330
A
100
AcDbEntity
  8
11
  6
Continuous
 62
    92
100
AcDbLine
 10
17.55259076289999
 20
23.0579385196
 30
0.0
 11
17.55259076289999
 21
24.2927623076
 31
0.0
  0
LINE
  5
198
330
A
100
AcDbEntity
  8
11
  6
Continuous
 62
    92
100
AcDbLine
 10
17.55259076289999
 20
24.2927623076
 30
0.0
 11
17.43500114889999
 21
24.2927623076
 31
0.0
  0
LINE
  5
199
330
A
100
AcDbEntity
  8
11
  6
Continuous
 62
    92
100
AcDbLine
 10
17.43500114889999
 20
24.2927623076
 30
0.0
 11
17.43500114889999
 21
24.3515283921
 31
0.0
  0
LINE
  5
19A
330
A
100
AcDbEntity
  8
11
  6
Continuous
 62
    92
100
AcDbLine
 10
17.43500114889999
 20
24.3515283921
 30
0.0
 11
17.4055893842
 21
24.3515283921
 31
0.0
  0
LINE
  5
19B
330
A
100
AcDbEntity
  8
11
  6
Continuous
 62
    92
100
AcDbLine
 10
17.4055893842
 20
24.3515283921
 30
0.0
 11
17.3292361989
 21
24.30746818989999
 31
0.0
  0
LINE
  5
19C
330
A
100
AcDbEntity
  8
11
  6
Continuous
 62
    92
100
AcDbLine
 10
17.3292361989
 20
24.30746818989999
 30
0.0
 11
17.2880015654
 21
24.30746818989999
 31
0.0
  0
LINE
  5
19D
330
A
100
AcDbEntity
  8
11
  6
Continuous
 62
    92
100
AcDbLine
 10
17.4055893842
 20
22.99911499019999
 30
0.0
 11
17.4055893842
 21
24.3515283921
 31
0.0
  0
LINE
  5
19E
330
A
100
AcDbEntity
  8
11
  6
Continuous
 62
    92
100
AcDbLine
 10
16.8175892549
 20
22.99911499019999
 30
0.0
 11
16.8175892549
 21
24.3515283921
 31
0.0
  0
LINE
  5
19F
330
A
100
AcDbEntity
  8
11
  6
Continuous
 62
    92
100
AcDbLine
 10
17.229178036
 20
22.99911499019999
 30
0.0
 11
17.229178036
 21
24.3515283921
 31
0.0
  0
LINE
  5
1A0
330
A
100
AcDbEntity
  8
11
  6
Continuous
 62
    92
100
AcDbLine
 10
17.43500114889999
 20
23.0579385196
 30
0.0
 11
17.43500114889999
 21
22.99911499019999
 31
0.0
  0
LINE
  5
1A1
330
A
100
AcDbEntity
  8
11
  6
Continuous
 62
    92
100
AcDbLine
 10
17.43500114889999
 20
22.99911499019999
 30
0.0
 11
17.4055893842
 21
22.99911499019999
 31
0.0
  0
LINE
  5
1A2
330
A
100
AcDbEntity
  8
11
  6
Continuous
 62
    92
100
AcDbLine
 10
17.4055893842
 20
22.99911499019999
 30
0.0
 11
17.3292361989
 21
23.0432326373
 31
0.0
  0
LINE
  5
1A3
330
A
100
AcDbEntity
  8
11
  6
Continuous
 62
    92
100
AcDbLine
 10
17.3292361989
 20
23.0432326373
 30
0.0
 11
17.2880015654
 21
23.0432326373
 31
0.0
  0
LINE
  5
1A4
330
A
100
AcDbEntity
  8
11
  6
Continuous
 62
    92
100
AcDbLine
 10
17.55259076289999
 20
24.3515283921
 30
0.0
 11
17.55259076289999
 21
22.99911499019999
 31
0.0
  0
LINE
  5
1A5
330
A
100
AcDbEntity
  8
11
  6
Continuous
 62
    92
100
AcDbLine
 10
17.55259076289999
 20
22.99911499019999
 30
0.0
 11
17.6114142923
 21
22.99911499019999
 31
0.0
  0
LINE
  5
1A6
330
A
100
AcDbEntity
  8
11
  6
Continuous
 62
    92
100
AcDbLine
 10
17.6114142923
 20
22.99911499019999
 30
0.0
 11
17.6114142923
 21
24.3515283921
 31
0.0
  0
LINE
  5
1A7
330
A
100
AcDbEntity
  8
11
  6
Continuous
 62
    92
100
AcDbLine
 10
17.6114142923
 20
24.3515283921
 30
0.0
 11
17.55259076289999
 21
24.3515283921
 31
0.0
  0
LINE
  5
1A8
330
A
100
AcDbEntity
  8
11
  6
Continuous
 62
    92
100
AcDbLine
 10
17.6114142923
 20
24.2927623076
 30
0.0
 11
17.6114142923
 21
23.0579385196
 31
0.0
  0
LINE
  5
1A9
330
A
100
AcDbEntity
  8
11
  6
Continuous
 62
    92
100
AcDbLine
 10
17.6114142923
 20
23.0579385196
 30
0.0
 11
17.6702378217
 21
23.0579385196
 31
0.0
  0
LINE
  5
1AA
330
A
100
AcDbEntity
  8
11
  6
Continuous
 62
    92
100
AcDbLine
 10
17.6702378217
 20
23.0579385196
 30
0.0
 11
17.6702378217
 21
24.2927623076
 31
0.0
  0
LINE
  5
1AB
330
A
100
AcDbEntity
  8
11
  6
Continuous
 62
    92
100
AcDbLine
 10
17.6702378217
 20
24.2927623076
 30
0.0
 11
17.6114142923
 21
24.2927623076
 31
0.0
  0
LINE
  5
1AC
330
A
100
AcDbEntity
  8
11
  6
Continuous
 62
    92
100
AcDbLine
 10
17.6702378217
 20
22.94029146079999
 30
0.0
 11
17.6702378217
 21
24.4103519215
 31
0.0
  0
LINE
  5
1AD
330
A
100
AcDbEntity
  8
11
  6
Continuous
 62
    92
100
AcDbLine
 10
19.1402372472
 20
23.6753504136
 30
0.0
 11
18.4934135886
 21
22.94029146079999
 31
0.0
  0
LINE
  5
1AE
330
A
100
AcDbEntity
  8
11
  6
Continuous
 62
    92
100
AcDbLine
 10
23.3458251953
 20
22.528704475
 30
0.0
 11
21.8757665298
 21
22.528704475
 31
0.0
  0
LINE
  5
1AF
330
A
100
AcDbEntity
  8
11
  6
Continuous
 62
    92
100
AcDbLine
 10
21.8757665298
 20
22.528704475
 30
0.0
 11
21.8757665298
 21
22.6698213465
 31
0.0
  0
LINE
  5
1B0
330
A
100
AcDbEntity
  8
11
  6
Continuous
 62
    92
100
AcDbLine
 10
21.8757665298
 20
22.6698213465
 30
0.0
 11
23.3458251953
 21
22.6698213465
 31
0.0
  0
LINE
  5
1B1
330
A
100
AcDbEntity
  8
11
  6
Continuous
 62
    92
100
AcDbLine
 10
23.3458251953
 20
22.6698213465
 30
0.0
 11
23.3458251953
 21
22.528704475
 31
0.0
  0
LINE
  5
1B2
330
A
100
AcDbEntity
  8
11
  6
Continuous
 62
    92
100
AcDbLine
 10
21.9640018239
 20
22.6698213465
 30
0.0
 11
21.9640018239
 21
24.4103519215
 31
0.0
  0
LINE
  5
1B3
330
A
100
AcDbEntity
  8
11
  6
Continuous
 62
    92
100
AcDbLine
 10
21.9640018239
 20
24.4103519215
 30
0.0
 11
23.2576491412
 21
24.4103519215
 31
0.0
  0
LINE
  5
1B4
330
A
100
AcDbEntity
  8
11
  6
Continuous
 62
    92
100
AcDbLine
 10
23.2576491412
 20
24.4103519215
 30
0.0
 11
24.0808249081
 21
24.4103519215
 31
0.0
  0
LINE
  5
1B5
330
A
100
AcDbEntity
  8
11
  6
Continuous
 62
    92
100
AcDbLine
 10
23.2576491412
 20
22.94029146079999
 30
0.0
 11
24.0808249081
 21
22.94029146079999
 31
0.0
  0
LINE
  5
1B6
330
A
100
AcDbEntity
  8
11
  6
Continuous
 62
    92
100
AcDbLine
 10
21.9640018239
 20
24.4103519215
 30
0.0
 11
22.0231197582
 21
24.34129243739999
 31
0.0
  0
LINE
  5
1B7
330
A
100
AcDbEntity
  8
11
  6
Continuous
 62
    92
100
AcDbLine
 10
22.0231197582
 20
24.34129243739999
 30
0.0
 11
22.1110274491
 21
24.2276911935
 31
0.0
  0
LINE
  5
1B8
330
A
100
AcDbEntity
  8
11
  6
Continuous
 62
    92
100
AcDbLine
 10
22.1110274491
 20
24.2276911935
 30
0.0
 11
22.18605505789999
 21
24.09900676679999
 31
0.0
  0
LINE
  5
1B9
330
A
100
AcDbEntity
  8
11
  6
Continuous
 62
    92
100
AcDbLine
 10
22.18605505789999
 20
24.09900676679999
 30
0.0
 11
22.2449339578
 21
23.957304524
 31
0.0
  0
LINE
  5
1BA
330
A
100
AcDbEntity
  8
11
  6
Continuous
 62
    92
100
AcDbLine
 10
22.2449339578
 20
23.957304524
 30
0.0
 11
22.28492587239999
 21
23.80559607119999
 31
0.0
  0
LINE
  5
1BB
330
A
100
AcDbEntity
  8
11
  6
Continuous
 62
    92
100
AcDbLine
 10
22.28492587239999
 20
23.80559607119999
 30
0.0
 11
22.30413711349999
 21
23.64767029159999
 31
0.0
  0
LINE
  5
1BC
330
A
100
AcDbEntity
  8
11
  6
Continuous
 62
    92
100
AcDbLine
 10
22.30413711349999
 20
23.64767029159999
 30
0.0
 11
22.3017509884
 21
23.48779851159999
 31
0.0
  0
LINE
  5
1BD
330
A
100
AcDbEntity
  8
11
  6
Continuous
 62
    92
100
AcDbLine
 10
22.3017509884
 20
23.48779851159999
 30
0.0
 11
22.27812630969999
 21
23.3303579753
 31
0.0
  0
LINE
  5
1BE
330
A
100
AcDbEntity
  8
11
  6
Continuous
 62
    92
100
AcDbLine
 10
22.27812630969999
 20
23.3303579753
 30
0.0
 11
22.2347395002
 21
23.1794412246
 31
0.0
  0
LINE
  5
1BF
330
A
100
AcDbEntity
  8
11
  6
Continuous
 62
    92
100
AcDbLine
 10
22.2347395002
 20
23.1794412246
 30
0.0
 11
22.1739854631
 21
23.0385223838
 31
0.0
  0
LINE
  5
1C0
330
A
100
AcDbEntity
  8
11
  6
Continuous
 62
    92
100
AcDbLine
 10
22.1739854631
 20
23.0385223838
 30
0.0
 11
22.0988841337
 21
22.9102334415
 31
0.0
  0
LINE
  5
1C1
330
A
100
AcDbEntity
  8
11
  6
Continuous
 62
    92
100
AcDbLine
 10
22.0988841337
 20
22.9102334415
 30
0.0
 11
21.9640018239
 21
22.7140574736
 31
0.0
  0
LINE
  5
1C2
330
A
100
AcDbEntity
  8
11
  6
Continuous
 62
    92
100
AcDbLine
 10
23.2576491412
 20
22.6698213465
 30
0.0
 11
23.2576491412
 21
22.94029146079999
 31
0.0
  0
LINE
  5
1C3
330
A
100
AcDbEntity
  8
11
  6
Continuous
 62
    92
100
AcDbLine
 10
21.9640018239
 20
22.6698213465
 30
0.0
 11
22.6108254825
 21
23.6753504136
 31
0.0
  0
LINE
  5
1C4
330
A
100
AcDbEntity
  8
11
  6
Continuous
 62
    92
100
AcDbLine
 10
22.6108254825
 20
23.6753504136
 30
0.0
 11
24.0808249081
 21
23.6753504136
 31
0.0
  0
LINE
  5
1C5
330
A
100
AcDbEntity
  8
11
  6
Continuous
 62
    92
100
AcDbLine
 10
24.9922377642
 20
24.30746818989999
 30
0.0
 11
24.9922377642
 21
23.0432326373
 31
0.0
  0
LINE
  5
1C6
330
A
100
AcDbEntity
  8
11
  6
Continuous
 62
    92
100
AcDbLine
 10
24.9922377642
 20
23.0432326373
 30
0.0
 11
24.9334716797
 21
22.99911499019999
 31
0.0
  0
LINE
  5
1C7
330
A
100
AcDbEntity
  8
11
  6
Continuous
 62
    92
100
AcDbLine
 10
24.9334716797
 20
22.99911499019999
 30
0.0
 11
24.5218846938
 21
22.99911499019999
 31
0.0
  0
LINE
  5
1C8
330
A
100
AcDbEntity
  8
11
  6
Continuous
 62
    92
100
AcDbLine
 10
24.5218846938
 20
22.99911499019999
 30
0.0
 11
24.4630611644
 21
23.0432326373
 31
0.0
  0
LINE
  5
1C9
330
A
100
AcDbEntity
  8
11
  6
Continuous
 62
    92
100
AcDbLine
 10
24.4630611644
 20
23.0432326373
 30
0.0
 11
24.4630611644
 21
24.30746818989999
 31
0.0
  0
LINE
  5
1CA
330
A
100
AcDbEntity
  8
11
  6
Continuous
 62
    92
100
AcDbLine
 10
24.4630611644
 20
24.30746818989999
 30
0.0
 11
24.5218846938
 21
24.3515283921
 31
0.0
  0
LINE
  5
1CB
330
A
100
AcDbEntity
  8
11
  6
Continuous
 62
    92
100
AcDbLine
 10
24.5218846938
 20
24.3515283921
 30
0.0
 11
24.9334716797
 21
24.3515283921
 31
0.0
  0
LINE
  5
1CC
330
A
100
AcDbEntity
  8
11
  6
Continuous
 62
    92
100
AcDbLine
 10
24.9334716797
 20
24.3515283921
 30
0.0
 11
24.9922377642
 21
24.30746818989999
 31
0.0
  0
LINE
  5
1CD
330
A
100
AcDbEntity
  8
11
  6
Continuous
 62
    92
100
AcDbLine
 10
24.4630611644
 20
24.30746818989999
 30
0.0
 11
24.9922377642
 21
24.30746818989999
 31
0.0
  0
LINE
  5
1CE
330
A
100
AcDbEntity
  8
11
  6
Continuous
 62
    92
100
AcDbLine
 10
24.4630611644
 20
23.0432326373
 30
0.0
 11
24.9922377642
 21
23.0432326373
 31
0.0
  0
LINE
  5
1CF
330
A
100
AcDbEntity
  8
11
  6
Continuous
 62
    92
100
AcDbLine
 10
24.3160597857
 20
24.2927623076
 30
0.0
 11
24.3160597857
 21
23.0579385196
 31
0.0
  0
LINE
  5
1D0
330
A
100
AcDbEntity
  8
11
  6
Continuous
 62
    92
100
AcDbLine
 10
24.3160597857
 20
23.0579385196
 30
0.0
 11
24.1984719669
 21
23.0579385196
 31
0.0
  0
LINE
  5
1D1
330
A
100
AcDbEntity
  8
11
  6
Continuous
 62
    92
100
AcDbLine
 10
24.1984719669
 20
23.0579385196
 30
0.0
 11
24.1984719669
 21
24.2927623076
 31
0.0
  0
LINE
  5
1D2
330
A
100
AcDbEntity
  8
11
  6
Continuous
 62
    92
100
AcDbLine
 10
24.1984719669
 20
24.2927623076
 30
0.0
 11
24.3160597857
 21
24.2927623076
 31
0.0
  0
LINE
  5
1D3
330
A
100
AcDbEntity
  8
11
  6
Continuous
 62
    92
100
AcDbLine
 10
24.3160597857
 20
24.2927623076
 30
0.0
 11
24.3160597857
 21
24.3515283921
 31
0.0
  0
LINE
  5
1D4
330
A
100
AcDbEntity
  8
11
  6
Continuous
 62
    92
100
AcDbLine
 10
24.3160597857
 20
24.3515283921
 30
0.0
 11
24.3454715504
 21
24.3515283921
 31
0.0
  0
LINE
  5
1D5
330
A
100
AcDbEntity
  8
11
  6
Continuous
 62
    92
100
AcDbLine
 10
24.3454715504
 20
24.3515283921
 30
0.0
 11
24.42182473579999
 21
24.30746818989999
 31
0.0
  0
LINE
  5
1D6
330
A
100
AcDbEntity
  8
11
  6
Continuous
 62
    92
100
AcDbLine
 10
24.42182473579999
 20
24.30746818989999
 30
0.0
 11
24.4630611644
 21
24.30746818989999
 31
0.0
  0
LINE
  5
1D7
330
A
100
AcDbEntity
  8
11
  6
Continuous
 62
    92
100
AcDbLine
 10
24.3454715504
 20
22.99911499019999
 30
0.0
 11
24.3454715504
 21
24.3515283921
 31
0.0
  0
LINE
  5
1D8
330
A
100
AcDbEntity
  8
11
  6
Continuous
 62
    92
100
AcDbLine
 10
24.9334716797
 20
22.99911499019999
 30
0.0
 11
24.9334716797
 21
24.3515283921
 31
0.0
  0
LINE
  5
1D9
330
A
100
AcDbEntity
  8
11
  6
Continuous
 62
    92
100
AcDbLine
 10
24.5218846938
 20
22.99911499019999
 30
0.0
 11
24.5218846938
 21
24.3515283921
 31
0.0
  0
LINE
  5
1DA
330
A
100
AcDbEntity
  8
11
  6
Continuous
 62
    92
100
AcDbLine
 10
24.3160597857
 20
23.0579385196
 30
0.0
 11
24.3160597857
 21
22.99911499019999
 31
0.0
  0
LINE
  5
1DB
330
A
100
AcDbEntity
  8
11
  6
Continuous
 62
    92
100
AcDbLine
 10
24.3160597857
 20
22.99911499019999
 30
0.0
 11
24.3454715504
 21
22.99911499019999
 31
0.0
  0
LINE
  5
1DC
330
A
100
AcDbEntity
  8
11
  6
Continuous
 62
    92
100
AcDbLine
 10
24.3454715504
 20
22.99911499019999
 30
0.0
 11
24.42182473579999
 21
23.0432326373
 31
0.0
  0
LINE
  5
1DD
330
A
100
AcDbEntity
  8
11
  6
Continuous
 62
    92
100
AcDbLine
 10
24.42182473579999
 20
23.0432326373
 30
0.0
 11
24.4630611644
 21
23.0432326373
 31
0.0
  0
LINE
  5
1DE
330
A
100
AcDbEntity
  8
11
  6
Continuous
 62
    92
100
AcDbLine
 10
24.1984719669
 20
24.3515283921
 30
0.0
 11
24.1984719669
 21
22.99911499019999
 31
0.0
  0
LINE
  5
1DF
330
A
100
AcDbEntity
  8
11
  6
Continuous
 62
    92
100
AcDbLine
 10
24.1984719669
 20
22.99911499019999
 30
0.0
 11
24.1396484375
 21
22.99911499019999
 31
0.0
  0
LINE
  5
1E0
330
A
100
AcDbEntity
  8
11
  6
Continuous
 62
    92
100
AcDbLine
 10
24.1396484375
 20
22.99911499019999
 30
0.0
 11
24.1396484375
 21
24.3515283921
 31
0.0
  0
LINE
  5
1E1
330
A
100
AcDbEntity
  8
11
  6
Continuous
 62
    92
100
AcDbLine
 10
24.1396484375
 20
24.3515283921
 30
0.0
 11
24.1984719669
 21
24.3515283921
 31
0.0
  0
LINE
  5
1E2
330
A
100
AcDbEntity
  8
11
  6
Continuous
 62
    92
100
AcDbLine
 10
24.1396484375
 20
24.2927623076
 30
0.0
 11
24.1396484375
 21
23.0579385196
 31
0.0
  0
LINE
  5
1E3
330
A
100
AcDbEntity
  8
11
  6
Continuous
 62
    92
100
AcDbLine
 10
24.1396484375
 20
23.0579385196
 30
0.0
 11
24.0808249081
 21
23.0579385196
 31
0.0
  0
LINE
  5
1E4
330
A
100
AcDbEntity
  8
11
  6
Continuous
 62
    92
100
AcDbLine
 10
24.0808249081
 20
23.0579385196
 30
0.0
 11
24.0808249081
 21
24.2927623076
 31
0.0
  0
LINE
  5
1E5
330
A
100
AcDbEntity
  8
11
  6
Continuous
 62
    92
100
AcDbLine
 10
24.0808249081
 20
24.2927623076
 30
0.0
 11
24.1396484375
 21
24.2927623076
 31
0.0
  0
LINE
  5
1E6
330
A
100
AcDbEntity
  8
11
  6
Continuous
 62
    92
100
AcDbLine
 10
24.0808249081
 20
22.94029146079999
 30
0.0
 11
24.0808249081
 21
24.4103519215
 31
0.0
  0
LINE
  5
1E7
330
A
100
AcDbEntity
  8
11
  6
Continuous
 62
    92
100
AcDbLine
 10
22.6108254825
 20
23.6753504136
 30
0.0
 11
23.2576491412
 21
22.94029146079999
 31
0.0
  0
LINE
  5
1E8
330
A
100
AcDbEntity
  8
1
  6
Continuous
 62
    92
100
AcDbLine
 10
11.8461169075
 20
19.2098568187
 30
0.0
 11
11.84612498559999
 21
20.56279799519999
 31
0.0
  0
LINE
  5
1E9
330
A
100
AcDbEntity
  8
1
  6
Continuous
 62
    92
100
AcDbLine
 10
11.9931838092
 20
20.7098675896
 30
0.0
 11
16.1108290728
 21
20.7098675896
 31
0.0
  0
LINE
  5
1EA
330
A
100
AcDbEntity
  8
1
  6
Continuous
 62
    92
100
AcDbLine
 10
16.25788071579999
 20
20.56279799519999
 30
0.0
 11
16.25788071579999
 21
19.2098568187
 31
0.0
  0
LINE
  5
1EB
330
A
100
AcDbEntity
  8
1
  6
Continuous
 62
    92
100
AcDbLine
 10
16.1108290728
 20
19.06280697089999
 30
0.0
 11
11.9931838092
 21
19.06280697089999
 31
0.0
  0
LINE
  5
1F6
330
A
100
AcDbEntity
  8
1
  6
Continuous
 62
    92
100
AcDbLine
 10
10.42651995489999
 20
31.5806489832
 30
0.0
 11
10.42651995489999
 21
29.855185116
 31
0.0
  0
LINE
  5
1F7
330
A
100
AcDbEntity
  8
1
  6
Continuous
 62
    92
100
AcDbLine
 10
10.42651995489999
 20
31.5806489832
 30
0.0
 11
3.9560255163
 21
31.5806489832
 31
0.0
  0
LINE
  5
1F8
330
A
100
AcDbEntity
  8
1
  6
Continuous
 62
    92
100
AcDbLine
 10
3.9560255163
 20
31.5806489832
 30
0.0
 11
3.9560255163
 21
30.7179134593
 31
0.0
  0
LINE
  5
1F9
330
A
100
AcDbEntity
  8
1
  6
Continuous
 62
    92
100
AcDbLine
 10
3.9560255163
 20
30.7179134593
 30
0.0
 11
10.42651995489999
 21
30.7179134593
 31
0.0
  0
LINE
  5
1FA
330
A
100
AcDbEntity
  8
1
  6
Continuous
 62
    92
100
AcDbLine
 10
3.9560255163
 20
30.7179134593
 30
0.0
 11
3.9560255163
 21
29.855185116
 31
0.0
  0
LINE
  5
1FB
330
A
100
AcDbEntity
  8
1
  6
Continuous
 62
    92
100
AcDbLine
 10
3.9560255163
 20
29.855185116
 30
0.0
 11
10.42651995489999
 21
29.855185116
 31
0.0
  0
LINE
  5
201
330
A
100
AcDbEntity
  8
1
  6
Continuous
 62
    92
100
AcDbLine
 10
2.0
 20
26.25591233195
 30
0.0
 11
7.8085686179
 21
26.25591233195
 31
0.0
  0
CIRCLE
  5
20B
330
A
100
AcDbEntity
  8
11
  6
Continuous
 62
    92
100
AcDbCircle
 10
40.0539622587
 20
7.048134298899999
 30
0.0
 40
0.2158589083
  0
CIRCLE
  5
20C
330
A
100
AcDbEntity
  8
11
  6
Continuous
 62
    92
100
AcDbCircle
 10
40.0539622587
 20
7.048134298899999
 30
0.0
 40
0.4317178165
  0
CIRCLE
  5
20D
330
A
100
AcDbEntity
  8
11
  6
Continuous
 62
    92
100
AcDbCircle
 10
37.5091193704
 20
19.88164565139999
 30
0.0
 40
0.1470588235
  0
ARC
  5
20E
330
A
100
AcDbEntity
  8
11
  6
Continuous
 62
    92
100
AcDbCircle
 10
37.5091193704
 20
19.88164565139999
 30
0.0
 40
1.176438728599999
100
AcDbArc
 50
58.15048979999999
 51
19.59786989999999
  0
CIRCLE
  5
20F
330
A
100
AcDbEntity
  8
11
  6
Continuous
 62
    92
100
AcDbCircle
 10
37.5091193704
 20
19.88164565139999
 30
0.0
 40
2.1470588235
  0
CIRCLE
  5
210
330
A
100
AcDbEntity
  8
11
  6
Continuous
 62
    92
100
AcDbCircle
 10
37.5091193704
 20
19.88164565139999
 30
0.0
 40
2.352941176499999
  0
CIRCLE
  5
211
330
A
100
AcDbEntity
  8
11
  6
Continuous
 62
    92
100
AcDbCircle
 10
37.5091193704
 20
19.88164565139999
 30
0.0
 40
0.3529411765
  0
ARC
  5
212
330
A
100
AcDbEntity
  8
11
  6
HIDDEN
 62
    92
100
AcDbCircle
 10
46.5110581342
 20
19.8814104866
 30
0.0
 40
11.76663155309999
100
AcDbArc
 50
172.8398742999999
 51
175.9098205999999
  0
ARC
  5
213
330
A
100
AcDbEntity
  8
11
  6
HIDDEN
 62
    92
100
AcDbCircle
 10
35.1863080193
 20
21.30405919689999
 30
0.0
 40
0.352874378
100
AcDbArc
 50
84.9928665
 51
172.8493651999999
  0
ARC
  5
214
330
A
100
AcDbEntity
  8
11
  6
HIDDEN
 62
    92
100
AcDbCircle
 10
35.4294146369
 20
21.9613503849
 30
0.0
 40
0.3235529389
100
AcDbArc
 50
267.9813231999999
 51
6.684234599999998
  0
ARC
  5
215
330
A
100
AcDbEntity
  8
11
  6
HIDDEN
 62
    92
100
AcDbCircle
 10
35.8007094439
 20
22.4403937845
 30
0.0
 40
0.0882711972
100
AcDbArc
 50
90.0
 51
184.9595032
  0
CIRCLE
  5
216
330
A
100
AcDbEntity
  8
11
  6
Continuous
 62
    92
100
AcDbCircle
 10
35.4294146369
 20
21.9613503849
 30
0.0
 40
0.2058823529
  0
CIRCLE
  5
217
330
A
100
AcDbEntity
  8
11
  6
CENTERX2
 62
    92
100
AcDbCircle
 10
37.5091193704
 20
19.88164565139999
 30
0.0
 40
2.941176470599999
  0
ARC
  5
218
330
A
100
AcDbEntity
  8
11
  6
Continuous
 62
    92
100
AcDbCircle
 10
46.5093563304
 20
19.8815864114
 30
0.0
 40
11.7649500509
100
AcDbArc
 50
170.1467284999999
 51
180.0
  0
ARC
  5
219
330
A
100
AcDbEntity
  8
11
  6
Continuous
 62
    92
100
AcDbCircle
 10
35.6714154412
 20
21.7639447381
 30
0.0
 40
0.7647561466
100
AcDbArc
 50
90.0
 51
170.1461486999999
  0
CIRCLE
  5
21A
330
A
100
AcDbEntity
  8
11
  6
Continuous
 62
    92
100
AcDbCircle
 10
37.5091193704
 20
19.88164565139999
 30
0.0
 40
0.4117647059000001
  0
CIRCLE
  5
21B
330
A
100
AcDbEntity
  8
11
  6
Continuous
 62
    92
100
AcDbCircle
 10
3.788649615100002
 20
19.88164565139999
 30
0.0
 40
0.4117611156
  0
ARC
  5
21C
330
A
100
AcDbEntity
  8
11
  6
HIDDEN
 62
    92
100
AcDbCircle
 10
46.5110581342
 20
19.8818808163
 30
0.0
 40
11.76666810099999
100
AcDbArc
 50
184.0900878999999
 51
187.1600493999999
  0
ARC
  5
21D
330
A
100
AcDbEntity
  8
11
  6
HIDDEN
 62
    92
100
AcDbCircle
 10
35.1862649357
 20
18.45917645619999
 30
0.0
 40
0.3528231047999999
100
AcDbArc
 50
187.1451569
 51
275.0172119
  0
ARC
  5
21E
330
A
100
AcDbEntity
  8
11
  6
HIDDEN
 62
    92
100
AcDbCircle
 10
35.4294146369
 20
17.8019391228
 30
0.0
 40
0.3235512688
100
AcDbArc
 50
353.3181458
 51
92.0207214
  0
ARC
  5
21F
330
A
100
AcDbEntity
  8
11
  6
HIDDEN
 62
    92
100
AcDbCircle
 10
35.8007094439
 20
17.32284545899999
 30
0.0
 40
0.0882757313
100
AcDbArc
 50
175.0078735
 51
269.9998778999999
  0
CIRCLE
  5
220
330
A
100
AcDbEntity
  8
11
  6
Continuous
 62
    92
100
AcDbCircle
 10
35.4294146369
 20
17.8019391228
 30
0.0
 40
0.2058823529
  0
ARC
  5
221
330
A
100
AcDbEntity
  8
11
  6
Continuous
 62
    92
100
AcDbCircle
 10
46.5093563304
 20
19.8817048914
 30
0.0
 40
11.7649428425
100
AcDbArc
 50
180.0
 51
189.8530273
  0
ARC
  5
222
330
A
100
AcDbEntity
  8
11
  6
Continuous
 62
    92
100
AcDbCircle
 10
35.6714154412
 20
17.9993124569
 30
0.0
 40
0.7647516895999999
100
AcDbArc
 50
189.8515929999999
 51
270.0002441
  0
ARC
  5
223
330
A
100
AcDbEntity
  8
11
  6
HIDDEN
 62
    92
100
AcDbCircle
 10
28.5071788115
 20
19.8818808163
 30
0.0
 40
11.76663355799999
100
AcDbArc
 50
352.8398743
 51
355.9098206
  0
ARC
  5
224
330
A
100
AcDbEntity
  8
11
  6
HIDDEN
 62
    92
100
AcDbCircle
 10
39.8319738051
 20
18.45917645619999
 30
0.0
 40
0.3528244943
100
AcDbArc
 50
264.9851684999999
 51
352.8572083
  0
ARC
  5
225
330
A
100
AcDbEntity
  8
11
  6
HIDDEN
 62
    92
100
AcDbCircle
 10
39.5888241039
 20
17.8019391228
 30
0.0
 40
0.323554733
100
AcDbArc
 50
87.9813309
 51
186.6839142
  0
ARC
  5
226
330
A
100
AcDbEntity
  8
11
  6
HIDDEN
 62
    92
100
AcDbCircle
 10
39.2175292969
 20
17.32284545899999
 30
0.0
 40
0.0882765826
100
AcDbArc
 50
270.0
 51
4.992004399999999
  0
CIRCLE
  5
227
330
A
100
AcDbEntity
  8
11
  6
Continuous
 62
    92
100
AcDbCircle
 10
39.5888241039
 20
17.8019391228
 30
0.0
 40
0.2058823529
  0
ARC
  5
228
330
A
100
AcDbEntity
  8
11
  6
Continuous
 62
    92
100
AcDbCircle
 10
28.5088842055
 20
19.8817048914
 30
0.0
 40
11.7649482823
100
AcDbArc
 50
350.146698
 51
0.0
  0
ARC
  5
229
330
A
100
AcDbEntity
  8
11
  6
Continuous
 62
    92
100
AcDbCircle
 10
39.34682329959999
 20
17.9993124569
 30
0.0
 40
0.7647507611
100
AcDbArc
 50
270.0
 51
350.1486511
  0
ARC
  5
22A
330
A
100
AcDbEntity
  8
11
  6
HIDDEN
 62
    92
100
AcDbCircle
 10
28.5071788115
 20
19.8814104866
 30
0.0
 40
11.7666698916
100
AcDbArc
 50
4.090088399999999
 51
7.1600399
  0
ARC
  5
22B
330
A
100
AcDbEntity
  8
11
  6
HIDDEN
 62
    92
100
AcDbCircle
 10
39.8319307215
 20
21.3040627872
 30
0.0
 40
0.3528721085
100
AcDbArc
 50
7.152385699999999
 51
95.00952150000001
  0
ARC
  5
22C
330
A
100
AcDbEntity
  8
11
  6
HIDDEN
 62
    92
100
AcDbCircle
 10
39.5888241039
 20
21.9613503849
 30
0.0
 40
0.3235514776
100
AcDbArc
 50
173.3178558
 51
272.020752
  0
ARC
  5
22D
330
A
100
AcDbEntity
  8
11
  6
HIDDEN
 62
    92
100
AcDbCircle
 10
39.2175257066
 20
22.4403901942
 30
0.0
 40
0.0882746382
100
AcDbArc
 50
355.0429076999999
 51
89.99755859999998
  0
CIRCLE
  5
22E
330
A
100
AcDbEntity
  8
11
  6
Continuous
 62
    92
100
AcDbCircle
 10
39.5888241039
 20
21.9613503849
 30
0.0
 40
0.2058823529
  0
ARC
  5
22F
330
A
100
AcDbEntity
  8
11
  6
Continuous
 62
    92
100
AcDbCircle
 10
28.5088842055
 20
19.8815864114
 30
0.0
 40
11.7649410474
100
AcDbArc
 50
0.0
 51
9.8530321
  0
ARC
  5
230
330
A
100
AcDbEntity
  8
11
  6
Continuous
 62
    92
100
AcDbCircle
 10
39.34682329959999
 20
21.7639429429
 30
0.0
 40
0.7647578332
100
AcDbArc
 50
9.854241400000001
 51
90.00025179999999
  0
ARC
  5
231
330
A
100
AcDbEntity
  8
11
  6
Continuous
 62
    92
100
AcDbCircle
 10
9.757884306099999
 20
19.88160077259999
 30
0.0
 40
0.1470588304
100
AcDbArc
 50
90.0
 51
179.9825147163
  0
ARC
  5
232
330
A
100
AcDbEntity
  8
11
  6
Continuous
 62
    92
100
AcDbCircle
 10
10.7579049503
 20
19.88164565139999
 30
0.0
 40
0.1470139462
100
AcDbArc
 50
0.0
 51
90.0080456861
  0
ARC
  5
233
330
A
100
AcDbEntity
  8
11
  6
Continuous
 62
    92
100
AcDbCircle
 10
24.3622921214
 20
22.1169487448
 30
0.0
 40
0.4117566062
100
AcDbArc
 50
12.6830521
 51
89.9998245
  0
ARC
  5
234
330
A
100
AcDbEntity
  8
11
  6
Continuous
 62
    92
100
AcDbCircle
 10
14.4342373119
 20
19.8815864114
 30
0.0
 40
10.5883528766
100
AcDbArc
 50
0.0
 51
12.6886578
  0
ARC
  5
235
330
A
100
AcDbEntity
  8
11
  6
Continuous
 62
    92
100
AcDbCircle
 10
9.7578861012
 20
19.88164565139999
 30
0.0
 40
0.1470606187
100
AcDbArc
 50
180.0
 51
269.9992981
  0
ARC
  5
236
330
A
100
AcDbEntity
  8
11
  6
Continuous
 62
    92
100
AcDbCircle
 10
10.7578591739
 20
19.88164565139999
 30
0.0
 40
0.1470606208
100
AcDbArc
 50
270.0
 51
359.9902038893
  0
ARC
  5
237
330
A
100
AcDbEntity
  8
11
  6
Continuous
 62
    92
100
AcDbCircle
 10
24.362310073
 20
17.6463246065
 30
0.0
 40
0.4117377789
100
AcDbArc
 50
270.0
 51
347.3209228999999
  0
ARC
  5
238
330
A
100
AcDbEntity
  8
11
  6
Continuous
 62
    92
100
AcDbCircle
 10
14.4342373119
 20
19.8817048914
 30
0.0
 40
10.5883535345
100
AcDbArc
 50
347.3110045999999
 51
0.0
  0
CIRCLE
  5
239
330
A
100
AcDbEntity
  8
11
  6
Continuous
 62
    92
100
AcDbCircle
 10
38.450295841
 20
23.6753504136
 30
0.0
 40
0.6764705882
  0
CIRCLE
  5
23A
330
A
100
AcDbEntity
  8
11
  6
Continuous
 62
    92
100
AcDbCircle
 10
38.450295841
 20
23.6753504136
 30
0.0
 40
0.5588235294000001
  0
ARC
  5
23B
330
A
100
AcDbEntity
  8
11
  6
Continuous
 62
    92
100
AcDbCircle
 10
38.8031544405
 20
24.3864871754
 30
0.0
 40
0.0588558928
100
AcDbArc
 50
180.0751454074999
 51
243.6147156
  0
ARC
  5
23C
330
A
100
AcDbEntity
  8
11
  6
Continuous
 62
    92
100
AcDbCircle
 10
38.450295841
 20
23.6753504136
 30
0.0
 40
0.7349866405
100
AcDbArc
 50
116.3848800999999
 51
63.60787959999999
  0
ARC
  5
23D
330
A
100
AcDbEntity
  8
11
  6
Continuous
 62
    92
100
AcDbCircle
 10
38.09759162449999
 20
24.38640998389999
 30
0.0
 40
0.0587425407
100
AcDbArc
 50
296.332428
 51
0.0
  0
ARC
  5
23E
330
A
100
AcDbEntity
  8
11
  6
Continuous
 62
    92
100
AcDbCircle
 10
36.92062916479999
 20
24.384706385
 30
0.0
 40
0.058683534
100
AcDbArc
 50
180.0
 51
243.7118835
  0
ARC
  5
23F
330
A
100
AcDbEntity
  8
11
  6
Continuous
 62
    92
100
AcDbCircle
 10
36.5679428998
 20
23.67370425949999
 30
0.0
 40
0.7349850324
100
AcDbArc
 50
116.3849335
 51
63.61181640000001
  0
ARC
  5
240
330
A
100
AcDbEntity
  8
11
  6
Continuous
 62
    92
100
AcDbCircle
 10
36.2152063706
 20
24.3847620347
 30
0.0
 40
0.0587568818
100
AcDbArc
 50
296.3606567
 51
0.0
  0
ARC
  5
241
330
A
100
AcDbEntity
  8
1
  6
Continuous
 62
    92
100
AcDbCircle
 10
11.9931847067
 20
20.5628069709
 30
0.0
 40
0.1470606187
100
AcDbArc
 50
90.0
 51
180.0
  0
ARC
  5
242
330
A
100
AcDbEntity
  8
1
  6
Continuous
 62
    92
100
AcDbCircle
 10
16.11081112129999
 20
20.56279799519999
 30
0.0
 40
0.1470695955
100
AcDbArc
 50
0.0
 51
89.99300639860001
  0
ARC
  5
243
330
A
100
AcDbEntity
  8
1
  6
Continuous
 62
    92
100
AcDbCircle
 10
16.1108290728
 20
19.209860409
 30
0.0
 40
0.1470534381
100
AcDbArc
 50
270.0
 51
0.0
  0
ARC
  5
244
330
A
100
AcDbEntity
  8
1
  6
Continuous
 62
    92
100
AcDbCircle
 10
11.9931676528
 20
19.2098568187
 30
0.0
 40
0.1470507453
100
AcDbArc
 50
180.0
 51
270.0062866
  0
POINT
  5
245
330
A
100
AcDbEntity
  8
4
100
AcDbPoint
 10
36.5679428998
 20
23.8959978889
 30
0.0
  0
POINT
  5
246
330
A
100
AcDbEntity
  8
4
100
AcDbPoint
 10
36.5679428998
 20
25.2512332692
 30
0.0
  0
POINT
  5
247
330
A
100
AcDbEntity
  8
4
100
AcDbPoint
 10
38.450295841
 20
23.9831740435
 30
0.0
  0
POINT
  5
248
330
A
100
AcDbEntity
  8
4
100
AcDbPoint
 10
38.450295841
 20
25.2512332692
 30
0.0
  0
POINT
  5
249
330
A
100
AcDbEntity
  8
4
100
AcDbPoint
 10
11.6696490119
 20
17.5755274156
 30
0.0
  0
POINT
  5
24A
330
A
100
AcDbEntity
  8
4
100
AcDbPoint
 10
11.6696490119
 20
16.4225284352
 30
0.0
  0
POINT
  5
24B
330
A
100
AcDbEntity
  8
4
100
AcDbPoint
 10
11.1990607767
 20
17.70629164749999
 30
0.0
  0
POINT
  5
24C
330
A
100
AcDbEntity
  8
4
100
AcDbPoint
 10
11.1990607767
 20
16.4225284352
 30
0.0
  0
POINT
  5
24D
330
A
100
AcDbEntity
  8
4
100
AcDbPoint
 10
34.7444134881
 20
19.88164565139999
 30
0.0
  0
POINT
  5
24E
330
A
100
AcDbEntity
  8
4
100
AcDbPoint
 10
34.7444134881
 20
15.4192334343
 30
0.0
  0
POINT
  5
24F
330
A
100
AcDbEntity
  8
4
100
AcDbPoint
 10
40.2738252528
 20
19.88164565139999
 30
0.0
  0
POINT
  5
250
330
A
100
AcDbEntity
  8
4
100
AcDbPoint
 10
40.2738252528
 20
15.4192334343
 30
0.0
  0
POINT
  5
251
330
A
100
AcDbEntity
  8
7
100
AcDbPoint
 10
35.1083661248
 20
22.281474394
 30
0.0
  0
POINT
  5
252
330
A
100
AcDbEntity
  8
7
100
AcDbPoint
 10
30.4706995347
 20
17.62707878559999
 30
0.0
  0
POINT
  5
253
330
A
100
AcDbEntity
  8
7
100
AcDbPoint
 10
39.9172219669
 20
17.4899022719
 30
0.0
  0
POINT
  5
254
330
A
100
AcDbEntity
  8
7
100
AcDbPoint
 10
35.2795553768
 20
12.83550756119999
 30
0.0
  0
POINT
  5
255
330
A
100
AcDbEntity
  8
4
100
AcDbPoint
 10
38.7308277803
 20
24.4103519215
 30
0.0
  0
POINT
  5
256
330
A
100
AcDbEntity
  8
4
100
AcDbPoint
 10
42.184706744
 20
24.4103519215
 30
0.0
  0
POINT
  5
257
330
A
100
AcDbEntity
  8
4
100
AcDbPoint
 10
40.1530043658
 20
19.88164565139999
 30
0.0
  0
POINT
  5
258
330
A
100
AcDbEntity
  8
4
100
AcDbPoint
 10
42.184706744
 20
19.88164565139999
 30
0.0
  0
POINT
  5
259
330
A
100
AcDbEntity
  8
4
100
AcDbPoint
 10
23.4268260283
 20
17.2345868279
 30
0.0
  0
POINT
  5
25A
330
A
100
AcDbEntity
  8
4
100
AcDbPoint
 10
26.9038839901
 20
17.2345868279
 30
0.0
  0
POINT
  5
25B
330
A
100
AcDbEntity
  8
4
100
AcDbPoint
 10
23.8027074477
 20
22.528704475
 30
0.0
  0
POINT
  5
25C
330
A
100
AcDbEntity
  8
4
100
AcDbPoint
 10
26.9038839901
 20
22.528704475
 30
0.0
  0
POINT
  5
25D
330
A
100
AcDbEntity
  8
4
100
AcDbPoint
 10
11.1990607767
 20
22.7229973288
 30
0.0
  0
POINT
  5
25E
330
A
100
AcDbEntity
  8
4
100
AcDbPoint
 10
11.1990607767
 20
25.2512332692
 30
0.0
  0
POINT
  5
25F
330
A
100
AcDbEntity
  8
4
100
AcDbPoint
 10
19.1402372472
 20
22.32170374249999
 30
0.0
  0
POINT
  5
260
330
A
100
AcDbEntity
  8
4
100
AcDbPoint
 10
19.1402372472
 20
25.2512332692
 30
0.0
  0
POINT
  5
261
330
A
100
AcDbEntity
  8
4
100
AcDbPoint
 10
11.1990607767
 20
22.8835269704
 30
0.0
  0
POINT
  5
262
330
A
100
AcDbEntity
  8
4
100
AcDbPoint
 10
11.1990607767
 20
26.2946454216
 30
0.0
  0
POINT
  5
263
330
A
100
AcDbEntity
  8
4
100
AcDbPoint
 10
22.6108254825
 20
22.32170374249999
 30
0.0
  0
POINT
  5
264
330
A
100
AcDbEntity
  8
4
100
AcDbPoint
 10
22.6108254825
 20
26.2946454216
 30
0.0
  0
POINT
  5
265
330
A
100
AcDbEntity
  8
4
100
AcDbPoint
 10
9.4343548943
 20
16.6632923799
 30
0.0
  0
POINT
  5
266
330
A
100
AcDbEntity
  8
4
100
AcDbPoint
 10
9.4343548943
 20
15.4192334343
 30
0.0
  0
POINT
  5
267
330
A
100
AcDbEntity
  8
4
100
AcDbPoint
 10
25.0225901884
 20
19.88164565139999
 30
0.0
  0
POINT
  5
268
330
A
100
AcDbEntity
  8
4
100
AcDbPoint
 10
25.0225901884
 20
15.4192334343
 30
0.0
  0
POINT
  5
269
330
A
100
AcDbEntity
  8
4
100
AcDbPoint
 10
4.250883214600001
 20
20.028704475
 30
0.0
  0
POINT
  5
26A
330
A
100
AcDbEntity
  8
4
100
AcDbPoint
 10
4.973237879099997
 20
20.028704475
 30
0.0
  0
POINT
  5
26B
330
A
100
AcDbEntity
  8
4
100
AcDbPoint
 10
4.318057789499999
 20
19.73458682789999
 30
0.0
  0
POINT
  5
26C
330
A
100
AcDbEntity
  8
4
100
AcDbPoint
 10
4.973237879099997
 20
19.73458682789999
 30
0.0
  0
POINT
  5
26D
330
A
100
AcDbEntity
  8
4
100
AcDbPoint
 10
3.376884909200001
 20
19.88164565139999
 30
0.0
  0
POINT
  5
26E
330
A
100
AcDbEntity
  8
4
100
AcDbPoint
 10
3.376884909200001
 20
21.1579392377
 30
0.0
  0
POINT
  5
26F
330
A
100
AcDbEntity
  8
4
100
AcDbPoint
 10
4.318057789499999
 20
19.88164565139999
 30
0.0
  0
POINT
  5
270
330
A
100
AcDbEntity
  8
4
100
AcDbPoint
 10
4.318057789499999
 20
21.1579392377
 30
0.0
  0
POINT
  5
271
330
A
100
AcDbEntity
  8
4
100
AcDbPoint
 10
35.6347225414
 20
17.7872924805
 30
0.0
  0
POINT
  5
272
330
A
100
AcDbEntity
  8
4
100
AcDbPoint
 10
35.6347225414
 20
16.5184092802
 30
0.0
  0
POINT
  5
273
330
A
100
AcDbEntity
  8
4
100
AcDbPoint
 10
35.2236112707
 20
17.80829216449999
 30
0.0
  0
POINT
  5
274
330
A
100
AcDbEntity
  8
4
100
AcDbPoint
 10
35.2236112707
 20
16.5184092802
 30
0.0
  0
POINT
  5
275
330
A
100
AcDbEntity
  8
4
100
AcDbPoint
 10
9.750001795199999
 20
19.46988094549999
 30
0.0
  0
POINT
  5
276
330
A
100
AcDbEntity
  8
4
100
AcDbPoint
 10
8.540237426799999
 20
19.46988094549999
 30
0.0
  0
POINT
  5
277
330
A
100
AcDbEntity
  8
4
100
AcDbPoint
 10
9.877001594099999
 20
20.2934103573
 30
0.0
  0
POINT
  5
278
330
A
100
AcDbEntity
  8
4
100
AcDbPoint
 10
8.540237426799999
 20
20.2934103573
 30
0.0
  0
POINT
  5
279
330
A
100
AcDbEntity
  8
4
100
AcDbPoint
 10
11.0319429285
 20
22.2345868279
 30
0.0
  0
POINT
  5
27A
330
A
100
AcDbEntity
  8
4
100
AcDbPoint
 10
7.7777665082
 20
22.2345868279
 30
0.0
  0
POINT
  5
27B
330
A
100
AcDbEntity
  8
4
100
AcDbPoint
 10
11.0996488683
 20
17.528704475
 30
0.0
  0
POINT
  5
27C
330
A
100
AcDbEntity
  8
4
100
AcDbPoint
 10
7.7777665082
 20
17.528704475
 30
0.0
  0
POINT
  5
27D
330
A
100
AcDbEntity
  8
4
100
AcDbPoint
 10
9.4343548943
 20
19.713233499
 30
0.0
  0
POINT
  5
27E
330
A
100
AcDbEntity
  8
4
100
AcDbPoint
 10
9.4343548943
 20
16.4225284352
 30
0.0
  0
POINT
  5
27F
330
A
100
AcDbEntity
  8
4
100
AcDbPoint
 10
11.1990607767
 20
18.54946899409999
 30
0.0
  0
POINT
  5
280
330
A
100
AcDbEntity
  8
4
100
AcDbPoint
 10
11.1990607767
 20
16.4225284352
 30
0.0
  0
POINT
  5
281
330
A
100
AcDbEntity
  8
4
100
AcDbPoint
 10
11.02259018839999
 20
21.7598805147
 30
0.0
  0
POINT
  5
282
330
A
100
AcDbEntity
  8
4
100
AcDbPoint
 10
11.02259018839999
 20
23.7664094813
 30
0.0
  0
POINT
  5
283
330
A
100
AcDbEntity
  8
4
100
AcDbPoint
 10
11.1990607767
 20
22.0006444594
 30
0.0
  0
POINT
  5
284
330
A
100
AcDbEntity
  8
4
100
AcDbPoint
 10
11.1990607767
 20
23.7664094813
 30
0.0
  0
POINT
  5
285
330
A
100
AcDbEntity
  8
4
100
AcDbPoint
 10
9.4343548943
 20
20.11452708519999
 30
0.0
  0
POINT
  5
286
330
A
100
AcDbEntity
  8
4
100
AcDbPoint
 10
9.4343548943
 20
21.2381753361
 30
0.0
  0
POINT
  5
287
330
A
100
AcDbEntity
  8
4
100
AcDbPoint
 10
9.610825482499999
 20
19.88164565139999
 30
0.0
  0
POINT
  5
288
330
A
100
AcDbEntity
  8
4
100
AcDbPoint
 10
9.610825482499999
 20
21.2381753361
 30
0.0
  0
POINT
  5
289
330
A
100
AcDbEntity
  8
4
100
AcDbPoint
 10
9.610825482499999
 20
19.88164565139999
 30
0.0
  0
POINT
  5
28A
330
A
100
AcDbEntity
  8
4
100
AcDbPoint
 10
9.610825482499999
 20
21.2381753361
 30
0.0
  0
POINT
  5
28B
330
A
100
AcDbEntity
  8
4
100
AcDbPoint
 10
10.9049431296
 20
19.88164565139999
 30
0.0
  0
POINT
  5
28C
330
A
100
AcDbEntity
  8
4
100
AcDbPoint
 10
10.9049431296
 20
21.2381753361
 30
0.0
  0
MTEXT
  5
28E
330
A
100
AcDbEntity
  8
6
 62
    92
100
AcDbMText
 10
8.907196879199997
 20
10.4864331552
 30
0.0
 40
0.3781514659
 41
0.0
 71
     1
 72
     5
  1
Typ
  7
SLDTEXTSTYLE0
 73
     1
 44
1.0
  0
MTEXT
  5
28F
330
A
100
AcDbEntity
  8
6
 62
    92
100
AcDbMText
 10
8.907196879199997
 20
9.702080235499998
 30
0.0
 40
0.3781514659
 41
0.0
 71
     1
 72
     5
  1
LSM 100-22-454-E2/S/M-OKA
  7
SLDTEXTSTYLE0
 73
     1
 44
1.0
  0
MTEXT
  5
290
330
A
100
AcDbEntity
  8
6
 62
    92
100
AcDbMText
 10
8.907196879199997
 20
7.349115273299999
 30
0.0
 40
0.3781514659
 41
0.0
 71
     1
 72
     5
  1
LSM 100-22-454-E2/S/M-2KA
  7
SLDTEXTSTYLE0
 73
     1
 44
1.0
  0
MTEXT
  5
291
330
A
100
AcDbEntity
  8
6
 62
    92
100
AcDbMText
 10
8.907196879199997
 20
6.5648269791
 30
0.0
 40
0.3781514659
 41
0.0
 71
     1
 72
     5
  1
LSM 100-35-454-E2/S/M-2KA
  7
SLDTEXTSTYLE0
 73
     1
 44
1.0
  0
MTEXT
  5
292
330
A
100
AcDbEntity
  8
6
 62
    92
100
AcDbMText
 10
8.907196879199997
 20
5.7805332995
 30
0.0
 40
0.3781514659
 41
0.0
 71
     1
 72
     5
  1
LSM 100-46-454-E2/S/M-2KA
  7
SLDTEXTSTYLE0
 73
     1
 44
1.0
  0
MTEXT
  5
293
330
A
100
AcDbEntity
  8
6
 62
    92
100
AcDbMText
 10
8.907196879199997
 20
8.917786107099999
 30
0.0
 40
0.3781514659
 41
0.0
 71
     1
 72
     5
  1
LSM 100-35-454-E2/S/M-OKA
  7
SLDTEXTSTYLE0
 73
     1
 44
1.0
  0
MTEXT
  5
294
330
A
100
AcDbEntity
  8
6
 62
    92
100
AcDbMText
 10
8.907196879199997
 20
8.1334919787
 30
0.0
 40
0.3781514659
 41
0.0
 71
     1
 72
     5
  1
LSM 100-46-454-E2/S/M-OKA
  7
SLDTEXTSTYLE0
 73
     1
 44
1.0
  0
MTEXT
  5
29C
330
A
100
AcDbEntity
  8
6
 62
    92
100
AcDbMText
 10
16.4105690715
 20
10.4864331552
 30
0.0
 40
0.3781514659
 41
0.0
 71
     1
 72
     5
  1
a [mm]
  7
SLDTEXTSTYLE0
 73
     1
 44
1.0
  0
MTEXT
  5
29D
330
A
100
AcDbEntity
  8
6
 62
    92
100
AcDbMText
 10
16.4105690715
 20
9.702139475499999
 30
0.0
 40
0.3781514659
 41
0.0
 71
     1
 72
     5
  1
164
  7
SLDTEXTSTYLE0
 73
     1
 44
1.0
  0
MTEXT
  5
29E
330
A
100
AcDbEntity
  8
6
 62
    92
100
AcDbMText
 10
16.4105690715
 20
8.917786107099999
 30
0.0
 40
0.3781514659
 41
0.0
 71
     1
 72
     5
  1
194
  7
SLDTEXTSTYLE0
 73
     1
 44
1.0
  0
MTEXT
  5
29F
330
A
100
AcDbEntity
  8
6
 62
    92
100
AcDbMText
 10
16.4105690715
 20
8.1334919787
 30
0.0
 40
0.3781514659
 41
0.0
 71
     1
 72
     5
  1
224
  7
SLDTEXTSTYLE0
 73
     1
 44
1.0
  0
MTEXT
  5
2A0
330
A
100
AcDbEntity
  8
6
 62
    92
100
AcDbMText
 10
16.4105690715
 20
7.3491915672
 30
0.0
 40
0.3781514659
 41
0.0
 71
     1
 72
     5
  1
210
  7
SLDTEXTSTYLE0
 73
     1
 44
1.0
  0
MTEXT
  5
2A1
330
A
100
AcDbEntity
  8
6
 62
    92
100
AcDbMText
 10
16.4105690715
 20
6.5648386476
 30
0.0
 40
0.3781514659
 41
0.0
 71
     1
 72
     5
  1
260
  7
SLDTEXTSTYLE0
 73
     1
 44
1.0
  0
MTEXT
  5
2A2
330
A
100
AcDbEntity
  8
6
 62
    92
100
AcDbMText
 10
16.4105690715
 20
5.780539133699999
 30
0.0
 40
0.3781514659
 41
0.0
 71
     1
 72
     5
  1
290
  7
SLDTEXTSTYLE0
 73
     1
 44
1.0
  0
MTEXT
  5
2A3
330
A
100
AcDbEntity
  8
6
 62
    92
100
AcDbMText
 10
22.32092099309999
 20
10.4864331552
 30
0.0
 40
0.3781514659
 41
0.0
 71
     1
 72
     5
  1
c [mm]
  7
SLDTEXTSTYLE0
 73
     1
 44
1.0
  0
MTEXT
  5
2A4
330
A
100
AcDbEntity
  8
6
 62
    92
100
AcDbMText
 10
22.32092099309999
 20
9.702139475499999
 30
0.0
 40
0.3781514659
 41
0.0
 71
     1
 72
     5
  1
235
  7
SLDTEXTSTYLE0
 73
     1
 44
1.0
  0
MTEXT
  5
2A5
330
A
100
AcDbEntity
  8
6
 62
    92
100
AcDbMText
 10
22.32092099309999
 20
8.917786107099999
 30
0.0
 40
0.3781514659
 41
0.0
 71
     1
 72
     5
  1
265
  7
SLDTEXTSTYLE0
 73
     1
 44
1.0
  0
MTEXT
  5
2A6
330
A
100
AcDbEntity
  8
6
 62
    92
100
AcDbMText
 10
22.32092099309999
 20
8.1334919787
 30
0.0
 40
0.3781514659
 41
0.0
 71
     1
 72
     5
  1
295
  7
SLDTEXTSTYLE0
 73
     1
 44
1.0
  0
MTEXT
  5
2A7
330
A
100
AcDbEntity
  8
6
 62
    92
100
AcDbMText
 10
22.32092099309999
 20
7.349185733
 30
0.0
 40
0.3781514659
 41
0.0
 71
     1
 72
     5
  1
302
  7
SLDTEXTSTYLE0
 73
     1
 44
1.0
  0
MTEXT
  5
2A8
330
A
100
AcDbEntity
  8
6
 62
    92
100
AcDbMText
 10
22.32092099309999
 20
6.564832813399999
 30
0.0
 40
0.3781514659
 41
0.0
 71
     1
 72
     5
  1
332
  7
SLDTEXTSTYLE0
 73
     1
 44
1.0
  0
MTEXT
  5
2A9
330
A
100
AcDbEntity
  8
6
 62
    92
100
AcDbMText
 10
22.32092099309999
 20
5.7805328507
 30
0.0
 40
0.3781514659
 41
0.0
 71
     1
 72
     5
  1
362
  7
SLDTEXTSTYLE0
 73
     1
 44
1.0
  0
MTEXT
  5
2AA
330
A
100
AcDbEntity
  8
6
 62
    92
100
AcDbMText
 10
19.3657441347
 20
10.4864331552
 30
0.0
 40
0.3781514659
 41
0.0
 71
     1
 72
     5
  1
b [mm]
  7
SLDTEXTSTYLE0
 73
     1
 44
1.0
  0
MTEXT
  5
2AB
330
A
100
AcDbEntity
  8
6
 62
    92
100
AcDbMText
 10
19.3657441347
 20
9.702139475499999
 30
0.0
 40
0.3781514659
 41
0.0
 71
     1
 72
     5
  1
105
  7
SLDTEXTSTYLE0
 73
     1
 44
1.0
  0
MTEXT
  5
2AC
330
A
100
AcDbEntity
  8
6
 62
    92
100
AcDbMText
 10
19.3657441347
 20
8.917786107099999
 30
0.0
 40
0.3781514659
 41
0.0
 71
     1
 72
     5
  1
135
  7
SLDTEXTSTYLE0
 73
     1
 44
1.0
  0
MTEXT
  5
2AD
330
A
100
AcDbEntity
  8
6
 62
    92
100
AcDbMText
 10
19.3657441347
 20
8.1334919787
 30
0.0
 40
0.3781514659
 41
0.0
 71
     1
 72
     5
  1
165
  7
SLDTEXTSTYLE0
 73
     1
 44
1.0
  0
MTEXT
  5
2AE
330
A
100
AcDbEntity
  8
6
 62
    92
100
AcDbMText
 10
19.3657441347
 20
7.349185733
 30
0.0
 40
0.3781514659
 41
0.0
 71
     1
 72
     5
  1
105
  7
SLDTEXTSTYLE0
 73
     1
 44
1.0
  0
MTEXT
  5
2AF
330
A
100
AcDbEntity
  8
6
 62
    92
100
AcDbMText
 10
19.3657441347
 20
6.564832813399999
 30
0.0
 40
0.3781514659
 41
0.0
 71
     1
 72
     5
  1
135
  7
SLDTEXTSTYLE0
 73
     1
 44
1.0
  0
MTEXT
  5
2B0
330
A
100
AcDbEntity
  8
6
 62
    92
100
AcDbMText
 10
19.3657441347
 20
5.7805328507
 30
0.0
 40
0.3781514659
 41
0.0
 71
     1
 72
     5
  1
165
  7
SLDTEXTSTYLE0
 73
     1
 44
1.0
  0
MTEXT
  5
2B1
330
A
100
AcDbEntity
  8
6
 62
    92
100
AcDbMText
 10
26.9323443244
 20
26.3253102022
 30
0.0
 40
0.4117647059000001
 41
0.0
 71
     2
 72
     5
  1
encoder
  7
SLDTEXTSTYLE0
 73
     1
 44
1.0
  0
MTEXT
  5
2B2
330
A
100
AcDbEntity
  8
6
 62
    92
100
AcDbMText
 10
26.9762250115
 20
26.9833697151
 30
0.0
 40
0.4117647059000001
 41
0.0
 71
     2
 72
     5
  1
connector for
  7
SLDTEXTSTYLE0
 73
     1
 44
1.0
  0
MTEXT
  5
2B3
330
A
100
AcDbEntity
  8
6
 62
    92
100
AcDbMText
 10
26.6107536765
 20
31.3053028794
 30
0.0
 40
0.3912382266
 41
0.0
 71
     2
 72
     5
  1
Three phase current synchronous motor
  7
SLDTEXTSTYLE0
 73
     1
 44
1.0
  0
MTEXT
  5
2B4
330
A
100
AcDbEntity
  8
6
 62
    92
100
AcDbMText
 10
20.581049302
 20
31.2244754381
 30
0.0
 40
0.2667573445
 41
0.0
 71
     2
 72
     5
  1
motortyp :
  7
SLDTEXTSTYLE0
 73
     1
 44
1.0
  0
MTEXT
  5
2B5
330
A
100
AcDbEntity
  8
6
 62
    92
100
AcDbMText
 10
9.575401754899999
 20
30.43753257389999
 30
0.0
 40
0.3734602822999999
 41
0.0
 71
     2
 72
     5
  1
IP 65
  7
SLDTEXTSTYLE0
 73
     1
 44
1.0
  0
MTEXT
  5
2B6
330
A
100
AcDbEntity
  8
6
 62
    92
100
AcDbMText
 10
4.127026087399999
 20
31.2902053041
 30
0.0
 40
0.2667573445
 41
0.0
 71
     1
 72
     5
  1
mounting of motor :
  7
SLDTEXTSTYLE0
 73
     1
 44
1.0
  0
MTEXT
  5
2B7
330
A
100
AcDbEntity
  8
6
 62
    92
100
AcDbMText
 10
4.127026087399999
 20
30.43656042809999
 30
0.0
 40
0.2667573445
 41
0.0
 71
     1
 72
     5
  1
class of protection:
  7
SLDTEXTSTYLE0
 73
     1
 44
1.0
  0
MTEXT
  5
2B8
330
A
100
AcDbEntity
  8
6
 62
    92
100
AcDbMText
 10
9.587990255900001
 20
31.2940622586
 30
0.0
 40
0.3734602822999999
 41
0.0
 71
     2
 72
     5
  1
B 5
  7
SLDTEXTSTYLE0
 73
     1
 44
1.0
  0
MTEXT
  5
2B9
330
A
100
AcDbEntity
  8
6
 62
    92
100
AcDbMText
 10
7.220107583399999
 20
28.5320429434
 30
0.0
 40
0.384129114
 41
0.0
 71
     2
 72
     5
  1
     all dimensions in millimeter
  7
SLDTEXTSTYLE0
 73
     1
 44
1.0
  0
MTEXT
  5
2BA
330
A
100
AcDbEntity
  8
6
 62
    92
100
AcDbMText
 10
6.934117934299997
 20
25.56202886734999
 30
0.0
 40
0.3924706052
 41
0.0
 71
     2
 72
     5
  1
+0.001
  7
SLDTEXTSTYLE0
 73
     1
 44
1.0
  0
MTEXT
  5
2BB
330
A
100
AcDbEntity
  8
6
 62
    92
100
AcDbMText
 10
6.934117934299997
 20
24.85014711765
 30
0.0
 40
0.3924706052
 41
0.0
 71
     2
 72
     5
  1
+0.012
  7
SLDTEXTSTYLE0
 73
     1
 44
1.0
  0
MTEXT
  5
2BC
330
A
100
AcDbEntity
  8
6
 62
    92
100
AcDbMText
 10
6.934117934299997
 20
24.28567604104999
 30
0.0
 40
0.3924706052
 41
0.0
 71
     2
 72
     5
  1
-0.007
  7
SLDTEXTSTYLE0
 73
     1
 44
1.0
  0
MTEXT
  5
2BD
330
A
100
AcDbEntity
  8
6
 62
    92
100
AcDbMText
 10
3.584056181099995
 20
24.56826522425
 30
0.0
 40
0.3924706052
 41
0.0
 71
     2
 72
     5
  1
80
  7
SLDTEXTSTYLE0
 73
     1
 44
1.0
  0
MTEXT
  5
2BE
330
A
100
AcDbEntity
  8
6
 62
    92
100
AcDbMText
 10
4.221647374799999
 20
24.34914629255
 30
0.0
 40
0.2943529452
 41
0.0
 71
     2
 72
     5
  1
j6
  7
SLDTEXTSTYLE0
 73
     1
 44
1.0
  0
MTEXT
  5
2BF
330
A
100
AcDbEntity
  8
6
 62
    92
100
AcDbMText
 10
3.584056181099995
 20
25.82414793614999
 30
0.0
 40
0.3924706052
 41
0.0
 71
     2
 72
     5
  1
14
  7
SLDTEXTSTYLE0
 73
     1
 44
1.0
  0
MTEXT
  5
2C0
330
A
100
AcDbEntity
  8
6
 62
    92
100
AcDbMText
 10
4.221647374799999
 20
25.60508824444999
 30
0.0
 40
0.2943529452
 41
0.0
 71
     2
 72
     5
  1
k6
  7
SLDTEXTSTYLE0
 73
     1
 44
1.0
  0
MTEXT
  5
2C1
330
A
100
AcDbEntity
  8
6
 62
    92
100
AcDbMText
 10
6.934117934299997
 20
26.05291129215
 30
0.0
 40
0.3924706052
 41
0.0
 71
     2
 72
     5
  1
+0.012
  7
SLDTEXTSTYLE0
 73
     1
 44
1.0
  0
MTEXT
  5
2C2
330
A
100
AcDbEntity
  8
6
 62
    92
100
AcDbMText
 10
10.48841319359999
 20
14.5792833426
 30
0.0
 40
0.3949235327
 41
0.0
 71
     2
 72
     5
  1
  center hole D M5 DIN 332 Bl.2
  7
SLDTEXTSTYLE0
 73
     1
 44
1.0
  0
MTEXT
  5
2C9
330
A
100
AcDbEntity
  8
6
 62
    92
100
AcDbMText
 10
39.5564323874
 20
8.3478551875
 30
0.0
 40
0.3885473609
 41
0.0
 71
     2
 72
     5
  1
projection
  7
SLDTEXTSTYLE0
 73
     1
 44
1.0
  0
MTEXT
  5
2CD
330
A
100
AcDbEntity
  8
6
 62
    92
100
AcDbMText
 10
15.02582146139999
 20
4.6587958511
 30
0.0
 40
0.3753008913
 41
0.0
 71
     2
 72
     5
  1
subject to alterations
  7
SLDTEXTSTYLE0
 73
     1
 44
1.0
  0
MTEXT
  5
2D2
330
A
100
AcDbEntity
  8
4
 62
    92
100
AcDbMText
 10
37.34370452409999
 20
25.6432917107
 30
0.0
 40
0.2941173596
 41
0.0
 71
     1
 72
     5
  1
32
  7
SLDTEXTSTYLE0
 73
     1
 44
1.0
  0
MTEXT
  5
2D3
330
A
100
AcDbEntity
  8
4
 62
    92
100
AcDbMText
 10
12.1793547998
 20
16.8145868768
 30
0.0
 40
0.2941173596
 41
0.0
 71
     1
 72
     5
  1
8
  7
SLDTEXTSTYLE0
 73
     1
 44
1.0
  0
MTEXT
  5
2D4
330
A
100
AcDbEntity
  8
4
 62
    92
100
AcDbMText
 10
37.34370452409999
 20
15.8112918759
 30
0.0
 40
0.2941173596
 41
0.0
 71
     1
 72
     5
  1
94
  7
SLDTEXTSTYLE0
 73
     1
 44
1.0
  0
MTEXT
  5
2D5
330
A
100
AcDbEntity
  8
7
 62
    92
100
AcDbMText
 10
32.9643432277
 20
15.69585673999999
 30
0.0
 40
0.2941176541
 41
0.0
 71
     1
 72
     5
  1
115
  7
SLDTEXTSTYLE0
 11
0.708378636596227
 21
-0.7058326339962405
 31
0.0
 73
     1
 44
1.0
  0
MTEXT
  5
2D6
330
A
100
AcDbEntity
  8
4
 62
    92
100
AcDbMText
 10
41.7926483201
 20
21.9805274105
 30
0.0
 40
0.2941173596
 41
0.0
 71
     1
 72
     5
  1
77
  7
SLDTEXTSTYLE0
 11
0.0
 21
1.0
 31
0.0
 73
     1
 44
1.0
  0
MTEXT
  5
2D7
330
A
100
AcDbEntity
  8
4
 62
    92
100
AcDbMText
 10
38.15180151389999
 20
20.7540147188
 30
0.0
 40
0.2941173596
 41
0.0
 71
     1
 72
     5
  1
%%c100
  7
SLDTEXTSTYLE0
 11
0.8442484181545635
 21
0.5359520579711558
 31
0.0
 73
     1
 44
1.0
  0
MTEXT
  5
2D8
330
A
100
AcDbEntity
  8
4
 62
    92
100
AcDbMText
 10
26.5118255662
 20
19.716175173
 30
0.0
 40
0.2941173596
 41
0.0
 71
     1
 72
     5
  1
90
  7
SLDTEXTSTYLE0
 11
0.0
 21
1.0
 31
0.0
 73
     1
 44
1.0
  0
MTEXT
  5
2D9
330
A
100
AcDbEntity
  8
4
 62
    92
100
AcDbMText
 10
14.90494352809999
 20
25.64329210329999
 30
0.0
 40
0.2941176541
 41
0.0
 71
     1
 72
     5
  1
b
  7
SLDTEXTSTYLE0
 73
     1
 44
1.0
  0
MTEXT
  5
2DA
330
A
100
AcDbEntity
  8
4
 62
    92
100
AcDbMText
 10
16.6402367482
 20
26.6867042558
 30
0.0
 40
0.2941176541
 41
0.0
 71
     1
 72
     5
  1
a
  7
SLDTEXTSTYLE0
 73
     1
 44
1.0
  0
MTEXT
  5
2DB
330
A
100
AcDbEntity
  8
4
 62
    92
100
AcDbMText
 10
16.96376616
 20
15.81129226849999
 30
0.0
 40
0.2941176541
 41
0.0
 71
     1
 72
     5
  1
c
  7
SLDTEXTSTYLE0
 73
     1
 44
1.0
  0
MTEXT
  5
2DC
330
A
100
AcDbEntity
  8
4
 62
    92
100
AcDbMText
 10
4.5811794552
 20
20.5384102804
 30
0.0
 40
0.2941173596
 41
0.0
 71
     1
 72
     5
  1
5
  7
SLDTEXTSTYLE0
 11
0.0
 21
1.0
 31
0.0
 73
     1
 44
1.0
  0
MTEXT
  5
2DD
330
A
100
AcDbEntity
  8
4
 62
    92
100
AcDbMText
 10
3.6820600934
 20
21.5499976793
 30
0.0
 40
0.2941173596
 41
0.0
 71
     1
 72
     5
  1
16
  7
SLDTEXTSTYLE0
 73
     1
 44
1.0
  0
MTEXT
  5
2DE
330
A
100
AcDbEntity
  8
4
 62
    92
100
AcDbMText
 10
36.1444283292
 20
16.91046772179999
 30
0.0
 40
0.2941173596
 41
0.0
 71
     1
 72
     5
  1
%%c7
  7
SLDTEXTSTYLE0
 73
     1
 44
1.0
  0
MTEXT
  5
2DF
330
A
100
AcDbEntity
  8
4
 62
    92
100
AcDbMText
 10
8.148179002799999
 20
18.0619985732
 30
0.0
 40
0.2941173596
 41
0.0
 71
     1
 72
     5
  1
%%c14
  7
SLDTEXTSTYLE0
 11
0.0
 21
1.0
 31
0.0
 73
     1
 44
1.0
  0
MTEXT
  5
2E0
330
A
100
AcDbEntity
  8
4
 62
    92
100
AcDbMText
 10
8.2657962617
 20
18.7579096381
 30
0.0
 40
0.2058823529
 41
0.0
 71
     1
 72
     5
  1
k6
  7
SLDTEXTSTYLE0
 11
0.0
 21
1.0
 31
0.0
 73
     1
 44
1.0
  0
MTEXT
  5
2E1
330
A
100
AcDbEntity
  8
4
 62
    92
100
AcDbMText
 10
7.385708084299999
 20
19.4325268504
 30
0.0
 40
0.2941173596
 41
0.0
 71
     1
 72
     5
  1
%%c80
  7
SLDTEXTSTYLE0
 11
0.0
 21
1.0
 31
0.0
 73
     1
 44
1.0
  0
MTEXT
  5
2E2
330
A
100
AcDbEntity
  8
4
 62
    92
100
AcDbMText
 10
7.5033253432
 20
20.1284397105
 30
0.0
 40
0.2058823529
 41
0.0
 71
     1
 72
     5
  1
j6
  7
SLDTEXTSTYLE0
 11
0.0
 21
1.0
 31
0.0
 73
     1
 44
1.0
  0
MTEXT
  5
2E3
330
A
100
AcDbEntity
  8
4
 62
    92
100
AcDbMText
 10
10.1512956819
 20
16.8145868768
 30
0.0
 40
0.2941173596
 41
0.0
 71
     1
 72
     5
  1
30
  7
SLDTEXTSTYLE0
 73
     1
 44
1.0
  0
MTEXT
  5
2E4
330
A
100
AcDbEntity
  8
4
 62
    92
100
AcDbMText
 10
10.3805311627
 20
24.1584679228
 30
0.0
 40
0.2941173596
 41
0.0
 71
     1
 72
     5
  1
3
  7
SLDTEXTSTYLE0
 73
     1
 44
1.0
  0
MTEXT
  5
2E5
330
A
100
AcDbEntity
  8
4
 62
    92
100
AcDbMText
 10
8.7922958686
 20
21.6302337776
 30
0.0
 40
0.2941173596
 41
0.0
 71
     1
 72
     5
  1
3
  7
SLDTEXTSTYLE0
 73
     1
 44
1.0
  0
MTEXT
  5
2E6
330
A
100
AcDbEntity
  8
4
 62
    92
100
AcDbMText
 10
10.0924721525
 20
21.6302337776
 30
0.0
 40
0.2941173596
 41
0.0
 71
     1
 72
     5
  1
22
  7
SLDTEXTSTYLE0
 73
     1
 44
1.0
  0
MTEXT
  5
2E7
330
A
100
AcDbEntity
  8
6
 62
    92
100
AcDbMText
 10
13.95106775619999
 20
20.0627984387
 30
0.0
 40
0.3529420635
 41
0.0
 71
     2
 72
     5
  1
rating plate
  7
SLDTEXTSTYLE0
 73
     1
 44
1.0
  0
MTEXT
  5
2E8
330
A
100
AcDbEntity
  8
6
 62
    92
100
AcDbMText
 10
25.3894868739
 20
30.3304227941
 30
0.0
 40
0.8823529412
 41
0.0
 71
     2
 72
     5
  1
LSM100 
  7
SLDTEXTSTYLE0
 73
     1
 44
1.0
  0
INSERT
  5
438
330
A
100
AcDbEntity
  8
0
  6
Continuous
100
AcDbBlockReference
 66
     1
  2
BM_E
 10
0.0
 20
0.0
 30
0.0
  0
ATTRIB
  5
43A
330
438
100
AcDbEntity
  8
TITLE BLOCK
  6
Continuous
100
AcDbText
 10
35.34999999999999
 20
3.250068621953476
 30
0.0
 40
0.2021222838
  1
G. MUMM
100
AcDbAttribute
  2
GEN-TITLE-NAME{5}
 70
     0
  0
ATTRIB
  5
43B
330
438
100
AcDbEntity
  8
TITLE BLOCK
  6
Continuous
100
AcDbText
 10
35.34999999999999
 20
2.750068621953476
 30
0.0
 40
0.2021222838
  1

100
AcDbAttribute
  2
GEN-TITLE-CHKM{5}
 70
     0
  0
ATTRIB
  5
43C
330
438
100
AcDbEntity
  8
TITLE BLOCK
  6
Continuous
100
AcDbText
 10
35.34999999999999
 20
2.250068621953476
 30
0.0
 40
0.2021222838
  1

100
AcDbAttribute
  2
GEN-TITLE-APPM{5}
 70
     0
  0
ATTRIB
  5
43D
330
438
100
AcDbEntity
  8
TITLE BLOCK
  6
Continuous
100
AcDbText
 10
32.0
 20
1.25
 30
0.0
 40
0.3
  1
SERVO MOTOR, LSM100
 41
0.8
100
AcDbAttribute
  2
GEN-TITLE-DES1{15.54}
 70
     0
  0
ATTRIB
  5
43E
330
438
100
AcDbEntity
  8
TITLE BLOCK
  6
Continuous
100
AcDbText
 10
42.29999999999999
 20
2.250068621953476
 30
0.0
 40
0.2361798886203
  1
1
 41
0.8
100
AcDbAttribute
  2
GEN-TITLE-SHEET-OF{2.62}
 70
     0
  0
ATTRIB
  5
43F
330
438
100
AcDbEntity
  8
TITLE BLOCK
  6
Continuous
100
AcDbText
 10
41.5
 20
2.250068621953476
 30
0.0
 40
0.2361798886203
  1
1
 41
0.8
100
AcDbAttribute
  2
GEN-TITLE-SHEET{2.62}
 70
     0
  0
ATTRIB
  5
440
330
438
100
AcDbEntity
  8
TITLE BLOCK
  6
Continuous
100
AcDbText
 10
38.4
 20
2.250068621953476
 30
0.0
 40
0.2021222838
  1

 41
0.8
100
AcDbAttribute
  2
GEN-TITLE-MAT{11.15}
 70
     0
  0
ATTRIB
  5
441
330
438
100
AcDbEntity
  8
TITLE BLOCK
  6
Continuous
100
AcDbText
 10
38.4
 20
2.750068621953476
 30
0.0
 40
0.2021222838
  1

100
AcDbAttribute
  2
GEN-TITLE-MACH{5}
 70
     0
  0
ATTRIB
  5
442
330
438
100
AcDbEntity
  8
TITLE BLOCK
  6
Continuous
100
AcDbText
 10
38.4
 20
3.250068621953476
 30
0.0
 40
0.2021222838
  1
70402222
100
AcDbAttribute
  2
GEN-TITLE-REF{5}
 70
     0
  0
ATTRIB
  5
443
330
438
100
AcDbEntity
  8
TITLE BLOCK
  6
Continuous
100
AcDbText
 10
41.35
 20
2.750068621953476
 30
0.0
 40
0.2021222838
  1
14.01.03
100
AcDbAttribute
  2
GEN-TITLE-PLOT{5}
 70
     0
  0
ATTRIB
  5
444
330
438
100
AcDbEntity
  8
TITLE BLOCK
  6
Continuous
100
AcDbText
 10
38.0
 20
1.25
 30
0.0
 40
0.3
  1
LSM100-xx-454-xxx-xKA
 41
0.8
100
AcDbAttribute
  2
GEN-TITLE-NR{13.37}
 70
     0
  0
SEQEND
  5
439
330
438
100
AcDbEntity
  8
0
  6
Continuous
  0
ENDSEC
  0
SECTION
  2
OBJECTS
  0
DICTIONARY
  5
19
330
0
100
AcDbDictionary
281
     1
  3
ACAD_GROUP
350
1A
  3
ACAD_LAYOUT
350
2EF
  3
ACAD_MLINESTYLE
350
1B
  3
ACAD_PLOTSETTINGS
350
2F0
  3
ACAD_PLOTSTYLENAME
350
2ED
  3
AcDbVariableDictionary
350
2FE
  3
AcmDictionary
350
311
  3
AMG
350
2F5
  3
AMGSNAPSETTINGS
350
344
  3
ASE_INDEX_DICTIONARY
350
448
  3
DWGPROPS
350
46A
  0
DICTIONARY
  5
44A
330
A
100
AcDbDictionary
280
     1
281
     1
  3
ACAD_INDEX
360
44B
  0
DICTIONARY
  5
1A
102
{ACAD_REACTORS
330
19
102
}
330
19
100
AcDbDictionary
281
     1
  0
DICTIONARY
  5
2EF
102
{ACAD_REACTORS
330
19
102
}
330
19
100
AcDbDictionary
281
     1
  3
Layout1
350
2F2
  3
Model
350
2F1
  0
DICTIONARY
  5
1B
102
{ACAD_REACTORS
330
19
102
}
330
19
100
AcDbDictionary
281
     1
  3
STANDARD
350
1C
  0
DICTIONARY
  5
2F0
102
{ACAD_REACTORS
330
19
102
}
330
19
100
AcDbDictionary
281
     1
  0
ACDBDICTIONARYWDFLT
  5
2ED
102
{ACAD_REACTORS
330
19
102
}
330
19
100
AcDbDictionary
281
     1
  3
Normal
350
2EE
100
AcDbDictionaryWithDefault
340
2EE
  0
DICTIONARY
  5
2FE
102
{ACAD_REACTORS
330
19
102
}
330
19
100
AcDbDictionary
281
     1
  3
INDEXCTL
350
2FF
  0
DICTIONARY
  5
311
102
{ACAD_REACTORS
330
19
102
}
330
19
100
AcDbDictionary
281
     1
  3
AcmBOMDATA
350
312
  3
AcmStdDictionary
350
317
  0
DICTIONARY
  5
2F5
102
{ACAD_REACTORS
330
19
102
}
330
19
100
AcDbDictionary
281
     1
  3
AcMgSettings
350
2F6
  3
AMGLAYCFG
350
319
  0
DICTIONARY
  5
344
102
{ACAD_REACTORS
330
19
102
}
330
19
100
AcDbDictionary
281
     1
  3
DIMENSION
350
349
  3
FEA
350
348
  3
HATCH (1)
350
345
  3
HATCH (2)
350
346
  3
SIMPLE WELD
350
34A
  3
SYMBOLS
350
347
  0
DICTIONARY
  5
448
102
{ACAD_REACTORS
330
19
102
}
330
19
100
AcDbDictionary
281
     1
  3
ASEBlockHierarchyIndexRecord
350
449
1001
DCO15
1040
1455936005.114
  0
XRECORD
  5
46A
102
{ACAD_REACTORS
330
19
102
}
330
19
100
AcDbXrecord
280
     1
  1
DWGPROPS COOKIE
  2

  3

  4

  6

  7

  8

  9

300
AmdtFileType=84
301
=
302
=
303
=
304
=
305
=
306
=
307
=
308
=
309
=
 40
0.0172095833333333
 41
2311942.262191423
 42
2452654.323022152
  1

 90
        1
  0
DICTIONARY
  5
44B
102
{ACAD_REACTORS
330
44A
102
}
330
44A
100
AcDbDictionary
281
     1
  3
*A1
350
44C
  0
LAYOUT
  5
2F2
102
{ACAD_REACTORS
330
2EF
102
}
330
2EF
100
AcDbPlotSettings
  1

  2
\\CONTROLSFS1\HP LaserJet 5Si MX
  4

  6

 40
0.0
 41
0.0
 42
0.0
 43
0.0
 44
0.0
 45
0.0
 46
0.0
 47
0.0
 48
0.0
 49
0.0
140
0.0
141
0.0
142
1.0
143
1.0
 70
   688
 72
     0
 73
     0
 74
     5
  7
monochrome.ctb
 75
    16
147
1.0
148
0.0
149
0.0
100
AcDbLayout
  1
Layout1
 70
     1
 71
     1
 10
0.0
 20
0.0
 11
12.0
 21
9.0
 12
0.0
 22
0.0
 32
0.0
 14
1.000000000000000E+20
 24
1.000000000000000E+20
 34
1.000000000000000E+20
 15
-1.000000000000000E+20
 25
-1.000000000000000E+20
 35
-1.000000000000000E+20
146
0.0
 13
0.0
 23
0.0
 33
0.0
 16
1.0
 26
0.0
 36
0.0
 17
0.0
 27
1.0
 37
0.0
 76
     0
330
B
  0
LAYOUT
  5
2F1
102
{ACAD_REACTORS
330
2EF
102
}
330
2EF
100
AcDbPlotSettings
  1

  2
\\Fdlfs06\Engineering - Digital PrintServer 17/600 C
  4
Letter
  6

 40
6.085416793823242
 41
3.630082130432128
 42
6.085418701171875
 43
5.027069091796875
 44
215.8999938964843
 45
279.3999938964843
 46
0.0
 47
3.556
 48
0.0
 49
0.0
140
0.0
141
0.0
142
1.0
143
4.239141743815865
 70
 11956
 72
     0
 73
     1
 74
     1
  7
monochrome.ctb
 75
     0
147
0.2358968065785527
148
0.0362826320767283
149
0.0256633251274508
100
AcDbLayout
  1
Model
 70
     1
 71
     0
 10
0.0
 20
0.0
 11
12.0
 21
9.0
 12
0.0
 22
0.0
 32
0.0
 14
0.0
 24
0.0
 34
0.0
 15
0.0
 25
0.0
 35
0.0
146
0.0
 13
0.0
 23
0.0
 33
0.0
 16
1.0
 26
0.0
 36
0.0
 17
0.0
 27
1.0
 37
0.0
 76
     0
330
A
  0
MLINESTYLE
  5
1C
102
{ACAD_REACTORS
330
1B
102
}
330
1B
100
AcDbMlineStyle
  2
STANDARD
 70
     0
  3

 62
     0
 51
90.0
 52
90.0
 71
     2
 49
0.5
 62
   256
  6
BYLAYER
 49
-0.5
 62
   256
  6
BYLAYER
  0
ACDBPLACEHOLDER
  5
2EE
102
{ACAD_REACTORS
330
2ED
102
}
330
2ED
  0
DICTIONARYVAR
  5
2FF
102
{ACAD_REACTORS
330
2FE
102
}
330
2FE
100
DictionaryVariables
280
     0
  1
1
  0
ACMDATADICTIONARY
  5
312
102
{ACAD_REACTORS
330
311
102
}
330
311
100
AcDbDictionary
281
     1
  3
*A1
350
313
100
AcmDataDictionary
  0
DICTIONARY
  5
317
102
{ACAD_REACTORS
330
311
102
}
330
311
100
AcDbDictionary
281
     1
  3
ANSI
350
318
  0
DICTIONARY
  5
2F6
102
{ACAD_REACTORS
330
2F5
102
}
330
2F5
100
AcDbDictionary
281
     1
  3
DWGSETTINGS
350
2F7
  3
TRANSSETTINGS
350
2F8
  0
ACAMGFILTERDAT
  5
349
102
{ACAD_REACTORS
330
344
102
}
330
344
100
AcAmgFilterDat
 70
    15
  1
DIMENSION,AMDT_*_DIM
  2
*
  3
*
  4
*
  5
*
290
     1
  0
ACAMGFILTERDAT
  5
348
102
{ACAD_REACTORS
330
344
102
}
330
344
100
AcAmgFilterDat
 70
    15
  1
*
  2
AM_FEA-AM_*
  3
*
  4
*
  5
*
290
     1
  0
ACAMGFILTERDAT
  5
345
102
{ACAD_REACTORS
330
344
102
}
330
344
100
AcAmgFilterDat
 70
    15
  1
HATCH
  2
*
  3
*
  4
*
  5
*
290
     1
  0
ACAMGFILTERDAT
  5
346
102
{ACAD_REACTORS
330
344
102
}
330
344
100
AcAmgFilterDat
 70
    15
  1
LINE
  2
8,8N,*-8,*-8N,AM_8,AM_8N,*-AM_8,*-AM_8N
  3
*
  4
*
  5
INSERT,STDPART2D
290
     1
  0
ACAMGFILTERDAT
  5
34A
102
{ACAD_REACTORS
330
344
102
}
330
344
100
AcAmgFilterDat
 70
    15
  1
ARC
  2
AM_5
  3
*
  4
2
  5
INSERT
290
     0
  0
ACAMGFILTERDAT
  5
347
102
{ACAD_REACTORS
330
344
102
}
330
344
100
AcAmgFilterDat
 70
    15
  1
ACMFCFRAME,ACMDATUMTARGET,ACMDATUMID,ACMWELDSYM,ACMSURFSYM,ACMFEATID,ACMPARTREF,ACMBALLOON,AMDTEDGESYM
  2
*
  3
*
  4
*
  5
*
290
     1
  0
XRECORD
  5
449
102
{ACAD_REACTORS
330
448
102
}
330
448
100
AcDbXrecord
280
     1
330
438
  0
LAYER_INDEX
  5
44C
102
{ACAD_REACTORS
330
44B
102
}
330
44B
100
AcDbIndex
 40
2452655.299394155
100
AcDbLayerIndex
  8
0
360
44D
 90
        1
  8
DEFPOINTS
360
44E
 90
        0
  8
1
360
44F
 90
       30
  8
5
360
450
 90
        0
  8
6
360
451
 90
       50
  8
11
360
452
 90
      293
  8
2
360
453
 90
        0
  8
4
360
454
 90
      262
  8
90
360
455
 90
        0
  8
7
360
456
 90
       14
  8
BORDER
360
457
 90
        0
  8
TITLE BLOCK
360
458
 90
        0
  0
ACMDATAENTRYBLOCK
  5
313
102
{ACAD_REACTORS
330
312
102
}
330
312
100
AcmDataEntry
100
AcmDataEntryBlock
  0
IDBUFFER
  5
44D
330
0
100
AcDbIdBuffer
330
438
  0
IDBUFFER
  5
44E
330
0
100
AcDbIdBuffer
  0
IDBUFFER
  5
44F
330
0
100
AcDbIdBuffer
330
1E9
330
1EA
330
1EB
330
1F6
330
1F7
330
1F8
330
1F9
330
1FA
330
1FB
330
201
330
241
330
242
330
243
330
244
330
30
330
31
330
32
330
33
330
34
330
35
330
36
330
37
330
38
330
3A
330
3B
330
3C
330
3D
330
3E
330
3F
330
1E8
  0
IDBUFFER
  5
450
330
0
100
AcDbIdBuffer
  0
IDBUFFER
  5
451
330
0
100
AcDbIdBuffer
330
2E7
330
2E8
330
28E
330
28F
330
290
330
291
330
292
330
293
330
294
330
29C
330
29D
330
29E
330
29F
330
2A0
330
2A1
330
2A2
330
2A3
330
2A4
330
2A5
330
2A6
330
2A7
330
2A8
330
2A9
330
2AA
330
2AB
330
2AC
330
2AD
330
2AE
330
2AF
330
2B0
330
2B1
330
2B2
330
2B3
330
2B4
330
2B5
330
2B6
330
2B7
330
2B8
330
2B9
330
2BA
330
2BB
330
2BC
330
2BD
330
2BE
330
2BF
330
2C0
330
2C1
330
2C2
330
2C9
330
2CD
  0
IDBUFFER
  5
452
330
0
100
AcDbIdBuffer
330
20C
330
20D
330
20E
330
20F
330
210
330
211
330
212
330
213
330
214
330
215
330
216
330
217
330
218
330
219
330
21A
330
21B
330
21C
330
21D
330
21E
330
21F
330
220
330
221
330
222
330
223
330
224
330
225
330
226
330
227
330
228
330
229
330
22A
330
22B
330
22C
330
22D
330
22E
330
22F
330
230
330
231
330
232
330
233
330
234
330
235
330
236
330
237
330
238
330
239
330
23A
330
23B
330
23C
330
23D
330
23E
330
23F
330
240
330
40
330
41
330
42
330
43
330
44
330
45
330
46
330
47
330
48
330
49
330
4A
330
4B
330
4C
330
4D
330
4E
330
4F
330
50
330
51
330
52
330
53
330
DC
330
DD
330
DE
330
DF
330
E0
330
E1
330
E2
330
E3
330
E4
330
E5
330
E6
330
E7
330
E8
330
E9
330
EA
330
EB
330
11D
330
11E
330
11F
330
120
330
121
330
122
330
123
330
124
330
125
330
126
330
127
330
128
330
129
330
12A
330
12B
330
12C
330
12D
330
12E
330
12F
330
130
330
131
330
132
330
133
330
134
330
135
330
136
330
137
330
138
330
139
330
13A
330
13B
330
13C
330
13D
330
13E
330
13F
330
140
330
141
330
142
330
143
330
144
330
145
330
146
330
147
330
148
330
149
330
14A
330
14B
330
14C
330
14D
330
14E
330
14F
330
150
330
151
330
152
330
153
330
154
330
155
330
156
330
157
330
158
330
159
330
15A
330
15B
330
15C
330
15D
330
15E
330
15F
330
160
330
161
330
162
330
163
330
164
330
165
330
166
330
167
330
168
330
169
330
16A
330
16B
330
16C
330
16D
330
16E
330
16F
330
170
330
171
330
172
330
173
330
174
330
175
330
176
330
177
330
178
330
179
330
17A
330
17B
330
17C
330
17D
330
17E
330
17F
330
180
330
181
330
182
330
183
330
184
330
185
330
186
330
187
330
188
330
189
330
18A
330
18B
330
18C
330
18D
330
18E
330
18F
330
190
330
191
330
192
330
193
330
194
330
195
330
196
330
197
330
198
330
199
330
19A
330
19B
330
19C
330
19D
330
19E
330
19F
330
1A0
330
1A1
330
1A2
330
1A3
330
1A4
330
1A5
330
1A6
330
1A7
330
1A8
330
1A9
330
1AA
330
1AB
330
1AC
330
1AD
330
1AE
330
1AF
330
1B0
330
1B1
330
1B2
330
1B3
330
1B4
330
1B5
330
1B6
330
1B7
330
1B8
330
1B9
330
1BA
330
1BB
330
1BC
330
1BD
330
1BE
330
1BF
330
1C0
330
1C1
330
1C2
330
1C3
330
1C4
330
1C5
330
1C6
330
1C7
330
1C8
330
1C9
330
1CA
330
1CB
330
1CC
330
1CD
330
1CE
330
1CF
330
1D0
330
1D1
330
1D2
330
1D3
330
1D4
330
1D5
330
1D6
330
1D7
330
1D8
330
1D9
330
1DA
330
1DB
330
1DC
330
1DD
330
1DE
330
1DF
330
1E0
330
1E1
330
1E2
330
1E3
330
1E4
330
1E5
330
1E6
330
1E7
330
20B
  0
IDBUFFER
  5
453
330
0
100
AcDbIdBuffer
  0
IDBUFFER
  5
454
330
0
100
AcDbIdBuffer
330
28B
330
28C
330
2D2
330
2D3
330
2D4
330
2D6
330
2D7
330
2D8
330
2D9
330
2DA
330
2DB
330
2DC
330
2DD
330
2DE
330
2DF
330
2E0
330
2E1
330
2E2
330
2E3
330
2E4
330
2E5
330
2E6
330
56
330
57
330
58
330
59
330
5A
330
5B
330
5C
330
5D
330
5E
330
5F
330
60
330
61
330
62
330
63
330
64
330
65
330
66
330
67
330
68
330
69
330
6A
330
6B
330
6C
330
6D
330
6E
330
6F
330
70
330
71
330
72
330
73
330
7D
330
7E
330
7F
330
80
330
81
330
82
330
83
330
84
330
85
330
86
330
87
330
88
330
89
330
8A
330
8B
330
8C
330
8D
330
8E
330
8F
330
90
330
91
330
92
330
93
330
94
330
95
330
96
330
97
330
98
330
99
330
9A
330
9B
330
9C
330
9D
330
9E
330
9F
330
A0
330
A1
330
A2
330
A3
330
A4
330
A5
330
A6
330
A7
330
A8
330
A9
330
AA
330
AB
330
AC
330
AD
330
AE
330
AF
330
B0
330
B1
330
B2
330
B3
330
B4
330
B5
330
B6
330
B7
330
B8
330
B9
330
BA
330
BB
330
BC
330
BD
330
BE
330
BF
330
C0
330
C1
330
C2
330
C3
330
C4
330
C5
330
C6
330
C7
330
C8
330
C9
330
CA
330
CB
330
CC
330
CD
330
CE
330
CF
330
D0
330
D1
330
D2
330
D3
330
D4
330
D5
330
D6
330
D7
330
D8
330
D9
330
DA
330
DB
330
EC
330
ED
330
EE
330
EF
330
F0
330
F1
330
F2
330
F3
330
F4
330
F5
330
F6
330
F7
330
F8
330
F9
330
FA
330
FB
330
FC
330
FD
330
FE
330
FF
330
100
330
101
330
102
330
103
330
104
330
105
330
106
330
107
330
108
330
109
330
10A
330
10B
330
10C
330
10D
330
10E
330
10F
330
110
330
111
330
112
330
113
330
114
330
115
330
116
330
117
330
118
330
119
330
11A
330
11B
330
11C
330
245
330
246
330
247
330
248
330
249
330
24A
330
24B
330
24C
330
24D
330
24E
330
24F
330
250
330
255
330
256
330
257
330
258
330
259
330
25A
330
25B
330
25C
330
25D
330
25E
330
25F
330
260
330
261
330
262
330
263
330
264
330
265
330
266
330
267
330
268
330
269
330
26A
330
26B
330
26C
330
26D
330
26E
330
26F
330
270
330
271
330
272
330
273
330
274
330
275
330
276
330
277
330
278
330
279
330
27A
330
27B
330
27C
330
27D
330
27E
330
27F
330
280
330
281
330
282
330
283
330
284
330
285
330
286
330
287
330
288
330
289
330
28A
  0
IDBUFFER
  5
455
330
0
100
AcDbIdBuffer
  0
IDBUFFER
  5
456
330
0
100
AcDbIdBuffer
330
74
330
75
330
76
330
77
330
78
330
79
330
7A
330
7B
330
7C
330
251
330
252
330
253
330
254
330
2D5
  0
IDBUFFER
  5
457
330
0
100
AcDbIdBuffer
  0
IDBUFFER
  5
458
330
0
100
AcDbIdBuffer
  0
ENDSEC
  0
EOF
