  0
SECTION
  2
HEADER
  9
$ACADVER
  1
AC1015
  9
$ACADMAINTVER
 70
    10
  9
$DWGCODEPAGE
  3
ANSI_1252
  9
$INSBASE
 10
0.0
 20
0.0
 30
0.0
  9
$EXTMIN
 10
-0.0341038432370624
 20
-0.026352969773825
 30
-0.0015258207003583
  9
$EXTMAX
 10
1117.634109047467
 20
863.6263569912253
 30
0.0000000349246037
  9
$LIMMIN
 10
0.0
 20
0.0
  9
$LIMMAX
 10
0.0
 20
0.0
  9
$ORTHOMODE
 70
     0
  9
$REGENMODE
 70
     1
  9
$FILLMODE
 70
     1
  9
$QTEXTMODE
 70
     0
  9
$MIRRTEXT
 70
     1
  9
$LTSCALE
 40
1.0
  9
$ATTMODE
 70
     1
  9
$TEXTSIZE
 40
0.0
  9
$TRACEWID
 40
0.05
  9
$TEXTSTYLE
  7
STANDARD
  9
$CLAYER
  8
0
  9
$CELTYPE
  6
CONTINUOUS
  9
$CECOLOR
 62
   256
  9
$CELTSCALE
 40
1.0
  9
$DISPSILH
 70
     0
  9
$DIMSCALE
 40
1.0
  9
$DIMASZ
 40
0.18
  9
$DIMEXO
 40
1.0
  9
$DIMDLI
 40
0.38
  9
$DIMRND
 40
0.0
  9
$DIMDLE
 40
1.0
  9
$DIMEXE
 40
0.18
  9
$DIMTP
 40
0.0
  9
$DIMTM
 40
0.0
  9
$DIMTXT
 40
0.18
  9
$DIMCEN
 40
0.09
  9
$DIMTSZ
 40
0.0
  9
$DIMTOL
 70
     0
  9
$DIMLIM
 70
     0
  9
$DIMTIH
 70
     1
  9
$DIMTOH
 70
     1
  9
$DIMSE1
 70
     0
  9
$DIMSE2
 70
     0
  9
$DIMTAD
 70
     1
  9
$DIMZIN
 70
     1
  9
$DIMBLK
  1

  9
$DIMASO
 70
     1
  9
$DIMSHO
 70
     1
  9
$DIMPOST
  1

  9
$DIMAPOST
  1

  9
$DIMALT
 70
     0
  9
$DIMALTD
 70
     2
  9
$DIMALTF
 40
0.0394
  9
$DIMLFAC
 40
1.0
  9
$DIMTOFL
 70
     0
  9
$DIMTVP
 40
0.0
  9
$DIMTIX
 70
     0
  9
$DIMSOXD
 70
     0
  9
$DIMSAH
 70
     0
  9
$DIMBLK1
  1

  9
$DIMBLK2
  1

  9
$DIMSTYLE
  2
STANDARD
  9
$DIMCLRD
 70
     0
  9
$DIMCLRE
 70
     0
  9
$DIMCLRT
 70
     0
  9
$DIMTFAC
 40
1.0
  9
$DIMGAP
 40
1.0
  9
$DIMJUST
 70
     0
  9
$DIMSD1
 70
     0
  9
$DIMSD2
 70
     0
  9
$DIMTOLJ
 70
     1
  9
$DIMTZIN
 70
     1
  9
$DIMALTZ
 70
     0
  9
$DIMALTTZ
 70
     0
  9
$DIMUPT
 70
     0
  9
$DIMDEC
 70
     4
  9
$DIMTDEC
 70
     4
  9
$DIMALTU
 70
     2
  9
$DIMALTTD
 70
     2
  9
$DIMTXSTY
  7
STANDARD
  9
$DIMAUNIT
 70
     0
  9
$DIMADEC
 70
     0
  9
$DIMALTRND
 40
0.0
  9
$DIMAZIN
 70
     0
  9
$DIMDSEP
 70
    46
  9
$DIMATFIT
 70
     3
  9
$DIMFRAC
 70
     0
  9
$DIMLDRBLK
  1

  9
$DIMLUNIT
 70
     2
  9
$DIMLWD
 70
    -2
  9
$DIMLWE
 70
    -2
  9
$DIMTMOVE
 70
     0
  9
$LUNITS
 70
     2
  9
$LUPREC
 70
     2
  9
$SKETCHINC
 40
0.1
  9
$FILLETRAD
 40
0.0
  9
$AUNITS
 70
     0
  9
$AUPREC
 70
     0
  9
$MENU
  1
acad
  9
$ELEVATION
 40
0.0
  9
$PELEVATION
 40
0.0
  9
$THICKNESS
 40
0.0
  9
$LIMCHECK
 70
     0
  9
$CHAMFERA
 40
0.0
  9
$CHAMFERB
 40
0.0
  9
$CHAMFERC
 40
0.0
  9
$CHAMFERD
 40
0.0
  9
$SKPOLY
 70
     0
  9
$TDCREATE
 40
2311942.262181168
  9
$TDUCREATE
 40
2311942.512181169
  9
$TDUPDATE
 40
2452655.344145544
  9
$TDUUPDATE
 40
2452655.594145543
  9
$TDINDWG
 40
0.0084258912
  9
$TDUSRTIMER
 40
0.0084116435
  9
$USRTIMER
 70
     1
  9
$ANGBASE
 50
0.0
  9
$ANGDIR
 70
     0
  9
$PDMODE
 70
     0
  9
$PDSIZE
 40
-1.0
  9
$PLINEWID
 40
0.0
  9
$SPLFRAME
 70
     0
  9
$SPLINETYPE
 70
     6
  9
$SPLINESEGS
 70
     8
  9
$HANDSEED
  5
5CA
  9
$SURFTAB1
 70
     6
  9
$SURFTAB2
 70
     6
  9
$SURFTYPE
 70
     6
  9
$SURFU
 70
     6
  9
$SURFV
 70
     6
  9
$UCSBASE
  2

  9
$UCSNAME
  2

  9
$UCSORG
 10
0.0
 20
0.0
 30
0.0
  9
$UCSXDIR
 10
1.0
 20
0.0
 30
0.0
  9
$UCSYDIR
 10
0.0
 20
1.0
 30
0.0
  9
$UCSORTHOREF
  2

  9
$UCSORTHOVIEW
 70
     0
  9
$UCSORGTOP
 10
0.0
 20
0.0
 30
0.0
  9
$UCSORGBOTTOM
 10
0.0
 20
0.0
 30
0.0
  9
$UCSORGLEFT
 10
0.0
 20
0.0
 30
0.0
  9
$UCSORGRIGHT
 10
0.0
 20
0.0
 30
0.0
  9
$UCSORGFRONT
 10
0.0
 20
0.0
 30
0.0
  9
$UCSORGBACK
 10
0.0
 20
0.0
 30
0.0
  9
$PUCSBASE
  2

  9
$PUCSNAME
  2

  9
$PUCSORG
 10
0.0
 20
0.0
 30
0.0
  9
$PUCSXDIR
 10
1.0
 20
0.0
 30
0.0
  9
$PUCSYDIR
 10
0.0
 20
1.0
 30
0.0
  9
$PUCSORTHOREF
  2

  9
$PUCSORTHOVIEW
 70
     0
  9
$PUCSORGTOP
 10
0.0
 20
0.0
 30
0.0
  9
$PUCSORGBOTTOM
 10
0.0
 20
0.0
 30
0.0
  9
$PUCSORGLEFT
 10
0.0
 20
0.0
 30
0.0
  9
$PUCSORGRIGHT
 10
0.0
 20
0.0
 30
0.0
  9
$PUCSORGFRONT
 10
0.0
 20
0.0
 30
0.0
  9
$PUCSORGBACK
 10
0.0
 20
0.0
 30
0.0
  9
$USERI1
 70
     0
  9
$USERI2
 70
     0
  9
$USERI3
 70
     0
  9
$USERI4
 70
     0
  9
$USERI5
 70
     0
  9
$USERR1
 40
0.0
  9
$USERR2
 40
0.0
  9
$USERR3
 40
0.0
  9
$USERR4
 40
0.0
  9
$USERR5
 40
0.0
  9
$WORLDVIEW
 70
     1
  9
$SHADEDGE
 70
     3
  9
$SHADEDIF
 70
    70
  9
$TILEMODE
 70
     1
  9
$MAXACTVP
 70
    16
  9
$PINSBASE
 10
0.0
 20
0.0
 30
0.0
  9
$PLIMCHECK
 70
     0
  9
$PEXTMIN
 10
1.000000000000000E+20
 20
1.000000000000000E+20
 30
1.000000000000000E+20
  9
$PEXTMAX
 10
-1.000000000000000E+20
 20
-1.000000000000000E+20
 30
-1.000000000000000E+20
  9
$PLIMMIN
 10
0.0
 20
0.0
  9
$PLIMMAX
 10
12.0
 20
9.0
  9
$UNITMODE
 70
     0
  9
$VISRETAIN
 70
     0
  9
$PLINEGEN
 70
     1
  9
$PSLTSCALE
 70
     1
  9
$TREEDEPTH
 70
  3020
  9
$CMLSTYLE
  2
STANDARD
  9
$CMLJUST
 70
     0
  9
$CMLSCALE
 40
1.0
  9
$PROXYGRAPHICS
 70
     0
  9
$MEASUREMENT
 70
     0
  9
$CELWEIGHT
370
    -1
  9
$ENDCAPS
280
     0
  9
$JOINSTYLE
280
     0
  9
$LWDISPLAY
290
     0
  9
$INSUNITS
 70
     0
  9
$HYPERLINKBASE
  1

  9
$STYLESHEET
  1
monochrome.ctb
  9
$XEDIT
290
     1
  9
$CEPSNTYPE
380
     0
  9
$PSTYLEMODE
290
     1
  9
$FINGERPRINTGUID
  2
{FD0AF108-8D85-4EC5-AF59-A12F4F939223}
  9
$VERSIONGUID
  2
{776609FA-F9AC-4DE7-A285-CB4EF4EDCE68}
  9
$EXTNAMES
290
     1
  9
$PSVPSCALE
 40
0.0
  9
$OLESTARTUP
290
     0
  0
ENDSEC
  0
SECTION
  2
CLASSES
  0
CLASS
  1
LWPOLYLINE
  2
AcDbPolyline
  3
AutoCAD 2000
 90
    32768
280
     0
281
     1
  0
CLASS
  1
IMAGE
  2
AcDbRasterImage
  3
ISM
 90
    32895
280
     0
281
     1
  0
CLASS
  1
OLE2FRAME
  2
AcDbOle2Frame
  3
AutoCAD 2000
 90
    32768
280
     0
281
     1
  0
CLASS
  1
HATCH
  2
AcDbHatch
  3
AutoCAD 2000
 90
    32768
280
     0
281
     1
  0
CLASS
  1
DICTIONARYVAR
  2
AcDbDictionaryVar
  3
AutoCAD 2000
 90
        0
280
     0
281
     0
  0
CLASS
  1
RASTERVARIABLES
  2
AcDbRasterVariables
  3
ISM
 90
    32768
280
     0
281
     0
  0
CLASS
  1
IMAGEDEF
  2
AcDbRasterImageDef
  3
ISM
 90
    32768
280
     0
281
     0
  0
CLASS
  1
IMAGEDEF_REACTOR
  2
AcDbRasterImageDefReactor
  3
ISM
 90
    32769
280
     0
281
     0
  0
CLASS
  1
IDBUFFER
  2
AcDbIdBuffer
  3
AutoCAD 2000
 90
        0
280
     0
281
     0
  0
CLASS
  1
SPATIAL_FILTER
  2
AcDbSpatialFilter
  3
AutoCAD 2000
 90
    32768
280
     0
281
     0
  0
CLASS
  1
XRECORD
  2
AcDbXrecord
  3
AutoCAD 2000
 90
    32768
280
     0
281
     0
  0
CLASS
  1
SORTENTSTABLE
  2
AcDbSortentsTable
  3
AutoCAD 2000
 90
    32768
280
     0
281
     0
  0
CLASS
  1
LAYER_INDEX
  2
AcDbLayerIndex
  3
AutoCAD 2000
 90
        0
280
     0
281
     0
  0
CLASS
  1
SPATIAL_INDEX
  2
AcDbSpatialIndex
  3
AutoCAD 2000
 90
    32768
280
     0
281
     0
  0
CLASS
  1
OBJECT_PTR
  2
CAseDLPNTableRecord
  3
ASE-LPNTableRecord
 90
    32769
280
     0
281
     0
  0
CLASS
  1
LAYOUT
  2
AcDbLayout
  3
AutoCAD 2000
 90
        0
280
     0
281
     0
  0
CLASS
  1
PLOTSETTINGS
  2
AcDbPlotSettings
  3
AutoCAD 2000
 90
    32768
280
     0
281
     0
  0
CLASS
  1
ACDBDICTIONARYWDFLT
  2
AcDbDictionaryWithDefault
  3
AutoCAD 2000
 90
        0
280
     0
281
     0
  0
CLASS
  1
ACDBPLACEHOLDER
  2
AcDbPlaceHolder
  3
AutoCAD 2000
 90
        0
280
     0
281
     0
  0
CLASS
  1
VBA_PROJECT
  2
AcDbVbaProject
  3
acadvba
 90
    32768
280
     0
281
     0
  0
CLASS
  1
WIPEOUT
  2
AcDbWipeout
  3
WipeOut|AutoCAD Express Tool|expresstools@autodesk.com
 90
    32895
280
     0
281
     1
  0
CLASS
  1
WIPEOUTVARIABLES
  2
AcDbWipeoutVariables
  3
WipeOut|AutoCAD Express Tool|expresstools@autodesk.com
 90
    32768
280
     0
281
     0
  0
CLASS
  1
RTEXT
  2
RText
  3
RText|AutoCAD Express Tool|expresstools@autodesk.com
 90
    32768
280
     0
281
     1
  0
CLASS
  1
ARCALIGNEDTEXT
  2
AcDbArcAlignedText
  3
ATEXT|AutoCAD Express Tool|expresstools@autodesk.com
 90
    32768
280
     0
281
     1
  0
CLASS
  1
AMGSETTINGSOBJ
  2
AmgSettingsObj
  3
"AcadM|Product Description: AutoCAD Mechanical 2000|Company: Autodesk"
 90
        0
280
     0
281
     0
  0
CLASS
  1
ACME_DOCUMENT
  2
AcMeDbDoc
  3
AcMeServices
 90
        0
280
     0
281
     0
  0
CLASS
  1
ACMESCOPE
  2
AcMeScope
  3
AcMeServices
 90
        0
280
     0
281
     0
  0
CLASS
  1
ACMECOMMANDHISTORY
  2
AcMeCommandHistory
  3
AcMeServices
 90
        0
280
     0
281
     0
  0
CLASS
  1
ACIMSYSVARMAN
  2
AcImSysVarManager
  3
AcMeServices
 90
        0
280
     0
281
     0
  0
CLASS
  1
ACIMREALSYSVAR
  2
AcImRealSysVar
  3
AcMeServices
 90
        0
280
     0
281
     0
  0
CLASS
  1
ACIMINTSYSVAR
  2
AcImIntSysVar
  3
AcMeServices
 90
        0
280
     0
281
     0
  0
CLASS
  1
ACMEDRAWINGMAN
  2
AcMeDrawingMan
  3
AcMeServices
 90
        0
280
     0
281
     0
  0
CLASS
  1
ACMEVIEW
  2
AcMeView
  3
AcMeServices
 90
        0
280
     0
281
     0
  0
CLASS
  1
ACDBENTITYCACHE
  2
AcMeEntityCache
  3
AcMeServices
 90
        0
280
     0
281
     0
  0
CLASS
  1
GSMANAGER
  2
AcMeGSManager
  3
AcMeServices
 90
        0
280
     0
281
     0
  0
CLASS
  1
AmdtInternalReactor
  2
AmdtInternalReactor
  3
AcMeServices
 90
        0
280
     0
281
     0
  0
CLASS
  1
ACMESTATEMGR
  2
AcMeStateMgr
  3
AcMeServices
 90
        0
280
     0
281
     0
  0
CLASS
  1
ACGREFMASTER
  2
AcGrefMaster
  3
AcAttribServices
 90
        0
280
     0
281
     0
  0
CLASS
  1
ACME_DATABASE
  2
AcMeDbDatabase
  3
AcMeServices
 90
        0
280
     0
281
     0
  0
CLASS
  1
ACRFINSADJUSTERMGR
  2
AcRfInsAdjusterMgr
  3
AcMeServices
 90
        0
280
     0
281
     0
  0
CLASS
  1
ACGREFMASTER
  2
AcGrefacadMaster
  3
AcGrefServices
 90
        0
280
     0
281
     0
  0
CLASS
  1
AMIMASTER
  2
AmiMaster
  3
AmiServices
 90
        0
280
     0
281
     0
  0
CLASS
  1
ACMDATADICTIONARY
  2
AcmDataDictionary
  3
"AcmSymBB|Product Description: AutoCAD Mechanical 2000|Company: Autodesk"
 90
        0
280
     0
281
     0
  0
CLASS
  1
ACMDATAENTRYBLOCK
  2
AcmDataEntryBlock
  3
"AcmSymBB|Product Description: AutoCAD Mechanical 2000|Company: Autodesk"
 90
        0
280
     0
281
     0
  0
CLASS
  1
ACIMSTRSYSVAR
  2
AcImStrSysVar
  3
AcMeServices
 90
        0
280
     0
281
     0
  0
CLASS
  1
ACMSTANDARDANSI
  2
AcmStandardANSI
  3
"Amdt_StdImp|Product Description: AutoCAD Mechanical 2000|Company: Autodesk"
 90
        0
280
     0
281
     0
  0
CLASS
  1
AMGOBJPROPCFG
  2
AmgObjPropCfg
  3
"AmgLay|Product Description: AutoCAD Mechanical 2000|Company: Autodesk"
 90
        1
280
     0
281
     0
  0
CLASS
  1
ACMSURFSTANDARDANSI
  2
AcmSurfTextStdANSI
  3
"Amdt_StdImp|Product Description: AutoCAD Mechanical 2000|Company: Autodesk"
 90
        0
280
     0
281
     0
  0
CLASS
  1
ACMFCFSTANDARDANSI
  2
AcmFCFStdANSI
  3
"Amdt_StdImp|Product Description: AutoCAD Mechanical 2000|Company: Autodesk"
 90
        0
280
     0
281
     0
  0
CLASS
  1
ACMWELDSTANDARDANSI
  2
AcmWeldingStdANSI
  3
"Amdt_StdImp|Product Description: AutoCAD Mechanical 2000|Company: Autodesk"
 90
        0
280
     0
281
     0
  0
CLASS
  1
ACMIDSTANDARDANSI
  2
AcmIdStdANSI
  3
"Amdt_StdImp|Product Description: AutoCAD Mechanical 2000|Company: Autodesk"
 90
        0
280
     0
281
     0
  0
CLASS
  1
ACMDATUMSTANDARDANSI
  2
AcmDatumStdANSI
  3
"Amdt_StdImp|Product Description: AutoCAD Mechanical 2000|Company: Autodesk"
 90
        0
280
     0
281
     0
  0
CLASS
  1
ACMBOMSTANDARDANSI
  2
AcmBOMStdANSI
  3
"Amdt_StdImp|Product Description: AutoCAD Mechanical 2000|Company: Autodesk"
 90
        0
280
     0
281
     0
  0
CLASS
  1
ACMDETAILSTANDARDANSI
  2
AmdtDetailSymStdANSI
  3
"Amdt_StdImp|Product Description: AutoCAD Mechanical 2000|Company: Autodesk"
 90
        0
280
     0
281
     0
  0
CLASS
  1
ACMSECTIONSTANDARDANSI
  2
AmdtSectionSymStdANSI
  3
"Amdt_StdImp|Product Description: AutoCAD Mechanical 2000|Company: Autodesk"
 90
        0
280
     0
281
     0
  0
CLASS
  1
ACMCENTERLINESTANDARDANSI
  2
AmdtCenterLineStdANSI
  3
"Amdt_StdImp|Product Description: AutoCAD Mechanical 2000|Company: Autodesk"
 90
        0
280
     0
281
     0
  0
CLASS
  1
ACMThreadLineSTANDARDANSI
  2
AmdtThreadLineStdANSI
  3
"Amdt_StdImp|Product Description: AutoCAD Mechanical 2000|Company: Autodesk"
 90
        0
280
     0
281
     0
  0
CLASS
  1
"AcAmgLayStd"
  2
AcAmgLayStd
  3
"AcAmgLayStd|Product Description: AutoCAD Mechanical 2000|Company: Autodesk"
 90
        0
280
     0
281
     0
  0
CLASS
  1
"AcAmgDimStd"
  2
AcAmgDimStd
  3
"AcAmgDimStd|Product Description: AutoCAD Mechanical 2000|Company: Autodesk"
 90
        0
280
     0
281
     0
  0
CLASS
  1
AcAmgTitleStd
  2
AcAmgTitleStd
  3
"TITLEAPP"
 90
        0
280
     0
281
     0
  0
CLASS
  1
ACAMGFILTERDAT
  2
AcAmgFilterDat
  3
"AcadM|Product Description: AutoCAD Mechanical 2000|Company: Autodesk"
 90
        0
280
     0
281
     0
  0
CLASS
  1
AMDTFORMULAUPDATEDISPATCHER
  2
AmdtFormulaUpdateDispatcher
  3
AcMeServices
 90
        0
280
     0
281
     0
  0
ENDSEC
  0
SECTION
  2
TABLES
  0
TABLE
  2
VPORT
  5
7
330
0
100
AcDbSymbolTable
 70
     5
  0
VPORT
  5
5C9
330
7
100
AcDbSymbolTableRecord
100
AcDbViewportTableRecord
  2
*Active
 70
     0
 10
0.0
 20
0.0
 11
1.0
 21
1.0
 12
558.8000026021153
 22
431.8000020107256
 13
0.0
 23
0.0
 14
1.0
 24
1.0
 15
0.0
 25
0.0
 16
0.0
 26
0.0
 36
1.0
 17
0.0
 27
0.0
 37
0.0
 40
873.1260486443007
 41
1.666666666666666
 42
50.0
 43
0.0
 44
0.0
 50
0.0
 51
0.0
 71
     0
 72
  2000
 73
     1
 74
     1
 75
     1
 76
     0
 77
     0
 78
     0
281
     0
 65
     1
110
0.0
120
0.0
130
0.0
111
1.0
121
0.0
131
0.0
112
0.0
122
1.0
132
0.0
 79
     0
146
0.0
  0
ENDTAB
  0
TABLE
  2
LTYPE
  5
4
330
0
100
AcDbSymbolTable
 70
    23
  0
LTYPE
  5
11
330
4
100
AcDbSymbolTableRecord
100
AcDbLinetypeTableRecord
  2
BYBLOCK
 70
     0
  3

 72
    65
 73
     0
 40
0.0
  0
LTYPE
  5
12
330
4
100
AcDbSymbolTableRecord
100
AcDbLinetypeTableRecord
  2
BYLAYER
 70
     0
  3

 72
    65
 73
     0
 40
0.0
  0
LTYPE
  5
13
330
4
100
AcDbSymbolTableRecord
100
AcDbLinetypeTableRecord
  2
CONTINUOUS
 70
     0
  3
Solid line
 72
    65
 73
     0
 40
0.0
  0
LTYPE
  5
1E
330
4
100
AcDbSymbolTableRecord
100
AcDbLinetypeTableRecord
  2
HIDDEN
 70
     0
  3
Hidden __ __ __ __ __ __ __ __ __ __ __ __ __ __
 72
    65
 73
     2
 40
1.905
 49
1.27
 74
     0
 49
-0.635
 74
     0
  0
LTYPE
  5
1F
330
4
100
AcDbSymbolTableRecord
100
AcDbLinetypeTableRecord
  2
PHANTOM
 70
     0
  3
Phantom ______  __  __  ______  __  __  ______
 72
    65
 73
     6
 40
12.7
 49
6.349999999999999
 74
     0
 49
-1.27
 74
     0
 49
1.27
 74
     0
 49
-1.27
 74
     0
 49
1.27
 74
     0
 49
-1.27
 74
     0
  0
LTYPE
  5
20
330
4
100
AcDbSymbolTableRecord
100
AcDbLinetypeTableRecord
  2
CENTER
 70
     0
  3
Center ____ _ ____ _ ____ _ ____ _ ____ _ ____
 72
    65
 73
     4
 40
10.16
 49
6.349999999999999
 74
     0
 49
-1.27
 74
     0
 49
1.27
 74
     0
 49
-1.27
 74
     0
  0
LTYPE
  5
21
330
4
100
AcDbSymbolTableRecord
100
AcDbLinetypeTableRecord
  2
CENTERX2
 70
     0
  3
Center (2x) ________  __  ________  __  _____
 72
    65
 73
     4
 40
20.32
 49
12.7
 74
     0
 49
-2.54
 74
     0
 49
2.54
 74
     0
 49
-2.54
 74
     0
  0
LTYPE
  5
22
330
4
100
AcDbSymbolTableRecord
100
AcDbLinetypeTableRecord
  2
DOT2
 70
     0
  3
Dot (.5x) ........................................
 72
    65
 73
     2
 40
0.635
 49
0.0
 74
     0
 49
-0.635
 74
     0
  0
LTYPE
  5
462
330
4
100
AcDbSymbolTableRecord
100
AcDbLinetypeTableRecord
  2
AM_ISO02W050
 70
     0
  3
__ __ __ __ __ __ __ __ __ __ __ __ __ __ __
 72
    65
 73
     2
 40
7.5
 49
6.0
 74
     0
 49
-1.5
 74
     0
  0
LTYPE
  5
463
330
4
100
AcDbSymbolTableRecord
100
AcDbLinetypeTableRecord
  2
AM_ISO08W050
 70
     0
  3
____ . ____ . ____ . ____ . ____ . ____ . ____
 72
    65
 73
     4
 40
18.0
 49
12.0
 74
     0
 49
-1.5
 74
     0
 49
3.0
 74
     0
 49
-1.5
 74
     0
  0
LTYPE
  5
464
330
4
100
AcDbSymbolTableRecord
100
AcDbLinetypeTableRecord
  2
AM_ISO09W050
 70
     0
  3
_____ . . _____ . . _____ . . ____ .. ____
 72
    65
 73
     6
 40
22.5
 49
12.0
 74
     0
 49
-1.5
 74
     0
 49
3.0
 74
     0
 49
-1.5
 74
     0
 49
3.0
 74
     0
 49
-1.5
 74
     0
  0
LTYPE
  5
465
330
4
100
AcDbSymbolTableRecord
100
AcDbLinetypeTableRecord
  2
Amconstr
 70
     0
  3
_______________________
 72
    65
 73
     2
 40
9999.0
 49
9999.0
 74
     0
 49
0.0
 74
     0
  0
LTYPE
  5
466
330
4
100
AcDbSymbolTableRecord
100
AcDbLinetypeTableRecord
  2
AM_ISO08W050x2
 70
     0
  3
__ . __ . __ . __ . __ . __
 72
    65
 73
     4
 40
9.0
 49
6.0
 74
     0
 49
-0.75
 74
     0
 49
1.5
 74
     0
 49
-0.75
 74
     0
  0
LTYPE
  5
467
330
4
100
AcDbSymbolTableRecord
100
AcDbLinetypeTableRecord
  2
AM_ISO02W050x2
 70
     0
  3
 _ _ _ _ _ _ _ _ _ _ _ _
 72
    65
 73
     2
 40
3.75
 49
3.0
 74
     0
 49
-0.75
 74
     0
  0
LTYPE
  5
46A
330
4
100
AcDbSymbolTableRecord
100
AcDbLinetypeTableRecord
  2
Amzigzag
 70
     0
  3
/\/-/\/-/\/-/\/-/\/-/\/
 72
    65
 73
     2
 40
11.00009999999999
 49
0.0001
 74
     4
 75
   135
340
469
 46
0.04
 50
0.0
 44
0.0
 45
0.0
 49
-11.0
 74
     0
  0
LTYPE
  5
46B
330
4
100
AcDbSymbolTableRecord
100
AcDbLinetypeTableRecord
  2
PHANTOM2
 70
     0
  3
Phantom (.5x) ___ _ _ ___ _ _ ___ _ _ ___ _ _
 72
    65
 73
     6
 40
1.25
 49
0.625
 74
     0
 49
-0.125
 74
     0
 49
0.125
 74
     0
 49
-0.125
 74
     0
 49
0.125
 74
     0
 49
-0.125
 74
     0
  0
LTYPE
  5
46C
330
4
100
AcDbSymbolTableRecord
100
AcDbLinetypeTableRecord
  2
CENTER2
 70
     0
  3
Center (.5x) ___ _ ___ _ ___ _ ___ _ ___ _ ___
 72
    65
 73
     4
 40
1.125
 49
0.75
 74
     0
 49
-0.125
 74
     0
 49
0.125
 74
     0
 49
-0.125
 74
     0
  0
LTYPE
  5
46D
330
4
100
AcDbSymbolTableRecord
100
AcDbLinetypeTableRecord
  2
HIDDEN2
 70
     0
  3
Hidden (.5x) _ _ _ _ _ _ _ _ _ _ _ _ _ _ _ _ _
 72
    65
 73
     2
 40
0.1875
 49
0.125
 74
     0
 49
-0.0625
 74
     0
  0
LTYPE
  5
46E
330
4
100
AcDbSymbolTableRecord
100
AcDbLinetypeTableRecord
  2
Amzigzag2
 70
     0
  3
/\/-/\/-/\/-/\/-/\/-/\/
 72
    65
 73
     2
 40
0.4401
 49
0.0001
 74
     4
 75
   135
340
469
 46
0.0016
 50
0.0
 44
0.0
 45
0.0
 49
-0.4400000000000001
 74
     0
  0
LTYPE
  5
47B
330
4
100
AcDbSymbolTableRecord
100
AcDbLinetypeTableRecord
  2
ACANSTGB
 70
     0
  3
__ . . __ . .
 72
    65
 73
     6
 40
0.35433070866
 49
0.15748031496
 74
     0
 49
-0.03937007874
 74
     0
 49
0.03937007874
 74
     0
 49
-0.03937007874
 74
     0
 49
0.03937007874
 74
     0
 49
-0.03937007874
 74
     0
  0
LTYPE
  5
47C
330
4
100
AcDbSymbolTableRecord
100
AcDbLinetypeTableRecord
  2
ACANSTGL
 70
     0
  3
_ _ _ _ _
 72
    65
 73
     2
 40
0.11811023622
 49
0.07874015748
 74
     0
 49
-0.03937007874
 74
     0
  0
LTYPE
  5
49A
330
4
100
AcDbSymbolTableRecord
100
AcDbLinetypeTableRecord
  2
MS
 70
     0
  3
MEDIUM_SOLID
 72
    65
 73
     0
 40
0.0
  0
LTYPE
  5
49B
330
4
100
AcDbSymbolTableRecord
100
AcDbLinetypeTableRecord
  2
LS
 70
     0
  3
LIGHT_SOLID
 72
    65
 73
     0
 40
0.0
  0
LTYPE
  5
49C
330
4
100
AcDbSymbolTableRecord
100
AcDbLinetypeTableRecord
  2
LP
 70
     0
  3
LIGHT_PHANTOM
 72
    65
 73
     6
 40
1.5
 49
0.75
 74
     0
 49
-0.14999998
 74
     0
 49
0.14999998
 74
     0
 49
-0.14999998
 74
     0
 49
0.14999998
 74
     0
 49
-0.14999998
 74
     0
  0
LTYPE
  5
49D
330
4
100
AcDbSymbolTableRecord
100
AcDbLinetypeTableRecord
  2
NC
 70
     0
  3
NUMERIC_CONTROL
 72
    65
 73
     0
 40
0.0
  0
ENDTAB
  0
TABLE
  2
LAYER
  5
2
330
0
100
AcDbSymbolTable
 70
    12
  0
LAYER
  5
14
330
2
100
AcDbSymbolTableRecord
100
AcDbLayerTableRecord
  2
0
 70
     0
 62
     7
  6
CONTINUOUS
370
    -3
390
436
  0
LAYER
  5
26
330
2
100
AcDbSymbolTableRecord
100
AcDbLayerTableRecord
  2
DEFPOINTS
 70
     0
 62
     7
  6
CONTINUOUS
290
     0
370
    -3
390
436
  0
LAYER
  5
28
330
2
100
AcDbSymbolTableRecord
100
AcDbLayerTableRecord
  2
1
 70
     0
 62
     7
  6
CONTINUOUS
370
    -3
390
436
  0
LAYER
  5
29
330
2
100
AcDbSymbolTableRecord
100
AcDbLayerTableRecord
  2
5
 70
     0
 62
     7
  6
CONTINUOUS
370
    -3
390
436
  0
LAYER
  5
2A
330
2
100
AcDbSymbolTableRecord
100
AcDbLayerTableRecord
  2
6
 70
     0
 62
     7
  6
CONTINUOUS
370
    -3
390
436
  0
LAYER
  5
2B
330
2
100
AcDbSymbolTableRecord
100
AcDbLayerTableRecord
  2
11
 70
     0
 62
     7
  6
CONTINUOUS
370
    -3
390
436
  0
LAYER
  5
2C
330
2
100
AcDbSymbolTableRecord
100
AcDbLayerTableRecord
  2
2
 70
     0
 62
     7
  6
CONTINUOUS
370
    -3
390
436
  0
LAYER
  5
2D
330
2
100
AcDbSymbolTableRecord
100
AcDbLayerTableRecord
  2
4
 70
     0
 62
     7
  6
CONTINUOUS
370
    -3
390
436
  0
LAYER
  5
2E
330
2
100
AcDbSymbolTableRecord
100
AcDbLayerTableRecord
  2
90
 70
     0
 62
     7
  6
CONTINUOUS
370
    -3
390
436
  0
LAYER
  5
2F
330
2
100
AcDbSymbolTableRecord
100
AcDbLayerTableRecord
  2
10
 70
     0
 62
     7
  6
CONTINUOUS
370
    -3
390
436
  0
LAYER
  5
49E
330
2
100
AcDbSymbolTableRecord
100
AcDbLayerTableRecord
  2
BORDER
 70
     0
 62
    15
  6
CONTINUOUS
370
    -3
390
436
  0
LAYER
  5
49F
330
2
100
AcDbSymbolTableRecord
100
AcDbLayerTableRecord
  2
TITLE BLOCK
 70
     0
 62
     2
  6
CONTINUOUS
370
    -3
390
436
  0
ENDTAB
  0
TABLE
  2
STYLE
  5
3
330
0
100
AcDbSymbolTable
 70
     7
  0
STYLE
  5
17
330
3
100
AcDbSymbolTableRecord
100
AcDbTextStyleTableRecord
  2
STANDARD
 70
     0
 40
0.0
 41
1.0
 50
0.0
 71
     0
 42
0.0
  3
txt
  4

  0
STYLE
  5
3E5
330
3
100
AcDbSymbolTableRecord
100
AcDbTextStyleTableRecord
  2
SLDTEXTSTYLE0
 70
     0
 40
0.0
 41
0.675
 50
0.0
 71
     0
 42
0.0
  3
txt
  4

  0
STYLE
  5
469
330
3
100
AcDbSymbolTableRecord
100
AcDbTextStyleTableRecord
  2

 70
     1
 40
0.0
 41
1.0
 50
0.0
 71
     0
 42
3.5
  3
ltypeshp.shx
  4

  0
STYLE
  5
46F
330
3
100
AcDbSymbolTableRecord
100
AcDbTextStyleTableRecord
  2
ACANSTS
 70
     0
 40
1.0
 41
1.0
 50
0.0
 71
     0
 42
3.5
  3
romans.shx
  4

  0
STYLE
  5
47A
330
3
100
AcDbSymbolTableRecord
100
AcDbTextStyleTableRecord
  2
ACANSGDT
 70
     0
 40
0.0
 41
1.0
 50
0.0
 71
     0
 42
3.5
  3
amgdtans.shx
  4

  0
STYLE
  5
4A0
330
3
100
AcDbSymbolTableRecord
100
AcDbTextStyleTableRecord
  2
AE
 70
     0
 40
0.0
 41
1.0
 50
0.0
 71
     0
 42
0.16408998
  3
MIGRATOR
  4

  0
STYLE
  5
4A1
330
3
100
AcDbSymbolTableRecord
100
AcDbTextStyleTableRecord
  2

 70
     1
 40
0.0
 41
1.0
 50
0.0
 71
     0
 42
1.0
  3
symtb128
  4

  0
ENDTAB
  0
TABLE
  2
VIEW
  5
5
330
0
100
AcDbSymbolTable
 70
     0
  0
ENDTAB
  0
TABLE
  2
UCS
  5
6
330
0
100
AcDbSymbolTable
 70
     0
  0
ENDTAB
  0
TABLE
  2
APPID
  5
8
330
0
100
AcDbSymbolTable
 70
     7
  0
APPID
  5
16
330
8
100
AcDbSymbolTableRecord
100
AcDbRegAppTableRecord
  2
ACAD
 70
     0
  0
APPID
  5
442
330
8
100
AcDbSymbolTableRecord
100
AcDbRegAppTableRecord
  2
MCAD_NO_VIS
 70
     0
  0
APPID
  5
443
330
8
100
AcDbSymbolTableRecord
100
AcDbRegAppTableRecord
  2
ACAD_TEMP_GRAPHIC
 70
     0
  0
APPID
  5
456
330
8
100
AcDbSymbolTableRecord
100
AcDbRegAppTableRecord
  2
ACATTRIBSERVICES
 70
     0
  0
APPID
  5
4A3
330
8
100
AcDbSymbolTableRecord
100
AcDbRegAppTableRecord
  2
GENIUS_GENBLLY_14
 70
     0
  0
APPID
  5
4A4
330
8
100
AcDbSymbolTableRecord
100
AcDbRegAppTableRecord
  2
GENIUS_GENTRA_14
 70
     0
  0
APPID
  5
58F
330
8
100
AcDbSymbolTableRecord
100
AcDbRegAppTableRecord
  2
DCO15
 70
     0
  0
ENDTAB
  0
TABLE
  2
DIMSTYLE
  5
9
330
0
100
AcDbSymbolTable
 70
     8
100
AcDbDimStyleTable
 71
     0
  0
DIMSTYLE
105
18
330
9
100
AcDbSymbolTableRecord
100
AcDbDimStyleTableRecord
  2
STANDARD
 70
     0
340
17
  0
DIMSTYLE
105
480
330
9
100
AcDbSymbolTableRecord
100
AcDbDimStyleTableRecord
  2
AM_ANSI
 70
     0
  4
mm
 41
0.1
 42
0.05
 43
0.5
 44
0.1
 47
0.1
 48
0.1
 78
     7
 79
     2
140
0.12
141
0.0
146
0.71
147
0.06
176
   256
177
   256
178
     2
274
     4
284
     7
340
17
371
    -1
372
    -1
  0
DIMSTYLE
105
481
330
9
100
AcDbSymbolTableRecord
100
AcDbDimStyleTableRecord
  2
AM_ANSI$3
 70
     0
  4
mm
 41
0.1
 42
0.05
 43
0.5
 44
0.1
 47
0.1
 48
0.1
 78
     7
 79
     2
140
0.12
141
0.0
146
0.71
147
0.06
176
   256
177
   256
178
     2
274
     4
284
     7
288
     1
289
     0
340
17
371
    -1
372
    -1
  0
DIMSTYLE
105
482
330
9
100
AcDbSymbolTableRecord
100
AcDbDimStyleTableRecord
  2
AM_ANSI$4
 70
     0
  4
mm
 41
0.1
 42
0.05
 43
0.5
 44
0.1
 47
0.1
 48
0.1
 78
     7
 79
     2
140
0.12
141
0.0
146
0.71
147
0.06
176
   256
177
   256
178
     2
274
     4
284
     7
288
     1
289
     0
340
17
371
    -1
372
    -1
  0
DIMSTYLE
105
483
330
9
100
AcDbSymbolTableRecord
100
AcDbDimStyleTableRecord
  2
AM_ANSI$7
 70
     0
  4
mm
 41
0.1
 42
0.05
 43
0.5
 44
0.1
 47
0.1
 48
0.1
 78
     7
 79
     2
140
0.24
141
0.0
146
0.71
147
0.06
176
   256
177
   256
178
     2
274
     4
284
     7
340
17
371
    -1
372
    -1
  0
DIMSTYLE
105
484
330
9
100
AcDbSymbolTableRecord
100
AcDbDimStyleTableRecord
  2
AM_ANSI$SF
 70
     0
  4
mm
 41
0.1
 42
0.05
 43
0.5
 44
0.1
 47
0.1
 48
0.1
 75
     1
 76
     1
 78
     7
 79
     2
140
0.12
141
0.0
146
0.71
147
0.06
176
   256
177
   256
178
     2
274
     4
284
     7
340
17
371
    -1
372
    -1
  0
DIMSTYLE
105
489
330
9
100
AcDbSymbolTableRecord
100
AcDbDimStyleTableRecord
  2
AM_ANSI$SH
 70
     0
  4
mm
 41
0.1
 42
0.05
 43
0.5
 44
0.1
 47
0.1
 48
0.1
 75
     1
 76
     1
 78
     7
 79
     2
140
0.12
141
0.0
146
0.71
147
0.06
173
     1
176
   256
177
   256
178
     2
274
     4
284
     7
340
17
343
485
371
    -1
372
    -1
  0
DIMSTYLE
105
4A2
330
9
100
AcDbSymbolTableRecord
100
AcDbDimStyleTableRecord
  2
GEN-ANSI
 70
     0
  3
<>
  4
mm
 41
0.14
 42
0.125
 43
0.5
 44
0.125
 47
0.1
 48
0.1
 73
     0
 74
     0
 77
     1
 78
     7
140
0.12
141
0.0
146
0.71
147
0.06
176
   256
177
   256
178
     2
274
     4
340
17
  0
ENDTAB
  0
TABLE
  2
BLOCK_RECORD
  5
1
330
0
100
AcDbSymbolTable
 70
     3
  0
BLOCK_RECORD
  5
A
102
{ACAD_XDICTIONARY
360
591
102
}
330
1
100
AcDbSymbolTableRecord
100
AcDbBlockTableRecord
  2
*MODEL_SPACE
340
439
  0
BLOCK_RECORD
  5
B
330
1
100
AcDbSymbolTableRecord
100
AcDbBlockTableRecord
  2
*PAPER_SPACE
340
43A
  0
BLOCK_RECORD
  5
485
330
1
100
AcDbSymbolTableRecord
100
AcDbBlockTableRecord
  2
GENAXEH
340
0
  0
BLOCK_RECORD
  5
496
330
1
100
AcDbSymbolTableRecord
100
AcDbBlockTableRecord
  2
A$C215E2678
340
0
  0
BLOCK_RECORD
  5
4A5
330
1
100
AcDbSymbolTableRecord
100
AcDbBlockTableRecord
  2
BM_Emetric
340
0
102
{BLKREFS
331
57E
102
}
  0
ENDTAB
  0
ENDSEC
  0
SECTION
  2
BLOCKS
  0
BLOCK
  5
D
330
A
100
AcDbEntity
  8
0
100
AcDbBlockBegin
  2
*MODEL_SPACE
 70
     0
 10
0.0
 20
0.0
 30
0.0
  3
*MODEL_SPACE
  1

  0
ENDBLK
  5
E
330
A
100
AcDbEntity
  8
0
100
AcDbBlockEnd
  0
BLOCK
  5
F
330
B
100
AcDbEntity
 67
     1
  8
0
100
AcDbBlockBegin
  2
*PAPER_SPACE
 70
     0
 10
0.0
 20
0.0
 30
0.0
  3
*PAPER_SPACE
  1

  0
ENDBLK
  5
10
330
B
100
AcDbEntity
 67
     1
  8
0
100
AcDbBlockEnd
  0
BLOCK
  5
487
330
485
100
AcDbEntity
  8
0
100
AcDbBlockBegin
  2
GENAXEH
 70
     0
 10
0.0
 20
0.0
 30
0.0
  3
GENAXEH
  1

  0
LINE
  5
486
330
485
100
AcDbEntity
  8
0
100
AcDbLine
 10
-1.0
 20
0.0
 30
0.0
 11
1.0
 21
0.0
 31
0.0
  0
ENDBLK
  5
488
330
485
100
AcDbEntity
  8
0
100
AcDbBlockEnd
  0
BLOCK
  5
498
330
496
100
AcDbEntity
  8
0
100
AcDbBlockBegin
  2
A$C215E2678
 70
     0
 10
0.0
 20
0.0
 30
0.0
  3
A$C215E2678
  1

  0
TEXT
  5
497
330
496
100
AcDbEntity
  8
BORDER
100
AcDbText
 10
-0.375
 20
-2.3125
 30
0.0
 40
0.375
  1
2
 72
     1
 11
-0.25
 21
-2.125
 31
0.0
100
AcDbText
 73
     2
  0
ENDBLK
  5
499
330
496
100
AcDbEntity
  8
0
100
AcDbBlockEnd
  0
BLOCK
  5
57A
330
4A5
100
AcDbEntity
  8
0
100
AcDbBlockBegin
  2
BM_Emetric
 70
     2
 10
0.0
 20
0.0
 30
0.0
  3
BM_Emetric
  1

  0
LINE
  5
4A6
330
4A5
100
AcDbEntity
  8
BORDER
100
AcDbLine
 10
7.620076200000095
 20
434.3399491999999
 30
0.0
 11
12.7
 21
431.7999999999999
 31
0.0
  0
LINE
  5
4A7
330
4A5
100
AcDbEntity
  8
BORDER
100
AcDbLine
 10
7.619695199999974
 20
429.2600761999999
 30
0.0
 11
12.69961899999987
 21
431.8000253999999
 31
0.0
  0
LINE
  5
4A8
330
4A5
100
AcDbEntity
  8
BORDER
100
AcDbLine
 10
2.540152400000012
 20
431.8007365999999
 30
0.0
 11
7.620076200000095
 21
431.8007365999999
 31
0.0
  0
LINE
  5
4A9
330
4A5
100
AcDbEntity
  8
BORDER
100
AcDbLine
 10
7.620076200000095
 20
429.2605841999999
 30
0.0
 11
7.620076200000095
 21
434.340508
 31
0.0
  0
ATTDEF
  5
4AA
330
4A5
100
AcDbEntity
  8
TITLE BLOCK
  6
Continuous
100
AcDbText
 10
897.8899999999997
 20
82.55174299761829
 30
0.0
 40
5.133906008519999
  1

100
AcDbAttributeDefinition
  3
Drawn by
  2
GEN-TITLE-NAME{5}
 70
     0
1001
GENIUS_GENBLLY_14
1000
BOR2
  0
ATTDEF
  5
4AB
330
4A5
100
AcDbEntity
  8
TITLE BLOCK
  6
Continuous
100
AcDbText
 10
897.8899999999997
 20
69.8517429976183
 30
0.0
 40
5.133906008519999
  1

100
AcDbAttributeDefinition
  3
Check by
  2
GEN-TITLE-CHKM{5}
 70
     0
1001
GENIUS_GENBLLY_14
1000
BOR2
  0
ATTDEF
  5
4AC
330
4A5
100
AcDbEntity
  8
TITLE BLOCK
  6
Continuous
100
AcDbText
 10
897.8899999999997
 20
57.1517429976183
 30
0.0
 40
5.133906008519999
  1

100
AcDbAttributeDefinition
  3
Approved by
  2
GEN-TITLE-APPM{5}
 70
     0
1001
GENIUS_GENBLLY_14
1000
BOR2
1001
GENIUS_GENTRA_14
1002
{
1070
     3
1000
GENTRAPR,%s,(GENMSG gentitus 73)
1000
Approved by
1000
gb
1070
     0
1002
}
  0
TEXT
  5
4AD
330
4A5
100
AcDbEntity
  8
TITLE BLOCK
  6
Continuous
100
AcDbText
 10
886.8000972231191
 20
106.4868367359032
 30
0.0
 40
5.133906008519999
  1
  DRAWING
 50
0.09999996
  7
AE
100
AcDbText
  0
TEXT
  5
4AE
330
4A5
100
AcDbEntity
  8
TITLE BLOCK
  6
Continuous
100
AcDbText
 10
886.8000972231191
 20
117.1235071153846
 30
0.0
 40
5.133906008519999
  1
DO NOT SCALE
 50
0.09999996
  7
AE
100
AcDbText
  0
LINE
  5
4AF
330
4A5
100
AcDbEntity
  8
TITLE BLOCK
  6
Continuous
100
AcDbLine
 10
805.1625446281812
 20
53.34174299761829
 30
0.0
 11
1104.899999999999
 21
53.34174299761829
 31
0.0
  0
LINE
  5
4B0
330
4A5
100
AcDbEntity
  8
TITLE BLOCK
  6
Continuous
100
AcDbLine
 10
880.1196497217985
 20
66.04174299761829
 30
0.0
 11
1104.899999999999
 21
66.04174299761829
 31
0.0
  0
LINE
  5
4B1
330
4A5
100
AcDbEntity
  8
TITLE BLOCK
  6
Continuous
100
AcDbLine
 10
880.1196497217985
 20
78.74174299761827
 30
0.0
 11
1104.899999999999
 21
78.74174299761827
 31
0.0
  0
LINE
  5
4B2
330
4A5
100
AcDbEntity
  8
TITLE BLOCK
  6
Continuous
100
AcDbLine
 10
880.1196497217985
 20
91.44174299761827
 30
0.0
 11
1104.899999999999
 21
91.44174299761827
 31
0.0
  0
LINE
  5
4B3
330
4A5
100
AcDbEntity
  8
TITLE BLOCK
  6
Continuous
100
AcDbLine
 10
660.4
 20
127.0017429976183
 30
0.0
 11
1104.899999999999
 21
127.0017429976183
 31
0.0
  0
LINE
  5
4B4
330
4A5
100
AcDbEntity
  8
BORDER
100
AcDbLine
 10
558.8
 20
25.399963678
 30
0.0
 11
561.3397714
 21
20.319983744
 31
0.0
  0
LINE
  5
4B5
330
4A5
100
AcDbEntity
  8
BORDER
100
AcDbLine
 10
556.2598476
 20
20.320009398
 30
0.0
 11
558.8
 21
25.4
 31
0.0
  0
LINE
  5
4B6
330
4A5
100
AcDbEntity
  8
BORDER
100
AcDbLine
 10
556.2598476
 20
20.31999872999999
 30
0.0
 11
561.3397714
 21
20.31999872999999
 31
0.0
  0
LINE
  5
4B7
330
4A5
100
AcDbEntity
  8
BORDER
100
AcDbLine
 10
558.799619
 20
15.23999746
 30
0.0
 11
558.799619
 21
20.31999872999999
 31
0.0
  0
LINE
  5
4B8
330
4A5
100
AcDbEntity
  8
BORDER
100
AcDbLine
 10
558.799619
 20
15.23999746
 30
0.0
 11
558.799619
 21
20.31999872999999
 31
0.0
  0
TEXT
  5
4B9
330
4A5
100
AcDbEntity
  8
TITLE BLOCK
  6
Continuous
100
AcDbText
 10
717.4759883878006
 20
29.97497253251012
 30
0.0
 40
3.857603011244991
  1
REVISION
 50
0.09999996
  7
AE
100
AcDbText
  0
LINE
  5
4BA
330
4A5
100
AcDbEntity
  8
TITLE BLOCK
  6
Continuous
100
AcDbLine
 10
660.4
 20
38.1017429976183
 30
0.0
 11
805.1625446281812
 21
38.1017429976183
 31
0.0
  0
LINE
  5
4BB
330
4A5
100
AcDbEntity
  8
TITLE BLOCK
  6
Continuous
100
AcDbLine
 10
660.4
 20
76.20174299761828
 30
0.0
 11
805.1625446281812
 21
76.20174299761828
 31
0.0
  0
LINE
  5
4BC
330
4A5
100
AcDbEntity
  8
TITLE BLOCK
  6
Continuous
100
AcDbLine
 10
660.4
 20
88.90174299761829
 30
0.0
 11
805.1625446281812
 21
88.90174299761829
 31
0.0
  0
LINE
  5
4BD
330
4A5
100
AcDbEntity
  8
TITLE BLOCK
  6
Continuous
100
AcDbLine
 10
660.4
 20
101.6017429976182
 30
0.0
 11
805.1625446281812
 21
101.6017429976182
 31
0.0
  0
LINE
  5
4BE
330
4A5
100
AcDbEntity
  8
TITLE BLOCK
  6
Continuous
100
AcDbLine
 10
660.4
 20
114.3017429976182
 30
0.0
 11
805.1625446281812
 21
114.3017429976182
 31
0.0
  0
LINE
  5
4BF
330
4A5
100
AcDbEntity
  8
TITLE BLOCK
  6
Continuous
100
AcDbLine
 10
660.4
 20
63.5017429976183
 30
0.0
 11
805.1625446281812
 21
63.5017429976183
 31
0.0
  0
LINE
  5
4C0
330
4A5
100
AcDbEntity
  8
TITLE BLOCK
  6
Continuous
100
AcDbLine
 10
660.4
 20
50.80174299761829
 30
0.0
 11
805.1625446281812
 21
50.80174299761829
 31
0.0
  0
TEXT
  5
4C1
330
4A5
100
AcDbEntity
  8
BORDER
100
AcDbText
 10
932.2557173999999
 20
14.80786347480914
 30
0.0
 40
1.016
  1
FULL SIZE   50   02
 50
0.0999999600000001
 41
0.7749084200000001
  7
AE
100
AcDbText
  0
LINE
  5
4C2
330
4A5
100
AcDbEntity
  8
TITLE BLOCK
  6
Continuous
100
AcDbLine
 10
718.8199999999999
 20
38.1017429976183
 30
0.0
 11
718.8199999999999
 21
127.0017429976183
 31
0.0
  0
TEXT
  5
4C3
330
4A5
100
AcDbEntity
  8
TITLE BLOCK
  6
Continuous
100
AcDbText
 10
693.4898003352477
 20
42.72241401402765
 30
0.0
 40
3.857603011244991
  1
DATE
 50
0.09999996
  7
AE
100
AcDbText
  0
TEXT
  5
4C4
330
4A5
100
AcDbEntity
  8
TITLE BLOCK
  6
Continuous
100
AcDbText
 10
664.8827003180477
 20
42.69151355378778
 30
0.0
 40
3.919325545192706
  1
NO.
 50
0.09999996
  7
AE
100
AcDbText
  0
LINE
  5
4C5
330
4A5
100
AcDbEntity
  8
TITLE BLOCK
  6
Continuous
100
AcDbLine
 10
660.4
 20
25.4
 30
0.0
 11
660.4
 21
127.0017429976183
 31
0.0
  0
LINE
  5
4C6
330
4A5
100
AcDbEntity
  8
TITLE BLOCK
  6
Continuous
100
AcDbLine
 10
678.18
 20
38.1017429976183
 30
0.0
 11
678.18
 21
127.0017429976183
 31
0.0
  0
LINE
  5
4C7
330
4A5
100
AcDbEntity
  8
BORDER
  6
LS
100
AcDbLine
 10
937.2600380999999
 20
20.57486845080915
 30
0.0
 11
937.2600380999999
 21
24.13086972080915
 31
0.0
  0
LINE
  5
4C8
330
4A5
100
AcDbEntity
  8
BORDER
  6
LS
100
AcDbLine
 10
939.8000482599998
 20
20.57486845080915
 30
0.0
 11
939.8000482599998
 21
24.13086972080915
 31
0.0
  0
LINE
  5
4C9
330
4A5
100
AcDbEntity
  8
BORDER
  6
LS
100
AcDbLine
 10
936.7520508000001
 20
22.60686972080914
 30
0.0
 11
936.7520508000001
 21
24.13086972080915
 31
0.0
  0
LINE
  5
4CA
330
4A5
100
AcDbEntity
  8
BORDER
  6
LS
100
AcDbLine
 10
937.7680508
 20
22.60686972080914
 30
0.0
 11
937.7680508
 21
24.13086972080915
 31
0.0
  0
LINE
  5
4CB
330
4A5
100
AcDbEntity
  8
BORDER
  6
LS
100
AcDbLine
 10
938.2760635
 20
21.59086895880915
 30
0.0
 11
938.2760635
 21
24.13086972080915
 31
0.0
  0
LINE
  5
4CC
330
4A5
100
AcDbEntity
  8
BORDER
  6
LS
100
AcDbLine
 10
938.7840736600001
 20
21.59086895880915
 30
0.0
 11
938.7840736600001
 21
24.13086972080915
 31
0.0
  0
LINE
  5
4CD
330
4A5
100
AcDbEntity
  8
BORDER
  6
LS
100
AcDbLine
 10
939.29206096
 20
22.60686972080914
 30
0.0
 11
939.29206096
 21
24.13086972080915
 31
0.0
  0
LINE
  5
4CE
330
4A5
100
AcDbEntity
  8
BORDER
  6
LS
100
AcDbLine
 10
932.18002032
 20
20.57486845080915
 30
0.0
 11
932.18002032
 21
24.13086972080915
 31
0.0
  0
LINE
  5
4CF
330
4A5
100
AcDbEntity
  8
BORDER
  6
LS
100
AcDbLine
 10
934.7200304800001
 20
20.57486845080915
 30
0.0
 11
934.7200304800001
 21
24.13086972080915
 31
0.0
  0
LINE
  5
4D0
330
4A5
100
AcDbEntity
  8
BORDER
  6
LS
100
AcDbLine
 10
932.6880304800001
 20
22.60686972080914
 30
0.0
 11
932.6880304800001
 21
24.13086972080915
 31
0.0
  0
LINE
  5
4D1
330
4A5
100
AcDbEntity
  8
BORDER
  6
LS
100
AcDbLine
 10
933.1960431800002
 20
21.59086895880915
 30
0.0
 11
933.1960431800002
 21
24.13086972080915
 31
0.0
  0
LINE
  5
4D2
330
4A5
100
AcDbEntity
  8
BORDER
  6
LS
100
AcDbLine
 10
933.7040533399999
 20
21.59086895880915
 30
0.0
 11
933.7040533399999
 21
24.13086972080915
 31
0.0
  0
LINE
  5
4D3
330
4A5
100
AcDbEntity
  8
BORDER
  6
LS
100
AcDbLine
 10
934.2120406400001
 20
22.60686972080914
 30
0.0
 11
934.2120406400001
 21
24.13086972080915
 31
0.0
  0
LINE
  5
4D4
330
4A5
100
AcDbEntity
  8
BORDER
  6
LS
100
AcDbLine
 10
935.22804064
 20
22.60686972080914
 30
0.0
 11
935.22804064
 21
24.13086972080915
 31
0.0
  0
LINE
  5
4D5
330
4A5
100
AcDbEntity
  8
BORDER
  6
LS
100
AcDbLine
 10
935.7360533400001
 20
21.59086895880915
 30
0.0
 11
935.7360533400001
 21
24.13086972080915
 31
0.0
  0
LINE
  5
4D6
330
4A5
100
AcDbEntity
  8
BORDER
  6
LS
100
AcDbLine
 10
936.2440635000002
 20
21.59086895880915
 30
0.0
 11
936.2440635000002
 21
24.13086972080915
 31
0.0
  0
LINE
  5
4D7
330
4A5
100
AcDbEntity
  8
BORDER
  6
LS
100
AcDbLine
 10
940.3080609599999
 20
22.60686972080914
 30
0.0
 11
940.3080609599999
 21
24.13086972080915
 31
0.0
  0
LINE
  5
4D8
330
4A5
100
AcDbEntity
  8
BORDER
  6
LS
100
AcDbLine
 10
927.0999999999999
 20
19.05086845080915
 30
0.0
 11
927.0999999999999
 21
24.13086972080915
 31
0.0
  0
LINE
  5
4D9
330
4A5
100
AcDbEntity
  8
BORDER
  6
LS
100
AcDbLine
 10
927.6080127
 20
22.60686972080914
 30
0.0
 11
927.6080127
 21
24.13086972080915
 31
0.0
  0
LINE
  5
4DA
330
4A5
100
AcDbEntity
  8
BORDER
  6
LS
100
AcDbLine
 10
928.1160228600001
 20
21.59086895880915
 30
0.0
 11
928.1160228600001
 21
24.13086972080915
 31
0.0
  0
LINE
  5
4DB
330
4A5
100
AcDbEntity
  8
BORDER
  6
LS
100
AcDbLine
 10
929.6400101600001
 20
20.57486845080915
 30
0.0
 11
929.6400101600001
 21
24.13086972080915
 31
0.0
  0
LINE
  5
4DC
330
4A5
100
AcDbEntity
  8
BORDER
  6
LS
100
AcDbLine
 10
928.62403556
 20
21.59086895880915
 30
0.0
 11
928.62403556
 21
24.13086972080915
 31
0.0
  0
LINE
  5
4DD
330
4A5
100
AcDbEntity
  8
BORDER
  6
LS
100
AcDbLine
 10
929.13202286
 20
22.60686972080914
 30
0.0
 11
929.13202286
 21
24.13086972080915
 31
0.0
  0
LINE
  5
4DE
330
4A5
100
AcDbEntity
  8
BORDER
  6
LS
100
AcDbLine
 10
930.1480203199998
 20
22.60686972080914
 30
0.0
 11
930.1480203199998
 21
24.13086972080915
 31
0.0
  0
LINE
  5
4DF
330
4A5
100
AcDbEntity
  8
BORDER
  6
LS
100
AcDbLine
 10
930.6560330200001
 20
21.59086895880915
 30
0.0
 11
930.6560330200001
 21
24.13086972080915
 31
0.0
  0
LINE
  5
4E0
330
4A5
100
AcDbEntity
  8
BORDER
  6
LS
100
AcDbLine
 10
931.1640457199999
 20
21.59086895880915
 30
0.0
 11
931.1640457199999
 21
24.13086972080915
 31
0.0
  0
LINE
  5
4E1
330
4A5
100
AcDbEntity
  8
BORDER
  6
LS
100
AcDbLine
 10
931.6720330199999
 20
22.60686972080914
 30
0.0
 11
931.6720330199999
 21
24.13086972080915
 31
0.0
  0
TEXT
  5
4E2
330
4A5
100
AcDbEntity
  8
BORDER
100
AcDbText
 10
926.3760618999999
 20
15.49360175280915
 30
0.0
 40
2.031999491999999
  1
0
 50
0.0999999600000001
  7
AE
100
AcDbText
  0
TEXT
  5
4E3
330
4A5
100
AcDbEntity
  8
BORDER
100
AcDbText
 10
936.5361
 20
17.01760175280914
 30
0.0
 40
2.031999491999999
  1
4
 50
0.0999999600000001
  7
AE
100
AcDbText
  0
TEXT
  5
4E4
330
4A5
100
AcDbEntity
  8
BORDER
100
AcDbText
 10
931.45608222
 20
17.01760175280914
 30
0.0
 40
2.031999491999999
  1
2
 50
0.0999999600000001
  7
AE
100
AcDbText
  0
TEXT
  5
4E5
330
4A5
100
AcDbEntity
  8
TITLE BLOCK
  6
Continuous
100
AcDbText
 10
807.7199999999999
 20
45.72174299761829
 30
0.0
 40
3.857603011244991
  1
DRAWING NAME
 50
0.09999996
  7
AE
100
AcDbText
  0
TEXT
  5
4E6
330
4A5
100
AcDbEntity
  8
TITLE BLOCK
  6
Continuous
100
AcDbText
 10
805.9419999999999
 20
119.3817429976183
 30
0.0
 40
3.278962461575079
  1
NOTICE: This drawing or material
 50
0.09999996
 41
0.7005041199999999
  7
AE
100
AcDbText
  0
LINE
  5
4E7
330
4A5
100
AcDbEntity
  8
TITLE BLOCK
  6
Continuous
100
AcDbLine
 10
880.1196497217985
 20
55.8817429976183
 30
0.0
 11
880.1196497217985
 21
127.0017429976183
 31
0.0
  0
LINE
  5
4E8
330
4A5
100
AcDbEntity
  8
TITLE BLOCK
  6
Continuous
100
AcDbLine
 10
805.1625446281812
 20
25.4
 30
0.0
 11
805.1625446281812
 21
127.0017429976183
 31
0.0
  0
TEXT
  5
4E9
330
4A5
100
AcDbEntity
  8
TITLE BLOCK
  6
Continuous
100
AcDbText
 10
806.2619157184524
 20
86.67918267069842
 30
0.0
 40
3.278962461575079
  1
reproduced, will be used only for
 50
0.09999996
 41
0.6799434399999999
  7
AE
100
AcDbText
  0
TEXT
  5
4EA
330
4A5
100
AcDbEntity
  8
TITLE BLOCK
  6
Continuous
100
AcDbText
 10
806.9653123507388
 20
60.70973001504532
 30
0.0
 40
3.278962461575079
  1
consent of G & L Motion Control Inc..
 50
0.09999996
 41
0.79688752
  7
AE
100
AcDbText
  0
TEXT
  5
4EB
330
4A5
100
AcDbEntity
  8
TITLE BLOCK
  6
Continuous
100
AcDbText
 10
806.1389419495721
 20
67.82226903643513
 30
0.0
 40
3.278962461575079
  1
as authorized by specific written
 50
0.09999996
 41
0.6799434399999999
  7
AE
100
AcDbText
  0
TEXT
  5
4EC
330
4A5
100
AcDbEntity
  8
TITLE BLOCK
  6
Continuous
100
AcDbText
 10
806.1411367724243
 20
74.01228187952366
 30
0.0
 40
3.278962461575079
  1
used or disclosed to anyone except
 50
0.09999996
 41
0.6605569100000001
  7
AE
100
AcDbText
  0
TEXT
  5
4ED
330
4A5
100
AcDbEntity
  8
TITLE BLOCK
  6
Continuous
100
AcDbText
 10
805.9749475294488
 20
80.53019047885307
 30
0.0
 40
3.278962461575079
  1
your information, and will not be
 50
0.09999996
 41
0.6799434399999999
  7
AE
100
AcDbText
  0
TEXT
  5
4EE
330
4A5
100
AcDbEntity
  8
TITLE BLOCK
  6
Continuous
100
AcDbText
 10
806.212297044645
 20
93.34052882252844
 30
0.0
 40
3.278962461575079
  1
will not be copied or otherwise
 50
0.09999996
 41
0.72234601
  7
AE
100
AcDbText
  0
TEXT
  5
4EF
330
4A5
100
AcDbEntity
  8
TITLE BLOCK
  6
Continuous
100
AcDbText
 10
805.9156579174404
 20
100.0020562432092
 30
0.0
 40
3.278962461575079
  1
in confidence on condition that it
 50
0.09999996
 41
0.6605569100000001
  7
AE
100
AcDbText
  0
TEXT
  5
4F0
330
4A5
100
AcDbEntity
  8
TITLE BLOCK
  6
Continuous
100
AcDbText
 10
805.8279139948613
 20
113.1607982191674
 30
0.0
 40
3.278962461575079
  1
contains proprietary information
 50
0.09999996
 41
0.7005041199999999
  7
AE
100
AcDbText
  0
TEXT
  5
4F1
330
4A5
100
AcDbEntity
  8
TITLE BLOCK
  6
Continuous
100
AcDbText
 10
806.1184291743698
 20
106.4788951997148
 30
0.0
 40
3.278962461575079
  1
of G & L Motion Control Inc., is submitted
 50
0.09999996
 41
0.6799434399999999
  7
AE
100
AcDbText
  0
TEXT
  5
4F2
330
4A5
100
AcDbEntity
  8
TITLE BLOCK
  6
Continuous
100
AcDbText
 10
881.38
 20
86.3617429976183
 30
0.0
 40
3.857603011244991
  1
DR
 50
0.09999996
  7
AE
100
AcDbText
  0
TEXT
  5
4F3
330
4A5
100
AcDbEntity
  8
TITLE BLOCK
  6
Continuous
100
AcDbText
 10
881.38
 20
80.0117429976183
 30
0.0
 40
3.857603011244991
  1
BY
 50
0.09999996
  7
AE
100
AcDbText
  0
TEXT
  5
4F4
330
4A5
100
AcDbEntity
  8
TITLE BLOCK
  6
Continuous
100
AcDbText
 10
881.6949789261077
 20
67.31174299761828
 30
0.0
 40
3.857603011244991
  1
BY
 50
0.09999996
  7
AE
100
AcDbText
  0
TEXT
  5
4F5
330
4A5
100
AcDbEntity
  8
TITLE BLOCK
  6
Continuous
100
AcDbText
 10
881.38
 20
73.66174299761829
 30
0.0
 40
3.857603011244991
  1
CHK
 50
0.09999996
  7
AE
100
AcDbText
  0
TEXT
  5
4F6
330
4A5
100
AcDbEntity
  8
TITLE BLOCK
  6
Continuous
100
AcDbText
 10
881.888
 20
60.9617429976183
 30
0.0
 40
3.857603011244991
  1
APPD
 50
0.09999996
  7
AE
100
AcDbText
  0
TEXT
  5
4F7
330
4A5
100
AcDbEntity
  8
TITLE BLOCK
  6
Continuous
100
AcDbText
 10
881.38
 20
54.61174299761831
 30
0.0
 40
3.857603011244991
  1
BY
 50
0.09999996
  7
AE
100
AcDbText
  0
ATTDEF
  5
4F8
330
4A5
100
AcDbEntity
  8
TITLE BLOCK
  6
Continuous
100
AcDbText
 10
812.8
 20
31.75
 30
0.0
 40
7.62
  1

 41
0.8
100
AcDbAttributeDefinition
  3
Drawing Name
  2
GEN-TITLE-DES1{15.54}
 70
     0
1001
GENIUS_GENBLLY_14
1000
BOR5
  0
LINE
  5
4F9
330
4A5
100
AcDbEntity
  8
BORDER
  6
LS
100
AcDbLine
 10
1003.3
 20
19.05086845080915
 30
0.0
 11
1003.3
 21
24.13086972080915
 31
0.0
  0
TEXT
  5
4FA
330
4A5
100
AcDbEntity
  8
BORDER
100
AcDbText
 10
1002.576061899999
 20
15.49360175280915
 30
0.0
 40
2.031999491999999
  1
3
 50
0.0999999600000001
  7
AE
100
AcDbText
  0
LINE
  5
4FB
330
4A5
100
AcDbEntity
  8
BORDER
  6
LS
100
AcDbLine
 10
977.8999999999999
 20
19.05086845080915
 30
0.0
 11
977.8999999999999
 21
24.13086972080915
 31
0.0
  0
LINE
  5
4FC
330
4A5
100
AcDbEntity
  8
BORDER
  6
LS
100
AcDbLine
 10
972.82014986
 20
20.57486845080915
 30
0.0
 11
972.82014986
 21
24.13086972080915
 31
0.0
  0
LINE
  5
4FD
330
4A5
100
AcDbEntity
  8
BORDER
  6
LS
100
AcDbLine
 10
967.7401320800001
 20
20.57486845080915
 30
0.0
 11
967.7401320800001
 21
24.13086972080915
 31
0.0
  0
TEXT
  5
4FE
330
4A5
100
AcDbEntity
  8
BORDER
100
AcDbText
 10
977.1760619
 20
15.49360175280915
 30
0.0
 40
2.031999491999999
  1
2
 50
0.0999999600000001
  7
AE
100
AcDbText
  0
TEXT
  5
4FF
330
4A5
100
AcDbEntity
  8
BORDER
100
AcDbText
 10
972.09621176
 20
17.01760175280914
 30
0.0
 40
2.031999491999999
  1
8
 50
0.0999999600000001
  7
AE
100
AcDbText
  0
TEXT
  5
500
330
4A5
100
AcDbEntity
  8
BORDER
100
AcDbText
 10
967.0161914399999
 20
17.01760175280914
 30
0.0
 40
2.031999491999999
  1
6
 50
0.0999999600000001
  7
AE
100
AcDbText
  0
LINE
  5
501
330
4A5
100
AcDbEntity
  8
BORDER
  6
LS
100
AcDbLine
 10
962.6601117599999
 20
20.57486845080915
 30
0.0
 11
962.6601117599999
 21
24.13086972080915
 31
0.0
  0
LINE
  5
502
330
4A5
100
AcDbEntity
  8
BORDER
  6
LS
100
AcDbLine
 10
957.5801168399999
 20
20.57486845080915
 30
0.0
 11
957.5801168399999
 21
24.13086972080915
 31
0.0
  0
LINE
  5
503
330
4A5
100
AcDbEntity
  8
BORDER
  6
LS
100
AcDbLine
 10
949.9600863599999
 20
20.57486845080915
 30
0.0
 11
949.9600863599999
 21
24.13086972080915
 31
0.0
  0
LINE
  5
504
330
4A5
100
AcDbEntity
  8
BORDER
  6
LS
100
AcDbLine
 10
950.46809906
 20
22.60686972080914
 30
0.0
 11
950.46809906
 21
24.13086972080915
 31
0.0
  0
LINE
  5
505
330
4A5
100
AcDbEntity
  8
BORDER
  6
LS
100
AcDbLine
 10
950.9761117600001
 20
21.59086895880915
 30
0.0
 11
950.9761117600001
 21
24.13086972080915
 31
0.0
  0
LINE
  5
506
330
4A5
100
AcDbEntity
  8
BORDER
  6
LS
100
AcDbLine
 10
947.9280888999999
 20
22.60686972080914
 30
0.0
 11
947.9280888999999
 21
24.13086972080915
 31
0.0
  0
LINE
  5
507
330
4A5
100
AcDbEntity
  8
BORDER
  6
LS
100
AcDbLine
 10
948.4361016000001
 20
21.59086895880915
 30
0.0
 11
948.4361016000001
 21
24.13086972080915
 31
0.0
  0
LINE
  5
508
330
4A5
100
AcDbEntity
  8
BORDER
  6
LS
100
AcDbLine
 10
948.94411176
 20
21.59086895880915
 30
0.0
 11
948.94411176
 21
24.13086972080915
 31
0.0
  0
LINE
  5
509
330
4A5
100
AcDbEntity
  8
BORDER
  6
LS
100
AcDbLine
 10
949.4520990600001
 20
22.60686972080914
 30
0.0
 11
949.4520990600001
 21
24.13086972080915
 31
0.0
  0
LINE
  5
50A
330
4A5
100
AcDbEntity
  8
BORDER
  6
LS
100
AcDbLine
 10
944.88006858
 20
20.57486845080915
 30
0.0
 11
944.88006858
 21
24.13086972080915
 31
0.0
  0
LINE
  5
50B
330
4A5
100
AcDbEntity
  8
BORDER
  6
LS
100
AcDbLine
 10
947.42007874
 20
20.57486845080915
 30
0.0
 11
947.42007874
 21
24.13086972080915
 31
0.0
  0
LINE
  5
50C
330
4A5
100
AcDbEntity
  8
BORDER
  6
LS
100
AcDbLine
 10
943.86409398
 20
21.59086895880915
 30
0.0
 11
943.86409398
 21
24.13086972080915
 31
0.0
  0
LINE
  5
50D
330
4A5
100
AcDbEntity
  8
BORDER
  6
LS
100
AcDbLine
 10
944.37208128
 20
22.60686972080914
 30
0.0
 11
944.37208128
 21
24.13086972080915
 31
0.0
  0
LINE
  5
50E
330
4A5
100
AcDbEntity
  8
BORDER
  6
LS
100
AcDbLine
 10
945.3880787399999
 20
22.60686972080914
 30
0.0
 11
945.3880787399999
 21
24.13086972080915
 31
0.0
  0
LINE
  5
50F
330
4A5
100
AcDbEntity
  8
BORDER
  6
LS
100
AcDbLine
 10
945.89609144
 20
21.59086895880915
 30
0.0
 11
945.89609144
 21
24.13086972080915
 31
0.0
  0
LINE
  5
510
330
4A5
100
AcDbEntity
  8
BORDER
  6
LS
100
AcDbLine
 10
946.4041041400001
 20
21.59086895880915
 30
0.0
 11
946.4041041400001
 21
24.13086972080915
 31
0.0
  0
LINE
  5
511
330
4A5
100
AcDbEntity
  8
BORDER
  6
LS
100
AcDbLine
 10
946.9120914399999
 20
22.60686972080914
 30
0.0
 11
946.9120914399999
 21
24.13086972080915
 31
0.0
  0
LINE
  5
512
330
4A5
100
AcDbEntity
  8
BORDER
  6
LS
100
AcDbLine
 10
952.5
 20
19.05086845080915
 30
0.0
 11
952.5
 21
24.13086972080915
 31
0.0
  0
LINE
  5
513
330
4A5
100
AcDbEntity
  8
BORDER
  6
LS
100
AcDbLine
 10
951.48412192
 20
21.59086895880915
 30
0.0
 11
951.48412192
 21
24.13086972080915
 31
0.0
  0
LINE
  5
514
330
4A5
100
AcDbEntity
  8
BORDER
  6
LS
100
AcDbLine
 10
951.99210922
 20
22.60686972080914
 30
0.0
 11
951.99210922
 21
24.13086972080915
 31
0.0
  0
TEXT
  5
515
330
4A5
100
AcDbEntity
  8
BORDER
100
AcDbText
 10
951.7760619
 20
15.49360175280915
 30
0.0
 40
2.031999491999999
  1
1
 50
0.0999999600000001
  7
AE
100
AcDbText
  0
TEXT
  5
516
330
4A5
100
AcDbEntity
  8
BORDER
100
AcDbText
 10
946.6961406400001
 20
17.01760175280914
 30
0.0
 40
2.031999491999999
  1
8
 50
0.0999999600000001
  7
AE
100
AcDbText
  0
TEXT
  5
517
330
4A5
100
AcDbEntity
  8
BORDER
100
AcDbText
 10
961.93617366
 20
17.01760175280914
 30
0.0
 40
2.031999491999999
  1
4
 50
0.0999999600000001
  7
AE
100
AcDbText
  0
TEXT
  5
518
330
4A5
100
AcDbEntity
  8
BORDER
100
AcDbText
 10
956.85617874
 20
17.01760175280914
 30
0.0
 40
2.031999491999999
  1
2
 50
0.0999999600000001
  7
AE
100
AcDbText
  0
LINE
  5
519
330
4A5
100
AcDbEntity
  8
BORDER
  6
LS
100
AcDbLine
 10
942.3400584199999
 20
20.57486845080915
 30
0.0
 11
942.3400584199999
 21
24.13086972080915
 31
0.0
  0
LINE
  5
51A
330
4A5
100
AcDbEntity
  8
BORDER
  6
LS
100
AcDbLine
 10
940.81607112
 20
21.59086895880915
 30
0.0
 11
940.81607112
 21
24.13086972080915
 31
0.0
  0
LINE
  5
51B
330
4A5
100
AcDbEntity
  8
BORDER
  6
LS
100
AcDbLine
 10
941.32408382
 20
21.59086895880915
 30
0.0
 11
941.32408382
 21
24.13086972080915
 31
0.0
  0
LINE
  5
51C
330
4A5
100
AcDbEntity
  8
BORDER
  6
LS
100
AcDbLine
 10
941.8320711199999
 20
22.60686972080914
 30
0.0
 11
941.8320711199999
 21
24.13086972080915
 31
0.0
  0
LINE
  5
51D
330
4A5
100
AcDbEntity
  8
BORDER
  6
LS
100
AcDbLine
 10
942.84807112
 20
22.60686972080914
 30
0.0
 11
942.84807112
 21
24.13086972080915
 31
0.0
  0
LINE
  5
51E
330
4A5
100
AcDbEntity
  8
BORDER
  6
LS
100
AcDbLine
 10
943.3560812799999
 20
21.59086895880915
 30
0.0
 11
943.3560812799999
 21
24.13086972080915
 31
0.0
  0
TEXT
  5
51F
330
4A5
100
AcDbEntity
  8
BORDER
100
AcDbText
 10
941.6161203200001
 20
17.01760175280914
 30
0.0
 40
2.031999491999999
  1
6
 50
0.0999999600000001
  7
AE
100
AcDbText
  0
ATTDEF
  5
520
330
4A5
100
AcDbEntity
  8
TITLE BLOCK
  6
Continuous
100
AcDbText
 10
1074.42
 20
57.15174299761829
 30
0.0
 40
5.998969170955619
  1

 41
0.8
100
AcDbAttributeDefinition
  3
Sheet of
  2
GEN-TITLE-SHEET-OF{2.62}
 70
     0
1001
GENIUS_GENBLLY_14
1000
BOR3
  0
ATTDEF
  5
521
330
4A5
100
AcDbEntity
  8
TITLE BLOCK
  6
Continuous
100
AcDbText
 10
1054.099999999999
 20
57.15174299761829
 30
0.0
 40
5.998969170955619
  1

 41
0.8
100
AcDbAttributeDefinition
  3
Sheet
  2
GEN-TITLE-SHEET{2.62}
 70
     0
1001
GENIUS_GENBLLY_14
1000
BOR3
  0
TEXT
  5
522
330
4A5
100
AcDbEntity
  8
TITLE BLOCK
  6
Continuous
100
AcDbText
 10
1032.51
 20
73.66174299761829
 30
0.0
 40
3.857603011244991
  1
DATE
 50
0.09999996
  7
AE
100
AcDbText
  0
TEXT
  5
523
330
4A5
100
AcDbEntity
  8
TITLE BLOCK
  6
Continuous
100
AcDbText
 10
1032.51
 20
60.9617429976183
 30
0.0
 40
3.857603011244991
  1
SHEET   OF
 50
0.09999996
  7
AE
100
AcDbText
  0
ATTDEF
  5
524
330
4A5
100
AcDbEntity
  8
TITLE BLOCK
  6
Continuous
100
AcDbText
 10
975.3600000000002
 20
57.1517429976183
 30
0.0
 40
5.133906008519999
  1

 41
0.8
100
AcDbAttributeDefinition
  3
Material
  2
GEN-TITLE-MAT{11.15}
 70
     0
1001
GENIUS_GENBLLY_14
1000
BOR3
  0
ATTDEF
  5
525
330
4A5
100
AcDbEntity
  8
TITLE BLOCK
  6
Continuous
100
AcDbText
 10
975.3600000000002
 20
69.8517429976183
 30
0.0
 40
5.133906008519999
  1

100
AcDbAttributeDefinition
  3
Machine
  2
GEN-TITLE-MACH{5}
 70
     0
1001
GENIUS_GENBLLY_14
1000
BOR2
  0
ATTDEF
  5
526
330
4A5
100
AcDbEntity
  8
TITLE BLOCK
  6
Continuous
100
AcDbText
 10
975.3600000000002
 20
82.55174299761829
 30
0.0
 40
5.133906008519999
  1

100
AcDbAttributeDefinition
  3
Ref. No.
  2
GEN-TITLE-REF{5}
 70
     0
1001
GENIUS_GENBLLY_14
1000
BOR2
  0
TEXT
  5
527
330
4A5
100
AcDbEntity
  8
TITLE BLOCK
  6
Continuous
100
AcDbText
 10
957.58
 20
60.9617429976183
 30
0.0
 40
3.857603011244991
  1
MATL
 50
0.09999996
  7
AE
100
AcDbText
  0
TEXT
  5
528
330
4A5
100
AcDbEntity
  8
TITLE BLOCK
  6
Continuous
100
AcDbText
 10
957.58
 20
73.66174299761829
 30
0.0
 40
3.857603011244991
  1
MACH
 50
0.09999996
  7
AE
100
AcDbText
  0
TEXT
  5
529
330
4A5
100
AcDbEntity
  8
TITLE BLOCK
  6
Continuous
100
AcDbText
 10
957.58
 20
86.3617429976183
 30
0.0
 40
3.857603011244991
  1
REF
 50
0.09999996
  7
AE
100
AcDbText
  0
TEXT
  5
52A
330
4A5
100
AcDbEntity
  8
TITLE BLOCK
  6
Continuous
100
AcDbText
 10
957.58
 20
45.72174299761829
 30
0.0
 40
3.857603011244991
  1
DRAWING NUMBER
 50
0.09999996
  7
AE
100
AcDbText
  0
LINE
  5
52B
330
4A5
100
AcDbEntity
  8
TITLE BLOCK
  6
Continuous
100
AcDbLine
 10
955.0399999999998
 20
25.4
 30
0.0
 11
955.0399999999998
 21
127.0017429976183
 31
0.0
  0
LINE
  5
52C
330
4A5
100
AcDbEntity
  8
TITLE BLOCK
  6
Continuous
100
AcDbLine
 10
1030.033864808189
 20
53.34174299761829
 30
0.0
 11
1030.033864808187
 21
78.74174299761827
 31
0.0
  0
ATTDEF
  5
52D
330
4A5
100
AcDbEntity
  8
TITLE BLOCK
  6
Continuous
100
AcDbText
 10
1049.39
 20
69.85174299761829
 30
0.0
 40
5.133906008519999
  1

100
AcDbAttributeDefinition
  3
Date
  2
GEN-TITLE-PLOT{5}
 70
     0
1001
GENIUS_GENBLLY_14
1000
BOR2
  0
ATTDEF
  5
52E
330
4A5
100
AcDbEntity
  8
TITLE BLOCK
  6
Continuous
100
AcDbText
 10
965.2000000000001
 20
31.75
 30
0.0
 40
7.62
  1

 41
0.8
100
AcDbAttributeDefinition
  3
Drawing Number
  2
GEN-TITLE-NR{13.37}
 70
     0
1001
GENIUS_GENBLLY_14
1000
BOR5
  0
LINE
  5
52F
330
4A5
100
AcDbEntity
  8
BORDER
100
AcDbLine
 10
558.7988316
 20
843.2799237999999
 30
0.0
 11
558.7988316
 21
848.3598475999999
 31
0.0
  0
LINE
  5
530
330
4A5
100
AcDbEntity
  8
BORDER
100
AcDbLine
 10
556.2590602
 20
843.2799237999999
 30
0.0
 11
561.338984
 21
843.2799237999999
 31
0.0
  0
LINE
  5
531
330
4A5
100
AcDbEntity
  8
BORDER
100
AcDbLine
 10
556.2598476
 20
843.2799237999999
 30
0.0
 11
558.8
 21
838.1999999999999
 31
0.0
  0
LINE
  5
532
330
4A5
100
AcDbEntity
  8
BORDER
100
AcDbLine
 10
558.7995935999999
 20
838.2003809999998
 30
0.0
 11
561.3397714
 21
843.2803048
 31
0.0
  0
LINE
  5
533
330
4A5
100
AcDbEntity
  8
BORDER
100
AcDbLine
 10
1109.980105409999
 20
431.8004571999999
 30
0.0
 11
1115.06002794
 21
431.8004571999999
 31
0.0
  0
LINE
  5
534
330
4A5
100
AcDbEntity
  8
BORDER
100
AcDbLine
 10
1104.899999999999
 20
431.7999999999999
 30
0.0
 11
1109.979893319999
 21
434.3399237999999
 31
0.0
  0
LINE
  5
535
330
4A5
100
AcDbEntity
  8
BORDER
100
AcDbLine
 10
1109.980105409999
 20
429.2603047999999
 30
0.0
 11
1109.980105409999
 21
434.3402285999999
 31
0.0
  0
LINE
  5
536
330
4A5
100
AcDbEntity
  8
BORDER
100
AcDbLine
 10
1104.900331215999
 20
431.7999491999999
 30
0.0
 11
1109.980225043999
 21
429.2600253999999
 31
0.0
  0
LINE
  5
537
330
4A5
100
AcDbEntity
  8
BORDER
  6
Continuous
100
AcDbLine
 10
1117.6
 20
558.8
 30
0.0
 11
1117.6
 21
0.0
 31
0.0
  0
LINE
  5
538
330
4A5
100
AcDbEntity
  8
BORDER
  6
Continuous
100
AcDbLine
 10
1117.6
 20
0.0
 30
0.0
 11
0.0
 21
0.0
 31
0.0
  0
LINE
  5
539
330
4A5
100
AcDbEntity
  8
BORDER
100
AcDbLine
 10
254.0
 20
0.0
 30
0.0
 11
254.0
 21
0.0
 31
0.0
  0
MTEXT
  5
53A
330
4A5
100
AcDbEntity
  8
BORDER
  6
Continuous
100
AcDbMText
 10
1028.856961502622
 20
119.3817429976183
 30
0.0
 40
6.349999999999999
 41
135.2804
 71
     2
 72
     5
  1
{\fArial|b0|i0|c0|p34;\C1;G & L Motion Control Inc.}
 73
     1
 44
1.0
  0
MTEXT
  5
53B
330
4A5
100
AcDbEntity
  8
BORDER
  6
Continuous
100
AcDbMText
 10
1028.909731744085
 20
103.0375967327382
 30
0.0
 40
3.999992
 41
145.3896
 71
     5
 72
     1
  1
{\Fromans.shx;\C9;672 South Military Road\PFond du Lac, Wisconsin 54936 U.S.A.}
 73
     1
 44
1.0
  0
LINE
  5
53C
330
4A5
100
AcDbEntity
  8
BORDER
100
AcDbLine
 10
1117.6
 20
863.5999999999999
 30
0.0
 11
1117.6
 21
0.0
 31
0.0
  0
LINE
  5
53D
330
4A5
100
AcDbEntity
  8
BORDER
100
AcDbLine
 10
1117.6
 20
863.5999999999999
 30
0.0
 11
0.0
 21
863.5999999999999
 31
0.0
  0
LINE
  5
53E
330
4A5
100
AcDbEntity
  8
BORDER
100
AcDbLine
 10
0.0
 20
863.5999999999999
 30
0.0
 11
0.0
 21
0.0
 31
0.0
  0
LINE
  5
53F
330
4A5
100
AcDbEntity
  8
BORDER
100
AcDbLine
 10
12.7
 20
25.4
 30
0.0
 11
12.7
 21
838.1999999999999
 31
0.0
  0
LINE
  5
540
330
4A5
100
AcDbEntity
  8
BORDER
100
AcDbLine
 10
1104.899999999999
 20
25.4
 30
0.0
 11
1104.899999999999
 21
838.1999999999999
 31
0.0
  0
LINE
  5
541
330
4A5
100
AcDbEntity
  8
BORDER
100
AcDbLine
 10
12.7
 20
838.1999999999999
 30
0.0
 11
1104.899999999999
 21
838.1999999999999
 31
0.0
  0
LINE
  5
542
330
4A5
100
AcDbEntity
  8
BORDER
100
AcDbLine
 10
12.7
 20
25.4
 30
0.0
 11
1104.899999999999
 21
25.4
 31
0.0
  0
LINE
  5
543
330
4A5
100
AcDbEntity
  8
BORDER
100
AcDbLine
 10
977.8999999999999
 20
850.9
 30
0.0
 11
977.8999999999999
 21
838.1999999999999
 31
0.0
  0
LINE
  5
544
330
4A5
100
AcDbEntity
  8
BORDER
100
AcDbLine
 10
838.1999999999999
 20
850.9
 30
0.0
 11
838.1999999999999
 21
838.1999999999999
 31
0.0
  0
LINE
  5
545
330
4A5
100
AcDbEntity
  8
BORDER
100
AcDbLine
 10
698.5
 20
850.9
 30
0.0
 11
698.5
 21
838.1999999999999
 31
0.0
  0
LINE
  5
546
330
4A5
100
AcDbEntity
  8
BORDER
100
AcDbLine
 10
419.0999999999999
 20
850.9
 30
0.0
 11
419.0999999999999
 21
838.1999999999999
 31
0.0
  0
LINE
  5
547
330
4A5
100
AcDbEntity
  8
BORDER
100
AcDbLine
 10
279.4
 20
850.9
 30
0.0
 11
279.4
 21
838.1999999999999
 31
0.0
  0
LINE
  5
548
330
4A5
100
AcDbEntity
  8
BORDER
100
AcDbLine
 10
139.7
 20
850.9
 30
0.0
 11
139.7
 21
838.1999999999999
 31
0.0
  0
LINE
  5
549
330
4A5
100
AcDbEntity
  8
BORDER
100
AcDbLine
 10
1117.6
 20
755.6499999999999
 30
0.0
 11
1104.899999999999
 21
755.6499999999999
 31
0.0
  0
LINE
  5
54A
330
4A5
100
AcDbEntity
  8
BORDER
100
AcDbLine
 10
1117.6
 20
647.6999999999999
 30
0.0
 11
1104.899999999999
 21
647.6999999999999
 31
0.0
  0
LINE
  5
54B
330
4A5
100
AcDbEntity
  8
BORDER
100
AcDbLine
 10
1117.6
 20
539.7499999999999
 30
0.0
 11
1104.899999999999
 21
539.7499999999999
 31
0.0
  0
LINE
  5
54C
330
4A5
100
AcDbEntity
  8
BORDER
100
AcDbLine
 10
1117.6
 20
323.8499999999999
 30
0.0
 11
1104.899999999999
 21
323.8499999999999
 31
0.0
  0
LINE
  5
54D
330
4A5
100
AcDbEntity
  8
BORDER
100
AcDbLine
 10
1117.6
 20
215.8999999999999
 30
0.0
 11
1104.899999999999
 21
215.8999999999999
 31
0.0
  0
LINE
  5
54E
330
4A5
100
AcDbEntity
  8
BORDER
100
AcDbLine
 10
1117.6
 20
107.9499999999999
 30
0.0
 11
1104.899999999999
 21
107.9499999999999
 31
0.0
  0
LINE
  5
54F
330
4A5
100
AcDbEntity
  8
BORDER
100
AcDbLine
 10
12.7
 20
755.6499999999999
 30
0.0
 11
0.0
 21
755.6499999999999
 31
0.0
  0
LINE
  5
550
330
4A5
100
AcDbEntity
  8
BORDER
100
AcDbLine
 10
12.7
 20
647.6999999999999
 30
0.0
 11
0.0
 21
647.6999999999999
 31
0.0
  0
LINE
  5
551
330
4A5
100
AcDbEntity
  8
BORDER
100
AcDbLine
 10
12.7
 20
539.7499999999999
 30
0.0
 11
0.0
 21
539.7499999999999
 31
0.0
  0
LINE
  5
552
330
4A5
100
AcDbEntity
  8
BORDER
100
AcDbLine
 10
12.7
 20
323.8499999999999
 30
0.0
 11
0.0
 21
323.8499999999999
 31
0.0
  0
LINE
  5
553
330
4A5
100
AcDbEntity
  8
BORDER
100
AcDbLine
 10
12.7
 20
215.8999999999999
 30
0.0
 11
0.0
 21
215.8999999999999
 31
0.0
  0
LINE
  5
554
330
4A5
100
AcDbEntity
  8
BORDER
100
AcDbLine
 10
12.7
 20
107.9499999999999
 30
0.0
 11
0.0
 21
107.9499999999999
 31
0.0
  0
LINE
  5
555
330
4A5
100
AcDbEntity
  8
BORDER
100
AcDbLine
 10
139.7
 20
25.4
 30
0.0
 11
139.7
 21
12.7
 31
0.0
  0
LINE
  5
556
330
4A5
100
AcDbEntity
  8
BORDER
100
AcDbLine
 10
279.4
 20
25.4
 30
0.0
 11
279.4
 21
12.7
 31
0.0
  0
LINE
  5
557
330
4A5
100
AcDbEntity
  8
BORDER
100
AcDbLine
 10
419.0999999999999
 20
25.4
 30
0.0
 11
419.0999999999999
 21
12.7
 31
0.0
  0
LINE
  5
558
330
4A5
100
AcDbEntity
  8
BORDER
100
AcDbLine
 10
698.5
 20
25.4
 30
0.0
 11
698.5
 21
12.7
 31
0.0
  0
LINE
  5
559
330
4A5
100
AcDbEntity
  8
BORDER
100
AcDbLine
 10
838.1999999999999
 20
25.4
 30
0.0
 11
838.1999999999999
 21
12.7
 31
0.0
  0
TEXT
  5
55A
330
4A5
100
AcDbEntity
  8
BORDER
100
AcDbText
 10
904.875
 20
846.1375
 30
0.0
 40
9.524999999999998
  1
2
 72
     1
 11
908.0499999999998
 21
850.9
 31
0.0
100
AcDbText
 73
     2
  0
TEXT
  5
55B
330
4A5
100
AcDbEntity
  8
BORDER
100
AcDbText
 10
1046.1625
 20
846.1375
 30
0.0
 40
9.524999999999998
  1
1
 72
     1
 11
1047.75
 21
850.9
 31
0.0
100
AcDbText
 73
     2
  0
TEXT
  5
55C
330
4A5
100
AcDbEntity
  8
BORDER
100
AcDbText
 10
765.1749999999999
 20
846.1375
 30
0.0
 40
9.524999999999998
  1
3
 72
     1
 11
768.3499999999999
 21
850.9
 31
0.0
100
AcDbText
 73
     2
  0
TEXT
  5
55D
330
4A5
100
AcDbEntity
  8
BORDER
100
AcDbText
 10
206.3749999999999
 20
846.1375
 30
0.0
 40
9.524999999999998
  1
7
 72
     1
 11
209.5499999999999
 21
850.9
 31
0.0
100
AcDbText
 73
     2
  0
TEXT
  5
55E
330
4A5
100
AcDbEntity
  8
BORDER
100
AcDbText
 10
346.0749999999999
 20
846.1375
 30
0.0
 40
9.524999999999998
  1
6
 72
     1
 11
349.25
 21
850.9
 31
0.0
100
AcDbText
 73
     2
  0
TEXT
  5
55F
330
4A5
100
AcDbEntity
  8
BORDER
100
AcDbText
 10
485.775
 20
846.1375
 30
0.0
 40
9.524999999999998
  1
5
 72
     1
 11
488.9499999999999
 21
850.9
 31
0.0
100
AcDbText
 73
     2
  0
TEXT
  5
560
330
4A5
100
AcDbEntity
  8
BORDER
100
AcDbText
 10
66.675
 20
846.1375
 30
0.0
 40
9.524999999999998
  1
8
 72
     1
 11
69.84999999999999
 21
850.9
 31
0.0
100
AcDbText
 73
     2
  0
TEXT
  5
561
330
4A5
100
AcDbEntity
  8
BORDER
100
AcDbText
 10
625.475
 20
846.1375
 30
0.0
 40
9.524999999999998
  1
4
 72
     1
 11
628.65
 21
850.9
 31
0.0
100
AcDbText
 73
     2
  0
TEXT
  5
562
330
4A5
100
AcDbEntity
  8
BORDER
100
AcDbText
 10
1108.075
 20
696.9124999999999
 30
0.0
 40
9.524999999999998
  1
G
 72
     1
 11
1111.25
 21
701.675
 31
0.0
100
AcDbText
 73
     2
  0
TEXT
  5
563
330
4A5
100
AcDbEntity
  8
BORDER
100
AcDbText
 10
1108.075
 20
804.8624999999999
 30
0.0
 40
9.524999999999998
  1
H
 72
     1
 11
1111.25
 21
809.6249999999999
 31
0.0
100
AcDbText
 73
     2
  0
TEXT
  5
564
330
4A5
100
AcDbEntity
  8
BORDER
100
AcDbText
 10
1108.075
 20
588.9624999999999
 30
0.0
 40
9.524999999999998
  1
F
 72
     1
 11
1111.25
 21
593.725
 31
0.0
100
AcDbText
 73
     2
  0
TEXT
  5
565
330
4A5
100
AcDbEntity
  8
BORDER
100
AcDbText
 10
1108.075
 20
373.0624999999999
 30
0.0
 40
9.524999999999998
  1
D
 72
     1
 11
1111.25
 21
377.8249999999999
 31
0.0
100
AcDbText
 73
     2
  0
TEXT
  5
566
330
4A5
100
AcDbEntity
  8
BORDER
100
AcDbText
 10
1108.075
 20
49.21249999999999
 30
0.0
 40
9.524999999999998
  1
A
 72
     1
 11
1111.25
 21
53.97499999999999
 31
0.0
100
AcDbText
 73
     2
  0
TEXT
  5
567
330
4A5
100
AcDbEntity
  8
BORDER
100
AcDbText
 10
1108.075
 20
157.1625
 30
0.0
 40
9.524999999999998
  1
B
 72
     1
 11
1111.25
 21
161.9249999999999
 31
0.0
100
AcDbText
 73
     2
  0
TEXT
  5
568
330
4A5
100
AcDbEntity
  8
BORDER
100
AcDbText
 10
1108.075
 20
265.1124999999999
 30
0.0
 40
9.524999999999998
  1
C
 72
     1
 11
1111.25
 21
269.8749999999999
 31
0.0
100
AcDbText
 73
     2
  0
TEXT
  5
569
330
4A5
100
AcDbEntity
  8
BORDER
100
AcDbText
 10
1108.075
 20
481.0125
 30
0.0
 40
9.524999999999998
  1
E
 72
     1
 11
1111.25
 21
485.775
 31
0.0
100
AcDbText
 73
     2
  0
TEXT
  5
56A
330
4A5
100
AcDbEntity
  8
BORDER
100
AcDbText
 10
3.174999999999999
 20
49.21249999999999
 30
0.0
 40
9.524999999999998
  1
A
 72
     1
 11
6.349999999999999
 21
53.97499999999999
 31
0.0
100
AcDbText
 73
     2
  0
TEXT
  5
56B
330
4A5
100
AcDbEntity
  8
BORDER
100
AcDbText
 10
3.174999999999999
 20
157.1625
 30
0.0
 40
9.524999999999998
  1
B
 72
     1
 11
6.349999999999999
 21
161.9249999999999
 31
0.0
100
AcDbText
 73
     2
  0
TEXT
  5
56C
330
4A5
100
AcDbEntity
  8
BORDER
100
AcDbText
 10
3.174999999999999
 20
265.1124999999999
 30
0.0
 40
9.524999999999998
  1
C
 72
     1
 11
6.349999999999999
 21
269.8749999999999
 31
0.0
100
AcDbText
 73
     2
  0
TEXT
  5
56D
330
4A5
100
AcDbEntity
  8
BORDER
100
AcDbText
 10
3.174999999999999
 20
373.0624999999999
 30
0.0
 40
9.524999999999998
  1
D
 72
     1
 11
6.349999999999999
 21
377.8249999999999
 31
0.0
100
AcDbText
 73
     2
  0
TEXT
  5
56E
330
4A5
100
AcDbEntity
  8
BORDER
100
AcDbText
 10
3.174999999999999
 20
481.0125
 30
0.0
 40
9.524999999999998
  1
E
 72
     1
 11
6.349999999999999
 21
485.775
 31
0.0
100
AcDbText
 73
     2
  0
TEXT
  5
56F
330
4A5
100
AcDbEntity
  8
BORDER
100
AcDbText
 10
3.174999999999999
 20
588.9624999999999
 30
0.0
 40
9.524999999999998
  1
F
 72
     1
 11
6.349999999999999
 21
593.725
 31
0.0
100
AcDbText
 73
     2
  0
TEXT
  5
570
330
4A5
100
AcDbEntity
  8
BORDER
100
AcDbText
 10
3.174999999999999
 20
696.9124999999999
 30
0.0
 40
9.524999999999998
  1
G
 72
     1
 11
6.349999999999999
 21
701.675
 31
0.0
100
AcDbText
 73
     2
  0
TEXT
  5
571
330
4A5
100
AcDbEntity
  8
BORDER
100
AcDbText
 10
3.174999999999999
 20
804.8624999999999
 30
0.0
 40
9.524999999999998
  1
H
 72
     1
 11
6.349999999999999
 21
809.6249999999999
 31
0.0
100
AcDbText
 73
     2
  0
TEXT
  5
572
330
4A5
100
AcDbEntity
  8
BORDER
100
AcDbText
 10
1046.1625
 20
7.9375
 30
0.0
 40
9.524999999999998
  1
1
 72
     1
 11
1047.75
 21
12.7
 31
0.0
100
AcDbText
 73
     2
  0
TEXT
  5
573
330
4A5
100
AcDbEntity
  8
BORDER
100
AcDbText
 10
904.875
 20
7.9375
 30
0.0
 40
9.524999999999998
  1
2
 72
     1
 11
908.0499999999998
 21
12.7
 31
0.0
100
AcDbText
 73
     2
  0
TEXT
  5
574
330
4A5
100
AcDbEntity
  8
BORDER
100
AcDbText
 10
765.1749999999999
 20
7.9375
 30
0.0
 40
9.524999999999998
  1
3
 72
     1
 11
768.3499999999999
 21
12.7
 31
0.0
100
AcDbText
 73
     2
  0
TEXT
  5
575
330
4A5
100
AcDbEntity
  8
BORDER
100
AcDbText
 10
625.475
 20
7.9375
 30
0.0
 40
9.524999999999998
  1
4
 72
     1
 11
628.65
 21
12.7
 31
0.0
100
AcDbText
 73
     2
  0
TEXT
  5
576
330
4A5
100
AcDbEntity
  8
BORDER
100
AcDbText
 10
485.775
 20
7.9375
 30
0.0
 40
9.524999999999998
  1
5
 72
     1
 11
488.9499999999999
 21
12.7
 31
0.0
100
AcDbText
 73
     2
  0
TEXT
  5
577
330
4A5
100
AcDbEntity
  8
BORDER
100
AcDbText
 10
346.0749999999999
 20
7.9375
 30
0.0
 40
9.524999999999998
  1
6
 72
     1
 11
349.25
 21
12.7
 31
0.0
100
AcDbText
 73
     2
  0
TEXT
  5
578
330
4A5
100
AcDbEntity
  8
BORDER
100
AcDbText
 10
206.3749999999999
 20
7.9375
 30
0.0
 40
9.524999999999998
  1
7
 72
     1
 11
209.5499999999999
 21
12.7
 31
0.0
100
AcDbText
 73
     2
  0
TEXT
  5
579
330
4A5
100
AcDbEntity
  8
BORDER
100
AcDbText
 10
66.675
 20
7.9375
 30
0.0
 40
9.524999999999998
  1
8
 72
     1
 11
69.84999999999999
 21
12.7
 31
0.0
100
AcDbText
 73
     2
  0
ENDBLK
  5
57B
330
4A5
100
AcDbEntity
  8
0
100
AcDbBlockEnd
  0
ENDSEC
  0
SECTION
  2
ENTITIES
  0
LINE
  5
30
330
A
100
AcDbEntity
  8
1
  6
Continuous
 62
    92
100
AcDbLine
 10
289.9705200196
 20
260.0000038146999
 30
0.0
 11
557.4760131836
 21
260.0000038146999
 31
0.0
  0
LINE
  5
31
330
A
100
AcDbEntity
  8
1
  6
Continuous
 62
    92
100
AcDbLine
 10
557.4760131836
 20
260.0000038146999
 30
0.0
 11
607.7140197753999
 21
260.0000038146999
 31
0.0
  0
LINE
  5
32
330
A
100
AcDbEntity
  8
1
  6
Continuous
 62
    92
100
AcDbLine
 10
289.9705200196
 20
246.6670112609999
 30
0.0
 11
557.4760131836
 21
246.6670112609999
 31
0.0
  0
LINE
  5
33
330
A
100
AcDbEntity
  8
1
  6
Continuous
 62
    92
100
AcDbLine
 10
557.4760131836
 20
246.6670112609999
 30
0.0
 11
607.7140197753999
 21
246.6670112609999
 31
0.0
  0
LINE
  5
34
330
A
100
AcDbEntity
  8
1
  6
Continuous
 62
    92
100
AcDbLine
 10
289.9705200196
 20
233.3330116272
 30
0.0
 11
557.4760131836
 21
233.3330116272
 31
0.0
  0
LINE
  5
35
330
A
100
AcDbEntity
  8
1
  6
Continuous
 62
    92
100
AcDbLine
 10
557.4760131836
 20
233.3330116272
 30
0.0
 11
607.7140197753999
 21
233.3330116272
 31
0.0
  0
LINE
  5
36
330
A
100
AcDbEntity
  8
1
  6
Continuous
 62
    92
100
AcDbLine
 10
289.9705200196
 20
220.0000038146999
 30
0.0
 11
557.4760131836
 21
220.0000038146999
 31
0.0
  0
LINE
  5
37
330
A
100
AcDbEntity
  8
1
  6
Continuous
 62
    92
100
AcDbLine
 10
557.4760131836
 20
220.0000038146999
 30
0.0
 11
607.7140197753999
 21
220.0000038146999
 31
0.0
  0
LINE
  5
38
330
A
100
AcDbEntity
  8
1
  6
Continuous
 62
    92
100
AcDbLine
 10
289.9705200196
 20
260.0000038146999
 30
0.0
 11
289.9705200196
 21
220.0000038146999
 31
0.0
  0
LINE
  5
3A
330
A
100
AcDbEntity
  8
1
  6
Continuous
 62
    92
100
AcDbLine
 10
406.7620239257999
 20
260.0000038146999
 30
0.0
 11
406.7620239257999
 21
220.0
 31
0.0
  0
LINE
  5
3B
330
A
100
AcDbEntity
  8
1
  6
Continuous
 62
    92
100
AcDbLine
 10
457.0
 20
260.0000038146999
 30
0.0
 11
457.0
 21
220.0
 31
0.0
  0
LINE
  5
3C
330
A
100
AcDbEntity
  8
1
  6
Continuous
 62
    92
100
AcDbLine
 10
507.2379760741999
 20
260.0000038146999
 30
0.0
 11
507.2379760741999
 21
220.0
 31
0.0
  0
LINE
  5
3D
330
A
100
AcDbEntity
  8
1
  6
Continuous
 62
    92
100
AcDbLine
 10
557.4760131836
 20
260.0000038146999
 30
0.0
 11
557.4760131836
 21
220.0000038146999
 31
0.0
  0
LINE
  5
3E
330
A
100
AcDbEntity
  8
1
  6
Continuous
 62
    92
100
AcDbLine
 10
607.7140197753999
 20
260.0000038146999
 30
0.0
 11
607.7140197753999
 21
220.0000038146999
 31
0.0
  0
LINE
  5
3F
330
A
100
AcDbEntity
  8
1
  6
Continuous
 62
    92
100
AcDbLine
 10
692.0357742308501
 20
473.6465263367249
 30
0.0
 11
692.0357742308501
 21
469.5230293273501
 31
0.0
  0
LINE
  5
40
330
A
100
AcDbEntity
  8
1
  6
Continuous
 62
    92
100
AcDbLine
 10
692.0357742308501
 20
469.5230293273501
 30
0.0
 11
696.1735000609751
 21
469.5230293273501
 31
0.0
  0
LINE
  5
41
330
A
100
AcDbEntity
  8
1
  6
Continuous
 62
    92
100
AcDbLine
 10
696.1735000609751
 20
469.5230293273501
 30
0.0
 11
696.1735000609751
 21
473.6465263367249
 31
0.0
  0
LINE
  5
42
330
A
100
AcDbEntity
  8
1
  6
Continuous
 62
    92
100
AcDbLine
 10
696.1735000609751
 20
473.6465263367249
 30
0.0
 11
692.0357742308501
 21
473.6465263367249
 31
0.0
  0
LINE
  5
43
330
A
100
AcDbEntity
  8
1
  6
Continuous
 62
    92
100
AcDbLine
 10
463.5121765136001
 20
476.1461830139749
 30
0.0
 11
463.5121765136001
 21
472.023677825975
 31
0.0
  0
LINE
  5
44
330
A
100
AcDbEntity
  8
1
  6
Continuous
 62
    92
100
AcDbLine
 10
463.5121765136001
 20
472.023677825975
 30
0.0
 11
467.6496734618502
 21
472.023677825975
 31
0.0
  0
LINE
  5
45
330
A
100
AcDbEntity
  8
1
  6
Continuous
 62
    92
100
AcDbLine
 10
467.6496734618502
 20
472.023677825975
 30
0.0
 11
467.6496734618502
 21
476.1461830139749
 31
0.0
  0
LINE
  5
46
330
A
100
AcDbEntity
  8
1
  6
Continuous
 62
    92
100
AcDbLine
 10
467.6496734618502
 20
476.1461830139749
 30
0.0
 11
463.5121765136001
 21
476.1461830139749
 31
0.0
  0
LINE
  5
47
330
A
100
AcDbEntity
  8
1
  6
Continuous
 62
    92
100
AcDbLine
 10
870.5090560912251
 20
632.8470420837249
 30
0.0
 11
870.5090560912251
 21
628.724536895725
 31
0.0
  0
LINE
  5
48
330
A
100
AcDbEntity
  8
1
  6
Continuous
 62
    92
100
AcDbLine
 10
870.5090560912251
 20
628.724536895725
 30
0.0
 11
874.6465530394752
 21
628.724536895725
 31
0.0
  0
LINE
  5
49
330
A
100
AcDbEntity
  8
1
  6
Continuous
 62
    92
100
AcDbLine
 10
874.6465530394752
 20
628.724536895725
 30
0.0
 11
874.6465530394752
 21
632.8470420837249
 31
0.0
  0
LINE
  5
4A
330
A
100
AcDbEntity
  8
1
  6
Continuous
 62
    92
100
AcDbLine
 10
874.6465530394752
 20
632.8470420837249
 30
0.0
 11
870.5090560912251
 21
632.8470420837249
 31
0.0
  0
LINE
  5
4B
330
A
100
AcDbEntity
  8
1
  6
Continuous
 62
    92
100
AcDbLine
 10
964.6046676634751
 20
377.529621124225
 30
0.0
 11
967.5197830199751
 21
374.614582061725
 31
0.0
  0
LINE
  5
4C
330
A
100
AcDbEntity
  8
1
  6
Continuous
 62
    92
100
AcDbLine
 10
967.5197830199751
 20
374.614582061725
 30
0.0
 11
970.4454269408502
 21
377.5402259827249
 31
0.0
  0
LINE
  5
4D
330
A
100
AcDbEntity
  8
1
  6
Continuous
 62
    92
100
AcDbLine
 10
970.4454269408502
 20
377.5402259827249
 30
0.0
 11
967.5303115844751
 21
380.455265045225
 31
0.0
  0
LINE
  5
4E
330
A
100
AcDbEntity
  8
1
  6
Continuous
 62
    92
100
AcDbLine
 10
967.5303115844751
 20
380.455265045225
 30
0.0
 11
964.6046676634751
 21
377.529621124225
 31
0.0
  0
LINE
  5
4F
330
A
100
AcDbEntity
  8
11
  6
Continuous
 62
    92
100
AcDbLine
 10
36.0
 20
647.5999908447501
 30
0.0
 11
154.3999633789
 21
647.5999908447501
 31
0.0
  0
LINE
  5
50
330
A
100
AcDbEntity
  8
11
  6
Continuous
 62
    92
100
AcDbLine
 10
154.3999633789
 20
647.5999908447501
 30
0.0
 11
154.3999633789
 21
596.4000091552499
 31
0.0
  0
LINE
  5
51
330
A
100
AcDbEntity
  8
11
  6
Continuous
 62
    92
100
AcDbLine
 10
154.3999633789
 20
596.4000091552499
 30
0.0
 11
36.0
 21
596.4000091552499
 31
0.0
  0
LINE
  5
52
330
A
100
AcDbEntity
  8
11
  6
Continuous
 62
    92
100
AcDbLine
 10
36.0
 20
596.4000091552499
 30
0.0
 11
36.0
 21
647.5999908447501
 31
0.0
  0
LINE
  5
53
330
A
100
AcDbEntity
  8
11
  6
Continuous
 62
    92
100
AcDbLine
 10
36.0
 20
622.00001525875
 30
0.0
 11
154.3999633789
 21
622.00001525875
 31
0.0
  0
LINE
  5
54
330
A
100
AcDbEntity
  8
11
  6
Continuous
 62
    92
100
AcDbLine
 10
112.799987793
 20
647.5999908447501
 30
0.0
 11
112.799987793
 21
596.4000091552499
 31
0.0
  0
LINE
  5
55
330
A
100
AcDbEntity
  8
11
  6
CENTERX2
 62
    92
100
AcDbLine
 10
914.4029541014999
 20
220.4828529358
 30
0.0
 11
956.2745361328
 21
220.4828529358
 31
0.0
  0
LINE
  5
56
330
A
100
AcDbEntity
  8
11
  6
CENTERX2
 62
    92
100
AcDbLine
 10
946.5625000000001
 20
230.5462532043
 30
0.0
 11
946.5625000000001
 21
210.4301567078
 31
0.0
  0
LINE
  5
57
330
A
100
AcDbEntity
  8
11
  6
Continuous
 62
    92
100
AcDbLine
 10
933.3625488280999
 20
220.4828529358
 30
0.0
 11
933.3625488280999
 21
229.2828559875999
 31
0.0
  0
LINE
  5
58
330
A
100
AcDbEntity
  8
11
  6
Continuous
 62
    92
100
AcDbLine
 10
933.3625488280999
 20
229.2828559875999
 30
0.0
 11
915.7620239257999
 21
224.8828544616999
 31
0.0
  0
LINE
  5
59
330
A
100
AcDbEntity
  8
11
  6
Continuous
 62
    92
100
AcDbLine
 10
915.7620239257999
 20
224.8828544616999
 30
0.0
 11
915.7620239257999
 21
220.4828529358
 31
0.0
  0
LINE
  5
5A
330
A
100
AcDbEntity
  8
11
  6
Continuous
 62
    92
100
AcDbLine
 10
933.3625488280999
 20
220.4828529358
 30
0.0
 11
933.3625488280999
 21
211.6828498839999
 31
0.0
  0
LINE
  5
5B
330
A
100
AcDbEntity
  8
11
  6
Continuous
 62
    92
100
AcDbLine
 10
933.3625488280999
 20
211.6828498839999
 30
0.0
 11
915.7620239257999
 21
216.0828590392999
 31
0.0
  0
LINE
  5
5C
330
A
100
AcDbEntity
  8
11
  6
Continuous
 62
    92
100
AcDbLine
 10
915.7620239257999
 20
216.0828590392999
 30
0.0
 11
915.7620239257999
 21
220.4828529358
 31
0.0
  0
LINE
  5
64
330
A
100
AcDbEntity
  8
1
  6
Continuous
 62
    92
100
AcDbLine
 10
769.1756091269679
 20
666.4852371215249
 30
0.0
 11
633.026652828168
 21
666.4852371215249
 31
0.0
  0
LINE
  5
65
330
A
100
AcDbEntity
  8
1
  6
Continuous
 62
    92
100
AcDbLine
 10
633.026652828168
 20
666.4852371215249
 30
0.0
 11
609.5816149863679
 21
570.2832412719248
 31
0.0
  0
LINE
  5
66
330
A
100
AcDbEntity
  8
1
  6
Continuous
 62
    92
100
AcDbLine
 10
352.463880017543
 20
293.8352354778125
 30
0.0
 11
175.3508734257431
 21
293.8352354778125
 31
0.0
  0
LINE
  5
67
330
A
100
AcDbEntity
  8
1
  6
Continuous
 62
    92
100
AcDbLine
 10
175.3508734257431
 20
293.8352354778125
 30
0.0
 11
234.777740478475
 21
482.320156097475
 31
0.0
  0
LINE
  5
68
330
A
100
AcDbEntity
  8
1
  6
Continuous
 62
    92
100
AcDbLine
 10
234.777740478475
 20
482.320156097475
 30
0.0
 11
225.9389724731001
 21
491.1588859558499
 31
0.0
  0
LINE
  5
69
330
A
100
AcDbEntity
  8
4
 62
    92
100
AcDbLine
 10
663.9285888671001
 20
578.569469451975
 30
0.0
 11
662.9285888671001
 21
575.5694694519751
 31
0.0
  0
LINE
  5
6A
330
A
100
AcDbEntity
  8
4
 62
    92
100
AcDbLine
 10
662.9285888671001
 20
575.5694694519751
 30
0.0
 11
664.9285888671002
 21
575.5694694519751
 31
0.0
  0
LINE
  5
6B
330
A
100
AcDbEntity
  8
4
 62
    92
100
AcDbLine
 10
664.9285888671002
 20
575.5694694519751
 30
0.0
 11
663.9285888671001
 21
578.569469451975
 31
0.0
  0
LINE
  5
6C
330
A
100
AcDbEntity
  8
4
  6
Continuous
 62
    92
100
AcDbLine
 10
663.9285888671001
 20
578.569469451975
 30
0.0
 11
663.9285888671001
 21
482.320156097475
 31
0.0
  0
LINE
  5
6D
330
A
100
AcDbEntity
  8
4
 62
    92
100
AcDbLine
 10
663.9285888671001
 20
482.320156097475
 30
0.0
 11
664.9285888671002
 21
485.3201560974749
 31
0.0
  0
LINE
  5
6E
330
A
100
AcDbEntity
  8
4
 62
    92
100
AcDbLine
 10
664.9285888671002
 20
485.3201560974749
 30
0.0
 11
662.9285888671001
 21
485.3201560974749
 31
0.0
  0
LINE
  5
6F
330
A
100
AcDbEntity
  8
4
 62
    92
100
AcDbLine
 10
662.9285888671001
 20
485.3201560974749
 30
0.0
 11
663.9285888671001
 21
482.320156097475
 31
0.0
  0
LINE
  5
70
330
A
100
AcDbEntity
  8
4
  6
Continuous
 62
    92
100
AcDbLine
 10
620.60652160635
 20
578.569469451975
 30
0.0
 11
663.9285888671001
 21
578.569469451975
 31
0.0
  0
LINE
  5
71
330
A
100
AcDbEntity
  8
4
  6
Continuous
 62
    92
100
AcDbLine
 10
623.8556900023501
 20
482.320156097475
 30
0.0
 11
663.9285888671001
 21
482.320156097475
 31
0.0
  0
LINE
  5
72
330
A
100
AcDbEntity
  8
4
 62
    92
100
AcDbLine
 10
234.777740478475
 20
325.10494232185
 30
0.0
 11
237.7777404784751
 21
324.10494232185
 31
0.0
  0
LINE
  5
73
330
A
100
AcDbEntity
  8
4
 62
    92
100
AcDbLine
 10
237.7777404784751
 20
324.10494232185
 30
0.0
 11
237.7777404784751
 21
326.10494232185
 31
0.0
  0
LINE
  5
74
330
A
100
AcDbEntity
  8
4
 62
    92
100
AcDbLine
 10
237.7777404784751
 20
326.10494232185
 30
0.0
 11
234.777740478475
 21
325.10494232185
 31
0.0
  0
LINE
  5
75
330
A
100
AcDbEntity
  8
4
  6
Continuous
 62
    92
100
AcDbLine
 10
234.777740478475
 20
325.10494232185
 30
0.0
 11
634.777969360225
 21
325.10494232185
 31
0.0
  0
LINE
  5
76
330
A
100
AcDbEntity
  8
4
 62
    92
100
AcDbLine
 10
634.777969360225
 20
325.10494232185
 30
0.0
 11
631.777969360225
 21
326.10494232185
 31
0.0
  0
LINE
  5
77
330
A
100
AcDbEntity
  8
4
 62
    92
100
AcDbLine
 10
631.777969360225
 20
326.10494232185
 30
0.0
 11
631.777969360225
 21
324.10494232185
 31
0.0
  0
LINE
  5
78
330
A
100
AcDbEntity
  8
4
 62
    92
100
AcDbLine
 10
631.777969360225
 20
324.10494232185
 30
0.0
 11
634.777969360225
 21
325.10494232185
 31
0.0
  0
LINE
  5
79
330
A
100
AcDbEntity
  8
4
  6
Continuous
 62
    92
100
AcDbLine
 10
234.777740478475
 20
376.0084152222249
 30
0.0
 11
234.777740478475
 21
325.10494232185
 31
0.0
  0
LINE
  5
7A
330
A
100
AcDbEntity
  8
4
  6
Continuous
 62
    92
100
AcDbLine
 10
634.777969360225
 20
445.323772430475
 30
0.0
 11
634.777969360225
 21
325.10494232185
 31
0.0
  0
LINE
  5
7B
330
A
100
AcDbEntity
  8
4
 62
    92
100
AcDbLine
 10
698.58637237535
 20
426.0706901550999
 30
0.0
 11
699.58637237535
 21
429.0706901551
 31
0.0
  0
LINE
  5
7C
330
A
100
AcDbEntity
  8
4
 62
    92
100
AcDbLine
 10
699.58637237535
 20
429.0706901551
 30
0.0
 11
697.58637237535
 21
429.0706901551
 31
0.0
  0
LINE
  5
7D
330
A
100
AcDbEntity
  8
4
 62
    92
100
AcDbLine
 10
697.58637237535
 20
429.0706901551
 30
0.0
 11
698.58637237535
 21
426.0706901550999
 31
0.0
  0
LINE
  5
7E
330
A
100
AcDbEntity
  8
4
  6
Continuous
 62
    92
100
AcDbLine
 10
698.58637237535
 20
426.0706901550999
 30
0.0
 11
698.58637237535
 21
538.569469451975
 31
0.0
  0
LINE
  5
7F
330
A
100
AcDbEntity
  8
4
 62
    92
100
AcDbLine
 10
698.58637237535
 20
538.569469451975
 30
0.0
 11
697.58637237535
 21
535.5694694519751
 31
0.0
  0
LINE
  5
80
330
A
100
AcDbEntity
  8
4
 62
    92
100
AcDbLine
 10
697.58637237535
 20
535.5694694519751
 30
0.0
 11
699.58637237535
 21
535.5694694519751
 31
0.0
  0
LINE
  5
81
330
A
100
AcDbEntity
  8
4
 62
    92
100
AcDbLine
 10
699.58637237535
 20
535.5694694519751
 30
0.0
 11
698.58637237535
 21
538.569469451975
 31
0.0
  0
LINE
  5
82
330
A
100
AcDbEntity
  8
4
  6
Continuous
 62
    92
100
AcDbLine
 10
616.274322509725
 20
426.0706901550999
 30
0.0
 11
698.58637237535
 21
426.0706901550999
 31
0.0
  0
LINE
  5
83
330
A
100
AcDbEntity
  8
4
  6
Continuous
 62
    92
100
AcDbLine
 10
620.60652160635
 20
538.569469451975
 30
0.0
 11
653.09812927235
 21
538.569469451975
 31
0.0
  0
LINE
  5
84
330
A
100
AcDbEntity
  8
4
  6
Continuous
 62
    92
100
AcDbLine
 10
671.509956359725
 20
538.569469451975
 30
0.0
 11
698.58637237535
 21
538.569469451975
 31
0.0
  0
LINE
  5
85
330
A
100
AcDbEntity
  8
4
 62
    92
100
AcDbLine
 10
807.5914993286001
 20
625.1105308532251
 30
0.0
 11
810.5914993286001
 21
624.1105308532251
 31
0.0
  0
LINE
  5
86
330
A
100
AcDbEntity
  8
4
 62
    92
100
AcDbLine
 10
810.5914993286001
 20
624.1105308532251
 30
0.0
 11
810.5914993286001
 21
626.110530853225
 31
0.0
  0
LINE
  5
87
330
A
100
AcDbEntity
  8
4
 62
    92
100
AcDbLine
 10
810.5914993286001
 20
626.110530853225
 30
0.0
 11
807.5914993286001
 21
625.1105308532251
 31
0.0
  0
LINE
  5
88
330
A
100
AcDbEntity
  8
4
  6
Continuous
 62
    92
100
AcDbLine
 10
807.5914993286001
 20
625.1105308532251
 30
0.0
 11
957.5914993286001
 21
625.1105308532251
 31
0.0
  0
LINE
  5
89
330
A
100
AcDbEntity
  8
4
 62
    92
100
AcDbLine
 10
957.5914993286001
 20
625.1105308532251
 30
0.0
 11
954.5914993286
 21
626.110530853225
 31
0.0
  0
LINE
  5
8A
330
A
100
AcDbEntity
  8
4
 62
    92
100
AcDbLine
 10
954.5914993286
 20
626.110530853225
 30
0.0
 11
954.5914993286
 21
624.1105308532251
 31
0.0
  0
LINE
  5
8B
330
A
100
AcDbEntity
  8
4
 62
    92
100
AcDbLine
 10
954.5914993286
 20
624.1105308532251
 30
0.0
 11
957.5914993286001
 21
625.1105308532251
 31
0.0
  0
LINE
  5
8C
330
A
100
AcDbEntity
  8
4
  6
Continuous
 62
    92
100
AcDbLine
 10
807.5914993286001
 20
521.1374855042249
 30
0.0
 11
807.5914993286001
 21
625.1105308532251
 31
0.0
  0
LINE
  5
8D
330
A
100
AcDbEntity
  8
4
  6
Continuous
 62
    92
100
AcDbLine
 10
957.5914993286001
 20
529.8018836974749
 30
0.0
 11
957.5914993286001
 21
625.1105308532251
 31
0.0
  0
LINE
  5
8E
330
A
100
AcDbEntity
  8
4
 62
    92
100
AcDbLine
 10
470.0621643066
 20
554.1951560974751
 30
0.0
 11
469.0621643066
 21
551.195156097475
 31
0.0
  0
LINE
  5
8F
330
A
100
AcDbEntity
  8
4
 62
    92
100
AcDbLine
 10
469.0621643066
 20
551.195156097475
 30
0.0
 11
471.0621643066001
 21
551.195156097475
 31
0.0
  0
LINE
  5
90
330
A
100
AcDbEntity
  8
4
 62
    92
100
AcDbLine
 10
471.0621643066001
 20
551.195156097475
 30
0.0
 11
470.0621643066
 21
554.1951560974751
 31
0.0
  0
LINE
  5
91
330
A
100
AcDbEntity
  8
4
  6
Continuous
 62
    92
100
AcDbLine
 10
470.0621643066
 20
554.1951560974751
 30
0.0
 11
470.0621643066
 21
410.445156097475
 31
0.0
  0
LINE
  5
92
330
A
100
AcDbEntity
  8
4
 62
    92
100
AcDbLine
 10
470.0621643066
 20
410.445156097475
 30
0.0
 11
471.0621643066001
 21
413.4451560974749
 31
0.0
  0
LINE
  5
93
330
A
100
AcDbEntity
  8
4
 62
    92
100
AcDbLine
 10
471.0621643066001
 20
413.4451560974749
 30
0.0
 11
469.0621643066
 21
413.4451560974749
 31
0.0
  0
LINE
  5
94
330
A
100
AcDbEntity
  8
4
 62
    92
100
AcDbLine
 10
469.0621643066
 20
413.4451560974749
 30
0.0
 11
470.0621643066
 21
410.445156097475
 31
0.0
  0
LINE
  5
95
330
A
100
AcDbEntity
  8
4
  6
Continuous
 62
    92
100
AcDbLine
 10
483.0587997436001
 20
554.1951560974751
 30
0.0
 11
470.0621643066
 21
554.1951560974751
 31
0.0
  0
LINE
  5
96
330
A
100
AcDbEntity
  8
4
  6
Continuous
 62
    92
100
AcDbLine
 10
485.2248992918502
 20
410.445156097475
 30
0.0
 11
470.0621643066
 21
410.445156097475
 31
0.0
  0
LINE
  5
97
330
A
100
AcDbEntity
  8
4
  6
Continuous
 62
    92
100
AcDbLine
 10
124.5711364744749
 20
502.468585967975
 30
0.0
 11
124.5711364744749
 21
486.7435646057249
 31
0.0
  0
LINE
  5
98
330
A
100
AcDbEntity
  8
4
 62
    92
100
AcDbLine
 10
124.5711364744749
 20
486.7435646057249
 30
0.0
 11
125.5711364744749
 21
489.7435646057249
 31
0.0
  0
LINE
  5
99
330
A
100
AcDbEntity
  8
4
 62
    92
100
AcDbLine
 10
125.5711364744749
 20
489.7435646057249
 30
0.0
 11
123.5711364744749
 21
489.7435646057249
 31
0.0
  0
LINE
  5
9A
330
A
100
AcDbEntity
  8
4
 62
    92
100
AcDbLine
 10
123.5711364744749
 20
489.7435646057249
 30
0.0
 11
124.5711364744749
 21
486.7435646057249
 31
0.0
  0
LINE
  5
9B
330
A
100
AcDbEntity
  8
4
  6
Continuous
 62
    92
100
AcDbLine
 10
124.5711364744749
 20
486.7435646057249
 30
0.0
 11
124.5711364744749
 21
476.7435646057249
 31
0.0
  0
LINE
  5
9C
330
A
100
AcDbEntity
  8
4
 62
    92
100
AcDbLine
 10
124.5711364744749
 20
476.7435646057249
 30
0.0
 11
123.5711364744749
 21
473.7435646057249
 31
0.0
  0
LINE
  5
9D
330
A
100
AcDbEntity
  8
4
 62
    92
100
AcDbLine
 10
123.5711364744749
 20
473.7435646057249
 30
0.0
 11
125.5711364744749
 21
473.7435646057249
 31
0.0
  0
LINE
  5
9E
330
A
100
AcDbEntity
  8
4
 62
    92
100
AcDbLine
 10
125.5711364744749
 20
473.7435646057249
 30
0.0
 11
124.5711364744749
 21
476.7435646057249
 31
0.0
  0
LINE
  5
9F
330
A
100
AcDbEntity
  8
4
  6
Continuous
 62
    92
100
AcDbLine
 10
124.5711364744749
 20
476.7435646057249
 30
0.0
 11
124.5711364744749
 21
467.9935646057249
 31
0.0
  0
LINE
  5
A0
330
A
100
AcDbEntity
  8
4
  6
Continuous
 62
    92
100
AcDbLine
 10
94.06668090810001
 20
486.7435646057249
 30
0.0
 11
124.5711364744749
 21
486.7435646057249
 31
0.0
  0
LINE
  5
A1
330
A
100
AcDbEntity
  8
4
  6
Continuous
 62
    92
100
AcDbLine
 10
93.16259765610004
 20
476.7435646057249
 30
0.0
 11
124.5711364744749
 21
476.7435646057249
 31
0.0
  0
LINE
  5
A2
330
A
100
AcDbEntity
  8
4
 62
    92
100
AcDbLine
 10
60.31416320797507
 20
528.398342132475
 30
0.0
 11
63.31416320785013
 21
527.3983421324751
 31
0.0
  0
LINE
  5
A3
330
A
100
AcDbEntity
  8
4
 62
    92
100
AcDbLine
 10
63.31416320785013
 20
527.3983421324751
 30
0.0
 11
63.31416320785013
 21
529.3983421324749
 31
0.0
  0
LINE
  5
A4
330
A
100
AcDbEntity
  8
4
 62
    92
100
AcDbLine
 10
63.31416320785013
 20
529.3983421324749
 30
0.0
 11
60.31416320797507
 21
528.398342132475
 31
0.0
  0
LINE
  5
A5
330
A
100
AcDbEntity
  8
4
  6
Continuous
 62
    92
100
AcDbLine
 10
60.31416320797507
 20
528.398342132475
 30
0.0
 11
94.06668090810001
 21
528.398342132475
 31
0.0
  0
LINE
  5
A6
330
A
100
AcDbEntity
  8
4
 62
    92
100
AcDbLine
 10
94.06668090810001
 20
528.398342132475
 30
0.0
 11
91.06668090810012
 21
529.3983421324749
 31
0.0
  0
LINE
  5
A7
330
A
100
AcDbEntity
  8
4
 62
    92
100
AcDbLine
 10
91.06668090810012
 20
529.3983421324749
 30
0.0
 11
91.06668090810012
 21
527.3983421324751
 31
0.0
  0
LINE
  5
A8
330
A
100
AcDbEntity
  8
4
 62
    92
100
AcDbLine
 10
91.06668090810012
 20
527.3983421324751
 30
0.0
 11
94.06668090810001
 21
528.398342132475
 31
0.0
  0
LINE
  5
A9
330
A
100
AcDbEntity
  8
4
  6
Continuous
 62
    92
100
AcDbLine
 10
60.31416320797507
 20
481.7435646057249
 30
0.0
 11
60.31416320797507
 21
528.398342132475
 31
0.0
  0
LINE
  5
AA
330
A
100
AcDbEntity
  8
4
  6
Continuous
 62
    92
100
AcDbLine
 10
94.06668090810001
 20
479.6610069274749
 30
0.0
 11
94.06668090810001
 21
528.398342132475
 31
0.0
  0
LINE
  5
AB
330
A
100
AcDbEntity
  8
4
 62
    92
100
AcDbLine
 10
909.8703231811001
 20
340.1366996764749
 30
0.0
 11
912.6987217746
 21
341.5509703001
 31
0.0
  0
LINE
  5
AC
330
A
100
AcDbEntity
  8
4
 62
    92
100
AcDbLine
 10
912.6987217746
 20
341.5509703001
 30
0.0
 11
911.2844796817251
 21
342.96515533135
 31
0.0
  0
LINE
  5
AD
330
A
100
AcDbEntity
  8
4
 62
    92
100
AcDbLine
 10
911.2844796817251
 20
342.96515533135
 30
0.0
 11
909.8703231811001
 21
340.1366996764749
 31
0.0
  0
LINE
  5
AE
330
A
100
AcDbEntity
  8
4
  6
Continuous
 62
    92
100
AcDbLine
 10
909.8703231811001
 20
340.1366996764749
 30
0.0
 11
1024.77442169185
 21
455.0408363342249
 31
0.0
  0
LINE
  5
AF
330
A
100
AcDbEntity
  8
4
 62
    92
100
AcDbLine
 10
1024.77442169185
 20
455.0408363342249
 30
0.0
 11
1021.94602309835
 21
453.6265657107249
 31
0.0
  0
LINE
  5
B0
330
A
100
AcDbEntity
  8
4
 62
    92
100
AcDbLine
 10
1021.94602309835
 20
453.6265657107249
 30
0.0
 11
1023.360265191225
 21
452.21238067935
 31
0.0
  0
LINE
  5
B1
330
A
100
AcDbEntity
  8
4
 62
    92
100
AcDbLine
 10
1023.360265191225
 20
452.21238067935
 30
0.0
 11
1024.77442169185
 21
455.0408363342249
 31
0.0
  0
LINE
  5
B2
330
A
100
AcDbEntity
  8
4
  6
Continuous
 62
    92
100
AcDbLine
 10
825.1391830443502
 20
424.867801666225
 30
0.0
 11
909.8703231811001
 21
340.1366996764749
 31
0.0
  0
LINE
  5
B3
330
A
100
AcDbEntity
  8
4
  6
Continuous
 62
    92
100
AcDbLine
 10
940.0432815551003
 20
539.771938323975
 30
0.0
 11
989.5752182006001
 21
490.2400398254751
 31
0.0
  0
LINE
  5
B4
330
A
100
AcDbEntity
  8
4
  6
Continuous
 62
    92
100
AcDbLine
 10
999.3226852416
 20
480.4925727844751
 30
0.0
 11
1024.77442169185
 21
455.0408363342249
 31
0.0
  0
LINE
  5
B5
330
A
100
AcDbEntity
  8
4
 62
    92
100
AcDbLine
 10
915.6511917113503
 20
316.67581558235
 30
0.0
 11
918.4795972729753
 21
318.0900722701
 31
0.0
  0
LINE
  5
B6
330
A
100
AcDbEntity
  8
4
 62
    92
100
AcDbLine
 10
918.4795972729753
 20
318.0900722701
 30
0.0
 11
917.0653621479752
 21
319.5042642694749
 31
0.0
  0
LINE
  5
B7
330
A
100
AcDbEntity
  8
4
 62
    92
100
AcDbLine
 10
917.0653621479752
 20
319.5042642694749
 30
0.0
 11
915.6511917113503
 21
316.67581558235
 31
0.0
  0
LINE
  5
B8
330
A
100
AcDbEntity
  8
4
  6
Continuous
 62
    92
100
AcDbLine
 10
915.6511917113503
 20
316.67581558235
 30
0.0
 11
1048.23496246335
 21
449.2583274841
 31
0.0
  0
LINE
  5
B9
330
A
100
AcDbEntity
  8
4
 62
    92
100
AcDbLine
 10
1048.23496246335
 20
449.2583274841
 30
0.0
 11
1045.406556901725
 21
447.8440707963499
 31
0.0
  0
LINE
  5
BA
330
A
100
AcDbEntity
  8
4
 62
    92
100
AcDbLine
 10
1045.406556901725
 20
447.8440707963499
 30
0.0
 11
1046.820792026725
 21
446.4298787969749
 31
0.0
  0
LINE
  5
BB
330
A
100
AcDbEntity
  8
4
 62
    92
100
AcDbLine
 10
1046.820792026725
 20
446.4298787969749
 30
0.0
 11
1048.23496246335
 21
449.2583274841
 31
0.0
  0
LINE
  5
BC
330
A
100
AcDbEntity
  8
4
  6
Continuous
 62
    92
100
AcDbLine
 10
825.0077285766002
 20
407.320156097475
 30
0.0
 11
915.6511917113503
 21
316.67581558235
 31
0.0
  0
LINE
  5
BD
330
A
100
AcDbEntity
  8
4
  6
Continuous
 62
    92
100
AcDbLine
 10
957.5914993286001
 20
539.9026679992251
 30
0.0
 11
1048.23496246335
 21
449.2583274841
 31
0.0
  0
LINE
  5
BE
330
A
100
AcDbEntity
  8
4
  6
Continuous
 62
    92
100
AcDbLine
 10
799.5718612671002
 20
384.9080848693499
 30
0.0
 11
819.5156326293501
 21
384.9080848693499
 31
0.0
  0
LINE
  5
BF
330
A
100
AcDbEntity
  8
4
 62
    92
100
AcDbLine
 10
819.5156326293501
 20
384.9080848693499
 30
0.0
 11
816.5156326293502
 21
385.9080848693499
 31
0.0
  0
LINE
  5
C0
330
A
100
AcDbEntity
  8
4
 62
    92
100
AcDbLine
 10
816.5156326293502
 20
385.9080848693499
 30
0.0
 11
816.5156326293502
 21
383.90808486935
 31
0.0
  0
LINE
  5
C1
330
A
100
AcDbEntity
  8
4
 62
    92
100
AcDbLine
 10
816.5156326293502
 20
383.90808486935
 30
0.0
 11
819.5156326293501
 21
384.9080848693499
 31
0.0
  0
LINE
  5
C2
330
A
100
AcDbEntity
  8
4
  6
Continuous
 62
    92
100
AcDbLine
 10
819.5156326293501
 20
384.9080848693499
 30
0.0
 11
830.7098617553501
 21
384.9080848693499
 31
0.0
  0
LINE
  5
C3
330
A
100
AcDbEntity
  8
4
 62
    92
100
AcDbLine
 10
830.7098617553501
 20
384.9080848693499
 30
0.0
 11
833.7098617553502
 21
383.90808486935
 31
0.0
  0
LINE
  5
C4
330
A
100
AcDbEntity
  8
4
 62
    92
100
AcDbLine
 10
833.7098617553502
 20
383.90808486935
 30
0.0
 11
833.7098617553502
 21
385.9080848693499
 31
0.0
  0
LINE
  5
C5
330
A
100
AcDbEntity
  8
4
 62
    92
100
AcDbLine
 10
833.7098617553502
 20
385.9080848693499
 30
0.0
 11
830.7098617553501
 21
384.9080848693499
 31
0.0
  0
LINE
  5
C6
330
A
100
AcDbEntity
  8
4
  6
Continuous
 62
    92
100
AcDbLine
 10
830.7098617553501
 20
384.9080848693499
 30
0.0
 11
839.4598617553501
 21
384.9080848693499
 31
0.0
  0
LINE
  5
C7
330
A
100
AcDbEntity
  8
4
  6
Continuous
 62
    92
100
AcDbLine
 10
819.5156326293501
 20
424.7314643859749
 30
0.0
 11
819.5156326293501
 21
384.9080848693499
 31
0.0
  0
LINE
  5
C8
330
A
100
AcDbEntity
  8
4
  6
Continuous
 62
    92
100
AcDbLine
 10
830.7098617553501
 20
425.6456565857249
 30
0.0
 11
830.7098617553501
 21
384.9080848693499
 31
0.0
  0
LINE
  5
C9
330
A
100
AcDbEntity
  8
4
 62
    92
100
AcDbLine
 10
993.5407485961
 20
594.195156097475
 30
0.0
 11
992.5407485961001
 21
591.1951560974749
 31
0.0
  0
LINE
  5
CA
330
A
100
AcDbEntity
  8
4
 62
    92
100
AcDbLine
 10
992.5407485961001
 20
591.1951560974749
 30
0.0
 11
994.5407485961
 21
591.1951560974749
 31
0.0
  0
LINE
  5
CB
330
A
100
AcDbEntity
  8
4
 62
    92
100
AcDbLine
 10
994.5407485961
 20
591.1951560974749
 30
0.0
 11
993.5407485961
 21
594.195156097475
 31
0.0
  0
LINE
  5
CC
330
A
100
AcDbEntity
  8
4
  6
Continuous
 62
    92
100
AcDbLine
 10
993.5407485961
 20
594.195156097475
 30
0.0
 11
993.5407485961
 21
482.320156097475
 31
0.0
  0
LINE
  5
CD
330
A
100
AcDbEntity
  8
4
 62
    92
100
AcDbLine
 10
993.5407485961
 20
482.320156097475
 30
0.0
 11
994.5407485961
 21
485.3201560974749
 31
0.0
  0
LINE
  5
CE
330
A
100
AcDbEntity
  8
4
 62
    92
100
AcDbLine
 10
994.5407485961
 20
485.3201560974749
 30
0.0
 11
992.5407485961001
 21
485.3201560974749
 31
0.0
  0
LINE
  5
CF
330
A
100
AcDbEntity
  8
4
 62
    92
100
AcDbLine
 10
992.5407485961001
 20
485.3201560974749
 30
0.0
 11
993.5407485961
 21
482.320156097475
 31
0.0
  0
LINE
  5
D0
330
A
100
AcDbEntity
  8
4
  6
Continuous
 62
    92
100
AcDbLine
 10
882.5914993286001
 20
594.195156097475
 30
0.0
 11
993.5407485961
 21
594.195156097475
 31
0.0
  0
LINE
  5
D1
330
A
100
AcDbEntity
  8
4
  6
Continuous
 62
    92
100
AcDbLine
 10
962.2014846801002
 20
482.320156097475
 30
0.0
 11
993.5407485961
 21
482.320156097475
 31
0.0
  0
LINE
  5
D2
330
A
100
AcDbEntity
  8
11
  6
Continuous
 62
    92
100
AcDbLine
 10
876.3414993286001
 20
594.195156097475
 30
0.0
 11
876.3414993286001
 21
593.687648773225
 31
0.0
  0
LINE
  5
D3
330
A
100
AcDbEntity
  8
11
  6
Continuous
 62
    92
100
AcDbLine
 10
888.8404312133502
 20
593.687648773225
 30
0.0
 11
888.8404312133502
 21
594.195156097475
 31
0.0
  0
LINE
  5
D4
330
A
100
AcDbEntity
  8
11
  6
Continuous
 62
    92
100
AcDbLine
 10
888.8404312133502
 20
594.195156097475
 30
0.0
 11
876.3414993286001
 21
594.195156097475
 31
0.0
  0
LINE
  5
D5
330
A
100
AcDbEntity
  8
11
  6
Continuous
 62
    92
100
AcDbLine
 10
867.5914993286001
 20
557.1964073181
 30
0.0
 11
867.5914993286001
 21
574.1951560974751
 31
0.0
  0
LINE
  5
D6
330
A
100
AcDbEntity
  8
11
  6
Continuous
 62
    92
100
AcDbLine
 10
897.5914993286
 20
557.1964073181
 30
0.0
 11
897.5914993286
 21
574.196414947475
 31
0.0
  0
LINE
  5
D7
330
A
100
AcDbEntity
  8
11
  6
CENTERX2
 62
    92
100
AcDbLine
 10
882.5914993286001
 20
596.202640533475
 30
0.0
 11
882.5914993286001
 21
552.4651527404749
 31
0.0
  0
LINE
  5
D8
330
A
100
AcDbEntity
  8
11
  6
CENTERX2
 62
    92
100
AcDbLine
 10
899.4664993286001
 20
578.570156097475
 30
0.0
 11
865.7152023314752
 21
578.570156097475
 31
0.0
  0
LINE
  5
D9
330
A
100
AcDbEntity
  8
4
  6
Continuous
 62
    92
100
AcDbLine
 10
202.4994697569751
 20
435.322017669725
 30
0.0
 11
202.4994697569751
 21
467.320156097475
 31
0.0
  0
LINE
  5
DA
330
A
100
AcDbEntity
  8
4
 62
    92
100
AcDbLine
 10
202.4994697569751
 20
467.320156097475
 30
0.0
 11
201.4994697569751
 21
464.3201560974749
 31
0.0
  0
LINE
  5
DB
330
A
100
AcDbEntity
  8
4
 62
    92
100
AcDbLine
 10
201.4994697569751
 20
464.3201560974749
 30
0.0
 11
203.499469756975
 21
464.3201560974749
 31
0.0
  0
LINE
  5
DC
330
A
100
AcDbEntity
  8
4
 62
    92
100
AcDbLine
 10
203.499469756975
 20
464.3201560974749
 30
0.0
 11
202.4994697569751
 21
467.320156097475
 31
0.0
  0
LINE
  5
DD
330
A
100
AcDbEntity
  8
4
  6
Continuous
 62
    92
100
AcDbLine
 10
202.4994697569751
 20
467.320156097475
 30
0.0
 11
202.4994697569751
 21
497.3205757141
 31
0.0
  0
LINE
  5
DE
330
A
100
AcDbEntity
  8
4
 62
    92
100
AcDbLine
 10
202.4994697569751
 20
497.3205757141
 30
0.0
 11
203.499469756975
 21
500.3205757140999
 31
0.0
  0
LINE
  5
DF
330
A
100
AcDbEntity
  8
4
 62
    92
100
AcDbLine
 10
203.499469756975
 20
500.3205757140999
 30
0.0
 11
201.4994697569751
 21
500.3205757140999
 31
0.0
  0
LINE
  5
E0
330
A
100
AcDbEntity
  8
4
 62
    92
100
AcDbLine
 10
201.4994697569751
 20
500.3205757140999
 30
0.0
 11
202.4994697569751
 21
497.3205757141
 31
0.0
  0
LINE
  5
E1
330
A
100
AcDbEntity
  8
4
  6
Continuous
 62
    92
100
AcDbLine
 10
202.4994697569751
 20
497.3205757141
 30
0.0
 11
202.4994697569751
 21
506.0705757141001
 31
0.0
  0
LINE
  5
E2
330
A
100
AcDbEntity
  8
4
  6
Continuous
 62
    92
100
AcDbLine
 10
241.6180839537251
 20
467.320156097475
 30
0.0
 11
202.4994697569751
 21
467.320156097475
 31
0.0
  0
LINE
  5
E3
330
A
100
AcDbEntity
  8
4
  6
Continuous
 62
    92
100
AcDbLine
 10
246.5078964232251
 20
497.3205757141
 30
0.0
 11
202.4994697569751
 21
497.3205757141
 31
0.0
  0
LINE
  5
E4
330
A
100
AcDbEntity
  8
4
  6
Continuous
 62
    92
100
AcDbLine
 10
219.0527381896001
 20
582.4698829650999
 30
0.0
 11
234.777740478475
 21
582.4698829650999
 31
0.0
  0
LINE
  5
E5
330
A
100
AcDbEntity
  8
4
 62
    92
100
AcDbLine
 10
234.777740478475
 20
582.4698829650999
 30
0.0
 11
231.7777404784751
 21
583.4698829650999
 31
0.0
  0
LINE
  5
E6
330
A
100
AcDbEntity
  8
4
 62
    92
100
AcDbLine
 10
231.7777404784751
 20
583.4698829650999
 30
0.0
 11
231.7777404784751
 21
581.4698829651
 31
0.0
  0
LINE
  5
E7
330
A
100
AcDbEntity
  8
4
 62
    92
100
AcDbLine
 10
231.7777404784751
 20
581.4698829651
 30
0.0
 11
234.777740478475
 21
582.4698829650999
 31
0.0
  0
LINE
  5
E8
330
A
100
AcDbEntity
  8
4
  6
Continuous
 62
    92
100
AcDbLine
 10
234.777740478475
 20
582.4698829650999
 30
0.0
 11
238.527740478475
 21
582.4698829650999
 31
0.0
  0
LINE
  5
E9
330
A
100
AcDbEntity
  8
4
 62
    92
100
AcDbLine
 10
238.527740478475
 20
582.4698829650999
 30
0.0
 11
241.5277404784751
 21
581.4698829651
 31
0.0
  0
LINE
  5
EA
330
A
100
AcDbEntity
  8
4
 62
    92
100
AcDbLine
 10
241.5277404784751
 20
581.4698829651
 30
0.0
 11
241.5277404784751
 21
583.4698829650999
 31
0.0
  0
LINE
  5
EB
330
A
100
AcDbEntity
  8
4
 62
    92
100
AcDbLine
 10
241.5277404784751
 20
583.4698829650999
 30
0.0
 11
238.527740478475
 21
582.4698829650999
 31
0.0
  0
LINE
  5
EC
330
A
100
AcDbEntity
  8
4
  6
Continuous
 62
    92
100
AcDbLine
 10
238.527740478475
 20
582.4698829650999
 30
0.0
 11
247.277740478475
 21
582.4698829650999
 31
0.0
  0
LINE
  5
ED
330
A
100
AcDbEntity
  8
4
  6
Continuous
 62
    92
100
AcDbLine
 10
234.777740478475
 20
488.00245285035
 30
0.0
 11
234.777740478475
 21
582.4698829650999
 31
0.0
  0
LINE
  5
EE
330
A
100
AcDbEntity
  8
4
  6
Continuous
 62
    92
100
AcDbLine
 10
238.527740478475
 20
482.320156097475
 30
0.0
 11
238.527740478475
 21
582.4698829650999
 31
0.0
  0
LINE
  5
EF
330
A
100
AcDbEntity
  8
4
  6
Continuous
 62
    92
100
AcDbLine
 10
268.7403717039751
 20
382.04885482785
 30
0.0
 11
292.9028739928501
 21
382.04885482785
 31
0.0
  0
LINE
  5
F0
330
A
100
AcDbEntity
  8
4
 62
    92
100
AcDbLine
 10
292.9028739928501
 20
382.04885482785
 30
0.0
 11
289.9028739928501
 21
383.0488548278499
 31
0.0
  0
LINE
  5
F1
330
A
100
AcDbEntity
  8
4
 62
    92
100
AcDbLine
 10
289.9028739928501
 20
383.0488548278499
 30
0.0
 11
289.9028739928501
 21
381.04885482785
 31
0.0
  0
LINE
  5
F2
330
A
100
AcDbEntity
  8
4
 62
    92
100
AcDbLine
 10
289.9028739928501
 20
381.04885482785
 30
0.0
 11
292.9028739928501
 21
382.04885482785
 31
0.0
  0
LINE
  5
F3
330
A
100
AcDbEntity
  8
4
  6
Continuous
 62
    92
100
AcDbLine
 10
292.9028739928501
 20
382.04885482785
 30
0.0
 11
297.27787399285
 21
382.04885482785
 31
0.0
  0
LINE
  5
F4
330
A
100
AcDbEntity
  8
4
 62
    92
100
AcDbLine
 10
297.27787399285
 20
382.04885482785
 30
0.0
 11
300.2778739928501
 21
381.04885482785
 31
0.0
  0
LINE
  5
F5
330
A
100
AcDbEntity
  8
4
 62
    92
100
AcDbLine
 10
300.2778739928501
 20
381.04885482785
 30
0.0
 11
300.2778739928501
 21
383.0488548278499
 31
0.0
  0
LINE
  5
F6
330
A
100
AcDbEntity
  8
4
 62
    92
100
AcDbLine
 10
300.2778739928501
 20
383.0488548278499
 30
0.0
 11
297.27787399285
 21
382.04885482785
 31
0.0
  0
LINE
  5
F7
330
A
100
AcDbEntity
  8
4
  6
Continuous
 62
    92
100
AcDbLine
 10
297.27787399285
 20
382.04885482785
 30
0.0
 11
306.0278739928501
 21
382.04885482785
 31
0.0
  0
LINE
  5
F8
330
A
100
AcDbEntity
  8
4
  6
Continuous
 62
    92
100
AcDbLine
 10
292.9028739928501
 20
422.0367240905999
 30
0.0
 11
292.9028739928501
 21
382.04885482785
 31
0.0
  0
LINE
  5
F9
330
A
100
AcDbEntity
  8
4
  6
Continuous
 62
    92
100
AcDbLine
 10
297.27787399285
 20
429.7451972960999
 30
0.0
 11
297.27787399285
 21
382.04885482785
 31
0.0
  0
LINE
  5
FA
330
A
100
AcDbEntity
  8
4
 62
    92
100
AcDbLine
 10
297.27787399285
 20
356.514453887975
 30
0.0
 11
300.2778739928501
 21
355.514453887975
 31
0.0
  0
LINE
  5
FB
330
A
100
AcDbEntity
  8
4
 62
    92
100
AcDbLine
 10
300.2778739928501
 20
355.514453887975
 30
0.0
 11
300.2778739928501
 21
357.514453887975
 31
0.0
  0
LINE
  5
FC
330
A
100
AcDbEntity
  8
4
 62
    92
100
AcDbLine
 10
300.2778739928501
 20
357.514453887975
 30
0.0
 11
297.27787399285
 21
356.514453887975
 31
0.0
  0
LINE
  5
FD
330
A
100
AcDbEntity
  8
4
  6
Continuous
 62
    92
100
AcDbLine
 10
297.27787399285
 20
356.514453887975
 30
0.0
 11
563.527969360225
 21
356.514453887975
 31
0.0
  0
LINE
  5
FE
330
A
100
AcDbEntity
  8
4
 62
    92
100
AcDbLine
 10
563.527969360225
 20
356.514453887975
 30
0.0
 11
560.527969360225
 21
357.514453887975
 31
0.0
  0
LINE
  5
FF
330
A
100
AcDbEntity
  8
4
 62
    92
100
AcDbLine
 10
560.527969360225
 20
357.514453887975
 30
0.0
 11
560.527969360225
 21
355.514453887975
 31
0.0
  0
LINE
  5
100
330
A
100
AcDbEntity
  8
4
 62
    92
100
AcDbLine
 10
560.527969360225
 20
355.514453887975
 30
0.0
 11
563.527969360225
 21
356.514453887975
 31
0.0
  0
LINE
  5
101
330
A
100
AcDbEntity
  8
4
  6
Continuous
 62
    92
100
AcDbLine
 10
297.27787399285
 20
369.510097503725
 30
0.0
 11
297.27787399285
 21
356.514453887975
 31
0.0
  0
LINE
  5
102
330
A
100
AcDbEntity
  8
4
  6
Continuous
 62
    92
100
AcDbLine
 10
563.527969360225
 20
416.0813713073499
 30
0.0
 11
563.527969360225
 21
356.514453887975
 31
0.0
  0
LINE
  5
103
330
A
100
AcDbEntity
  8
4
 62
    92
100
AcDbLine
 10
297.27787399285
 20
356.514453887975
 30
0.0
 11
294.2778739928501
 21
357.514453887975
 31
0.0
  0
LINE
  5
104
330
A
100
AcDbEntity
  8
4
 62
    92
100
AcDbLine
 10
294.2778739928501
 20
357.514453887975
 30
0.0
 11
294.2778739928501
 21
355.514453887975
 31
0.0
  0
LINE
  5
105
330
A
100
AcDbEntity
  8
4
 62
    92
100
AcDbLine
 10
294.2778739928501
 20
355.514453887975
 30
0.0
 11
297.27787399285
 21
356.514453887975
 31
0.0
  0
LINE
  5
106
330
A
100
AcDbEntity
  8
4
  6
Continuous
 62
    92
100
AcDbLine
 10
297.27787399285
 20
356.514453887975
 30
0.0
 11
234.777740478475
 21
356.514453887975
 31
0.0
  0
LINE
  5
107
330
A
100
AcDbEntity
  8
4
 62
    92
100
AcDbLine
 10
234.777740478475
 20
356.514453887975
 30
0.0
 11
237.7777404784751
 21
355.514453887975
 31
0.0
  0
LINE
  5
108
330
A
100
AcDbEntity
  8
4
 62
    92
100
AcDbLine
 10
237.7777404784751
 20
355.514453887975
 30
0.0
 11
237.7777404784751
 21
357.514453887975
 31
0.0
  0
LINE
  5
109
330
A
100
AcDbEntity
  8
4
 62
    92
100
AcDbLine
 10
237.7777404784751
 20
357.514453887975
 30
0.0
 11
234.777740478475
 21
356.514453887975
 31
0.0
  0
LINE
  5
10A
330
A
100
AcDbEntity
  8
4
  6
Continuous
 62
    92
100
AcDbLine
 10
297.27787399285
 20
389.275569915725
 30
0.0
 11
297.27787399285
 21
356.514453887975
 31
0.0
  0
LINE
  5
10B
330
A
100
AcDbEntity
  8
4
  6
Continuous
 62
    92
100
AcDbLine
 10
234.777740478475
 20
475.0326728821001
 30
0.0
 11
234.777740478475
 21
356.514453887975
 31
0.0
  0
LINE
  5
10C
330
A
100
AcDbEntity
  8
4
 62
    92
100
AcDbLine
 10
308.5278930663501
 20
382.04885482785
 30
0.0
 11
311.52789306635
 21
381.04885482785
 31
0.0
  0
LINE
  5
10D
330
A
100
AcDbEntity
  8
4
 62
    92
100
AcDbLine
 10
311.52789306635
 20
381.04885482785
 30
0.0
 11
311.52789306635
 21
383.0488548278499
 31
0.0
  0
LINE
  5
10E
330
A
100
AcDbEntity
  8
4
 62
    92
100
AcDbLine
 10
311.52789306635
 20
383.0488548278499
 30
0.0
 11
308.5278930663501
 21
382.04885482785
 31
0.0
  0
LINE
  5
10F
330
A
100
AcDbEntity
  8
4
  6
Continuous
 62
    92
100
AcDbLine
 10
308.5278930663501
 20
382.04885482785
 30
0.0
 11
343.52789306635
 21
382.04885482785
 31
0.0
  0
LINE
  5
110
330
A
100
AcDbEntity
  8
4
 62
    92
100
AcDbLine
 10
343.52789306635
 20
382.04885482785
 30
0.0
 11
340.52789306635
 21
383.0488548278499
 31
0.0
  0
LINE
  5
111
330
A
100
AcDbEntity
  8
4
 62
    92
100
AcDbLine
 10
340.52789306635
 20
383.0488548278499
 30
0.0
 11
340.52789306635
 21
381.04885482785
 31
0.0
  0
LINE
  5
112
330
A
100
AcDbEntity
  8
4
 62
    92
100
AcDbLine
 10
340.52789306635
 20
381.04885482785
 30
0.0
 11
343.52789306635
 21
382.04885482785
 31
0.0
  0
LINE
  5
113
330
A
100
AcDbEntity
  8
4
  6
Continuous
 62
    92
100
AcDbLine
 10
308.5278930663501
 20
431.2441062927249
 30
0.0
 11
308.5278930663501
 21
382.04885482785
 31
0.0
  0
LINE
  5
114
330
A
100
AcDbEntity
  8
4
  6
Continuous
 62
    92
100
AcDbLine
 10
343.52789306635
 20
430.1610374451
 30
0.0
 11
343.52789306635
 21
382.04885482785
 31
0.0
  0
LINE
  5
115
330
A
100
AcDbEntity
  8
4
 62
    92
100
AcDbLine
 10
297.2789230346
 20
625.1105308532251
 30
0.0
 11
300.2789230346
 21
624.1105308532251
 31
0.0
  0
LINE
  5
116
330
A
100
AcDbEntity
  8
4
 62
    92
100
AcDbLine
 10
300.2789230346
 20
624.1105308532251
 30
0.0
 11
300.2789230346
 21
626.110530853225
 31
0.0
  0
LINE
  5
117
330
A
100
AcDbEntity
  8
4
 62
    92
100
AcDbLine
 10
300.2789230346
 20
626.110530853225
 30
0.0
 11
297.2789230346
 21
625.1105308532251
 31
0.0
  0
LINE
  5
118
330
A
100
AcDbEntity
  8
4
  6
Continuous
 62
    92
100
AcDbLine
 10
297.2789230346
 20
625.1105308532251
 30
0.0
 11
519.77793121335
 21
625.1105308532251
 31
0.0
  0
LINE
  5
119
330
A
100
AcDbEntity
  8
4
 62
    92
100
AcDbLine
 10
519.77793121335
 20
625.1105308532251
 30
0.0
 11
516.77793121335
 21
626.110530853225
 31
0.0
  0
LINE
  5
11A
330
A
100
AcDbEntity
  8
4
 62
    92
100
AcDbLine
 10
516.77793121335
 20
626.110530853225
 30
0.0
 11
516.77793121335
 21
624.1105308532251
 31
0.0
  0
LINE
  5
11B
330
A
100
AcDbEntity
  8
4
 62
    92
100
AcDbLine
 10
516.77793121335
 20
624.1105308532251
 30
0.0
 11
519.77793121335
 21
625.1105308532251
 31
0.0
  0
LINE
  5
11C
330
A
100
AcDbEntity
  8
4
  6
Continuous
 62
    92
100
AcDbLine
 10
297.2789230346
 20
549.2968559264752
 30
0.0
 11
297.2789230346
 21
625.1105308532251
 31
0.0
  0
LINE
  5
11D
330
A
100
AcDbEntity
  8
4
  6
Continuous
 62
    92
100
AcDbLine
 10
519.77793121335
 20
589.3697929382248
 30
0.0
 11
519.77793121335
 21
625.1105308532251
 31
0.0
  0
LINE
  5
11E
330
A
100
AcDbEntity
  8
4
 62
    92
100
AcDbLine
 10
297.2789230346
 20
647.8546333313502
 30
0.0
 11
300.2789230346
 21
646.85463333135
 31
0.0
  0
LINE
  5
11F
330
A
100
AcDbEntity
  8
4
 62
    92
100
AcDbLine
 10
300.2789230346
 20
646.85463333135
 30
0.0
 11
300.2789230346
 21
648.85463333135
 31
0.0
  0
LINE
  5
120
330
A
100
AcDbEntity
  8
4
 62
    92
100
AcDbLine
 10
300.2789230346
 20
648.85463333135
 30
0.0
 11
297.2789230346
 21
647.8546333313502
 31
0.0
  0
LINE
  5
121
330
A
100
AcDbEntity
  8
4
  6
Continuous
 62
    92
100
AcDbLine
 10
297.2789230346
 20
647.8546333313502
 30
0.0
 11
597.2766723632251
 21
647.8546333313502
 31
0.0
  0
LINE
  5
122
330
A
100
AcDbEntity
  8
4
 62
    92
100
AcDbLine
 10
597.2766723632251
 20
647.8546333313502
 30
0.0
 11
594.276672363225
 21
648.85463333135
 31
0.0
  0
LINE
  5
123
330
A
100
AcDbEntity
  8
4
 62
    92
100
AcDbLine
 10
594.276672363225
 20
648.85463333135
 30
0.0
 11
594.276672363225
 21
646.85463333135
 31
0.0
  0
LINE
  5
124
330
A
100
AcDbEntity
  8
4
 62
    92
100
AcDbLine
 10
594.276672363225
 20
646.85463333135
 30
0.0
 11
597.2766723632251
 21
647.8546333313502
 31
0.0
  0
LINE
  5
125
330
A
100
AcDbEntity
  8
4
  6
Continuous
 62
    92
100
AcDbLine
 10
297.2789230346
 20
570.9578895568499
 30
0.0
 11
297.2789230346
 21
647.8546333313502
 31
0.0
  0
LINE
  5
126
330
A
100
AcDbEntity
  8
4
  6
Continuous
 62
    92
100
AcDbLine
 10
597.2766723632251
 20
572.0409584046
 30
0.0
 11
597.2766723632251
 21
647.8546333313502
 31
0.0
  0
LINE
  5
127
330
A
100
AcDbEntity
  8
4
  6
Continuous
 62
    92
100
AcDbLine
 10
324.2539062498501
 20
604.3803215027248
 30
0.0
 11
308.5289230346
 21
604.3803215027248
 31
0.0
  0
LINE
  5
128
330
A
100
AcDbEntity
  8
4
 62
    92
100
AcDbLine
 10
308.5289230346
 20
604.3803215027248
 30
0.0
 11
311.5289230346001
 21
603.380321502725
 31
0.0
  0
LINE
  5
129
330
A
100
AcDbEntity
  8
4
 62
    92
100
AcDbLine
 10
311.5289230346001
 20
603.380321502725
 30
0.0
 11
311.5289230346001
 21
605.3803215027251
 31
0.0
  0
LINE
  5
12A
330
A
100
AcDbEntity
  8
4
 62
    92
100
AcDbLine
 10
311.5289230346001
 20
605.3803215027251
 30
0.0
 11
308.5289230346
 21
604.3803215027248
 31
0.0
  0
LINE
  5
12B
330
A
100
AcDbEntity
  8
4
  6
Continuous
 62
    92
100
AcDbLine
 10
308.5289230346
 20
604.3803215027248
 30
0.0
 11
297.2789230346
 21
604.3803215027248
 31
0.0
  0
LINE
  5
12C
330
A
100
AcDbEntity
  8
4
 62
    92
100
AcDbLine
 10
297.2789230346
 20
604.3803215027248
 30
0.0
 11
294.2789230346002
 21
605.3803215027251
 31
0.0
  0
LINE
  5
12D
330
A
100
AcDbEntity
  8
4
 62
    92
100
AcDbLine
 10
294.2789230346002
 20
605.3803215027251
 30
0.0
 11
294.2789230346002
 21
603.380321502725
 31
0.0
  0
LINE
  5
12E
330
A
100
AcDbEntity
  8
4
 62
    92
100
AcDbLine
 10
294.2789230346002
 20
603.380321502725
 30
0.0
 11
297.2789230346
 21
604.3803215027248
 31
0.0
  0
LINE
  5
12F
330
A
100
AcDbEntity
  8
4
  6
Continuous
 62
    92
100
AcDbLine
 10
297.2789230346
 20
604.3803215027248
 30
0.0
 11
288.5289230346001
 21
604.3803215027248
 31
0.0
  0
LINE
  5
130
330
A
100
AcDbEntity
  8
4
  6
Continuous
 62
    92
100
AcDbLine
 10
308.5289230346
 20
532.9888725280999
 30
0.0
 11
308.5289230346
 21
604.3803215027248
 31
0.0
  0
LINE
  5
131
330
A
100
AcDbEntity
  8
4
  6
Continuous
 62
    92
100
AcDbLine
 10
297.2789230346
 20
528.0990409850999
 30
0.0
 11
297.2789230346
 21
604.3803215027248
 31
0.0
  0
LINE
  5
132
330
A
100
AcDbEntity
  8
4
 62
    92
100
AcDbLine
 10
238.527740478475
 20
582.4698829650999
 30
0.0
 11
241.5277404784751
 21
581.4698829651
 31
0.0
  0
LINE
  5
133
330
A
100
AcDbEntity
  8
4
 62
    92
100
AcDbLine
 10
241.5277404784751
 20
581.4698829651
 30
0.0
 11
241.5277404784751
 21
583.4698829650999
 31
0.0
  0
LINE
  5
134
330
A
100
AcDbEntity
  8
4
 62
    92
100
AcDbLine
 10
241.5277404784751
 20
583.4698829650999
 30
0.0
 11
238.527740478475
 21
582.4698829650999
 31
0.0
  0
LINE
  5
135
330
A
100
AcDbEntity
  8
4
  6
Continuous
 62
    92
100
AcDbLine
 10
238.527740478475
 20
582.4698829650999
 30
0.0
 11
288.5278549193501
 21
582.4698829650999
 31
0.0
  0
LINE
  5
136
330
A
100
AcDbEntity
  8
4
 62
    92
100
AcDbLine
 10
288.5278549193501
 20
582.4698829650999
 30
0.0
 11
285.5278549193501
 21
583.4698829650999
 31
0.0
  0
LINE
  5
137
330
A
100
AcDbEntity
  8
4
 62
    92
100
AcDbLine
 10
285.5278549193501
 20
583.4698829650999
 30
0.0
 11
285.5278549193501
 21
581.4698829651
 31
0.0
  0
LINE
  5
138
330
A
100
AcDbEntity
  8
4
 62
    92
100
AcDbLine
 10
285.5278549193501
 20
581.4698829651
 30
0.0
 11
288.5278549193501
 21
582.4698829650999
 31
0.0
  0
LINE
  5
139
330
A
100
AcDbEntity
  8
4
  6
Continuous
 62
    92
100
AcDbLine
 10
238.527740478475
 20
482.320156097475
 30
0.0
 11
238.527740478475
 21
582.4698829650999
 31
0.0
  0
LINE
  5
13A
330
A
100
AcDbEntity
  8
4
  6
Continuous
 62
    92
100
AcDbLine
 10
288.5278549193501
 20
482.320156097475
 30
0.0
 11
288.5278549193501
 21
582.4698829650999
 31
0.0
  0
LINE
  5
13B
330
A
100
AcDbEntity
  8
11
  6
Continuous
 62
    92
100
AcDbLine
 10
896.7340316772251
 20
487.32034683235
 30
0.0
 11
901.3418807983503
 21
487.32034683235
 31
0.0
  0
LINE
  5
13C
330
A
100
AcDbEntity
  8
11
  6
Continuous
 62
    92
100
AcDbLine
 10
901.3418807983503
 20
487.32034683235
 30
0.0
 11
901.3418807983503
 21
477.3200416564749
 31
0.0
  0
LINE
  5
13D
330
A
100
AcDbEntity
  8
11
  6
Continuous
 62
    92
100
AcDbLine
 10
901.3418807983503
 20
477.3200416564749
 30
0.0
 11
896.7340316772251
 21
477.3200416564749
 31
0.0
  0
LINE
  5
13E
330
A
100
AcDbEntity
  8
11
  6
Continuous
 62
    92
100
AcDbLine
 10
875.09111785885
 20
524.911403655975
 30
0.0
 11
875.09111785885
 21
538.9439201354748
 31
0.0
  0
LINE
  5
13F
330
A
100
AcDbEntity
  8
11
  6
Continuous
 62
    92
100
AcDbLine
 10
890.0907363891001
 20
538.9439201354748
 30
0.0
 11
890.0907363891001
 21
524.911403655975
 31
0.0
  0
LINE
  5
140
330
A
100
AcDbEntity
  8
11
  6
CENTERX2
 62
    92
100
AcDbLine
 10
938.2815017699751
 20
450.1664161682249
 30
0.0
 11
914.4902267456002
 21
463.9026451111
 31
0.0
  0
LINE
  5
141
330
A
100
AcDbEntity
  8
11
  6
Continuous
 62
    92
100
AcDbLine
 10
923.22649383535
 20
467.5189018249749
 30
0.0
 11
935.3789749144752
 21
460.502681732225
 31
0.0
  0
LINE
  5
142
330
A
100
AcDbEntity
  8
11
  6
Continuous
 62
    92
100
AcDbLine
 10
927.8789749144753
 20
447.5139045716
 30
0.0
 11
915.7264938353501
 21
454.53016281135
 31
0.0
  0
LINE
  5
143
330
A
100
AcDbEntity
  8
11
  6
CENTERX2
 62
    92
100
AcDbLine
 10
828.5277786254752
 20
451.106395721475
 30
0.0
 11
850.6852951049753
 21
463.898906707725
 31
0.0
  0
LINE
  5
144
330
A
100
AcDbEntity
  8
11
  6
Continuous
 62
    92
100
AcDbLine
 10
849.4565048217252
 20
454.5289039612249
 30
0.0
 11
837.3027267456002
 21
447.5126457214749
 31
0.0
  0
LINE
  5
145
330
A
100
AcDbEntity
  8
11
  6
Continuous
 62
    92
100
AcDbLine
 10
829.8040237426002
 20
460.5014228821
 30
0.0
 11
841.9565048217251
 21
467.5176811218499
 31
0.0
  0
LINE
  5
146
330
A
100
AcDbEntity
  8
11
  6
Continuous
 62
    92
100
AcDbLine
 10
863.84043121335
 20
428.8901710511
 30
0.0
 11
863.84043121335
 21
444.0776634216
 31
0.0
  0
LINE
  5
147
330
A
100
AcDbEntity
  8
11
  6
Continuous
 62
    92
100
AcDbLine
 10
901.3408126831002
 20
444.0776634216
 30
0.0
 11
901.3408126831002
 21
428.8901710511
 31
0.0
  0
LINE
  5
148
330
A
100
AcDbEntity
  8
11
  6
Continuous
 62
    92
100
AcDbLine
 10
870.0915756224752
 20
425.6964302063499
 30
0.0
 11
870.0915756224752
 21
439.727649688725
 31
0.0
  0
LINE
  5
149
330
A
100
AcDbEntity
  8
11
  6
Continuous
 62
    92
100
AcDbLine
 10
895.0918807982253
 20
439.727649688725
 30
0.0
 11
895.0918807983503
 21
425.6964302063499
 31
0.0
  0
LINE
  5
14A
330
A
100
AcDbEntity
  8
11
  6
CENTERX2
 62
    92
100
AcDbLine
 10
913.2239761352252
 20
500.00642776485
 30
0.0
 11
948.9327468871001
 21
520.622653961225
 31
0.0
  0
LINE
  5
14B
330
A
100
AcDbEntity
  8
11
  6
Continuous
 62
    92
100
AcDbLine
 10
938.2377853393503
 20
492.795162200975
 30
0.0
 11
925.0852432251001
 21
485.2013969420999
 31
0.0
  0
LINE
  5
14C
330
A
100
AcDbEntity
  8
11
  6
Continuous
 62
    92
100
AcDbLine
 10
906.3352432251001
 20
517.6776695251
 30
0.0
 11
919.4877853393503
 21
525.2713966369749
 31
0.0
  0
LINE
  5
14D
330
A
100
AcDbEntity
  8
11
  6
Continuous
 62
    92
100
AcDbLine
 10
937.8789749144752
 20
499.8064231872249
 30
0.0
 11
925.7277908324752
 21
492.7901649474748
 31
0.0
  0
LINE
  5
14E
330
A
100
AcDbEntity
  8
11
  6
Continuous
 62
    92
100
AcDbLine
 10
913.2277908324752
 20
514.4413948059749
 30
0.0
 11
925.3789749144752
 21
521.4564323425999
 31
0.0
  0
LINE
  5
14F
330
A
100
AcDbEntity
  8
11
  6
CENTERX2
 62
    92
100
AcDbLine
 10
850.6589736938501
 20
500.7563972473501
 30
0.0
 11
844.0139999389751
 21
504.5926475524749
 31
0.0
  0
LINE
  5
150
330
A
100
AcDbEntity
  8
11
  6
CENTERX2
 62
    92
100
AcDbLine
 10
833.2364883422251
 20
510.8139228821
 30
0.0
 11
817.052787780725
 21
520.1576805114751
 31
0.0
  0
LINE
  5
151
330
A
100
AcDbEntity
  8
11
  6
Continuous
 62
    92
100
AcDbLine
 10
845.695289611725
 20
525.2739143372248
 30
0.0
 11
858.8477554321
 21
517.6801490783499
 31
0.0
  0
LINE
  5
152
330
A
100
AcDbEntity
  8
11
  6
Continuous
 62
    92
100
AcDbLine
 10
840.0977498894752
 20
485.2039023003499
 30
0.0
 11
826.945289611725
 21
492.7976799010999
 31
0.0
  0
LINE
  5
153
330
A
100
AcDbEntity
  8
11
  6
Continuous
 62
    92
100
AcDbLine
 10
839.8027267456003
 20
521.4564323425999
 30
0.0
 11
851.9552841186001
 21
514.4413948059749
 31
0.0
  0
LINE
  5
154
330
A
100
AcDbEntity
  8
11
  6
Continuous
 62
    92
100
AcDbLine
 10
839.4552841186001
 20
492.7901649474748
 30
0.0
 11
827.3027267456003
 21
499.8064231872249
 31
0.0
  0
LINE
  5
155
330
A
100
AcDbEntity
  8
11
  6
Continuous
 62
    92
100
AcDbLine
 10
820.0177230834752
 20
453.8376808167249
 30
0.0
 11
837.469992673475
 21
430.3647938723499
 31
0.0
  0
LINE
  5
156
330
A
100
AcDbEntity
  8
11
  6
Continuous
 62
    92
100
AcDbLine
 10
837.469992673475
 20
430.3647938723499
 30
0.0
 11
863.1211471886002
 21
416.253490132975
 31
0.0
  0
LINE
  5
157
330
A
100
AcDbEntity
  8
11
  6
Continuous
 62
    92
100
AcDbLine
 10
863.1211471886002
 20
416.253490132975
 30
0.0
 11
892.3430338849753
 21
414.074985883475
 31
0.0
  0
LINE
  5
158
330
A
100
AcDbEntity
  8
11
  6
Continuous
 62
    92
100
AcDbLine
 10
892.3430338849753
 20
414.074985883475
 30
0.0
 11
919.8527784418502
 21
424.245228077725
 31
0.0
  0
LINE
  5
159
330
A
100
AcDbEntity
  8
11
  6
Continuous
 62
    92
100
AcDbLine
 10
919.8527784418502
 20
424.245228077725
 30
0.0
 11
940.6678487081
 21
444.9456980734749
 31
0.0
  0
LINE
  5
15A
330
A
100
AcDbEntity
  8
11
  6
Continuous
 62
    92
100
AcDbLine
 10
940.6678487081
 20
444.9456980734749
 30
0.0
 11
951.0084828396001
 21
472.4485349761001
 31
0.0
  0
LINE
  5
15B
330
A
100
AcDbEntity
  8
11
  6
Continuous
 62
    92
100
AcDbLine
 10
951.0084828396001
 20
472.4485349761001
 30
0.0
 11
948.9840361022253
 21
501.787858730975
 31
0.0
  0
LINE
  5
15C
330
A
100
AcDbEntity
  8
11
  6
Continuous
 62
    92
100
AcDbLine
 10
948.9840361022253
 20
501.787858730975
 30
0.0
 11
934.9386183832249
 21
527.6564014510999
 31
0.0
  0
LINE
  5
15D
330
A
100
AcDbEntity
  8
11
  6
Continuous
 62
    92
100
AcDbLine
 10
934.9386183832249
 20
527.6564014510999
 30
0.0
 11
911.3928421950999
 21
545.3655530626001
 31
0.0
  0
LINE
  5
15E
330
A
100
AcDbEntity
  8
11
  6
Continuous
 62
    92
100
AcDbLine
 10
911.3928421950999
 20
545.3655530626001
 30
0.0
 11
882.5914993286001
 21
551.695156097475
 31
0.0
  0
LINE
  5
15F
330
A
100
AcDbEntity
  8
11
  6
Continuous
 62
    92
100
AcDbLine
 10
882.5914993286001
 20
551.695156097475
 30
0.0
 11
868.8351194196002
 21
550.253958001975
 31
0.0
  0
LINE
  5
160
330
A
100
AcDbEntity
  8
11
  6
Continuous
 62
    92
100
AcDbLine
 10
868.8351194196002
 20
550.253958001975
 30
0.0
 11
855.6503149241002
 21
546.1148941169749
 31
0.0
  0
LINE
  5
161
330
A
100
AcDbEntity
  8
11
  6
Continuous
 62
    92
100
AcDbLine
 10
855.6503149241002
 20
546.1148941169749
 30
0.0
 11
843.560188722475
 21
539.4473578268502
 31
0.0
  0
LINE
  5
162
330
A
100
AcDbEntity
  8
11
  6
Continuous
 62
    92
100
AcDbLine
 10
843.560188722475
 20
539.4473578268502
 30
0.0
 11
833.0433869044751
 21
530.5209557954749
 31
0.0
  0
LINE
  5
163
330
A
100
AcDbEntity
  8
11
  6
Continuous
 62
    92
100
AcDbLine
 10
833.0433869044751
 20
530.5209557954749
 30
0.0
 11
824.5151466816
 21
519.6946090442249
 31
0.0
  0
LINE
  5
164
330
A
100
AcDbEntity
  8
11
  6
Continuous
 62
    92
100
AcDbLine
 10
824.5151466816
 20
519.6946090442249
 30
0.0
 11
818.3109024446002
 21
507.4021227245999
 31
0.0
  0
LINE
  5
165
330
A
100
AcDbEntity
  8
11
  6
Continuous
 62
    92
100
AcDbLine
 10
818.3109024446002
 20
507.4021227245999
 30
0.0
 11
814.6730941457251
 21
494.1348046812249
 31
0.0
  0
LINE
  5
166
330
A
100
AcDbEntity
  8
11
  6
Continuous
 62
    92
100
AcDbLine
 10
814.6730941457251
 20
494.1348046812249
 30
0.0
 11
813.7416967209752
 21
480.421829199475
 31
0.0
  0
LINE
  5
167
330
A
100
AcDbEntity
  8
11
  6
Continuous
 62
    92
100
AcDbLine
 10
813.7416967209752
 20
480.421829199475
 30
0.0
 11
815.548840380225
 21
466.8091307315999
 31
0.0
  0
LINE
  5
168
330
A
100
AcDbEntity
  8
11
  6
Continuous
 62
    92
100
AcDbLine
 10
815.548840380225
 20
466.8091307315999
 30
0.0
 11
820.0177230834752
 21
453.8376808167249
 31
0.0
  0
LINE
  5
169
330
A
100
AcDbEntity
  8
11
  6
CENTERX2
 62
    92
100
AcDbLine
 10
882.5914993286001
 20
482.320156097475
 30
0.0
 11
923.632759094225
 21
523.3614158631
 31
0.0
  0
LINE
  5
16A
330
A
100
AcDbEntity
  8
11
  6
CENTERX2
 62
    92
100
AcDbLine
 10
923.632759094225
 20
523.3614158631
 30
0.0
 11
951.455253600975
 21
551.1839103698498
 31
0.0
  0
LINE
  5
16B
330
A
100
AcDbEntity
  8
11
  6
CENTERX2
 62
    92
100
AcDbLine
 10
951.8202438353501
 20
413.0901527404749
 30
0.0
 11
922.4527969359751
 21
442.4576759338499
 31
0.0
  0
LINE
  5
16C
330
A
100
AcDbEntity
  8
11
  6
CENTERX2
 62
    92
100
AcDbLine
 10
922.4527969359751
 20
442.4576759338499
 30
0.0
 11
882.5914993286001
 21
482.320156097475
 31
0.0
  0
LINE
  5
16D
330
A
100
AcDbEntity
  8
11
  6
CENTERX2
 62
    92
100
AcDbLine
 10
812.9252853393502
 20
412.653903961225
 30
0.0
 11
841.1339797973502
 21
440.8626747130999
 31
0.0
  0
LINE
  5
16E
330
A
100
AcDbEntity
  8
11
  6
CENTERX2
 62
    92
100
AcDbLine
 10
841.1339797973502
 20
440.8626747130999
 30
0.0
 11
882.5914993286001
 21
482.320156097475
 31
0.0
  0
LINE
  5
16F
330
A
100
AcDbEntity
  8
11
  6
CENTERX2
 62
    92
100
AcDbLine
 10
882.5914993286001
 20
482.320156097475
 30
0.0
 11
840.5327835082252
 21
524.3776512146
 31
0.0
  0
LINE
  5
170
330
A
100
AcDbEntity
  8
11
  6
CENTERX2
 62
    92
100
AcDbLine
 10
840.5327835082252
 20
524.3776512146
 30
0.0
 11
813.6764755248501
 21
551.2339210510999
 31
0.0
  0
LINE
  5
171
330
A
100
AcDbEntity
  8
11
  6
CENTERX2
 62
    92
100
AcDbLine
 10
882.5914993286001
 20
397.93268203735
 30
0.0
 11
882.5914993286001
 21
426.6964149474749
 31
0.0
  0
LINE
  5
172
330
A
100
AcDbEntity
  8
11
  6
CENTERX2
 62
    92
100
AcDbLine
 10
882.5914993286001
 20
437.8451728821
 30
0.0
 11
882.5914993286001
 21
560.718898773225
 31
0.0
  0
LINE
  5
173
330
A
100
AcDbEntity
  8
11
  6
CENTERX2
 62
    92
100
AcDbLine
 10
964.0427627563502
 20
482.320156097475
 30
0.0
 11
802.8902664183501
 21
482.320156097475
 31
0.0
  0
LINE
  5
174
330
A
100
AcDbEntity
  8
11
  6
Continuous
 62
    92
100
AcDbLine
 10
807.5914993286001
 20
458.963909149225
 30
0.0
 11
807.5914993286001
 21
539.9026679992251
 31
0.0
  0
LINE
  5
175
330
A
100
AcDbEntity
  8
11
  6
Continuous
 62
    92
100
AcDbLine
 10
807.5914993286001
 20
539.9026679992251
 30
0.0
 11
825.0077285766002
 21
557.3201560974751
 31
0.0
  0
LINE
  5
176
330
A
100
AcDbEntity
  8
11
  6
Continuous
 62
    92
100
AcDbLine
 10
825.0077285766002
 20
557.3201560974751
 30
0.0
 11
940.1727523803501
 21
557.3201560974751
 31
0.0
  0
LINE
  5
177
330
A
100
AcDbEntity
  8
11
  6
Continuous
 62
    92
100
AcDbLine
 10
940.1727523803501
 20
557.3201560974751
 30
0.0
 11
957.5914993286001
 21
539.9026679992251
 31
0.0
  0
LINE
  5
178
330
A
100
AcDbEntity
  8
11
  6
Continuous
 62
    92
100
AcDbLine
 10
957.5914993286001
 20
539.9026679992251
 30
0.0
 11
957.5914993286001
 21
424.7376823426
 31
0.0
  0
LINE
  5
179
330
A
100
AcDbEntity
  8
11
  6
Continuous
 62
    92
100
AcDbLine
 10
957.5914993286001
 20
424.7376823426
 30
0.0
 11
940.1727523803501
 21
407.320156097475
 31
0.0
  0
LINE
  5
17A
330
A
100
AcDbEntity
  8
11
  6
Continuous
 62
    92
100
AcDbLine
 10
940.1727523803501
 20
407.320156097475
 30
0.0
 11
865.9690322876
 21
407.320156097475
 31
0.0
  0
LINE
  5
17B
330
A
100
AcDbEntity
  8
11
  6
Continuous
 62
    92
100
AcDbLine
 10
865.9690322876
 20
407.320156097475
 30
0.0
 11
825.0077285766002
 21
407.320156097475
 31
0.0
  0
LINE
  5
17C
330
A
100
AcDbEntity
  8
11
  6
Continuous
 62
    92
100
AcDbLine
 10
825.0077285766002
 20
407.320156097475
 30
0.0
 11
807.5914993286001
 21
424.736423492475
 31
0.0
  0
LINE
  5
17D
330
A
100
AcDbEntity
  8
11
  6
Continuous
 62
    92
100
AcDbLine
 10
807.5914993286001
 20
424.736423492475
 30
0.0
 11
807.5914993286001
 21
458.963909149225
 31
0.0
  0
LINE
  5
17E
330
A
100
AcDbEntity
  8
11
  6
CENTERX2
 62
    92
100
AcDbLine
 10
54.77819824210008
 20
481.7435646057249
 30
0.0
 11
97.80867004385005
 21
481.7435646057249
 31
0.0
  0
LINE
  5
17F
330
A
100
AcDbEntity
  8
11
  6
CENTERX2
 62
    92
100
AcDbLine
 10
75.31538391110007
 20
505.029964446975
 30
0.0
 11
75.31538391110007
 21
461.0215568542249
 31
0.0
  0
LINE
  5
180
330
A
100
AcDbEntity
  8
11
  6
Continuous
 62
    92
100
AcDbLine
 10
89.45791625972503
 20
486.7435646057249
 30
0.0
 11
94.06668090810001
 21
486.7435646057249
 31
0.0
  0
LINE
  5
181
330
A
100
AcDbEntity
  8
11
  6
Continuous
 62
    92
100
AcDbLine
 10
94.06668090810001
 20
486.7435646057249
 30
0.0
 11
94.06668090810001
 21
476.7435646057249
 31
0.0
  0
LINE
  5
182
330
A
100
AcDbEntity
  8
11
  6
Continuous
 62
    92
100
AcDbLine
 10
94.06668090810001
 20
476.7435646057249
 30
0.0
 11
89.45791625972503
 21
476.7435646057249
 31
0.0
  0
LINE
  5
183
330
A
100
AcDbEntity
  8
1
  6
Continuous
 62
    92
100
AcDbLine
 10
359.7789230346001
 20
467.945156097475
 30
0.0
 11
359.7789230346001
 21
496.695156097475
 31
0.0
  0
LINE
  5
184
330
A
100
AcDbEntity
  8
1
  6
Continuous
 62
    92
100
AcDbLine
 10
362.9039230346001
 20
499.820842742975
 30
0.0
 11
450.4039230346001
 21
499.820842742975
 31
0.0
  0
LINE
  5
185
330
A
100
AcDbEntity
  8
1
  6
Continuous
 62
    92
100
AcDbLine
 10
453.5289230346001
 20
496.695156097475
 30
0.0
 11
453.5289230346001
 21
467.945156097475
 31
0.0
  0
LINE
  5
186
330
A
100
AcDbEntity
  8
1
  6
Continuous
 62
    92
100
AcDbLine
 10
450.4039230346001
 20
464.8208045959749
 30
0.0
 11
362.9039230346001
 21
464.8208045959749
 31
0.0
  0
LINE
  5
187
330
A
100
AcDbEntity
  8
11
  6
CENTERX2
 62
    92
100
AcDbLine
 10
519.77793121335
 20
596.2013816833501
 30
0.0
 11
519.77793121335
 21
552.4651527404749
 31
0.0
  0
LINE
  5
188
330
A
100
AcDbEntity
  8
11
  6
CENTERX2
 62
    92
100
AcDbLine
 10
519.77793121335
 20
552.4651527404749
 30
0.0
 11
519.77793121335
 21
545.0301551818499
 31
0.0
  0
LINE
  5
189
330
A
100
AcDbEntity
  8
11
  6
Continuous
 62
    92
100
AcDbLine
 10
504.15293121335
 20
554.1951560974751
 30
0.0
 11
534.7779312133501
 21
554.1951560974751
 31
0.0
  0
LINE
  5
18A
330
A
100
AcDbEntity
  8
11
  6
Continuous
 62
    92
100
AcDbLine
 10
534.7779312133501
 20
554.1951560974751
 30
0.0
 11
535.4029312133501
 21
554.820156097475
 31
0.0
  0
LINE
  5
18B
330
A
100
AcDbEntity
  8
11
  6
Continuous
 62
    92
100
AcDbLine
 10
535.4029312133501
 20
554.820156097475
 30
0.0
 11
535.4029312133501
 21
557.195148467975
 31
0.0
  0
LINE
  5
18C
330
A
100
AcDbEntity
  8
11
  6
Continuous
 62
    92
100
AcDbLine
 10
535.4029312133501
 20
557.195148467975
 30
0.0
 11
504.15293121335
 21
557.195148467975
 31
0.0
  0
LINE
  5
18D
330
A
100
AcDbEntity
  8
11
  6
Continuous
 62
    92
100
AcDbLine
 10
504.15293121335
 20
557.195148467975
 30
0.0
 11
504.15293121335
 21
554.1951560974751
 31
0.0
  0
LINE
  5
18E
330
A
100
AcDbEntity
  8
11
  6
Continuous
 62
    92
100
AcDbLine
 10
533.5279312133501
 20
557.195148467975
 30
0.0
 11
533.5279312133501
 21
594.195156097475
 31
0.0
  0
LINE
  5
18F
330
A
100
AcDbEntity
  8
11
  6
Continuous
 62
    92
100
AcDbLine
 10
533.5279312133501
 20
594.195156097475
 30
0.0
 11
506.02793121335
 21
594.195156097475
 31
0.0
  0
LINE
  5
190
330
A
100
AcDbEntity
  8
11
  6
Continuous
 62
    92
100
AcDbLine
 10
506.02793121335
 20
594.195156097475
 30
0.0
 11
488.52793121335
 21
594.195156097475
 31
0.0
  0
LINE
  5
191
330
A
100
AcDbEntity
  8
11
  6
Continuous
 62
    92
100
AcDbLine
 10
506.02793121335
 20
562.945156097475
 30
0.0
 11
488.52793121335
 21
562.945156097475
 31
0.0
  0
LINE
  5
192
330
A
100
AcDbEntity
  8
11
  6
Continuous
 62
    92
100
AcDbLine
 10
533.5279312133501
 20
594.195156097475
 30
0.0
 11
532.271675109725
 21
592.7276420593499
 31
0.0
  0
LINE
  5
193
330
A
100
AcDbEntity
  8
11
  6
Continuous
 62
    92
100
AcDbLine
 10
532.271675109725
 20
592.7276420593499
 30
0.0
 11
530.4026639373501
 21
590.3128296263498
 31
0.0
  0
LINE
  5
194
330
A
100
AcDbEntity
  8
11
  6
Continuous
 62
    92
100
AcDbLine
 10
530.4026639373501
 20
590.3128296263498
 30
0.0
 11
528.807516987475
 21
587.57733306585
 31
0.0
  0
LINE
  5
195
330
A
100
AcDbEntity
  8
11
  6
Continuous
 62
    92
100
AcDbLine
 10
528.807516987475
 20
587.57733306585
 30
0.0
 11
527.555730105725
 21
584.5650514797249
 31
0.0
  0
LINE
  5
196
330
A
100
AcDbEntity
  8
11
  6
Continuous
 62
    92
100
AcDbLine
 10
527.555730105725
 20
584.5650514797249
 30
0.0
 11
526.705522295225
 21
581.3400013068501
 31
0.0
  0
LINE
  5
197
330
A
100
AcDbEntity
  8
11
  6
Continuous
 62
    92
100
AcDbLine
 10
526.705522295225
 20
581.3400013068501
 30
0.0
 11
526.2971545416
 21
577.9827251524749
 31
0.0
  0
LINE
  5
198
330
A
100
AcDbEntity
  8
11
  6
Continuous
 62
    92
100
AcDbLine
 10
526.2971545416
 20
577.9827251524749
 30
0.0
 11
526.3479885794749
 21
574.5840245590999
 31
0.0
  0
LINE
  5
199
330
A
100
AcDbEntity
  8
11
  6
Continuous
 62
    92
100
AcDbLine
 10
526.3479885794749
 20
574.5840245590999
 30
0.0
 11
526.8503926278501
 21
571.2369557256002
 31
0.0
  0
LINE
  5
19A
330
A
100
AcDbEntity
  8
11
  6
Continuous
 62
    92
100
AcDbLine
 10
526.8503926278501
 20
571.2369557256002
 30
0.0
 11
527.7729725887251
 21
568.0285252381
 31
0.0
  0
LINE
  5
19B
330
A
100
AcDbEntity
  8
11
  6
Continuous
 62
    92
100
AcDbLine
 10
527.7729725887251
 20
568.0285252381
 30
0.0
 11
529.0648061396001
 21
565.0325951378501
 31
0.0
  0
LINE
  5
19C
330
A
100
AcDbEntity
  8
11
  6
Continuous
 62
    92
100
AcDbLine
 10
529.0648061396001
 20
565.0325951378501
 30
0.0
 11
530.6616821288502
 21
562.3051261902248
 31
0.0
  0
LINE
  5
19D
330
A
100
AcDbEntity
  8
11
  6
Continuous
 62
    92
100
AcDbLine
 10
530.6616821288502
 20
562.3051261902248
 30
0.0
 11
533.5279312133501
 21
558.135128021225
 31
0.0
  0
LINE
  5
19E
330
A
100
AcDbEntity
  8
11
  6
Continuous
 62
    92
100
AcDbLine
 10
506.02793121335
 20
557.195148467975
 30
0.0
 11
506.02793121335
 21
562.945156097475
 31
0.0
  0
LINE
  5
19F
330
A
100
AcDbEntity
  8
11
  6
Continuous
 62
    92
100
AcDbLine
 10
533.5279312133501
 20
557.195148467975
 30
0.0
 11
519.77793121335
 21
578.570156097475
 31
0.0
  0
LINE
  5
1A0
330
A
100
AcDbEntity
  8
11
  6
Continuous
 62
    92
100
AcDbLine
 10
519.77793121335
 20
578.570156097475
 30
0.0
 11
488.52793121335
 21
578.570156097475
 31
0.0
  0
LINE
  5
1A1
330
A
100
AcDbEntity
  8
11
  6
Continuous
 62
    92
100
AcDbLine
 10
469.15293121335
 20
592.007656097475
 30
0.0
 11
469.15293121335
 21
565.1326560974751
 31
0.0
  0
LINE
  5
1A2
330
A
100
AcDbEntity
  8
11
  6
Continuous
 62
    92
100
AcDbLine
 10
469.15293121335
 20
565.1326560974751
 30
0.0
 11
470.40293121335
 21
564.195156097475
 31
0.0
  0
LINE
  5
1A3
330
A
100
AcDbEntity
  8
11
  6
Continuous
 62
    92
100
AcDbLine
 10
470.40293121335
 20
564.195156097475
 30
0.0
 11
479.15293121335
 21
564.195156097475
 31
0.0
  0
LINE
  5
1A4
330
A
100
AcDbEntity
  8
11
  6
Continuous
 62
    92
100
AcDbLine
 10
479.15293121335
 20
564.195156097475
 30
0.0
 11
480.40293121335
 21
565.1326560974751
 31
0.0
  0
LINE
  5
1A5
330
A
100
AcDbEntity
  8
11
  6
Continuous
 62
    92
100
AcDbLine
 10
480.40293121335
 20
565.1326560974751
 30
0.0
 11
480.40293121335
 21
592.007656097475
 31
0.0
  0
LINE
  5
1A6
330
A
100
AcDbEntity
  8
11
  6
Continuous
 62
    92
100
AcDbLine
 10
480.40293121335
 20
592.007656097475
 30
0.0
 11
479.15293121335
 21
592.9451560974751
 31
0.0
  0
LINE
  5
1A7
330
A
100
AcDbEntity
  8
11
  6
Continuous
 62
    92
100
AcDbLine
 10
479.15293121335
 20
592.9451560974751
 30
0.0
 11
470.40293121335
 21
592.9451560974751
 31
0.0
  0
LINE
  5
1A8
330
A
100
AcDbEntity
  8
11
  6
Continuous
 62
    92
100
AcDbLine
 10
470.40293121335
 20
592.9451560974751
 30
0.0
 11
469.15293121335
 21
592.007656097475
 31
0.0
  0
LINE
  5
1A9
330
A
100
AcDbEntity
  8
11
  6
Continuous
 62
    92
100
AcDbLine
 10
480.40293121335
 20
592.007656097475
 30
0.0
 11
469.15293121335
 21
592.007656097475
 31
0.0
  0
LINE
  5
1AA
330
A
100
AcDbEntity
  8
11
  6
Continuous
 62
    92
100
AcDbLine
 10
480.40293121335
 20
565.1326560974751
 30
0.0
 11
469.15293121335
 21
565.1326560974751
 31
0.0
  0
LINE
  5
1AB
330
A
100
AcDbEntity
  8
11
  6
Continuous
 62
    92
100
AcDbLine
 10
483.52793121335
 20
591.6951560974751
 30
0.0
 11
483.52793121335
 21
565.445156097475
 31
0.0
  0
LINE
  5
1AC
330
A
100
AcDbEntity
  8
11
  6
Continuous
 62
    92
100
AcDbLine
 10
483.52793121335
 20
565.445156097475
 30
0.0
 11
486.02793121335
 21
565.445156097475
 31
0.0
  0
LINE
  5
1AD
330
A
100
AcDbEntity
  8
11
  6
Continuous
 62
    92
100
AcDbLine
 10
486.02793121335
 20
565.445156097475
 30
0.0
 11
486.02793121335
 21
591.6951560974751
 31
0.0
  0
LINE
  5
1AE
330
A
100
AcDbEntity
  8
11
  6
Continuous
 62
    92
100
AcDbLine
 10
486.02793121335
 20
591.6951560974751
 30
0.0
 11
483.52793121335
 21
591.6951560974751
 31
0.0
  0
LINE
  5
1AF
330
A
100
AcDbEntity
  8
11
  6
Continuous
 62
    92
100
AcDbLine
 10
483.52793121335
 20
591.6951560974751
 30
0.0
 11
483.52793121335
 21
592.9451560974751
 31
0.0
  0
LINE
  5
1B0
330
A
100
AcDbEntity
  8
11
  6
Continuous
 62
    92
100
AcDbLine
 10
483.52793121335
 20
592.9451560974751
 30
0.0
 11
482.90293121335
 21
592.9451560974751
 31
0.0
  0
LINE
  5
1B1
330
A
100
AcDbEntity
  8
11
  6
Continuous
 62
    92
100
AcDbLine
 10
482.90293121335
 20
592.9451560974751
 30
0.0
 11
481.279167175225
 21
592.007656097475
 31
0.0
  0
LINE
  5
1B2
330
A
100
AcDbEntity
  8
11
  6
Continuous
 62
    92
100
AcDbLine
 10
481.279167175225
 20
592.007656097475
 30
0.0
 11
480.40293121335
 21
592.007656097475
 31
0.0
  0
LINE
  5
1B3
330
A
100
AcDbEntity
  8
11
  6
Continuous
 62
    92
100
AcDbLine
 10
482.90293121335
 20
564.195156097475
 30
0.0
 11
482.90293121335
 21
592.9451560974751
 31
0.0
  0
LINE
  5
1B4
330
A
100
AcDbEntity
  8
11
  6
Continuous
 62
    92
100
AcDbLine
 10
470.40293121335
 20
564.195156097475
 30
0.0
 11
470.40293121335
 21
592.9451560974751
 31
0.0
  0
LINE
  5
1B5
330
A
100
AcDbEntity
  8
11
  6
Continuous
 62
    92
100
AcDbLine
 10
479.15293121335
 20
564.195156097475
 30
0.0
 11
479.15293121335
 21
592.9451560974751
 31
0.0
  0
LINE
  5
1B6
330
A
100
AcDbEntity
  8
11
  6
Continuous
 62
    92
100
AcDbLine
 10
483.52793121335
 20
565.445156097475
 30
0.0
 11
483.52793121335
 21
564.195156097475
 31
0.0
  0
LINE
  5
1B7
330
A
100
AcDbEntity
  8
11
  6
Continuous
 62
    92
100
AcDbLine
 10
483.52793121335
 20
564.195156097475
 30
0.0
 11
482.90293121335
 21
564.195156097475
 31
0.0
  0
LINE
  5
1B8
330
A
100
AcDbEntity
  8
11
  6
Continuous
 62
    92
100
AcDbLine
 10
482.90293121335
 20
564.195156097475
 30
0.0
 11
481.279167175225
 21
565.1326560974751
 31
0.0
  0
LINE
  5
1B9
330
A
100
AcDbEntity
  8
11
  6
Continuous
 62
    92
100
AcDbLine
 10
481.279167175225
 20
565.1326560974751
 30
0.0
 11
480.40293121335
 21
565.1326560974751
 31
0.0
  0
LINE
  5
1BA
330
A
100
AcDbEntity
  8
11
  6
Continuous
 62
    92
100
AcDbLine
 10
486.02793121335
 20
592.9451560974751
 30
0.0
 11
486.02793121335
 21
564.195156097475
 31
0.0
  0
LINE
  5
1BB
330
A
100
AcDbEntity
  8
11
  6
Continuous
 62
    92
100
AcDbLine
 10
486.02793121335
 20
564.195156097475
 30
0.0
 11
487.27793121335
 21
564.195156097475
 31
0.0
  0
LINE
  5
1BC
330
A
100
AcDbEntity
  8
11
  6
Continuous
 62
    92
100
AcDbLine
 10
487.27793121335
 20
564.195156097475
 30
0.0
 11
487.27793121335
 21
592.9451560974751
 31
0.0
  0
LINE
  5
1BD
330
A
100
AcDbEntity
  8
11
  6
Continuous
 62
    92
100
AcDbLine
 10
487.27793121335
 20
592.9451560974751
 30
0.0
 11
486.02793121335
 21
592.9451560974751
 31
0.0
  0
LINE
  5
1BE
330
A
100
AcDbEntity
  8
11
  6
Continuous
 62
    92
100
AcDbLine
 10
487.27793121335
 20
591.6951560974751
 30
0.0
 11
487.27793121335
 21
565.445156097475
 31
0.0
  0
LINE
  5
1BF
330
A
100
AcDbEntity
  8
11
  6
Continuous
 62
    92
100
AcDbLine
 10
487.27793121335
 20
565.445156097475
 30
0.0
 11
488.52793121335
 21
565.445156097475
 31
0.0
  0
LINE
  5
1C0
330
A
100
AcDbEntity
  8
11
  6
Continuous
 62
    92
100
AcDbLine
 10
488.52793121335
 20
565.445156097475
 30
0.0
 11
488.52793121335
 21
591.6951560974751
 31
0.0
  0
LINE
  5
1C1
330
A
100
AcDbEntity
  8
11
  6
Continuous
 62
    92
100
AcDbLine
 10
488.52793121335
 20
591.6951560974751
 30
0.0
 11
487.27793121335
 21
591.6951560974751
 31
0.0
  0
LINE
  5
1C2
330
A
100
AcDbEntity
  8
11
  6
Continuous
 62
    92
100
AcDbLine
 10
488.52793121335
 20
562.945156097475
 30
0.0
 11
488.52793121335
 21
594.195156097475
 31
0.0
  0
LINE
  5
1C3
330
A
100
AcDbEntity
  8
11
  6
Continuous
 62
    92
100
AcDbLine
 10
519.77793121335
 20
578.570156097475
 30
0.0
 11
506.02793121335
 21
562.945156097475
 31
0.0
  0
LINE
  5
1C4
330
A
100
AcDbEntity
  8
11
  6
CENTERX2
 62
    92
100
AcDbLine
 10
597.2766723632251
 20
580.57569503785
 30
0.0
 11
597.2766723632251
 21
536.8394660949751
 31
0.0
  0
LINE
  5
1C5
330
A
100
AcDbEntity
  8
11
  6
CENTERX2
 62
    92
100
AcDbLine
 10
597.2766723632251
 20
536.8394660949751
 30
0.0
 11
597.2766723632251
 21
529.4044685363501
 31
0.0
  0
LINE
  5
1C6
330
A
100
AcDbEntity
  8
11
  6
Continuous
 62
    92
100
AcDbLine
 10
612.9016723632251
 20
538.569469451975
 30
0.0
 11
582.2766723632252
 21
538.569469451975
 31
0.0
  0
LINE
  5
1C7
330
A
100
AcDbEntity
  8
11
  6
Continuous
 62
    92
100
AcDbLine
 10
582.2766723632252
 20
538.569469451975
 30
0.0
 11
581.6516723632251
 21
539.1944694519749
 31
0.0
  0
LINE
  5
1C8
330
A
100
AcDbEntity
  8
11
  6
Continuous
 62
    92
100
AcDbLine
 10
581.6516723632251
 20
539.1944694519749
 30
0.0
 11
581.6516723632251
 21
541.5694618224749
 31
0.0
  0
LINE
  5
1C9
330
A
100
AcDbEntity
  8
11
  6
Continuous
 62
    92
100
AcDbLine
 10
581.6516723632251
 20
541.5694618224749
 30
0.0
 11
612.9016723632251
 21
541.5694618224749
 31
0.0
  0
LINE
  5
1CA
330
A
100
AcDbEntity
  8
11
  6
Continuous
 62
    92
100
AcDbLine
 10
612.9016723632251
 20
541.5694618224749
 30
0.0
 11
612.9016723632251
 21
538.569469451975
 31
0.0
  0
LINE
  5
1CB
330
A
100
AcDbEntity
  8
11
  6
Continuous
 62
    92
100
AcDbLine
 10
583.5266723632251
 20
541.5694618224749
 30
0.0
 11
583.5266723632251
 21
578.569469451975
 31
0.0
  0
LINE
  5
1CC
330
A
100
AcDbEntity
  8
11
  6
Continuous
 62
    92
100
AcDbLine
 10
583.5266723632251
 20
578.569469451975
 30
0.0
 11
611.0266723632252
 21
578.569469451975
 31
0.0
  0
LINE
  5
1CD
330
A
100
AcDbEntity
  8
11
  6
Continuous
 62
    92
100
AcDbLine
 10
611.0266723632252
 20
578.569469451975
 30
0.0
 11
628.5266723632251
 21
578.569469451975
 31
0.0
  0
LINE
  5
1CE
330
A
100
AcDbEntity
  8
11
  6
Continuous
 62
    92
100
AcDbLine
 10
611.0266723632252
 20
547.319469451975
 30
0.0
 11
628.5266723632251
 21
547.319469451975
 31
0.0
  0
LINE
  5
1CF
330
A
100
AcDbEntity
  8
11
  6
Continuous
 62
    92
100
AcDbLine
 10
583.5266723632251
 20
578.569469451975
 30
0.0
 11
584.7829284667252
 21
577.1019554138501
 31
0.0
  0
LINE
  5
1D0
330
A
100
AcDbEntity
  8
11
  6
Continuous
 62
    92
100
AcDbLine
 10
584.7829284667252
 20
577.1019554138501
 30
0.0
 11
586.6519452946001
 21
574.68714298085
 31
0.0
  0
LINE
  5
1D1
330
A
100
AcDbEntity
  8
11
  6
Continuous
 62
    92
100
AcDbLine
 10
586.6519452946001
 20
574.68714298085
 30
0.0
 11
588.2470969552251
 21
571.9516464203501
 31
0.0
  0
LINE
  5
1D2
330
A
100
AcDbEntity
  8
11
  6
Continuous
 62
    92
100
AcDbLine
 10
588.2470969552251
 20
571.9516464203501
 30
0.0
 11
589.4988873851001
 21
568.939364834225
 31
0.0
  0
LINE
  5
1D3
330
A
100
AcDbEntity
  8
11
  6
Continuous
 62
    92
100
AcDbLine
 10
589.4988873851001
 20
568.939364834225
 30
0.0
 11
590.3490974027252
 21
565.71431466135
 31
0.0
  0
LINE
  5
1D4
330
A
100
AcDbEntity
  8
11
  6
Continuous
 62
    92
100
AcDbLine
 10
590.3490974027252
 20
565.71431466135
 30
0.0
 11
590.7574659056
 21
562.3570385069751
 31
0.0
  0
LINE
  5
1D5
330
A
100
AcDbEntity
  8
11
  6
Continuous
 62
    92
100
AcDbLine
 10
590.7574659056
 20
562.3570385069751
 30
0.0
 11
590.7066311184751
 21
558.9583379136001
 31
0.0
  0
LINE
  5
1D6
330
A
100
AcDbEntity
  8
11
  6
Continuous
 62
    92
100
AcDbLine
 10
590.7066311184751
 20
558.9583379136001
 30
0.0
 11
590.204224862975
 21
555.6112690801
 31
0.0
  0
LINE
  5
1D7
330
A
100
AcDbEntity
  8
11
  6
Continuous
 62
    92
100
AcDbLine
 10
590.204224862975
 20
555.6112690801
 30
0.0
 11
589.2816413539748
 21
552.4028385926
 31
0.0
  0
LINE
  5
1D8
330
A
100
AcDbEntity
  8
11
  6
Continuous
 62
    92
100
AcDbLine
 10
589.2816413539748
 20
552.4028385926
 30
0.0
 11
587.98980309235
 21
549.4069084923499
 31
0.0
  0
LINE
  5
1D9
330
A
100
AcDbEntity
  8
11
  6
Continuous
 62
    92
100
AcDbLine
 10
587.98980309235
 20
549.4069084923499
 30
0.0
 11
586.3929214477251
 21
546.679439544725
 31
0.0
  0
LINE
  5
1DA
330
A
100
AcDbEntity
  8
11
  6
Continuous
 62
    92
100
AcDbLine
 10
586.3929214477251
 20
546.679439544725
 30
0.0
 11
583.5266723632251
 21
542.5094413757249
 31
0.0
  0
LINE
  5
1DB
330
A
100
AcDbEntity
  8
11
  6
Continuous
 62
    92
100
AcDbLine
 10
611.0266723632252
 20
541.5694618224749
 30
0.0
 11
611.0266723632252
 21
547.319469451975
 31
0.0
  0
LINE
  5
1DC
330
A
100
AcDbEntity
  8
11
  6
Continuous
 62
    92
100
AcDbLine
 10
583.5266723632251
 20
541.5694618224749
 30
0.0
 11
597.2766723632251
 21
562.944469451975
 31
0.0
  0
LINE
  5
1DD
330
A
100
AcDbEntity
  8
11
  6
Continuous
 62
    92
100
AcDbLine
 10
597.2766723632251
 20
562.944469451975
 30
0.0
 11
628.5266723632251
 21
562.944469451975
 31
0.0
  0
LINE
  5
1DE
330
A
100
AcDbEntity
  8
11
  6
Continuous
 62
    92
100
AcDbLine
 10
647.9016723632252
 20
576.3819694519749
 30
0.0
 11
647.9016723632252
 21
549.506969451975
 31
0.0
  0
LINE
  5
1DF
330
A
100
AcDbEntity
  8
11
  6
Continuous
 62
    92
100
AcDbLine
 10
647.9016723632252
 20
549.506969451975
 30
0.0
 11
646.6516723632252
 21
548.5694694519749
 31
0.0
  0
LINE
  5
1E0
330
A
100
AcDbEntity
  8
11
  6
Continuous
 62
    92
100
AcDbLine
 10
646.6516723632252
 20
548.5694694519749
 30
0.0
 11
637.9016723632251
 21
548.5694694519749
 31
0.0
  0
LINE
  5
1E1
330
A
100
AcDbEntity
  8
11
  6
Continuous
 62
    92
100
AcDbLine
 10
637.9016723632251
 20
548.5694694519749
 30
0.0
 11
636.6516723632251
 21
549.506969451975
 31
0.0
  0
LINE
  5
1E2
330
A
100
AcDbEntity
  8
11
  6
Continuous
 62
    92
100
AcDbLine
 10
636.6516723632251
 20
549.506969451975
 30
0.0
 11
636.6516723632251
 21
576.3819694519749
 31
0.0
  0
LINE
  5
1E3
330
A
100
AcDbEntity
  8
11
  6
Continuous
 62
    92
100
AcDbLine
 10
636.6516723632251
 20
576.3819694519749
 30
0.0
 11
637.9016723632251
 21
577.319469451975
 31
0.0
  0
LINE
  5
1E4
330
A
100
AcDbEntity
  8
11
  6
Continuous
 62
    92
100
AcDbLine
 10
637.9016723632251
 20
577.319469451975
 30
0.0
 11
646.6516723632252
 21
577.319469451975
 31
0.0
  0
LINE
  5
1E5
330
A
100
AcDbEntity
  8
11
  6
Continuous
 62
    92
100
AcDbLine
 10
646.6516723632252
 20
577.319469451975
 30
0.0
 11
647.9016723632252
 21
576.3819694519749
 31
0.0
  0
LINE
  5
1E6
330
A
100
AcDbEntity
  8
11
  6
Continuous
 62
    92
100
AcDbLine
 10
636.6516723632251
 20
576.3819694519749
 30
0.0
 11
647.9016723632252
 21
576.3819694519749
 31
0.0
  0
LINE
  5
1E7
330
A
100
AcDbEntity
  8
11
  6
Continuous
 62
    92
100
AcDbLine
 10
636.6516723632251
 20
549.506969451975
 30
0.0
 11
647.9016723632252
 21
549.506969451975
 31
0.0
  0
LINE
  5
1E8
330
A
100
AcDbEntity
  8
11
  6
Continuous
 62
    92
100
AcDbLine
 10
633.5266723632251
 20
576.069469451975
 30
0.0
 11
633.5266723632251
 21
549.8194694519749
 31
0.0
  0
LINE
  5
1E9
330
A
100
AcDbEntity
  8
11
  6
Continuous
 62
    92
100
AcDbLine
 10
633.5266723632251
 20
549.8194694519749
 30
0.0
 11
631.0266723632252
 21
549.8194694519749
 31
0.0
  0
LINE
  5
1EA
330
A
100
AcDbEntity
  8
11
  6
Continuous
 62
    92
100
AcDbLine
 10
631.0266723632252
 20
549.8194694519749
 30
0.0
 11
631.0266723632252
 21
576.069469451975
 31
0.0
  0
LINE
  5
1EB
330
A
100
AcDbEntity
  8
11
  6
Continuous
 62
    92
100
AcDbLine
 10
631.0266723632252
 20
576.069469451975
 30
0.0
 11
633.5266723632251
 21
576.069469451975
 31
0.0
  0
LINE
  5
1EC
330
A
100
AcDbEntity
  8
11
  6
Continuous
 62
    92
100
AcDbLine
 10
633.5266723632251
 20
576.069469451975
 30
0.0
 11
633.5266723632251
 21
577.319469451975
 31
0.0
  0
LINE
  5
1ED
330
A
100
AcDbEntity
  8
11
  6
Continuous
 62
    92
100
AcDbLine
 10
633.5266723632251
 20
577.319469451975
 30
0.0
 11
634.1516723632252
 21
577.319469451975
 31
0.0
  0
LINE
  5
1EE
330
A
100
AcDbEntity
  8
11
  6
Continuous
 62
    92
100
AcDbLine
 10
634.1516723632252
 20
577.319469451975
 30
0.0
 11
635.7754364012252
 21
576.3819694519749
 31
0.0
  0
LINE
  5
1EF
330
A
100
AcDbEntity
  8
11
  6
Continuous
 62
    92
100
AcDbLine
 10
635.7754364012252
 20
576.3819694519749
 30
0.0
 11
636.6516723632251
 21
576.3819694519749
 31
0.0
  0
LINE
  5
1F0
330
A
100
AcDbEntity
  8
11
  6
Continuous
 62
    92
100
AcDbLine
 10
634.1516723632252
 20
548.5694694519749
 30
0.0
 11
634.1516723632252
 21
577.319469451975
 31
0.0
  0
LINE
  5
1F1
330
A
100
AcDbEntity
  8
11
  6
Continuous
 62
    92
100
AcDbLine
 10
646.6516723632252
 20
548.5694694519749
 30
0.0
 11
646.6516723632252
 21
577.319469451975
 31
0.0
  0
LINE
  5
1F2
330
A
100
AcDbEntity
  8
11
  6
Continuous
 62
    92
100
AcDbLine
 10
637.9016723632251
 20
548.5694694519749
 30
0.0
 11
637.9016723632251
 21
577.319469451975
 31
0.0
  0
LINE
  5
1F3
330
A
100
AcDbEntity
  8
11
  6
Continuous
 62
    92
100
AcDbLine
 10
633.5266723632251
 20
549.8194694519749
 30
0.0
 11
633.5266723632251
 21
548.5694694519749
 31
0.0
  0
LINE
  5
1F4
330
A
100
AcDbEntity
  8
11
  6
Continuous
 62
    92
100
AcDbLine
 10
633.5266723632251
 20
548.5694694519749
 30
0.0
 11
634.1516723632252
 21
548.5694694519749
 31
0.0
  0
LINE
  5
1F5
330
A
100
AcDbEntity
  8
11
  6
Continuous
 62
    92
100
AcDbLine
 10
634.1516723632252
 20
548.5694694519749
 30
0.0
 11
635.7754364012252
 21
549.506969451975
 31
0.0
  0
LINE
  5
1F6
330
A
100
AcDbEntity
  8
11
  6
Continuous
 62
    92
100
AcDbLine
 10
635.7754364012252
 20
549.506969451975
 30
0.0
 11
636.6516723632251
 21
549.506969451975
 31
0.0
  0
LINE
  5
1F7
330
A
100
AcDbEntity
  8
11
  6
Continuous
 62
    92
100
AcDbLine
 10
631.0266723632252
 20
577.319469451975
 30
0.0
 11
631.0266723632252
 21
548.5694694519749
 31
0.0
  0
LINE
  5
1F8
330
A
100
AcDbEntity
  8
11
  6
Continuous
 62
    92
100
AcDbLine
 10
631.0266723632252
 20
548.5694694519749
 30
0.0
 11
629.7766723632252
 21
548.5694694519749
 31
0.0
  0
LINE
  5
1F9
330
A
100
AcDbEntity
  8
11
  6
Continuous
 62
    92
100
AcDbLine
 10
629.7766723632252
 20
548.5694694519749
 30
0.0
 11
629.7766723632252
 21
577.319469451975
 31
0.0
  0
LINE
  5
1FA
330
A
100
AcDbEntity
  8
11
  6
Continuous
 62
    92
100
AcDbLine
 10
629.7766723632252
 20
577.319469451975
 30
0.0
 11
631.0266723632252
 21
577.319469451975
 31
0.0
  0
LINE
  5
1FB
330
A
100
AcDbEntity
  8
11
  6
Continuous
 62
    92
100
AcDbLine
 10
629.7766723632252
 20
576.069469451975
 30
0.0
 11
629.7766723632252
 21
549.8194694519749
 31
0.0
  0
LINE
  5
1FC
330
A
100
AcDbEntity
  8
11
  6
Continuous
 62
    92
100
AcDbLine
 10
629.7766723632252
 20
549.8194694519749
 30
0.0
 11
628.5266723632251
 21
549.8194694519749
 31
0.0
  0
LINE
  5
1FD
330
A
100
AcDbEntity
  8
11
  6
Continuous
 62
    92
100
AcDbLine
 10
628.5266723632251
 20
549.8194694519749
 30
0.0
 11
628.5266723632251
 21
576.069469451975
 31
0.0
  0
LINE
  5
1FE
330
A
100
AcDbEntity
  8
11
  6
Continuous
 62
    92
100
AcDbLine
 10
628.5266723632251
 20
576.069469451975
 30
0.0
 11
629.7766723632252
 21
576.069469451975
 31
0.0
  0
LINE
  5
1FF
330
A
100
AcDbEntity
  8
11
  6
Continuous
 62
    92
100
AcDbLine
 10
628.5266723632251
 20
547.319469451975
 30
0.0
 11
628.5266723632251
 21
578.569469451975
 31
0.0
  0
LINE
  5
200
330
A
100
AcDbEntity
  8
11
  6
Continuous
 62
    92
100
AcDbLine
 10
597.2766723632251
 20
562.944469451975
 30
0.0
 11
611.0266723632252
 21
547.319469451975
 31
0.0
  0
LINE
  5
201
330
A
100
AcDbEntity
  8
11
  6
Continuous
 62
    92
100
AcDbLine
 10
544.777969360225
 20
421.6126441955999
 30
0.0
 11
563.527969360225
 21
421.6126441955999
 31
0.0
  0
LINE
  5
202
330
A
100
AcDbEntity
  8
11
  6
Continuous
 62
    92
100
AcDbLine
 10
563.527969360225
 20
482.320156097475
 30
0.0
 11
563.527969360225
 21
410.445156097475
 31
0.0
  0
LINE
  5
203
330
A
100
AcDbEntity
  8
11
  6
Continuous
 62
    92
100
AcDbLine
 10
563.527969360225
 20
410.445156097475
 30
0.0
 11
544.777969360225
 21
410.445156097475
 31
0.0
  0
LINE
  5
204
330
A
100
AcDbEntity
  8
11
  6
Continuous
 62
    92
100
AcDbLine
 10
544.777969360225
 20
410.445156097475
 30
0.0
 11
544.777969360225
 21
482.320156097475
 31
0.0
  0
LINE
  5
205
330
A
100
AcDbEntity
  8
11
  6
Continuous
 62
    92
100
AcDbLine
 10
236.027740478475
 20
482.320156097475
 30
0.0
 11
236.027740478475
 21
467.320156097475
 31
0.0
  0
LINE
  5
206
330
A
100
AcDbEntity
  8
11
  6
Continuous
 62
    92
100
AcDbLine
 10
297.6528778074751
 20
466.695156097475
 30
0.0
 11
297.6528778074751
 21
482.320156097475
 31
0.0
  0
LINE
  5
207
330
A
100
AcDbEntity
  8
11
  6
Continuous
 62
    92
100
AcDbLine
 10
329.7778930663501
 20
482.320156097475
 30
0.0
 11
329.7778930663501
 21
501.695156097475
 31
0.0
  0
LINE
  5
208
330
A
100
AcDbEntity
  8
11
  6
Continuous
 62
    92
100
AcDbLine
 10
236.027740478475
 20
482.320156097475
 30
0.0
 11
236.027740478475
 21
497.320156097475
 31
0.0
  0
LINE
  5
209
330
A
100
AcDbEntity
  8
11
  6
Continuous
 62
    92
100
AcDbLine
 10
297.6528778074751
 20
482.320156097475
 30
0.0
 11
297.6528778074751
 21
498.07016372685
 31
0.0
  0
LINE
  5
20A
330
A
100
AcDbEntity
  8
11
  6
Continuous
 62
    92
100
AcDbLine
 10
243.5278739928501
 20
477.3200416564749
 30
0.0
 11
283.5278739928501
 21
477.3200416564749
 31
0.0
  0
LINE
  5
20B
330
A
100
AcDbEntity
  8
11
  6
Continuous
 62
    92
100
AcDbLine
 10
243.5278739928501
 20
487.32034683235
 30
0.0
 11
283.5278739928501
 21
487.32034683235
 31
0.0
  0
LINE
  5
20C
330
A
100
AcDbEntity
  8
11
  6
Continuous
 62
    92
100
AcDbLine
 10
298.8192024229752
 20
497.9446220398499
 30
0.0
 11
297.6528778074751
 21
497.9446220398499
 31
0.0
  0
LINE
  5
20D
330
A
100
AcDbEntity
  8
11
  6
Continuous
 62
    92
100
AcDbLine
 10
297.6528778074751
 20
497.9446220398499
 30
0.0
 11
297.6528778074751
 21
497.945156097475
 31
0.0
  0
LINE
  5
20E
330
A
100
AcDbEntity
  8
11
  6
Continuous
 62
    92
100
AcDbLine
 10
297.0278778074752
 20
497.3205757141
 30
0.0
 11
236.027740478475
 21
497.3205757141
 31
0.0
  0
LINE
  5
20F
330
A
100
AcDbEntity
  8
11
  6
Continuous
 62
    92
100
AcDbLine
 10
236.027740478475
 20
497.3205757141
 30
0.0
 11
234.777740478475
 21
496.070156097475
 31
0.0
  0
LINE
  5
210
330
A
100
AcDbEntity
  8
11
  6
Continuous
 62
    92
100
AcDbLine
 10
234.777740478475
 20
496.070156097475
 30
0.0
 11
234.777740478475
 21
482.320156097475
 31
0.0
  0
LINE
  5
211
330
A
100
AcDbEntity
  8
11
  6
Continuous
 62
    92
100
AcDbLine
 10
234.777740478475
 20
482.320156097475
 30
0.0
 11
234.777740478475
 21
468.570156097475
 31
0.0
  0
LINE
  5
212
330
A
100
AcDbEntity
  8
11
  6
Continuous
 62
    92
100
AcDbLine
 10
234.777740478475
 20
468.570156097475
 30
0.0
 11
236.027740478475
 21
467.320156097475
 31
0.0
  0
LINE
  5
213
330
A
100
AcDbEntity
  8
11
  6
Continuous
 62
    92
100
AcDbLine
 10
236.027740478475
 20
467.320156097475
 30
0.0
 11
297.0278778074752
 21
467.320156097475
 31
0.0
  0
LINE
  5
214
330
A
100
AcDbEntity
  8
11
  6
Continuous
 62
    92
100
AcDbLine
 10
297.6522102354751
 20
466.695156097475
 30
0.0
 11
298.817867278975
 21
466.695156097475
 31
0.0
  0
LINE
  5
215
330
A
100
AcDbEntity
  8
11
  6
Continuous
 62
    92
100
AcDbLine
 10
299.8478736876
 20
476.4888954162249
 30
0.0
 11
299.9104471846001
 21
475.1524661431001
 31
0.0
  0
LINE
  5
216
330
A
100
AcDbEntity
  8
11
  6
Continuous
 62
    92
100
AcDbLine
 10
299.9104471846001
 20
475.1524661431001
 30
0.0
 11
299.9509266092251
 21
474.2710893117249
 31
0.0
  0
LINE
  5
217
330
A
100
AcDbEntity
  8
11
  6
Continuous
 62
    92
100
AcDbLine
 10
299.9509266092251
 20
474.2710893117249
 30
0.0
 11
299.978768448975
 21
473.6461724136
 31
0.0
  0
LINE
  5
218
330
A
100
AcDbEntity
  8
11
  6
Continuous
 62
    92
100
AcDbLine
 10
299.978768448975
 20
473.6461724136
 30
0.0
 11
299.9985595166001
 21
473.18000984285
 31
0.0
  0
LINE
  5
219
330
A
100
AcDbEntity
  8
11
  6
Continuous
 62
    92
100
AcDbLine
 10
299.9985595166001
 20
473.18000984285
 30
0.0
 11
300.0127278577251
 21
472.8189396318499
 31
0.0
  0
LINE
  5
21A
330
A
100
AcDbEntity
  8
11
  6
Continuous
 62
    92
100
AcDbLine
 10
300.0127278577251
 20
472.8189396318499
 30
0.0
 11
300.02258383935
 21
472.5310419465999
 31
0.0
  0
LINE
  5
21B
330
A
100
AcDbEntity
  8
11
  6
Continuous
 62
    92
100
AcDbLine
 10
300.02258383935
 20
472.5310419465999
 30
0.0
 11
300.0287455237251
 21
472.2961440513499
 31
0.0
  0
LINE
  5
21C
330
A
100
AcDbEntity
  8
11
  6
Continuous
 62
    92
100
AcDbLine
 10
300.0287455237251
 20
472.2961440513499
 30
0.0
 11
300.0312662663501
 21
472.1008779456
 31
0.0
  0
LINE
  5
21D
330
A
100
AcDbEntity
  8
11
  6
Continuous
 62
    92
100
AcDbLine
 10
300.0312662663501
 20
472.1008779456
 30
0.0
 11
300.0295167281001
 21
471.9360461851
 31
0.0
  0
LINE
  5
21E
330
A
100
AcDbEntity
  8
11
  6
Continuous
 62
    92
100
AcDbLine
 10
300.0295167281001
 20
471.9360461851
 30
0.0
 11
300.0216331481001
 21
471.7951393127249
 31
0.0
  0
LINE
  5
21F
330
A
100
AcDbEntity
  8
11
  6
Continuous
 62
    92
100
AcDbLine
 10
300.0216331481001
 20
471.7951393127249
 30
0.0
 11
299.992538998725
 21
471.5068677027249
 31
0.0
  0
LINE
  5
220
330
A
100
AcDbEntity
  8
11
  6
Continuous
 62
    92
100
AcDbLine
 10
299.992538998725
 20
471.5068677027249
 30
0.0
 11
299.95830052585
 21
471.2167966816001
 31
0.0
  0
LINE
  5
221
330
A
100
AcDbEntity
  8
11
  6
Continuous
 62
    92
100
AcDbLine
 10
299.95830052585
 20
471.2167966816001
 30
0.0
 11
299.9189223833501
 21
470.9250076064749
 31
0.0
  0
LINE
  5
222
330
A
100
AcDbEntity
  8
11
  6
Continuous
 62
    92
100
AcDbLine
 10
299.9189223833501
 20
470.9250076064749
 30
0.0
 11
299.8744121781001
 21
470.6315829127249
 31
0.0
  0
LINE
  5
223
330
A
100
AcDbEntity
  8
11
  6
Continuous
 62
    92
100
AcDbLine
 10
299.8744121781001
 20
470.6315829127249
 30
0.0
 11
299.8247804661
 21
470.3366060372251
 31
0.0
  0
LINE
  5
224
330
A
100
AcDbEntity
  8
11
  6
Continuous
 62
    92
100
AcDbLine
 10
299.8247804661
 20
470.3366060372251
 30
0.0
 11
299.770040744475
 21
470.04016133835
 31
0.0
  0
LINE
  5
225
330
A
100
AcDbEntity
  8
11
  6
Continuous
 62
    92
100
AcDbLine
 10
299.770040744475
 20
470.04016133835
 30
0.0
 11
299.7102094391
 21
469.7423340164751
 31
0.0
  0
LINE
  5
226
330
A
100
AcDbEntity
  8
11
  6
Continuous
 62
    92
100
AcDbLine
 10
299.7102094391
 20
469.7423340164751
 30
0.0
 11
299.6453058884751
 21
469.4432100321
 31
0.0
  0
LINE
  5
227
330
A
100
AcDbEntity
  8
11
  6
Continuous
 62
    92
100
AcDbLine
 10
299.6453058884751
 20
469.4432100321
 30
0.0
 11
299.575352322975
 21
469.1428760227249
 31
0.0
  0
LINE
  5
228
330
A
100
AcDbEntity
  8
11
  6
Continuous
 62
    92
100
AcDbLine
 10
299.575352322975
 20
469.1428760227249
 30
0.0
 11
299.5003738402251
 21
468.8414192199751
 31
0.0
  0
LINE
  5
229
330
A
100
AcDbEntity
  8
11
  6
Continuous
 62
    92
100
AcDbLine
 10
299.5003738402251
 20
468.8414192199751
 30
0.0
 11
299.4173359507251
 21
468.522622291975
 31
0.0
  0
LINE
  5
22A
330
A
100
AcDbEntity
  8
11
  6
Continuous
 62
    92
100
AcDbLine
 10
299.4173359507251
 20
468.522622291975
 30
0.0
 11
299.3398265471
 21
468.23528731285
 31
0.0
  0
LINE
  5
22B
330
A
100
AcDbEntity
  8
11
  6
Continuous
 62
    92
100
AcDbLine
 10
299.3398265471
 20
468.23528731285
 30
0.0
 11
299.266833231225
 21
467.975260006975
 31
0.0
  0
LINE
  5
22C
330
A
100
AcDbEntity
  8
11
  6
Continuous
 62
    92
100
AcDbLine
 10
299.266833231225
 20
467.975260006975
 30
0.0
 11
299.1974796283501
 21
467.7391267688499
 31
0.0
  0
LINE
  5
22D
330
A
100
AcDbEntity
  8
11
  6
Continuous
 62
    92
100
AcDbLine
 10
299.1974796283501
 20
467.7391267688499
 30
0.0
 11
299.1309891819751
 21
467.5240645192251
 31
0.0
  0
LINE
  5
22E
330
A
100
AcDbEntity
  8
11
  6
Continuous
 62
    92
100
AcDbLine
 10
299.1309891819751
 20
467.5240645192251
 30
0.0
 11
299.0666556431
 21
467.3277275074749
 31
0.0
  0
LINE
  5
22F
330
A
100
AcDbEntity
  8
11
  6
Continuous
 62
    92
100
AcDbLine
 10
299.0666556431
 20
467.3277275074749
 30
0.0
 11
299.0038178522251
 21
467.14816142585
 31
0.0
  0
LINE
  5
230
330
A
100
AcDbEntity
  8
11
  6
Continuous
 62
    92
100
AcDbLine
 10
299.0038178522251
 20
467.14816142585
 30
0.0
 11
298.94183689735
 21
466.9837381603499
 31
0.0
  0
LINE
  5
231
330
A
100
AcDbEntity
  8
11
  6
Continuous
 62
    92
100
AcDbLine
 10
298.94183689735
 20
466.9837381603499
 30
0.0
 11
298.8800739721001
 21
466.833106560725
 31
0.0
  0
LINE
  5
232
330
A
100
AcDbEntity
  8
11
  6
Continuous
 62
    92
100
AcDbLine
 10
298.8800739721001
 20
466.833106560725
 30
0.0
 11
298.817867278975
 21
466.695156097475
 31
0.0
  0
LINE
  5
233
330
A
100
AcDbEntity
  8
11
  6
Continuous
 62
    92
100
AcDbLine
 10
298.817867278975
 20
466.695156097475
 30
0.0
 11
298.7462270988501
 21
466.5526919956
 31
0.0
  0
LINE
  5
234
330
A
100
AcDbEntity
  8
11
  6
Continuous
 62
    92
100
AcDbLine
 10
298.7462270988501
 20
466.5526919956
 30
0.0
 11
298.66374419585
 21
466.402414200225
 31
0.0
  0
LINE
  5
235
330
A
100
AcDbEntity
  8
11
  6
Continuous
 62
    92
100
AcDbLine
 10
298.66374419585
 20
466.402414200225
 30
0.0
 11
298.5699602937251
 21
466.243057684975
 31
0.0
  0
LINE
  5
236
330
A
100
AcDbEntity
  8
11
  6
Continuous
 62
    92
100
AcDbLine
 10
298.5699602937251
 20
466.243057684975
 30
0.0
 11
298.4642044846001
 21
466.0732233341001
 31
0.0
  0
LINE
  5
237
330
A
100
AcDbEntity
  8
11
  6
Continuous
 62
    92
100
AcDbLine
 10
298.4642044846001
 20
466.0732233341001
 30
0.0
 11
298.3455794284751
 21
465.8913359863499
 31
0.0
  0
LINE
  5
238
330
A
100
AcDbEntity
  8
11
  6
Continuous
 62
    92
100
AcDbLine
 10
298.3455794284751
 20
465.8913359863499
 30
0.0
 11
298.2129365246001
 21
465.6955951861
 31
0.0
  0
LINE
  5
239
330
A
100
AcDbEntity
  8
11
  6
Continuous
 62
    92
100
AcDbLine
 10
298.2129365246001
 20
465.6955951861
 30
0.0
 11
298.064838667475
 21
465.4839153565999
 31
0.0
  0
LINE
  5
23A
330
A
100
AcDbEntity
  8
11
  6
Continuous
 62
    92
100
AcDbLine
 10
298.064838667475
 20
465.4839153565999
 30
0.0
 11
297.8995080287251
 21
465.2538511743499
 31
0.0
  0
LINE
  5
23B
330
A
100
AcDbEntity
  8
11
  6
Continuous
 62
    92
100
AcDbLine
 10
297.8995080287251
 20
465.2538511743499
 30
0.0
 11
297.71475484285
 21
465.0025024780999
 31
0.0
  0
LINE
  5
23C
330
A
100
AcDbEntity
  8
11
  6
Continuous
 62
    92
100
AcDbLine
 10
297.71475484285
 20
465.0025024780999
 30
0.0
 11
297.507881164475
 21
464.7263908385999
 31
0.0
  0
LINE
  5
23D
330
A
100
AcDbEntity
  8
11
  6
Continuous
 62
    92
100
AcDbLine
 10
295.58912658685
 20
461.62767410285
 30
0.0
 11
295.5137881318501
 21
461.4767988327249
 31
0.0
  0
LINE
  5
23E
330
A
100
AcDbEntity
  8
11
  6
Continuous
 62
    92
100
AcDbLine
 10
295.5137881318501
 20
461.4767988327249
 30
0.0
 11
295.4427673206001
 21
461.33646574435
 31
0.0
  0
LINE
  5
23F
330
A
100
AcDbEntity
  8
11
  6
Continuous
 62
    92
100
AcDbLine
 10
295.4427673206001
 20
461.33646574435
 30
0.0
 11
295.3755843471001
 21
461.2056875648501
 31
0.0
  0
LINE
  5
240
330
A
100
AcDbEntity
  8
11
  6
Continuous
 62
    92
100
AcDbLine
 10
295.3755843471001
 20
461.2056875648501
 30
0.0
 11
295.3118127061001
 21
461.083605115725
 31
0.0
  0
LINE
  5
241
330
A
100
AcDbEntity
  8
11
  6
Continuous
 62
    92
100
AcDbLine
 10
295.3118127061001
 20
461.083605115725
 30
0.0
 11
295.2510700696001
 21
460.96946845535
 31
0.0
  0
LINE
  5
242
330
A
100
AcDbEntity
  8
11
  6
Continuous
 62
    92
100
AcDbLine
 10
295.2510700696001
 20
460.96946845535
 30
0.0
 11
295.1930105943501
 21
460.8626214759749
 31
0.0
  0
LINE
  5
243
330
A
100
AcDbEntity
  8
11
  6
Continuous
 62
    92
100
AcDbLine
 10
295.1930105943501
 20
460.8626214759749
 30
0.0
 11
295.1373183304752
 21
460.7624892847249
 31
0.0
  0
LINE
  5
244
330
A
100
AcDbEntity
  8
11
  6
Continuous
 62
    92
100
AcDbLine
 10
295.1373183304752
 20
460.7624892847249
 30
0.0
 11
295.0837014667251
 21
460.668567857975
 31
0.0
  0
LINE
  5
245
330
A
100
AcDbEntity
  8
11
  6
Continuous
 62
    92
100
AcDbLine
 10
295.0837014667251
 20
460.668567857975
 30
0.0
 11
295.0318871911001
 21
460.5804155749749
 31
0.0
  0
LINE
  5
246
330
A
100
AcDbEntity
  8
11
  6
Continuous
 62
    92
100
AcDbLine
 10
295.0318871911001
 20
460.5804155749749
 30
0.0
 11
294.981616973725
 21
460.49764633185
 31
0.0
  0
LINE
  5
247
330
A
100
AcDbEntity
  8
11
  6
Continuous
 62
    92
100
AcDbLine
 10
293.5278739928501
 20
413.570156097475
 30
0.0
 11
293.5278739928501
 21
458.6501502991
 31
0.0
  0
LINE
  5
248
330
A
100
AcDbEntity
  8
11
  6
Continuous
 62
    92
100
AcDbLine
 10
329.7778930663501
 20
412.945156097475
 30
0.0
 11
329.7778930663501
 21
453.5838890076
 31
0.0
  0
LINE
  5
249
330
A
100
AcDbEntity
  8
11
  6
Continuous
 62
    92
100
AcDbLine
 10
329.7778930663501
 20
453.5838890076
 30
0.0
 11
329.7778930663501
 21
482.320156097475
 31
0.0
  0
LINE
  5
24A
330
A
100
AcDbEntity
  8
11
  6
Continuous
 62
    92
100
AcDbLine
 10
308.5278930663501
 20
482.320156097475
 30
0.0
 11
308.5278930663501
 21
452.3001289367249
 31
0.0
  0
LINE
  5
24B
330
A
100
AcDbEntity
  8
11
  6
Continuous
 62
    92
100
AcDbLine
 10
351.02789306635
 20
451.1589241028501
 30
0.0
 11
351.02789306635
 21
482.320156097475
 31
0.0
  0
LINE
  5
24C
330
A
100
AcDbEntity
  8
11
  6
Continuous
 62
    92
100
AcDbLine
 10
297.27787399285
 20
424.7376441955999
 30
0.0
 11
308.5278930663501
 21
424.7376441955999
 31
0.0
  0
LINE
  5
24D
330
A
100
AcDbEntity
  8
11
  6
Continuous
 62
    92
100
AcDbLine
 10
351.02789306635
 20
421.6126441955999
 30
0.0
 11
359.77789306635
 21
421.6126441955999
 31
0.0
  0
LINE
  5
24E
330
A
100
AcDbEntity
  8
11
  6
Continuous
 62
    92
100
AcDbLine
 10
308.5278930663501
 20
409.820156097475
 30
0.0
 11
308.5278930663501
 21
452.2213935852249
 31
0.0
  0
LINE
  5
24F
330
A
100
AcDbEntity
  8
11
  6
Continuous
 62
    92
100
AcDbLine
 10
311.179107665975
 20
454.71639633185
 30
0.0
 11
329.7778930663501
 21
453.582630157475
 31
0.0
  0
LINE
  5
250
330
A
100
AcDbEntity
  8
11
  6
Continuous
 62
    92
100
AcDbLine
 10
329.7778930663501
 20
453.582630157475
 30
0.0
 11
348.5278930663501
 21
453.582630157475
 31
0.0
  0
LINE
  5
251
330
A
100
AcDbEntity
  8
11
  6
Continuous
 62
    92
100
AcDbLine
 10
351.0281600951001
 20
451.0838890076
 30
0.0
 11
351.0281600951001
 21
412.945156097475
 31
0.0
  0
LINE
  5
252
330
A
100
AcDbEntity
  8
11
  6
Continuous
 62
    92
100
AcDbLine
 10
353.5291137694751
 20
410.445423126225
 30
0.0
 11
359.77789306635
 21
410.445423126225
 31
0.0
  0
LINE
  5
253
330
A
100
AcDbEntity
  8
11
  6
Continuous
 62
    92
100
AcDbLine
 10
359.77789306635
 20
482.320156097475
 30
0.0
 11
359.77789306635
 21
410.445156097475
 31
0.0
  0
LINE
  5
254
330
A
100
AcDbEntity
  8
11
  6
Continuous
 62
    92
100
AcDbLine
 10
359.77789306635
 20
410.445156097475
 30
0.0
 11
352.0628967284751
 21
410.445156097475
 31
0.0
  0
LINE
  5
255
330
A
100
AcDbEntity
  8
11
  6
Continuous
 62
    92
100
AcDbLine
 10
350.29539489735
 20
411.1776542663499
 30
0.0
 11
349.2603912352251
 21
412.212619781475
 31
0.0
  0
LINE
  5
256
330
A
100
AcDbEntity
  8
11
  6
Continuous
 62
    92
100
AcDbLine
 10
347.4928894042251
 20
412.94534683235
 30
0.0
 11
329.7778930663501
 21
412.94534683235
 31
0.0
  0
LINE
  5
257
330
A
100
AcDbEntity
  8
11
  6
Continuous
 62
    92
100
AcDbLine
 10
329.7778930663501
 20
412.94534683235
 30
0.0
 11
311.3916244506001
 21
415.64889907835
 31
0.0
  0
LINE
  5
258
330
A
100
AcDbEntity
  8
11
  6
Continuous
 62
    92
100
AcDbLine
 10
308.5270729063501
 20
413.1751441956
 30
0.0
 11
308.5270729063501
 21
409.820156097475
 31
0.0
  0
LINE
  5
259
330
A
100
AcDbEntity
  8
11
  6
Continuous
 62
    92
100
AcDbLine
 10
306.02789306635
 20
407.3200416564749
 30
0.0
 11
297.27787399285
 21
407.3200416564749
 31
0.0
  0
LINE
  5
25A
330
A
100
AcDbEntity
  8
11
  6
Continuous
 62
    92
100
AcDbLine
 10
297.27787399285
 20
407.3200416564749
 30
0.0
 11
297.27787399285
 21
464.4163703918501
 31
0.0
  0
LINE
  5
25B
330
A
100
AcDbEntity
  8
11
  6
Continuous
 62
    92
100
AcDbLine
 10
297.27787399285
 20
407.320156097475
 30
0.0
 11
297.27787399285
 21
412.945156097475
 31
0.0
  0
LINE
  5
25C
330
A
100
AcDbEntity
  8
11
  6
Continuous
 62
    92
100
AcDbLine
 10
296.6528739928501
 20
413.5690498352249
 30
0.0
 11
293.5278739928501
 21
413.5690498352249
 31
0.0
  0
LINE
  5
25D
330
A
100
AcDbEntity
  8
11
  6
Continuous
 62
    92
100
AcDbLine
 10
293.5278739928501
 20
413.5690498352249
 30
0.0
 11
292.9028739928501
 21
413.73765945435
 31
0.0
  0
LINE
  5
25E
330
A
100
AcDbEntity
  8
11
  6
Continuous
 62
    92
100
AcDbLine
 10
292.9028739928501
 20
413.73765945435
 30
0.0
 11
292.9028739928501
 21
458.0651283264749
 31
0.0
  0
LINE
  5
25F
330
A
100
AcDbEntity
  8
11
  6
CENTERX2
 62
    92
100
AcDbLine
 10
340.7416381834751
 20
427.518901824975
 30
0.0
 11
359.0278854369751
 21
427.518901824975
 31
0.0
  0
LINE
  5
260
330
A
100
AcDbEntity
  8
11
  6
Continuous
 62
    92
100
AcDbLine
 10
349.77789306635
 20
422.2064018249749
 30
0.0
 11
343.52789306635
 21
422.2064018249749
 31
0.0
  0
LINE
  5
261
330
A
100
AcDbEntity
  8
11
  6
Continuous
 62
    92
100
AcDbLine
 10
343.52789306635
 20
422.2064018249749
 30
0.0
 11
343.52789306635
 21
432.8314018249749
 31
0.0
  0
LINE
  5
262
330
A
100
AcDbEntity
  8
11
  6
Continuous
 62
    92
100
AcDbLine
 10
343.52789306635
 20
432.8314018249749
 30
0.0
 11
349.77789306635
 21
432.8314018249749
 31
0.0
  0
LINE
  5
263
330
A
100
AcDbEntity
  8
11
  6
Continuous
 62
    92
100
AcDbLine
 10
349.77789306635
 20
432.8314018249749
 30
0.0
 11
349.77789306635
 21
422.2064018249749
 31
0.0
  0
LINE
  5
264
330
A
100
AcDbEntity
  8
11
  6
Continuous
 62
    92
100
AcDbLine
 10
349.77789306635
 20
421.581401824975
 30
0.0
 11
349.77789306635
 21
433.4564018249749
 31
0.0
  0
LINE
  5
265
330
A
100
AcDbEntity
  8
11
  6
Continuous
 62
    92
100
AcDbLine
 10
349.77789306635
 20
433.4564018249749
 30
0.0
 11
351.02789306635
 21
433.4564018249749
 31
0.0
  0
LINE
  5
266
330
A
100
AcDbEntity
  8
11
  6
Continuous
 62
    92
100
AcDbLine
 10
351.02789306635
 20
433.4564018249749
 30
0.0
 11
351.02789306635
 21
421.581401824975
 31
0.0
  0
LINE
  5
267
330
A
100
AcDbEntity
  8
11
  6
Continuous
 62
    92
100
AcDbLine
 10
351.02789306635
 20
421.581401824975
 30
0.0
 11
349.77789306635
 21
421.581401824975
 31
0.0
  0
LINE
  5
268
330
A
100
AcDbEntity
  8
11
  6
Continuous
 62
    92
100
AcDbLine
 10
569.777969360225
 20
428.3201408385999
 30
0.0
 11
569.777969360225
 21
438.3201408385999
 31
0.0
  0
LINE
  5
269
330
A
100
AcDbEntity
  8
11
  6
Continuous
 62
    92
100
AcDbLine
 10
569.777969360225
 20
438.3201408385999
 30
0.0
 11
570.7779541014751
 21
438.3201408385999
 31
0.0
  0
LINE
  5
26A
330
A
100
AcDbEntity
  8
11
  6
Continuous
 62
    92
100
AcDbLine
 10
570.7779541014751
 20
438.3201408385999
 30
0.0
 11
570.7779541014751
 21
432.8314018249749
 31
0.0
  0
LINE
  5
26B
330
A
100
AcDbEntity
  8
11
  6
Continuous
 62
    92
100
AcDbLine
 10
570.7779541014751
 20
432.8314018249749
 30
0.0
 11
570.7779541014751
 21
428.3201408385999
 31
0.0
  0
LINE
  5
26C
330
A
100
AcDbEntity
  8
11
  6
Continuous
 62
    92
100
AcDbLine
 10
570.7779541014751
 20
428.3201408385999
 30
0.0
 11
569.777969360225
 21
428.3201408385999
 31
0.0
  0
LINE
  5
26D
330
A
100
AcDbEntity
  8
11
  6
Continuous
 62
    92
100
AcDbLine
 10
570.7779541014751
 20
432.8314018249749
 30
0.0
 11
570.7779541014751
 21
428.9451408385999
 31
0.0
  0
LINE
  5
26E
330
A
100
AcDbEntity
  8
11
  6
Continuous
 62
    92
100
AcDbLine
 10
571.027969360225
 20
428.9451408385999
 30
0.0
 11
575.7779541014752
 21
428.9451408385999
 31
0.0
  0
LINE
  5
26F
330
A
100
AcDbEntity
  8
11
  6
Continuous
 62
    92
100
AcDbLine
 10
575.7779541014752
 20
428.9451408385999
 30
0.0
 11
575.7779541014752
 21
437.6951408385999
 31
0.0
  0
LINE
  5
270
330
A
100
AcDbEntity
  8
11
  6
Continuous
 62
    92
100
AcDbLine
 10
575.7779541014752
 20
437.6951408385999
 30
0.0
 11
570.7779541014751
 21
437.6951408385999
 31
0.0
  0
LINE
  5
271
330
A
100
AcDbEntity
  8
11
  6
Continuous
 62
    92
100
AcDbLine
 10
570.7779541014751
 20
437.6951408385999
 30
0.0
 11
570.7779541014751
 21
432.8314018249749
 31
0.0
  0
LINE
  5
272
330
A
100
AcDbEntity
  8
10
  6
CENTERX2
 62
    92
100
AcDbLine
 10
577.4054565428501
 20
433.3201408385999
 30
0.0
 11
558.804191589225
 21
433.3201408385999
 31
0.0
  0
LINE
  5
273
330
A
100
AcDbEntity
  8
11
  6
Continuous
 62
    92
100
AcDbLine
 10
628.527969360225
 20
453.717670440725
 30
0.0
 11
634.777969360225
 21
456.3064002991
 31
0.0
  0
LINE
  5
274
330
A
100
AcDbEntity
  8
11
  6
Continuous
 62
    92
100
AcDbLine
 10
628.527969360225
 20
482.320156097475
 30
0.0
 11
628.527969360225
 21
453.717670440725
 31
0.0
  0
LINE
  5
275
330
A
100
AcDbEntity
  8
11
  6
Continuous
 62
    92
100
AcDbLine
 10
628.527969360225
 20
426.070156097475
 30
0.0
 11
628.527969360225
 21
453.717670440725
 31
0.0
  0
LINE
  5
276
330
A
100
AcDbEntity
  8
11
  6
Continuous
 62
    92
100
AcDbLine
 10
628.527969360225
 20
453.717670440725
 30
0.0
 11
571.2779464721001
 21
453.717670440725
 31
0.0
  0
LINE
  5
277
330
A
100
AcDbEntity
  8
11
  6
Continuous
 62
    92
100
AcDbLine
 10
569.7769393919751
 20
452.21765518185
 30
0.0
 11
569.7769393919751
 21
451.217670440725
 31
0.0
  0
LINE
  5
278
330
A
100
AcDbEntity
  8
11
  6
Continuous
 62
    92
100
AcDbLine
 10
634.777969360225
 20
482.320156097475
 30
0.0
 11
634.777969360225
 21
433.3551216125999
 31
0.0
  0
LINE
  5
279
330
A
100
AcDbEntity
  8
11
  6
Continuous
 62
    92
100
AcDbLine
 10
634.0454711913501
 20
431.5876197814749
 30
0.0
 11
629.2604675292253
 21
426.8026542663499
 31
0.0
  0
LINE
  5
27A
330
A
100
AcDbEntity
  8
11
  6
Continuous
 62
    92
100
AcDbLine
 10
627.4916687011002
 20
426.0706901550999
 30
0.0
 11
571.027969360225
 21
426.0706901550999
 31
0.0
  0
LINE
  5
27B
330
A
100
AcDbEntity
  8
11
  6
Continuous
 62
    92
100
AcDbLine
 10
571.027969360225
 20
426.0706901550999
 30
0.0
 11
564.777969360225
 21
426.0706901550999
 31
0.0
  0
LINE
  5
27C
330
A
100
AcDbEntity
  8
11
  6
Continuous
 62
    92
100
AcDbLine
 10
564.777969360225
 20
426.0706901550999
 30
0.0
 11
564.777969360225
 21
482.320156097475
 31
0.0
  0
LINE
  5
27D
330
A
100
AcDbEntity
  8
11
  6
Continuous
 62
    92
100
AcDbLine
 10
569.777969360225
 20
451.217670440725
 30
0.0
 11
569.777969360225
 21
432.8314018249749
 31
0.0
  0
LINE
  5
27E
330
A
100
AcDbEntity
  8
11
  6
Continuous
 62
    92
100
AcDbLine
 10
569.777969360225
 20
432.8314018249749
 30
0.0
 11
569.777969360225
 21
426.070156097475
 31
0.0
  0
LINE
  5
27F
330
A
100
AcDbEntity
  8
11
  6
Continuous
 62
    92
100
AcDbLine
 10
564.777969360225
 20
432.936420440725
 30
0.0
 11
569.777969360225
 21
432.936420440725
 31
0.0
  0
LINE
  5
280
330
A
100
AcDbEntity
  8
11
  6
CENTERX2
 62
    92
100
AcDbLine
 10
227.92656326285
 20
482.320156097475
 30
0.0
 11
369.7315063476001
 21
482.320156097475
 31
0.0
  0
LINE
  5
281
330
A
100
AcDbEntity
  8
11
  6
CENTERX2
 62
    92
100
AcDbLine
 10
440.1450195311001
 20
482.320156097475
 30
0.0
 11
455.98249816885
 21
482.320156097475
 31
0.0
  0
LINE
  5
282
330
A
100
AcDbEntity
  8
11
  6
CENTERX2
 62
    92
100
AcDbLine
 10
477.6435699462251
 20
482.320156097475
 30
0.0
 11
638.100494384725
 21
482.320156097475
 31
0.0
  0
LINE
  5
283
330
A
100
AcDbEntity
  8
4
 62
    92
100
AcDbLine
 10
170.0566139219751
 20
551.0706901550999
 30
0.0
 11
169.0566139219751
 21
548.0706901551001
 31
0.0
  0
LINE
  5
284
330
A
100
AcDbEntity
  8
4
 62
    92
100
AcDbLine
 10
169.0566139219751
 20
548.0706901551001
 30
0.0
 11
171.0566139219751
 21
548.0706901551001
 31
0.0
  0
LINE
  5
285
330
A
100
AcDbEntity
  8
4
 62
    92
100
AcDbLine
 10
171.0566139219751
 20
548.0706901551001
 30
0.0
 11
170.0566139219751
 21
551.0706901550999
 31
0.0
  0
LINE
  5
286
330
A
100
AcDbEntity
  8
4
  6
Continuous
 62
    92
100
AcDbLine
 10
170.0566139219751
 20
551.0706901550999
 30
0.0
 11
170.0566139219751
 21
413.5690498352249
 31
0.0
  0
LINE
  5
287
330
A
100
AcDbEntity
  8
4
 62
    92
100
AcDbLine
 10
170.0566139219751
 20
413.5690498352249
 30
0.0
 11
171.0566139219751
 21
416.5690498352249
 31
0.0
  0
LINE
  5
288
330
A
100
AcDbEntity
  8
4
 62
    92
100
AcDbLine
 10
171.0566139219751
 20
416.5690498352249
 30
0.0
 11
169.0566139219751
 21
416.5690498352249
 31
0.0
  0
LINE
  5
289
330
A
100
AcDbEntity
  8
4
 62
    92
100
AcDbLine
 10
169.0566139219751
 20
416.5690498352249
 30
0.0
 11
170.0566139219751
 21
413.5690498352249
 31
0.0
  0
LINE
  5
28A
330
A
100
AcDbEntity
  8
4
  6
Continuous
 62
    92
100
AcDbLine
 10
293.5289230346
 20
551.0706901550999
 30
0.0
 11
170.0566139219751
 21
551.0706901550999
 31
0.0
  0
LINE
  5
28B
330
A
100
AcDbEntity
  8
4
  6
Continuous
 62
    92
100
AcDbLine
 10
293.5289230346
 20
413.5690498352249
 30
0.0
 11
170.0566139219751
 21
413.5690498352249
 31
0.0
  0
LINE
  5
28C
330
A
100
AcDbEntity
  8
11
  6
Continuous
 62
    92
100
AcDbLine
 10
544.778999328475
 20
543.0276679992251
 30
0.0
 11
563.528999328475
 21
543.0276679992251
 31
0.0
  0
LINE
  5
28D
330
A
100
AcDbEntity
  8
11
  6
Continuous
 62
    92
100
AcDbLine
 10
563.528999328475
 20
482.320156097475
 30
0.0
 11
563.528999328475
 21
554.1951560974751
 31
0.0
  0
LINE
  5
28E
330
A
100
AcDbEntity
  8
11
  6
Continuous
 62
    92
100
AcDbLine
 10
563.528999328475
 20
554.1951560974751
 30
0.0
 11
544.778999328475
 21
554.1951560974751
 31
0.0
  0
LINE
  5
28F
330
A
100
AcDbEntity
  8
11
  6
Continuous
 62
    92
100
AcDbLine
 10
544.778999328475
 20
554.1951560974751
 30
0.0
 11
544.778999328475
 21
482.320156097475
 31
0.0
  0
LINE
  5
290
330
A
100
AcDbEntity
  8
11
  6
Continuous
 62
    92
100
AcDbLine
 10
299.8489227293502
 20
488.1514549256
 30
0.0
 11
299.9113940487251
 21
489.487872845725
 31
0.0
  0
LINE
  5
291
330
A
100
AcDbEntity
  8
11
  6
Continuous
 62
    92
100
AcDbLine
 10
299.9113940487251
 20
489.487872845725
 30
0.0
 11
299.9518122326001
 21
490.3692428724749
 31
0.0
  0
LINE
  5
292
330
A
100
AcDbEntity
  8
11
  6
Continuous
 62
    92
100
AcDbLine
 10
299.9518122326001
 20
490.3692428724749
 30
0.0
 11
299.979617351475
 21
490.9941556906001
 31
0.0
  0
LINE
  5
293
330
A
100
AcDbEntity
  8
11
  6
Continuous
 62
    92
100
AcDbLine
 10
299.979617351475
 20
490.9941556906001
 30
0.0
 11
299.9993886536001
 21
491.4603160651
 31
0.0
  0
LINE
  5
294
330
A
100
AcDbEntity
  8
11
  6
Continuous
 62
    92
100
AcDbLine
 10
299.9993886536001
 20
491.4603160651
 30
0.0
 11
300.0135507408501
 21
491.821385581225
 31
0.0
  0
LINE
  5
295
330
A
100
AcDbEntity
  8
11
  6
Continuous
 62
    92
100
AcDbLine
 10
300.0135507408501
 20
491.821385581225
 30
0.0
 11
300.02341297635
 21
492.10928396135
 31
0.0
  0
LINE
  5
296
330
A
100
AcDbEntity
  8
11
  6
Continuous
 62
    92
100
AcDbLine
 10
300.02341297635
 20
492.10928396135
 30
0.0
 11
300.0295944262251
 21
492.344184052725
 31
0.0
  0
LINE
  5
297
330
A
100
AcDbEntity
  8
11
  6
Continuous
 62
    92
100
AcDbLine
 10
300.0295944262251
 20
492.344184052725
 30
0.0
 11
300.0321518897251
 21
492.539454238725
 31
0.0
  0
LINE
  5
298
330
A
100
AcDbEntity
  8
11
  6
Continuous
 62
    92
100
AcDbLine
 10
300.0321518897251
 20
492.539454238725
 30
0.0
 11
300.0304635922251
 21
492.7042928036
 31
0.0
  0
LINE
  5
299
330
A
100
AcDbEntity
  8
11
  6
Continuous
 62
    92
100
AcDbLine
 10
300.0304635922251
 20
492.7042928036
 30
0.0
 11
300.0226821898501
 21
492.8452110291
 31
0.0
  0
LINE
  5
29A
330
A
100
AcDbEntity
  8
11
  6
Continuous
 62
    92
100
AcDbLine
 10
300.0226821898501
 20
492.8452110291
 30
0.0
 11
299.9935777609751
 21
493.133372990975
 31
0.0
  0
LINE
  5
29B
330
A
100
AcDbEntity
  8
11
  6
Continuous
 62
    92
100
AcDbLine
 10
299.9935777609751
 20
493.133372990975
 30
0.0
 11
299.959331286725
 21
493.4233586649749
 31
0.0
  0
LINE
  5
29C
330
A
100
AcDbEntity
  8
11
  6
Continuous
 62
    92
100
AcDbLine
 10
299.959331286725
 20
493.4233586649749
 30
0.0
 11
299.9199474257251
 21
493.7150867429751
 31
0.0
  0
LINE
  5
29D
330
A
100
AcDbEntity
  8
11
  6
Continuous
 62
    92
100
AcDbLine
 10
299.9199474257251
 20
493.7150867429751
 30
0.0
 11
299.8754337881
 21
494.0084748243499
 31
0.0
  0
LINE
  5
29E
330
A
100
AcDbEntity
  8
11
  6
Continuous
 62
    92
100
AcDbLine
 10
299.8754337881
 20
494.0084748243499
 30
0.0
 11
299.8258009318501
 21
494.3034394934749
 31
0.0
  0
LINE
  5
29F
330
A
100
AcDbEntity
  8
11
  6
Continuous
 62
    92
100
AcDbLine
 10
299.8258009318501
 20
494.3034394934749
 30
0.0
 11
299.7710623546002
 21
494.5998963987249
 31
0.0
  0
LINE
  5
2A0
330
A
100
AcDbEntity
  8
11
  6
Continuous
 62
    92
100
AcDbLine
 10
299.7710623546002
 20
494.5998963987249
 30
0.0
 11
299.7112344816
 21
494.8977603328499
 31
0.0
  0
LINE
  5
2A1
330
A
100
AcDbEntity
  8
11
  6
Continuous
 62
    92
100
AcDbLine
 10
299.7112344816
 20
494.8977603328499
 30
0.0
 11
299.6463366493501
 21
495.1969453144749
 31
0.0
  0
LINE
  5
2A2
330
A
100
AcDbEntity
  8
11
  6
Continuous
 62
    92
100
AcDbLine
 10
299.6463366493501
 20
495.1969453144749
 30
0.0
 11
299.5763910851001
 21
495.497364670975
 31
0.0
  0
LINE
  5
2A3
330
A
100
AcDbEntity
  8
11
  6
Continuous
 62
    92
100
AcDbLine
 10
299.5763910851001
 20
495.497364670975
 30
0.0
 11
299.5014228819751
 21
495.79893112185
 31
0.0
  0
LINE
  5
2A4
330
A
100
AcDbEntity
  8
11
  6
Continuous
 62
    92
100
AcDbLine
 10
299.5014228819751
 20
495.79893112185
 30
0.0
 11
299.4183115066
 21
496.1177575193499
 31
0.0
  0
LINE
  5
2A5
330
A
100
AcDbEntity
  8
11
  6
Continuous
 62
    92
100
AcDbLine
 10
299.4183115066
 20
496.1177575193499
 30
0.0
 11
299.3407469662252
 21
496.4051147746
 31
0.0
  0
LINE
  5
2A6
330
A
100
AcDbEntity
  8
11
  6
Continuous
 62
    92
100
AcDbLine
 10
299.3407469662252
 20
496.4051147746
 30
0.0
 11
299.26771561535
 21
496.6651576593499
 31
0.0
  0
LINE
  5
2A7
330
A
100
AcDbEntity
  8
11
  6
Continuous
 62
    92
100
AcDbLine
 10
299.26771561535
 20
496.6651576593499
 30
0.0
 11
299.198340239225
 21
496.9013001153499
 31
0.0
  0
LINE
  5
2A8
330
A
100
AcDbEntity
  8
11
  6
Continuous
 62
    92
100
AcDbLine
 10
299.198340239225
 20
496.9013001153499
 30
0.0
 11
299.1318438017251
 21
497.1163654162249
 31
0.0
  0
LINE
  5
2A9
330
A
100
AcDbEntity
  8
11
  6
Continuous
 62
    92
100
AcDbLine
 10
299.1318438017251
 20
497.1163654162249
 30
0.0
 11
299.067519909975
 21
497.3126993765999
 31
0.0
  0
LINE
  5
2AA
330
A
100
AcDbEntity
  8
11
  6
Continuous
 62
    92
100
AcDbLine
 10
299.067519909975
 20
497.3126993765999
 30
0.0
 11
299.004707586725
 21
497.4922562404749
 31
0.0
  0
LINE
  5
2AB
330
A
100
AcDbEntity
  8
11
  6
Continuous
 62
    92
100
AcDbLine
 10
299.004707586725
 20
497.4922562404749
 30
0.0
 11
298.9427684388502
 21
497.6566639270999
 31
0.0
  0
LINE
  5
2AC
330
A
100
AcDbEntity
  8
11
  6
Continuous
 62
    92
100
AcDbLine
 10
298.9427684388502
 20
497.6566639270999
 30
0.0
 11
298.8810645423501
 21
497.8072732505999
 31
0.0
  0
LINE
  5
2AD
330
A
100
AcDbEntity
  8
11
  6
Continuous
 62
    92
100
AcDbLine
 10
298.8810645423501
 20
497.8072732505999
 30
0.0
 11
298.818935394225
 21
497.9451942443499
 31
0.0
  0
LINE
  5
2AE
330
A
100
AcDbEntity
  8
11
  6
Continuous
 62
    92
100
AcDbLine
 10
298.818935394225
 20
497.9451942443499
 30
0.0
 11
298.747298705975
 21
498.0875258760999
 31
0.0
  0
LINE
  5
2AF
330
A
100
AcDbEntity
  8
11
  6
Continuous
 62
    92
100
AcDbLine
 10
298.747298705975
 20
498.0875258760999
 30
0.0
 11
298.6648180318501
 21
498.2377034912249
 31
0.0
  0
LINE
  5
2B0
330
A
100
AcDbEntity
  8
11
  6
Continuous
 62
    92
100
AcDbLine
 10
298.6648180318501
 20
498.2377034912249
 30
0.0
 11
298.5710351634751
 21
498.3969899215999
 31
0.0
  0
LINE
  5
2B1
330
A
100
AcDbEntity
  8
11
  6
Continuous
 62
    92
100
AcDbLine
 10
298.5710351634751
 20
498.3969899215999
 30
0.0
 11
298.4652792346001
 21
498.566782795725
 31
0.0
  0
LINE
  5
2B2
330
A
100
AcDbEntity
  8
11
  6
Continuous
 62
    92
100
AcDbLine
 10
298.4652792346001
 20
498.566782795725
 30
0.0
 11
298.346652921225
 21
498.7486564122248
 31
0.0
  0
LINE
  5
2B3
330
A
100
AcDbEntity
  8
11
  6
Continuous
 62
    92
100
AcDbLine
 10
298.346652921225
 20
498.7486564122248
 30
0.0
 11
298.2140076159751
 21
498.9444109437251
 31
0.0
  0
LINE
  5
2B4
330
A
100
AcDbEntity
  8
11
  6
Continuous
 62
    92
100
AcDbLine
 10
298.2140076159751
 20
498.9444109437251
 30
0.0
 11
298.0659061826001
 21
499.1561322501
 31
0.0
  0
LINE
  5
2B5
330
A
100
AcDbEntity
  8
11
  6
Continuous
 62
    92
100
AcDbLine
 10
298.0659061826001
 20
499.1561322501
 30
0.0
 11
297.9005707373501
 21
499.3862665171
 31
0.0
  0
LINE
  5
2B6
330
A
100
AcDbEntity
  8
11
  6
Continuous
 62
    92
100
AcDbLine
 10
297.9005707373501
 20
499.3862665171
 30
0.0
 11
297.7158114318502
 21
499.637715393725
 31
0.0
  0
LINE
  5
2B7
330
A
100
AcDbEntity
  8
11
  6
Continuous
 62
    92
100
AcDbLine
 10
297.7158114318502
 20
499.637715393725
 30
0.0
 11
297.5089302062251
 21
499.9139595032251
 31
0.0
  0
LINE
  5
2B8
330
A
100
AcDbEntity
  8
11
  6
Continuous
 62
    92
100
AcDbLine
 10
295.5901756286
 20
503.0126762389751
 30
0.0
 11
295.5147553588501
 21
503.163494462975
 31
0.0
  0
LINE
  5
2B9
330
A
100
AcDbEntity
  8
11
  6
Continuous
 62
    92
100
AcDbLine
 10
295.5147553588501
 20
503.163494462975
 30
0.0
 11
295.4436722811001
 21
503.303783844225
 31
0.0
  0
LINE
  5
2BA
330
A
100
AcDbEntity
  8
11
  6
Continuous
 62
    92
100
AcDbLine
 10
295.4436722811001
 20
503.303783844225
 30
0.0
 11
295.3764458613501
 21
503.4345311521001
 31
0.0
  0
LINE
  5
2BB
330
A
100
AcDbEntity
  8
11
  6
Continuous
 62
    92
100
AcDbLine
 10
295.3764458613501
 20
503.4345311521001
 30
0.0
 11
295.3126490916001
 21
503.556595215475
 31
0.0
  0
LINE
  5
2BC
330
A
100
AcDbEntity
  8
11
  6
Continuous
 62
    92
100
AcDbLine
 10
295.3126490916001
 20
503.556595215475
 30
0.0
 11
295.2518993521
 21
503.670725769975
 31
0.0
  0
LINE
  5
2BD
330
A
100
AcDbEntity
  8
11
  6
Continuous
 62
    92
100
AcDbLine
 10
295.2518993521
 20
503.670725769975
 30
0.0
 11
295.1938507098501
 21
503.7775788553499
 31
0.0
  0
LINE
  5
2BE
330
A
100
AcDbEntity
  8
11
  6
Continuous
 62
    92
100
AcDbLine
 10
295.1938507098501
 20
503.7775788553499
 30
0.0
 11
295.1381873253501
 21
503.8777294323499
 31
0.0
  0
LINE
  5
2BF
330
A
100
AcDbEntity
  8
11
  6
Continuous
 62
    92
100
AcDbLine
 10
295.1381873253501
 20
503.8777294323499
 30
0.0
 11
295.084617700475
 21
503.9716817305999
 31
0.0
  0
LINE
  5
2C0
330
A
100
AcDbEntity
  8
11
  6
Continuous
 62
    92
100
AcDbLine
 10
295.084617700475
 20
503.9716817305999
 30
0.0
 11
295.0328695478501
 21
504.0598777206001
 31
0.0
  0
LINE
  5
2C1
330
A
100
AcDbEntity
  8
11
  6
Continuous
 62
    92
100
AcDbLine
 10
295.0328695478501
 20
504.0598777206001
 30
0.0
 11
294.9826850889751
 21
504.1427040099748
 31
0.0
  0
LINE
  5
2C2
330
A
100
AcDbEntity
  8
11
  6
Continuous
 62
    92
100
AcDbLine
 10
293.5289230346
 20
551.07019424435
 30
0.0
 11
293.5289230346
 21
505.990200042725
 31
0.0
  0
LINE
  5
2C3
330
A
100
AcDbEntity
  8
11
  6
Continuous
 62
    92
100
AcDbLine
 10
329.7789230346001
 20
551.6951942443499
 30
0.0
 11
329.7789230346001
 21
511.0564613342249
 31
0.0
  0
LINE
  5
2C4
330
A
100
AcDbEntity
  8
11
  6
Continuous
 62
    92
100
AcDbLine
 10
329.7789230346001
 20
511.0564613342249
 30
0.0
 11
329.7789230346001
 21
482.3201942443499
 31
0.0
  0
LINE
  5
2C5
330
A
100
AcDbEntity
  8
11
  6
Continuous
 62
    92
100
AcDbLine
 10
308.5289230346
 20
482.3201942443499
 30
0.0
 11
308.5289230346
 21
512.3401832581
 31
0.0
  0
LINE
  5
2C6
330
A
100
AcDbEntity
  8
11
  6
Continuous
 62
    92
100
AcDbLine
 10
351.0289230346001
 20
513.4814262389751
 30
0.0
 11
351.0289230346001
 21
482.3201942443499
 31
0.0
  0
LINE
  5
2C7
330
A
100
AcDbEntity
  8
11
  6
Continuous
 62
    92
100
AcDbLine
 10
297.2789230346
 20
539.9027061462249
 30
0.0
 11
308.5289230346
 21
539.9027061462249
 31
0.0
  0
LINE
  5
2C8
330
A
100
AcDbEntity
  8
11
  6
Continuous
 62
    92
100
AcDbLine
 10
351.0289230346001
 20
543.0277061462249
 30
0.0
 11
359.7789230346001
 21
543.0277061462249
 31
0.0
  0
LINE
  5
2C9
330
A
100
AcDbEntity
  8
11
  6
Continuous
 62
    92
100
AcDbLine
 10
308.5289230346
 20
554.8201942443499
 30
0.0
 11
308.5289230346
 21
512.4189567565999
 31
0.0
  0
LINE
  5
2CA
330
A
100
AcDbEntity
  8
11
  6
Continuous
 62
    92
100
AcDbLine
 10
311.1801757811001
 20
509.9239540099749
 30
0.0
 11
329.7789230346001
 21
511.0576820373499
 31
0.0
  0
LINE
  5
2CB
330
A
100
AcDbEntity
  8
11
  6
Continuous
 62
    92
100
AcDbLine
 10
329.7789230346001
 20
511.0576820373499
 30
0.0
 11
348.5289230346001
 21
511.0576820373499
 31
0.0
  0
LINE
  5
2CC
330
A
100
AcDbEntity
  8
11
  6
Continuous
 62
    92
100
AcDbLine
 10
351.0286178588501
 20
513.5564613342248
 30
0.0
 11
351.0286178588501
 21
551.6951942443499
 31
0.0
  0
LINE
  5
2CD
330
A
100
AcDbEntity
  8
11
  6
Continuous
 62
    92
100
AcDbLine
 10
353.5301818847251
 20
554.1943550109752
 30
0.0
 11
359.7789230346001
 21
554.1943550109752
 31
0.0
  0
LINE
  5
2CE
330
A
100
AcDbEntity
  8
11
  6
Continuous
 62
    92
100
AcDbLine
 10
359.7789230346001
 20
482.3201942443499
 30
0.0
 11
359.7789230346001
 21
554.19519424435
 31
0.0
  0
LINE
  5
2CF
330
A
100
AcDbEntity
  8
11
  6
Continuous
 62
    92
100
AcDbLine
 10
359.7789230346001
 20
554.19519424435
 30
0.0
 11
352.0639266967251
 21
554.19519424435
 31
0.0
  0
LINE
  5
2D0
330
A
100
AcDbEntity
  8
11
  6
Continuous
 62
    92
100
AcDbLine
 10
350.2964248656001
 20
553.4626960754751
 30
0.0
 11
349.261459350475
 21
552.42769241335
 31
0.0
  0
LINE
  5
2D1
330
A
100
AcDbEntity
  8
11
  6
Continuous
 62
    92
100
AcDbLine
 10
347.493957519475
 20
551.6948509216
 30
0.0
 11
329.7789230346001
 21
551.6948509216
 31
0.0
  0
LINE
  5
2D2
330
A
100
AcDbEntity
  8
11
  6
Continuous
 62
    92
100
AcDbLine
 10
329.7789230346001
 20
551.6948509216
 30
0.0
 11
311.39265441885
 21
548.991451263475
 31
0.0
  0
LINE
  5
2D3
330
A
100
AcDbEntity
  8
11
  6
Continuous
 62
    92
100
AcDbLine
 10
308.52857971185
 20
551.465206146225
 30
0.0
 11
308.52857971185
 21
554.8201942443499
 31
0.0
  0
LINE
  5
2D4
330
A
100
AcDbEntity
  8
11
  6
Continuous
 62
    92
100
AcDbLine
 10
306.0289230346
 20
557.3197746277249
 30
0.0
 11
297.2789230346
 21
557.3197746277249
 31
0.0
  0
LINE
  5
2D5
330
A
100
AcDbEntity
  8
11
  6
Continuous
 62
    92
100
AcDbLine
 10
297.2789230346
 20
557.3197746277249
 30
0.0
 11
297.2789230346
 21
500.2239418029749
 31
0.0
  0
LINE
  5
2D6
330
A
100
AcDbEntity
  8
11
  6
Continuous
 62
    92
100
AcDbLine
 10
297.2789230346
 20
557.32019424435
 30
0.0
 11
297.2789230346
 21
551.6951942443499
 31
0.0
  0
LINE
  5
2D7
330
A
100
AcDbEntity
  8
11
  6
Continuous
 62
    92
100
AcDbLine
 10
296.6539230346
 20
551.0706901550999
 30
0.0
 11
293.5289230346
 21
551.0706901550999
 31
0.0
  0
LINE
  5
2D8
330
A
100
AcDbEntity
  8
11
  6
Continuous
 62
    92
100
AcDbLine
 10
293.5289230346
 20
551.0706901550999
 30
0.0
 11
292.9039230346
 21
550.9026908874749
 31
0.0
  0
LINE
  5
2D9
330
A
100
AcDbEntity
  8
11
  6
Continuous
 62
    92
100
AcDbLine
 10
292.9039230346
 20
550.9026908874749
 30
0.0
 11
292.9039230346
 21
506.5751838684749
 31
0.0
  0
LINE
  5
2DA
330
A
100
AcDbEntity
  8
11
  6
Continuous
 62
    92
100
AcDbLine
 10
292.9039230346
 20
506.5751838684749
 30
0.0
 11
292.9039230346
 21
497.3205757141
 31
0.0
  0
LINE
  5
2DB
330
A
100
AcDbEntity
  8
11
  6
Continuous
 62
    92
100
AcDbLine
 10
292.9039230346
 20
467.320156097475
 30
0.0
 11
292.9039230346
 21
458.0651283264749
 31
0.0
  0
LINE
  5
2DC
330
A
100
AcDbEntity
  8
11
  6
CENTERX2
 62
    92
100
AcDbLine
 10
340.7427062987251
 20
537.1214485168501
 30
0.0
 11
359.0289154052251
 21
537.1214485168501
 31
0.0
  0
LINE
  5
2DD
330
A
100
AcDbEntity
  8
11
  6
Continuous
 62
    92
100
AcDbLine
 10
349.7789230346
 20
542.4339485168501
 30
0.0
 11
343.5289230346
 21
542.4339485168501
 31
0.0
  0
LINE
  5
2DE
330
A
100
AcDbEntity
  8
11
  6
Continuous
 62
    92
100
AcDbLine
 10
343.5289230346
 20
542.4339485168501
 30
0.0
 11
343.5289230346
 21
531.8089485168501
 31
0.0
  0
LINE
  5
2DF
330
A
100
AcDbEntity
  8
11
  6
Continuous
 62
    92
100
AcDbLine
 10
343.5289230346
 20
531.8089485168501
 30
0.0
 11
349.7789230346
 21
531.8089485168501
 31
0.0
  0
LINE
  5
2E0
330
A
100
AcDbEntity
  8
11
  6
Continuous
 62
    92
100
AcDbLine
 10
349.7789230346
 20
531.8089485168501
 30
0.0
 11
349.7789230346
 21
542.4339485168501
 31
0.0
  0
LINE
  5
2E1
330
A
100
AcDbEntity
  8
11
  6
Continuous
 62
    92
100
AcDbLine
 10
349.7789230346
 20
543.0589485168501
 30
0.0
 11
349.7789230346
 21
531.1839485168501
 31
0.0
  0
LINE
  5
2E2
330
A
100
AcDbEntity
  8
11
  6
Continuous
 62
    92
100
AcDbLine
 10
349.7789230346
 20
531.1839485168501
 30
0.0
 11
351.0289230346001
 21
531.1839485168501
 31
0.0
  0
LINE
  5
2E3
330
A
100
AcDbEntity
  8
11
  6
Continuous
 62
    92
100
AcDbLine
 10
351.0289230346001
 20
531.1839485168501
 30
0.0
 11
351.0289230346001
 21
543.0589485168501
 31
0.0
  0
LINE
  5
2E4
330
A
100
AcDbEntity
  8
11
  6
Continuous
 62
    92
100
AcDbLine
 10
351.0289230346001
 20
543.0589485168501
 30
0.0
 11
349.7789230346
 21
543.0589485168501
 31
0.0
  0
LINE
  5
2E5
330
A
100
AcDbEntity
  8
11
  6
Continuous
 62
    92
100
AcDbLine
 10
569.778999328475
 20
536.3201713562249
 30
0.0
 11
569.778999328475
 21
526.3201713562249
 31
0.0
  0
LINE
  5
2E6
330
A
100
AcDbEntity
  8
11
  6
Continuous
 62
    92
100
AcDbLine
 10
569.778999328475
 20
526.3201713562249
 30
0.0
 11
570.7790222167252
 21
526.3201713562249
 31
0.0
  0
LINE
  5
2E7
330
A
100
AcDbEntity
  8
11
  6
Continuous
 62
    92
100
AcDbLine
 10
570.7790222167252
 20
526.3201713562249
 30
0.0
 11
570.7790222167252
 21
531.8089103698498
 31
0.0
  0
LINE
  5
2E8
330
A
100
AcDbEntity
  8
11
  6
Continuous
 62
    92
100
AcDbLine
 10
570.7790222167252
 20
531.8089103698498
 30
0.0
 11
570.7790222167252
 21
536.3201713562249
 31
0.0
  0
LINE
  5
2E9
330
A
100
AcDbEntity
  8
11
  6
Continuous
 62
    92
100
AcDbLine
 10
570.7790222167252
 20
536.3201713562249
 30
0.0
 11
569.778999328475
 21
536.3201713562249
 31
0.0
  0
LINE
  5
2EA
330
A
100
AcDbEntity
  8
11
  6
Continuous
 62
    92
100
AcDbLine
 10
570.7790222167252
 20
531.8089103698498
 30
0.0
 11
570.7790222167252
 21
535.6951713562249
 31
0.0
  0
LINE
  5
2EB
330
A
100
AcDbEntity
  8
11
  6
Continuous
 62
    92
100
AcDbLine
 10
571.028999328475
 20
535.6951713562249
 30
0.0
 11
575.7790222167252
 21
535.6951713562249
 31
0.0
  0
LINE
  5
2EC
330
A
100
AcDbEntity
  8
11
  6
Continuous
 62
    92
100
AcDbLine
 10
575.7790222167252
 20
535.6951713562249
 30
0.0
 11
575.7790222167252
 21
526.9451713562249
 31
0.0
  0
LINE
  5
2ED
330
A
100
AcDbEntity
  8
11
  6
Continuous
 62
    92
100
AcDbLine
 10
575.7790222167252
 20
526.9451713562249
 30
0.0
 11
570.7790222167252
 21
526.9451713562249
 31
0.0
  0
LINE
  5
2EE
330
A
100
AcDbEntity
  8
11
  6
Continuous
 62
    92
100
AcDbLine
 10
570.7790222167252
 20
526.9451713562249
 30
0.0
 11
570.7790222167252
 21
531.8089103698498
 31
0.0
  0
LINE
  5
2EF
330
A
100
AcDbEntity
  8
10
  6
CENTERX2
 62
    92
100
AcDbLine
 10
577.4065246581001
 20
531.3201713562249
 30
0.0
 11
558.8052597044751
 21
531.3201713562249
 31
0.0
  0
LINE
  5
2F0
330
A
100
AcDbEntity
  8
11
  6
Continuous
 62
    92
100
AcDbLine
 10
628.5290374754749
 20
510.922641754225
 30
0.0
 11
634.7790374754749
 21
508.333911895725
 31
0.0
  0
LINE
  5
2F1
330
A
100
AcDbEntity
  8
11
  6
Continuous
 62
    92
100
AcDbLine
 10
628.5289611816
 20
482.320156097475
 30
0.0
 11
628.5289611816
 21
510.922641754225
 31
0.0
  0
LINE
  5
2F2
330
A
100
AcDbEntity
  8
11
  6
Continuous
 62
    92
100
AcDbLine
 10
628.5289611816
 20
538.5701560974751
 30
0.0
 11
628.5289611816
 21
510.922641754225
 31
0.0
  0
LINE
  5
2F3
330
A
100
AcDbEntity
  8
11
  6
Continuous
 62
    92
100
AcDbLine
 10
628.5289611816
 20
510.922641754225
 30
0.0
 11
571.2790145873501
 21
510.922641754225
 31
0.0
  0
LINE
  5
2F4
330
A
100
AcDbEntity
  8
11
  6
Continuous
 62
    92
100
AcDbLine
 10
569.7774353026002
 20
512.422657012975
 30
0.0
 11
569.7774353026002
 21
513.4226417542249
 31
0.0
  0
LINE
  5
2F5
330
A
100
AcDbEntity
  8
11
  6
Continuous
 62
    92
100
AcDbLine
 10
634.7789611816
 20
482.320156097475
 30
0.0
 11
634.7789611816
 21
531.28515243535
 31
0.0
  0
LINE
  5
2F6
330
A
100
AcDbEntity
  8
11
  6
Continuous
 62
    92
100
AcDbLine
 10
634.04653435535
 20
533.0526494496
 30
0.0
 11
629.2615356444752
 21
537.837657928475
 31
0.0
  0
LINE
  5
2F7
330
A
100
AcDbEntity
  8
11
  6
Continuous
 62
    92
100
AcDbLine
 10
627.492813110225
 20
538.569469451975
 30
0.0
 11
571.028999328475
 21
538.569469451975
 31
0.0
  0
LINE
  5
2F8
330
A
100
AcDbEntity
  8
11
  6
Continuous
 62
    92
100
AcDbLine
 10
571.028999328475
 20
538.569469451975
 30
0.0
 11
564.778999328475
 21
538.569469451975
 31
0.0
  0
LINE
  5
2F9
330
A
100
AcDbEntity
  8
11
  6
Continuous
 62
    92
100
AcDbLine
 10
564.778999328475
 20
538.569469451975
 30
0.0
 11
564.778999328475
 21
482.320156097475
 31
0.0
  0
LINE
  5
2FA
330
A
100
AcDbEntity
  8
11
  6
Continuous
 62
    92
100
AcDbLine
 10
569.778999328475
 20
513.4226417542249
 30
0.0
 11
569.778999328475
 21
531.8089103698498
 31
0.0
  0
LINE
  5
2FB
330
A
100
AcDbEntity
  8
11
  6
Continuous
 62
    92
100
AcDbLine
 10
569.778999328475
 20
531.8089103698498
 30
0.0
 11
569.778999328475
 21
538.5701560974751
 31
0.0
  0
LINE
  5
2FC
330
A
100
AcDbEntity
  8
11
  6
Continuous
 62
    92
100
AcDbLine
 10
564.778999328475
 20
531.7038917542249
 30
0.0
 11
569.778999328475
 21
531.7038917542249
 31
0.0
  0
LINE
  5
2FD
330
A
100
AcDbEntity
  8
11
  6
Continuous
 62
    92
100
AcDbLine
 10
544.778999328475
 20
482.320156097475
 30
0.0
 11
544.778999328475
 21
554.1951560974751
 31
0.0
  0
LINE
  5
2FE
330
A
100
AcDbEntity
  8
11
  6
Continuous
 62
    92
100
AcDbLine
 10
544.778999328475
 20
554.1951560974751
 30
0.0
 11
359.77789306635
 21
554.1951560974751
 31
0.0
  0
LINE
  5
2FF
330
A
100
AcDbEntity
  8
11
  6
Continuous
 62
    92
100
AcDbLine
 10
359.77789306635
 20
541.5077018738499
 30
0.0
 11
544.778999328475
 21
541.5077018738499
 31
0.0
  0
LINE
  5
300
330
A
100
AcDbEntity
  8
11
  6
Continuous
 62
    92
100
AcDbLine
 10
359.77789306635
 20
523.8202095032252
 30
0.0
 11
544.7778930663502
 21
523.8202095032252
 31
0.0
  0
LINE
  5
301
330
A
100
AcDbEntity
  8
11
  6
Continuous
 62
    92
100
AcDbLine
 10
359.77789306635
 20
512.0701789856
 30
0.0
 11
544.7778930663502
 21
512.0701789856
 31
0.0
  0
LINE
  5
302
330
A
100
AcDbEntity
  8
11
  6
Continuous
 62
    92
100
AcDbLine
 10
359.77789306635
 20
501.570186614975
 30
0.0
 11
544.7778930663502
 21
501.570186614975
 31
0.0
  0
LINE
  5
303
330
A
100
AcDbEntity
  8
11
  6
Continuous
 62
    92
100
AcDbLine
 10
544.777969360225
 20
482.320156097475
 30
0.0
 11
544.777969360225
 21
410.445156097475
 31
0.0
  0
LINE
  5
304
330
A
100
AcDbEntity
  8
11
  6
Continuous
 62
    92
100
AcDbLine
 10
544.777969360225
 20
410.445156097475
 30
0.0
 11
359.7779693602251
 21
410.445156097475
 31
0.0
  0
LINE
  5
305
330
A
100
AcDbEntity
  8
11
  6
Continuous
 62
    92
100
AcDbLine
 10
359.7779693602251
 20
423.132686614975
 30
0.0
 11
544.777969360225
 21
423.132686614975
 31
0.0
  0
LINE
  5
306
330
A
100
AcDbEntity
  8
11
  6
Continuous
 62
    92
100
AcDbLine
 10
359.7779693602251
 20
440.8201789856
 30
0.0
 11
544.777969360225
 21
440.8201789856
 31
0.0
  0
LINE
  5
307
330
A
100
AcDbEntity
  8
11
  6
Continuous
 62
    92
100
AcDbLine
 10
359.7779693602251
 20
452.570209503225
 30
0.0
 11
544.777969360225
 21
452.570209503225
 31
0.0
  0
LINE
  5
308
330
A
100
AcDbEntity
  8
11
  6
Continuous
 62
    92
100
AcDbLine
 10
359.7779693602251
 20
463.0702018738499
 30
0.0
 11
544.777969360225
 21
463.0702018738499
 31
0.0
  0
LINE
  5
30D
330
A
100
AcDbEntity
  8
1
  6
Continuous
 62
    92
100
AcDbLine
 10
168.0000038146999
 20
760.5999755859
 30
0.0
 11
168.0000038146999
 21
725.3999633789001
 31
0.0
  0
LINE
  5
30E
330
A
100
AcDbEntity
  8
1
  6
Continuous
 62
    92
100
AcDbLine
 10
168.0000038146999
 20
760.5999755859
 30
0.0
 11
36.0
 21
760.5999755859
 31
0.0
  0
LINE
  5
30F
330
A
100
AcDbEntity
  8
1
  6
Continuous
 62
    92
100
AcDbLine
 10
36.0
 20
760.5999755859
 30
0.0
 11
36.0
 21
743.0
 31
0.0
  0
LINE
  5
310
330
A
100
AcDbEntity
  8
1
  6
Continuous
 62
    92
100
AcDbLine
 10
36.0
 20
743.0
 30
0.0
 11
168.0000038146999
 21
743.0
 31
0.0
  0
LINE
  5
311
330
A
100
AcDbEntity
  8
1
  6
Continuous
 62
    92
100
AcDbLine
 10
36.0
 20
743.0
 30
0.0
 11
36.0
 21
725.3999633789001
 31
0.0
  0
LINE
  5
312
330
A
100
AcDbEntity
  8
1
  6
Continuous
 62
    92
100
AcDbLine
 10
36.0
 20
725.3999633789001
 30
0.0
 11
168.0000038146999
 21
725.3999633789001
 31
0.0
  0
LINE
  5
318
330
A
100
AcDbEntity
  8
1
  6
Continuous
 62
    92
100
AcDbLine
 10
36.00000000000011
 20
647.5999908447501
 30
0.0
 11
154.3999633789
 21
647.5999908447501
 31
0.0
  0
CIRCLE
  5
322
330
A
100
AcDbEntity
  8
11
  6
Continuous
 62
    92
100
AcDbCircle
 10
946.5625000000001
 20
220.4828529358
 30
0.0
 40
4.400001525899999
  0
CIRCLE
  5
323
330
A
100
AcDbEntity
  8
11
  6
Continuous
 62
    92
100
AcDbCircle
 10
946.5625000000001
 20
220.4828529358
 30
0.0
 40
8.800003051799999
  0
CIRCLE
  5
324
330
A
100
AcDbEntity
  8
11
  6
Continuous
 62
    92
100
AcDbCircle
 10
882.5914993286001
 20
578.570156097475
 30
0.0
 40
14.375
  0
ARC
  5
325
330
A
100
AcDbEntity
  8
11
  6
Continuous
 62
    92
100
AcDbCircle
 10
875.0900497436001
 20
593.6886024474749
 30
0.0
 40
1.251447250624999
100
AcDbArc
 50
296.3970641999999
 51
359.9547119
  0
ARC
  5
326
330
A
100
AcDbEntity
  8
11
  6
Continuous
 62
    92
100
AcDbCircle
 10
882.5914993286001
 20
578.570156097475
 30
0.0
 40
15.62573161575
100
AcDbArc
 50
116.3872833
 51
63.6137695
  0
ARC
  5
327
330
A
100
AcDbEntity
  8
11
  6
Continuous
 62
    92
100
AcDbCircle
 10
890.0904312133503
 20
593.6876106262251
 30
0.0
 40
1.250000000625
100
AcDbArc
 50
180.0
 51
243.6329651
  0
ARC
  5
328
330
A
100
AcDbEntity
  8
11
  6
Continuous
 62
    92
100
AcDbCircle
 10
882.5914993286001
 20
578.570156097475
 30
0.0
 40
13.43719940599999
100
AcDbArc
 50
70.8370438
 51
346.8548889
  0
CIRCLE
  5
329
330
A
100
AcDbEntity
  8
11
  6
Continuous
 62
    92
100
AcDbCircle
 10
882.5914993286001
 20
578.570156097475
 30
0.0
 40
11.875
  0
CIRCLE
  5
32A
330
A
100
AcDbEntity
  8
1
  6
Continuous
 62
    92
100
AcDbCircle
 10
882.5914993286001
 20
482.320156097475
 30
0.0
 40
15.00041961674999
  0
ARC
  5
32B
330
A
100
AcDbEntity
  8
11
  6
Continuous
 62
    92
100
AcDbCircle
 10
872.5911941527252
 20
524.911403655975
 30
0.0
 40
2.499960814625
100
AcDbArc
 50
283.2151488999999
 51
0.0
  0
ARC
  5
32C
330
A
100
AcDbEntity
  8
11
  6
Continuous
 62
    92
100
AcDbCircle
 10
872.5908126831003
 20
538.9428901672252
 30
0.0
 40
2.500305387874999
100
AcDbArc
 50
0.0
 51
99.97866059999999
  0
ARC
  5
32D
330
A
100
AcDbEntity
  8
11
  6
Continuous
 62
    92
100
AcDbCircle
 10
892.5901260376001
 20
538.9439201354748
 30
0.0
 40
2.499406193874999
100
AcDbArc
 50
79.9767303
 51
180.0
  0
ARC
  5
32E
330
A
100
AcDbEntity
  8
11
  6
Continuous
 62
    92
100
AcDbCircle
 10
892.5909652709751
 20
524.91159439085
 30
0.0
 40
2.500228889125
100
AcDbArc
 50
180.0
 51
256.7710265999999
  0
ARC
  5
32F
330
A
100
AcDbEntity
  8
11
  6
Continuous
 62
    92
100
AcDbCircle
 10
924.4790878296003
 20
469.6853065490999
 30
0.0
 40
2.502460169375
100
AcDbArc
 50
163.2521362
 51
239.9634856999999
  0
ARC
  5
330
330
A
100
AcDbEntity
  8
11
  6
Continuous
 62
    92
100
AcDbCircle
 10
936.6276016234751
 20
462.66977310185
 30
0.0
 40
2.501070503375
100
AcDbArc
 50
240.0519867
 51
339.9912415
  0
ARC
  5
331
330
A
100
AcDbEntity
  8
11
  6
Continuous
 62
    92
100
AcDbCircle
 10
926.6289749144753
 20
445.3493309020999
 30
0.0
 40
2.4995831195
100
AcDbArc
 50
319.9620972
 51
59.99334720000001
  0
ARC
  5
332
330
A
100
AcDbEntity
  8
11
  6
Continuous
 62
    92
100
AcDbCircle
 10
914.4769515991001
 20
452.361660003725
 30
0.0
 40
2.502750532374999
100
AcDbArc
 50
60.04997629999999
 51
136.7537384
  0
ARC
  5
333
330
A
100
AcDbEntity
  8
11
  6
Continuous
 62
    92
100
AcDbCircle
 10
850.7059707641001
 20
452.3645210265999
 30
0.0
 40
2.499055086874999
100
AcDbArc
 50
43.1980743
 51
119.9982985999999
  0
ARC
  5
334
330
A
100
AcDbEntity
  8
11
  6
Continuous
 62
    92
100
AcDbCircle
 10
838.5543289183502
 20
445.3478050232249
 30
0.0
 40
2.5006085755
100
AcDbArc
 50
120.032814
 51
220.0075073
  0
ARC
  5
335
330
A
100
AcDbEntity
  8
11
  6
Continuous
 62
    92
100
AcDbCircle
 10
828.5547866821001
 20
462.6668739318499
 30
0.0
 40
2.500015604499999
100
AcDbArc
 50
199.9802399
 51
299.9808959999999
  0
ARC
  5
336
330
A
100
AcDbEntity
  8
11
  6
Continuous
 62
    92
100
AcDbCircle
 10
840.7036819457252
 20
469.68420028685
 30
0.0
 40
2.502672661625
100
AcDbArc
 50
300.0377808
 51
16.7418823
  0
ARC
  5
337
330
A
100
AcDbEntity
  8
11
  6
Continuous
 62
    92
100
AcDbCircle
 10
861.3407363891001
 20
428.8901710511
 30
0.0
 40
2.499641524874999
100
AcDbArc
 50
248.3019714
 51
0.0
  0
ARC
  5
338
330
A
100
AcDbEntity
  8
11
  6
Continuous
 62
    92
100
AcDbCircle
 10
861.3400497436002
 20
444.07743453985
 30
0.0
 40
2.500381480249999
100
AcDbArc
 50
0.0
 51
60.9160385
  0
ARC
  5
339
330
A
100
AcDbEntity
  8
11
  6
Continuous
 62
    92
100
AcDbCircle
 10
903.8402023314752
 20
444.0776634216
 30
0.0
 40
2.499435276499999
100
AcDbArc
 50
119.0491485999999
 51
180.0
  0
ARC
  5
33A
330
A
100
AcDbEntity
  8
11
  6
Continuous
 62
    92
100
AcDbCircle
 10
903.841575622475
 20
428.8915443421
 30
0.0
 40
2.500763316499999
100
AcDbArc
 50
180.0314639065
 51
291.6767578
  0
ARC
  5
33B
330
A
100
AcDbEntity
  8
11
  6
Continuous
 62
    92
100
AcDbCircle
 10
882.5914993286001
 20
482.320156097475
 30
0.0
 40
60.000587406
100
AcDbArc
 50
259.9865723
 51
280.0163878999999
  0
ARC
  5
33C
330
A
100
AcDbEntity
  8
11
  6
Continuous
 62
    92
100
AcDbCircle
 10
872.5923385619751
 20
425.6964302063499
 30
0.0
 40
2.500762939499999
100
AcDbArc
 50
180.0
 51
259.9642334
  0
ARC
  5
33D
330
A
100
AcDbEntity
  8
11
  6
Continuous
 62
    92
100
AcDbCircle
 10
872.591575622475
 20
439.72753524785
 30
0.0
 40
2.500022173875
100
AcDbArc
 50
76.79417420000001
 51
180.0
  0
ARC
  5
33E
330
A
100
AcDbEntity
  8
11
  6
Continuous
 62
    92
100
AcDbCircle
 10
882.5914993286001
 20
482.320156097475
 30
0.0
 40
41.250747257125
100
AcDbArc
 50
256.7890319999999
 51
283.2132568
  0
ARC
  5
33F
330
A
100
AcDbEntity
  8
11
  6
Continuous
 62
    92
100
AcDbCircle
 10
892.5916519164752
 20
439.727649688725
 30
0.0
 40
2.500228881875
100
AcDbArc
 50
0.0
 51
103.2407226999999
  0
ARC
  5
340
330
A
100
AcDbEntity
  8
11
  6
Continuous
 62
    92
100
AcDbCircle
 10
892.5905838012251
 20
425.69715499885
 30
0.0
 40
2.501279985875
100
AcDbArc
 50
280.0050354
 51
359.9813843
  0
ARC
  5
341
330
A
100
AcDbEntity
  8
11
  6
Continuous
 62
    92
100
AcDbCircle
 10
939.4875564574752
 20
490.629596710225
 30
0.0
 40
2.50030244175
100
AcDbArc
 50
8.3208199
 51
119.9899139
  0
ARC
  5
342
330
A
100
AcDbEntity
  8
11
  6
Continuous
 62
    92
100
AcDbCircle
 10
926.3337936401001
 20
483.036823272725
 30
0.0
 40
2.498851197875
100
AcDbArc
 50
119.9753035999999
 51
180.9247741999999
  0
ARC
  5
343
330
A
100
AcDbEntity
  8
11
  6
Continuous
 62
    92
100
AcDbCircle
 10
905.0857772827253
 20
519.8436927796
 30
0.0
 40
2.500541528749999
100
AcDbArc
 50
239.0635223
 51
299.9799193999999
  0
ARC
  5
344
330
A
100
AcDbEntity
  8
11
  6
Continuous
 62
    92
100
AcDbCircle
 10
918.2362594603501
 20
527.4370002747247
 30
0.0
 40
2.50123092525
100
AcDbArc
 50
300.0225525
 51
51.6607361
  0
ARC
  5
345
330
A
100
AcDbEntity
  8
11
  6
Continuous
 62
    92
100
AcDbCircle
 10
882.5914993286001
 20
482.320156097475
 30
0.0
 40
60.00045264625
100
AcDbArc
 50
19.9851513
 51
40.01514429999999
  0
ARC
  5
346
330
A
100
AcDbEntity
  8
11
  6
Continuous
 62
    92
100
AcDbCircle
 10
936.6272201537251
 20
501.972675323475
 30
0.0
 40
2.501906932499999
100
AcDbArc
 50
300.0196533
 51
19.9502258
  0
ARC
  5
347
330
A
100
AcDbEntity
  8
11
  6
Continuous
 62
    92
100
AcDbCircle
 10
924.4780197143501
 20
494.9559593201
 30
0.0
 40
2.500543732
100
AcDbArc
 50
196.7838898
 51
299.9875183
  0
ARC
  5
348
330
A
100
AcDbEntity
  8
11
  6
Continuous
 62
    92
100
AcDbCircle
 10
882.5914993286001
 20
482.320156097475
 30
0.0
 40
41.25038898399999
100
AcDbArc
 50
16.7874908
 51
43.2125587
  0
ARC
  5
349
330
A
100
AcDbEntity
  8
11
  6
Continuous
 62
    92
100
AcDbCircle
 10
914.477104186975
 20
512.2759437560999
 30
0.0
 40
2.499992421375
100
AcDbArc
 50
119.9804077
 51
223.2190247
  0
ARC
  5
34A
330
A
100
AcDbEntity
  8
11
  6
Continuous
 62
    92
100
AcDbCircle
 10
926.6295852661
 20
519.2930412292248
 30
0.0
 40
2.498784534874999
100
AcDbArc
 50
39.9916039
 51
120.0323180999999
  0
ARC
  5
34B
330
A
100
AcDbEntity
  8
11
  6
Continuous
 62
    92
100
AcDbCircle
 10
846.9452133178501
 20
527.4388694763501
 30
0.0
 40
2.499822903875
100
AcDbArc
 50
128.3176727
 51
239.9989623999999
  0
ARC
  5
34C
330
A
100
AcDbEntity
  8
11
  6
Continuous
 62
    92
100
AcDbCircle
 10
860.0981369018501
 20
519.845829009975
 30
0.0
 40
2.500724572249999
100
AcDbArc
 50
240.0010071
 51
300.9111632999999
  0
ARC
  5
34D
330
A
100
AcDbEntity
  8
11
  6
Continuous
 62
    92
100
AcDbCircle
 10
838.8472213744751
 20
483.039531707725
 30
0.0
 40
2.499664303249999
100
AcDbArc
 50
359.039856
 51
59.9815674
  0
ARC
  5
34E
330
A
100
AcDbEntity
  8
11
  6
Continuous
 62
    92
100
AcDbCircle
 10
825.6962051391001
 20
490.6309318542249
 30
0.0
 40
2.501001622999999
100
AcDbArc
 50
60.0389938
 51
171.6849364999999
  0
ARC
  5
34F
330
A
100
AcDbEntity
  8
11
  6
Continuous
 62
    92
100
AcDbCircle
 10
882.5914993286001
 20
482.320156097475
 30
0.0
 40
60.00137426599999
100
AcDbArc
 50
139.9841614
 51
160.014328
  0
ARC
  5
350
330
A
100
AcDbEntity
  8
11
  6
Continuous
 62
    92
100
AcDbCircle
 10
838.5520401001
 20
519.2905235291
 30
0.0
 40
2.501075383374999
100
AcDbArc
 50
59.9975891
 51
139.9424133
  0
ARC
  5
351
330
A
100
AcDbEntity
  8
11
  6
Continuous
 62
    92
100
AcDbCircle
 10
850.7049026488502
 20
512.27693557735
 30
0.0
 40
2.499671785375
100
AcDbArc
 50
316.7792053
 51
59.98440550000001
  0
ARC
  5
352
330
A
100
AcDbEntity
  8
11
  6
Continuous
 62
    92
100
AcDbCircle
 10
882.5914993286001
 20
482.320156097475
 30
0.0
 40
41.25148461499999
100
AcDbArc
 50
136.7866515999999
 51
163.2101593
  0
ARC
  5
353
330
A
100
AcDbEntity
  8
11
  6
Continuous
 62
    92
100
AcDbCircle
 10
840.7051315307251
 20
494.9548912048499
 30
0.0
 40
2.499631637375
100
AcDbArc
 50
240.0006866
 51
343.2680968999999
  0
ARC
  5
354
330
A
100
AcDbEntity
  8
11
  6
Continuous
 62
    92
100
AcDbCircle
 10
828.5539474487253
 20
501.97149276735
 30
0.0
 40
2.500608786499999
100
AcDbArc
 50
160.0079498
 51
239.9753417999999
  0
ARC
  5
355
330
A
100
AcDbEntity
  8
11
  6
CENTERX2
 62
    92
100
AcDbCircle
 10
882.5914993286001
 20
482.320156097475
 30
0.0
 40
81.249739483
100
AcDbArc
 50
125.9475098
 51
144.17276
  0
ARC
  5
356
330
A
100
AcDbEntity
  8
11
  6
CENTERX2
 62
    92
100
AcDbCircle
 10
882.5914993286001
 20
482.320156097475
 30
0.0
 40
81.24940036599999
100
AcDbArc
 50
36.0993271
 51
53.56329350000001
  0
ARC
  5
357
330
A
100
AcDbEntity
  8
11
  6
CENTERX2
 62
    92
100
AcDbCircle
 10
882.5914993286001
 20
482.320156097475
 30
0.0
 40
81.249877143375
100
AcDbArc
 50
305.8092650999999
 51
324.0049743999999
  0
CIRCLE
  5
358
330
A
100
AcDbEntity
  8
11
  6
Continuous
 62
    92
100
AcDbCircle
 10
940.0427474974751
 20
539.7726631164751
 30
0.0
 40
5.625
  0
CIRCLE
  5
359
330
A
100
AcDbEntity
  8
11
  6
Continuous
 62
    92
100
AcDbCircle
 10
940.0427474974751
 20
424.8676490783499
 30
0.0
 40
5.625
  0
CIRCLE
  5
35A
330
A
100
AcDbEntity
  8
11
  6
Continuous
 62
    92
100
AcDbCircle
 10
825.1390304564752
 20
539.7726631164751
 30
0.0
 40
5.625
  0
CIRCLE
  5
35B
330
A
100
AcDbEntity
  8
11
  6
Continuous
 62
    92
100
AcDbCircle
 10
882.5914993286001
 20
482.320156097475
 30
0.0
 40
32.5
  0
CIRCLE
  5
35C
330
A
100
AcDbEntity
  8
11
  6
Continuous
 62
    92
100
AcDbCircle
 10
882.5914993286001
 20
482.320156097475
 30
0.0
 40
28.75
  0
ARC
  5
35D
330
A
100
AcDbEntity
  8
11
  6
Continuous
 62
    92
100
AcDbCircle
 10
882.5914993286001
 20
482.320156097475
 30
0.0
 40
41.24883956687499
100
AcDbArc
 50
59.05982210000001
 51
120.9422913
  0
ARC
  5
35E
330
A
100
AcDbEntity
  8
11
  6
Continuous
 62
    92
100
AcDbCircle
 10
882.5914993286001
 20
482.320156097475
 30
0.0
 40
41.24980045612499
100
AcDbArc
 50
299.0567626999999
 51
0.0
  0
ARC
  5
35F
330
A
100
AcDbEntity
  8
11
  6
Continuous
 62
    92
100
AcDbCircle
 10
882.5914993286001
 20
482.320156097475
 30
0.0
 40
41.25052845575
100
AcDbArc
 50
179.0589452363
 51
240.9401855003
  0
CIRCLE
  5
360
330
A
100
AcDbEntity
  8
11
  6
Continuous
 62
    92
100
AcDbCircle
 10
882.5914993286001
 20
482.320156097475
 30
0.0
 40
19.0625
  0
CIRCLE
  5
361
330
A
100
AcDbEntity
  8
11
  6
Continuous
 62
    92
100
AcDbCircle
 10
882.5914993286001
 20
482.320156097475
 30
0.0
 40
60.0
  0
CIRCLE
  5
362
330
A
100
AcDbEntity
  8
1
  6
Continuous
 62
    92
100
AcDbCircle
 10
75.31546020497501
 20
481.7435646057249
 30
0.0
 40
15.00125885012499
  0
ARC
  5
363
330
A
100
AcDbEntity
  8
11
  6
CENTERX2
 62
    92
100
AcDbCircle
 10
882.5914993286001
 20
482.320156097475
 30
0.0
 40
81.249739483
100
AcDbArc
 50
215.9497985999999
 51
234.1750793
  0
CIRCLE
  5
364
330
A
100
AcDbEntity
  8
11
  6
Continuous
 62
    92
100
AcDbCircle
 10
825.1389541626002
 20
424.86761093135
 30
0.0
 40
5.625
  0
ARC
  5
365
330
A
100
AcDbEntity
  8
1
  6
Continuous
 62
    92
100
AcDbCircle
 10
362.9038848876
 20
496.6958808898501
 30
0.0
 40
3.12496185325
100
AcDbArc
 50
90.0
 51
180.0139923
  0
ARC
  5
366
330
A
100
AcDbEntity
  8
1
  6
Continuous
 62
    92
100
AcDbCircle
 10
450.4032363891001
 20
496.695156097475
 30
0.0
 40
3.125686720875
100
AcDbArc
 50
0.0125867219
 51
89.98741336110001
  0
ARC
  5
367
330
A
100
AcDbEntity
  8
1
  6
Continuous
 62
    92
100
AcDbCircle
 10
450.4038848876
 20
467.9458427429749
 30
0.0
 40
3.125038147249999
100
AcDbArc
 50
270.0
 51
359.9866943
  0
ARC
  5
368
330
A
100
AcDbEntity
  8
1
  6
Continuous
 62
    92
100
AcDbCircle
 10
362.9032745361
 20
467.945156097475
 30
0.0
 40
3.124351568749999
100
AcDbArc
 50
179.988107652
 51
270.0118924611
  0
ARC
  5
369
330
A
100
AcDbEntity
  8
11
  6
Continuous
 62
    92
100
AcDbCircle
 10
243.52789306635
 20
482.3201942443499
 30
0.0
 40
5.000152587999999
100
AcDbArc
 50
180.0
 51
269.9993591
  0
ARC
  5
36A
330
A
100
AcDbEntity
  8
11
  6
Continuous
 62
    92
100
AcDbCircle
 10
283.5277976988501
 20
482.320156097475
 30
0.0
 40
5.0001144415
100
AcDbArc
 50
270.0
 51
0.0
  0
ARC
  5
36B
330
A
100
AcDbEntity
  8
11
  6
Continuous
 62
    92
100
AcDbCircle
 10
243.5278358458501
 20
482.3202323913499
 30
0.0
 40
5.000114441124999
100
AcDbArc
 50
90.0
 51
180.0
  0
ARC
  5
36C
330
A
100
AcDbEntity
  8
11
  6
Continuous
 62
    92
100
AcDbCircle
 10
283.5276832579751
 20
482.320156097475
 30
0.0
 40
5.000190738499999
100
AcDbArc
 50
0.0
 51
89.99781442280001
  0
ARC
  5
36D
330
A
100
AcDbEntity
  8
11
  6
Continuous
 62
    92
100
AcDbCircle
 10
297.0278396606001
 20
497.9456138610999
 30
0.0
 40
0.6250381481250001
100
AcDbArc
 50
270.0
 51
359.9545287999999
  0
ARC
  5
36E
330
A
100
AcDbEntity
  8
11
  6
Continuous
 62
    92
100
AcDbCircle
 10
297.0272293089751
 20
466.695156097475
 30
0.0
 40
0.6249809265
100
AcDbArc
 50
0.0
 51
89.94055180000001
  0
ARC
  5
36F
330
A
100
AcDbEntity
  8
11
  6
Continuous
 62
    92
100
AcDbCircle
 10
68.97223377222508
 20
465.6564140319749
 30
0.0
 40
231.129625447125
100
AcDbArc
 50
2.686365799999999
 51
4.1345067
  0
ARC
  5
370
330
A
100
AcDbEntity
  8
11
  6
Continuous
 62
    92
100
AcDbCircle
 10
313.1896629332251
 20
452.87137985235
 30
0.0
 40
19.65857484487499
100
AcDbArc
 50
142.9107513
 51
149.8070526
  0
ARC
  5
371
330
A
100
AcDbEntity
  8
11
  6
Continuous
 62
    92
100
AcDbCircle
 10
313.5394134521
 20
452.6864433288499
 30
0.0
 40
20.053887461625
100
AcDbArc
 50
149.8530579
 51
153.5208435
  0
ARC
  5
372
330
A
100
AcDbEntity
  8
11
  6
Continuous
 62
    92
100
AcDbCircle
 10
285.9986915587251
 20
466.069660186725
 30
0.0
 40
10.57072681449999
100
AcDbArc
 50
310.7776488999999
 51
328.1878662
  0
ARC
  5
373
330
A
100
AcDbEntity
  8
11
  6
Continuous
 62
    92
100
AcDbCircle
 10
311.0273780822251
 20
452.2215080260999
 30
0.0
 40
2.499497854374999
100
AcDbArc
 50
86.5220032
 51
180.0
  0
ARC
  5
374
330
A
100
AcDbEntity
  8
11
  6
Continuous
 62
    92
100
AcDbCircle
 10
348.5294189452251
 20
451.0838890076
 30
0.0
 40
2.498741615749999
100
AcDbArc
 50
0.0349881902
 51
90.0349881822
  0
ARC
  5
375
330
A
100
AcDbEntity
  8
11
  6
Continuous
 62
    92
100
AcDbCircle
 10
353.5291137694751
 20
412.9463768006
 30
0.0
 40
2.50095397225
100
AcDbArc
 50
180.0
 51
269.9720458999999
  0
ARC
  5
376
330
A
100
AcDbEntity
  8
11
  6
Continuous
 62
    92
100
AcDbCircle
 10
352.06224822985
 20
412.942295074475
 30
0.0
 40
2.497143944624999
100
AcDbArc
 50
224.9652556999999
 51
270.0160216999999
  0
ARC
  5
377
330
A
100
AcDbEntity
  8
11
  6
Continuous
 62
    92
100
AcDbCircle
 10
347.492870330725
 20
410.447177886975
 30
0.0
 40
2.4981823855
100
AcDbArc
 50
44.9674301
 51
90.00070949999999
  0
ARC
  5
378
330
A
100
AcDbEntity
  8
11
  6
Continuous
 62
    92
100
AcDbCircle
 10
311.0274543761001
 20
413.1751441956
 30
0.0
 40
2.500416578
100
AcDbArc
 50
81.62751009999999
 51
180.0
  0
ARC
  5
379
330
A
100
AcDbEntity
  8
11
  6
Continuous
 62
    92
100
AcDbCircle
 10
306.0279312133501
 20
409.8192024231
 30
0.0
 40
2.499160766874999
100
AcDbArc
 50
270.0
 51
0.0227356
  0
ARC
  5
37A
330
A
100
AcDbEntity
  8
11
  6
Continuous
 62
    92
100
AcDbCircle
 10
296.6528739928501
 20
412.9440498352249
 30
0.0
 40
0.625000979
100
AcDbArc
 50
0.0
 51
89.89859009999999
  0
ARC
  5
37B
330
A
100
AcDbEntity
  8
11
  6
Continuous
 62
    92
100
AcDbCircle
 10
571.276992797725
 20
452.21765518185
 30
0.0
 40
1.500015561999999
100
AcDbArc
 50
90.0
 51
180.0364380013
  0
ARC
  5
37C
330
A
100
AcDbEntity
  8
11
  6
Continuous
 62
    92
100
AcDbCircle
 10
632.2745742797251
 20
433.357067108225
 30
0.0
 40
2.503401628499999
100
AcDbArc
 50
315.0223083
 51
359.9543151999999
  0
ARC
  5
37D
330
A
100
AcDbEntity
  8
11
  6
Continuous
 62
    92
100
AcDbCircle
 10
627.4916687011002
 20
428.574008941725
 30
0.0
 40
2.503318786624999
100
AcDbArc
 50
270.0
 51
314.9586182
  0
ARC
  5
37E
330
A
100
AcDbEntity
  8
11
  6
Continuous
 62
    92
100
AcDbCircle
 10
62.18336486810017
 20
499.388599395725
 30
0.0
 40
237.931063785125
100
AcDbArc
 50
355.8861693999999
 51
357.2929076999999
  0
ARC
  5
37F
330
A
100
AcDbEntity
  8
11
  6
Continuous
 62
    92
100
AcDbCircle
 10
313.1158485412252
 20
511.719112396225
 30
0.0
 40
19.56879080662499
100
AcDbArc
 50
210.1768341
 51
217.1048126
  0
ARC
  5
380
330
A
100
AcDbEntity
  8
11
  6
Continuous
 62
    92
100
AcDbCircle
 10
312.56040954585
 20
511.4259147644749
 30
0.0
 40
18.94126241012499
100
AcDbArc
 50
206.3712463
 51
210.2545624
  0
ARC
  5
381
330
A
100
AcDbEntity
  8
11
  6
Continuous
 62
    92
100
AcDbCircle
 10
285.959648132225
 20
498.536243438725
 30
0.0
 40
10.62297491575
100
AcDbArc
 50
31.85554699999999
 51
49.1793861
  0
ARC
  5
382
330
A
100
AcDbEntity
  8
11
  6
Continuous
 62
    92
100
AcDbCircle
 10
311.028751373225
 20
512.419185638475
 30
0.0
 40
2.499828349124999
100
AcDbArc
 50
180.0
 51
273.4675293
  0
ARC
  5
383
330
A
100
AcDbEntity
  8
11
  6
Continuous
 62
    92
100
AcDbCircle
 10
348.5298385619751
 20
513.5564613342248
 30
0.0
 40
2.498779464624999
100
AcDbArc
 50
270.0
 51
0.0209961
  0
ARC
  5
384
330
A
100
AcDbEntity
  8
11
  6
Continuous
 62
    92
100
AcDbCircle
 10
353.5301818847251
 20
551.6927909850998
 30
0.0
 40
2.50156518025
100
AcDbArc
 50
90.0
 51
179.9449558077
  0
ARC
  5
385
330
A
100
AcDbEntity
  8
11
  6
Continuous
 62
    92
100
AcDbCircle
 10
352.0625152587251
 20
551.6998100280999
 30
0.0
 40
2.495384615499999
100
AcDbArc
 50
89.96802520000001
 51
135.0524596999999
  0
ARC
  5
386
330
A
100
AcDbEntity
  8
11
  6
Continuous
 62
    92
100
AcDbCircle
 10
347.493957519475
 20
554.192714691225
 30
0.0
 40
2.497872367499999
100
AcDbArc
 50
270.0
 51
315.0402171101999
  0
ARC
  5
387
330
A
100
AcDbEntity
  8
11
  6
Continuous
 62
    92
100
AcDbCircle
 10
311.0289230346001
 20
551.465206146225
 30
0.0
 40
2.500352723125
100
AcDbArc
 50
179.8428877213
 51
278.3646143015999
  0
ARC
  5
388
330
A
100
AcDbEntity
  8
11
  6
Continuous
 62
    92
100
AcDbCircle
 10
306.0289230346
 20
554.8201179504751
 30
0.0
 40
2.499656678375
100
AcDbArc
 50
0.0
 51
89.99825290000002
  0
ARC
  5
389
330
A
100
AcDbEntity
  8
11
  6
Continuous
 62
    92
100
AcDbCircle
 10
296.6539230346
 20
551.6956901551
 30
0.0
 40
0.6250001967500002
100
AcDbArc
 50
270.0
 51
359.9545382705
  0
ARC
  5
38A
330
A
100
AcDbEntity
  8
11
  6
Continuous
 62
    92
100
AcDbCircle
 10
571.277450561475
 20
512.422657012975
 30
0.0
 40
1.500016074125
100
AcDbArc
 50
179.9402592544
 51
270.0597407586
  0
ARC
  5
38B
330
A
100
AcDbEntity
  8
11
  6
Continuous
 62
    92
100
AcDbCircle
 10
632.2735443114749
 20
531.282444000225
 30
0.0
 40
2.505418334124999
100
AcDbArc
 50
0.0619385505
 51
44.95497129999999
  0
ARC
  5
38C
330
A
100
AcDbEntity
  8
11
  6
Continuous
 62
    92
100
AcDbCircle
 10
627.492813110225
 20
536.066188812225
 30
0.0
 40
2.503294276124999
100
AcDbArc
 50
45.04560470000001
 51
90.00115199999999
  0
POINT
  5
38D
330
A
100
AcDbEntity
  8
4
100
AcDbPoint
 10
620.60652160635
 20
578.569469451975
 30
0.0
  0
POINT
  5
38E
330
A
100
AcDbEntity
  8
4
100
AcDbPoint
 10
663.9285888671001
 20
578.569469451975
 30
0.0
  0
POINT
  5
38F
330
A
100
AcDbEntity
  8
4
100
AcDbPoint
 10
623.8556900023501
 20
482.320156097475
 30
0.0
  0
POINT
  5
390
330
A
100
AcDbEntity
  8
4
100
AcDbPoint
 10
663.9285888671001
 20
482.320156097475
 30
0.0
  0
POINT
  5
391
330
A
100
AcDbEntity
  8
4
100
AcDbPoint
 10
234.777740478475
 20
376.0084152222249
 30
0.0
  0
POINT
  5
392
330
A
100
AcDbEntity
  8
4
100
AcDbPoint
 10
234.777740478475
 20
325.10494232185
 30
0.0
  0
POINT
  5
393
330
A
100
AcDbEntity
  8
4
100
AcDbPoint
 10
634.777969360225
 20
445.323772430475
 30
0.0
  0
POINT
  5
394
330
A
100
AcDbEntity
  8
4
100
AcDbPoint
 10
634.777969360225
 20
325.10494232185
 30
0.0
  0
POINT
  5
395
330
A
100
AcDbEntity
  8
4
100
AcDbPoint
 10
616.274322509725
 20
426.0706901550999
 30
0.0
  0
POINT
  5
396
330
A
100
AcDbEntity
  8
4
100
AcDbPoint
 10
698.58637237535
 20
426.0706901550999
 30
0.0
  0
POINT
  5
397
330
A
100
AcDbEntity
  8
4
100
AcDbPoint
 10
620.60652160635
 20
538.569469451975
 30
0.0
  0
POINT
  5
398
330
A
100
AcDbEntity
  8
4
100
AcDbPoint
 10
698.58637237535
 20
538.569469451975
 30
0.0
  0
POINT
  5
399
330
A
100
AcDbEntity
  8
4
100
AcDbPoint
 10
807.5914993286001
 20
521.1374855042249
 30
0.0
  0
POINT
  5
39A
330
A
100
AcDbEntity
  8
4
100
AcDbPoint
 10
807.5914993286001
 20
625.1105308532251
 30
0.0
  0
POINT
  5
39B
330
A
100
AcDbEntity
  8
4
100
AcDbPoint
 10
957.5914993286001
 20
529.8018836974749
 30
0.0
  0
POINT
  5
39C
330
A
100
AcDbEntity
  8
4
100
AcDbPoint
 10
957.5914993286001
 20
625.1105308532251
 30
0.0
  0
POINT
  5
39D
330
A
100
AcDbEntity
  8
4
100
AcDbPoint
 10
483.0587997436001
 20
554.1951560974751
 30
0.0
  0
POINT
  5
39E
330
A
100
AcDbEntity
  8
4
100
AcDbPoint
 10
470.0621643066
 20
554.1951560974751
 30
0.0
  0
POINT
  5
39F
330
A
100
AcDbEntity
  8
4
100
AcDbPoint
 10
485.2248992918502
 20
410.445156097475
 30
0.0
  0
POINT
  5
3A0
330
A
100
AcDbEntity
  8
4
100
AcDbPoint
 10
470.0621643066
 20
410.445156097475
 30
0.0
  0
POINT
  5
3A1
330
A
100
AcDbEntity
  8
4
100
AcDbPoint
 10
94.06668090810001
 20
486.7435646057249
 30
0.0
  0
POINT
  5
3A2
330
A
100
AcDbEntity
  8
4
100
AcDbPoint
 10
124.5711364744749
 20
486.7435646057249
 30
0.0
  0
POINT
  5
3A3
330
A
100
AcDbEntity
  8
4
100
AcDbPoint
 10
93.16259765610004
 20
476.7435646057249
 30
0.0
  0
POINT
  5
3A4
330
A
100
AcDbEntity
  8
4
100
AcDbPoint
 10
124.5711364744749
 20
476.7435646057249
 30
0.0
  0
POINT
  5
3A5
330
A
100
AcDbEntity
  8
4
100
AcDbPoint
 10
60.31416320797507
 20
481.7435646057249
 30
0.0
  0
POINT
  5
3A6
330
A
100
AcDbEntity
  8
4
100
AcDbPoint
 10
60.31416320797507
 20
528.398342132475
 30
0.0
  0
POINT
  5
3A7
330
A
100
AcDbEntity
  8
4
100
AcDbPoint
 10
94.06668090810001
 20
479.6610069274749
 30
0.0
  0
POINT
  5
3A8
330
A
100
AcDbEntity
  8
4
100
AcDbPoint
 10
94.06668090810001
 20
528.398342132475
 30
0.0
  0
POINT
  5
3A9
330
A
100
AcDbEntity
  8
4
100
AcDbPoint
 10
825.1391830443502
 20
424.867801666225
 30
0.0
  0
POINT
  5
3AA
330
A
100
AcDbEntity
  8
4
100
AcDbPoint
 10
909.8703231811001
 20
340.1366996764749
 30
0.0
  0
POINT
  5
3AB
330
A
100
AcDbEntity
  8
4
100
AcDbPoint
 10
940.0432815551003
 20
539.771938323975
 30
0.0
  0
POINT
  5
3AC
330
A
100
AcDbEntity
  8
4
100
AcDbPoint
 10
1024.77442169185
 20
455.0408363342249
 30
0.0
  0
POINT
  5
3AD
330
A
100
AcDbEntity
  8
4
100
AcDbPoint
 10
825.0077285766002
 20
407.320156097475
 30
0.0
  0
POINT
  5
3AE
330
A
100
AcDbEntity
  8
4
100
AcDbPoint
 10
915.6511917113503
 20
316.67581558235
 30
0.0
  0
POINT
  5
3AF
330
A
100
AcDbEntity
  8
4
100
AcDbPoint
 10
957.5914993286001
 20
539.9026679992251
 30
0.0
  0
POINT
  5
3B0
330
A
100
AcDbEntity
  8
4
100
AcDbPoint
 10
1048.23496246335
 20
449.2583274841
 30
0.0
  0
POINT
  5
3B1
330
A
100
AcDbEntity
  8
4
100
AcDbPoint
 10
819.5156326293501
 20
424.7314643859749
 30
0.0
  0
POINT
  5
3B2
330
A
100
AcDbEntity
  8
4
100
AcDbPoint
 10
819.5156326293501
 20
384.9080848693499
 30
0.0
  0
POINT
  5
3B3
330
A
100
AcDbEntity
  8
4
100
AcDbPoint
 10
830.7098617553501
 20
425.6456565857249
 30
0.0
  0
POINT
  5
3B4
330
A
100
AcDbEntity
  8
4
100
AcDbPoint
 10
830.7098617553501
 20
384.9080848693499
 30
0.0
  0
POINT
  5
3B5
330
A
100
AcDbEntity
  8
4
100
AcDbPoint
 10
882.5914993286001
 20
594.195156097475
 30
0.0
  0
POINT
  5
3B6
330
A
100
AcDbEntity
  8
4
100
AcDbPoint
 10
993.5407485961
 20
594.195156097475
 30
0.0
  0
POINT
  5
3B7
330
A
100
AcDbEntity
  8
4
100
AcDbPoint
 10
962.2014846801002
 20
482.320156097475
 30
0.0
  0
POINT
  5
3B8
330
A
100
AcDbEntity
  8
4
100
AcDbPoint
 10
993.5407485961
 20
482.320156097475
 30
0.0
  0
POINT
  5
3B9
330
A
100
AcDbEntity
  8
4
100
AcDbPoint
 10
241.6180839537251
 20
467.320156097475
 30
0.0
  0
POINT
  5
3BA
330
A
100
AcDbEntity
  8
4
100
AcDbPoint
 10
202.4994697569751
 20
467.320156097475
 30
0.0
  0
POINT
  5
3BB
330
A
100
AcDbEntity
  8
4
100
AcDbPoint
 10
246.5078964232251
 20
497.3205757141
 30
0.0
  0
POINT
  5
3BC
330
A
100
AcDbEntity
  8
4
100
AcDbPoint
 10
202.4994697569751
 20
497.3205757141
 30
0.0
  0
POINT
  5
3BD
330
A
100
AcDbEntity
  8
4
100
AcDbPoint
 10
234.777740478475
 20
488.00245285035
 30
0.0
  0
POINT
  5
3BE
330
A
100
AcDbEntity
  8
4
100
AcDbPoint
 10
234.777740478475
 20
582.4698829650999
 30
0.0
  0
POINT
  5
3BF
330
A
100
AcDbEntity
  8
4
100
AcDbPoint
 10
238.527740478475
 20
482.320156097475
 30
0.0
  0
POINT
  5
3C0
330
A
100
AcDbEntity
  8
4
100
AcDbPoint
 10
238.527740478475
 20
582.4698829650999
 30
0.0
  0
POINT
  5
3C1
330
A
100
AcDbEntity
  8
4
100
AcDbPoint
 10
292.9028739928501
 20
422.0367240905999
 30
0.0
  0
POINT
  5
3C2
330
A
100
AcDbEntity
  8
4
100
AcDbPoint
 10
292.9028739928501
 20
382.04885482785
 30
0.0
  0
POINT
  5
3C3
330
A
100
AcDbEntity
  8
4
100
AcDbPoint
 10
297.27787399285
 20
429.7451972960999
 30
0.0
  0
POINT
  5
3C4
330
A
100
AcDbEntity
  8
4
100
AcDbPoint
 10
297.27787399285
 20
382.04885482785
 30
0.0
  0
POINT
  5
3C5
330
A
100
AcDbEntity
  8
4
100
AcDbPoint
 10
297.27787399285
 20
369.510097503725
 30
0.0
  0
POINT
  5
3C6
330
A
100
AcDbEntity
  8
4
100
AcDbPoint
 10
297.27787399285
 20
356.514453887975
 30
0.0
  0
POINT
  5
3C7
330
A
100
AcDbEntity
  8
4
100
AcDbPoint
 10
563.527969360225
 20
416.0813713073499
 30
0.0
  0
POINT
  5
3C8
330
A
100
AcDbEntity
  8
4
100
AcDbPoint
 10
563.527969360225
 20
356.514453887975
 30
0.0
  0
POINT
  5
3C9
330
A
100
AcDbEntity
  8
4
100
AcDbPoint
 10
297.27787399285
 20
389.275569915725
 30
0.0
  0
POINT
  5
3CA
330
A
100
AcDbEntity
  8
4
100
AcDbPoint
 10
297.27787399285
 20
356.514453887975
 30
0.0
  0
POINT
  5
3CB
330
A
100
AcDbEntity
  8
4
100
AcDbPoint
 10
234.777740478475
 20
475.0326728821001
 30
0.0
  0
POINT
  5
3CC
330
A
100
AcDbEntity
  8
4
100
AcDbPoint
 10
234.777740478475
 20
356.514453887975
 30
0.0
  0
POINT
  5
3CD
330
A
100
AcDbEntity
  8
4
100
AcDbPoint
 10
308.5278930663501
 20
431.2441062927249
 30
0.0
  0
POINT
  5
3CE
330
A
100
AcDbEntity
  8
4
100
AcDbPoint
 10
308.5278930663501
 20
382.04885482785
 30
0.0
  0
POINT
  5
3CF
330
A
100
AcDbEntity
  8
4
100
AcDbPoint
 10
343.52789306635
 20
430.1610374451
 30
0.0
  0
POINT
  5
3D0
330
A
100
AcDbEntity
  8
4
100
AcDbPoint
 10
343.52789306635
 20
382.04885482785
 30
0.0
  0
POINT
  5
3D1
330
A
100
AcDbEntity
  8
4
100
AcDbPoint
 10
297.2789230346
 20
549.2968559264752
 30
0.0
  0
POINT
  5
3D2
330
A
100
AcDbEntity
  8
4
100
AcDbPoint
 10
297.2789230346
 20
625.1105308532251
 30
0.0
  0
POINT
  5
3D3
330
A
100
AcDbEntity
  8
4
100
AcDbPoint
 10
519.77793121335
 20
589.3697929382248
 30
0.0
  0
POINT
  5
3D4
330
A
100
AcDbEntity
  8
4
100
AcDbPoint
 10
519.77793121335
 20
625.1105308532251
 30
0.0
  0
POINT
  5
3D5
330
A
100
AcDbEntity
  8
4
100
AcDbPoint
 10
297.2789230346
 20
570.9578895568499
 30
0.0
  0
POINT
  5
3D6
330
A
100
AcDbEntity
  8
4
100
AcDbPoint
 10
297.2789230346
 20
647.8546333313502
 30
0.0
  0
POINT
  5
3D7
330
A
100
AcDbEntity
  8
4
100
AcDbPoint
 10
597.2766723632251
 20
572.0409584046
 30
0.0
  0
POINT
  5
3D8
330
A
100
AcDbEntity
  8
4
100
AcDbPoint
 10
597.2766723632251
 20
647.8546333313502
 30
0.0
  0
POINT
  5
3D9
330
A
100
AcDbEntity
  8
4
100
AcDbPoint
 10
308.5289230346
 20
532.9888725280999
 30
0.0
  0
POINT
  5
3DA
330
A
100
AcDbEntity
  8
4
100
AcDbPoint
 10
308.5289230346
 20
604.3803215027248
 30
0.0
  0
POINT
  5
3DB
330
A
100
AcDbEntity
  8
4
100
AcDbPoint
 10
297.2789230346
 20
528.0990409850999
 30
0.0
  0
POINT
  5
3DC
330
A
100
AcDbEntity
  8
4
100
AcDbPoint
 10
297.2789230346
 20
604.3803215027248
 30
0.0
  0
POINT
  5
3DD
330
A
100
AcDbEntity
  8
4
100
AcDbPoint
 10
238.527740478475
 20
482.320156097475
 30
0.0
  0
POINT
  5
3DE
330
A
100
AcDbEntity
  8
4
100
AcDbPoint
 10
238.527740478475
 20
582.4698829650999
 30
0.0
  0
POINT
  5
3DF
330
A
100
AcDbEntity
  8
4
100
AcDbPoint
 10
288.5278549193501
 20
482.320156097475
 30
0.0
  0
POINT
  5
3E0
330
A
100
AcDbEntity
  8
4
100
AcDbPoint
 10
288.5278549193501
 20
582.4698829650999
 30
0.0
  0
POINT
  5
3E1
330
A
100
AcDbEntity
  8
4
100
AcDbPoint
 10
293.5289230346
 20
551.0706901550999
 30
0.0
  0
POINT
  5
3E2
330
A
100
AcDbEntity
  8
4
100
AcDbPoint
 10
170.0566139219751
 20
551.0706901550999
 30
0.0
  0
POINT
  5
3E3
330
A
100
AcDbEntity
  8
4
100
AcDbPoint
 10
293.5289230346
 20
413.5690498352249
 30
0.0
  0
POINT
  5
3E4
330
A
100
AcDbEntity
  8
4
100
AcDbPoint
 10
170.0566139219751
 20
413.5690498352249
 30
0.0
  0
MTEXT
  5
3E6
330
A
100
AcDbEntity
  8
6
 62
    92
100
AcDbMText
 10
292.1112354954
 20
257.3893015344999
 30
0.0
 40
6.428574919699999
 41
0.0
 71
     1
 72
     1
  1
Typ
  7
SLDTEXTSTYLE0
 73
     1
 44
1.0
  0
MTEXT
  5
3E7
330
A
100
AcDbEntity
  8
6
 62
    92
100
AcDbMText
 10
292.1112354954
 20
244.0553019006999
 30
0.0
 40
6.428574919699999
 41
0.0
 71
     1
 72
     1
  1
LSM 130-78-454-E2/S/M-OKA
  7
SLDTEXTSTYLE0
 73
     1
 44
1.0
  0
MTEXT
  5
3EA
330
A
100
AcDbEntity
  8
6
 62
    92
100
AcDbMText
 10
419.6687306124999
 20
257.3893015344999
 30
0.0
 40
6.428574919699999
 41
0.0
 71
     1
 72
     1
  1
a [mm]
  7
SLDTEXTSTYLE0
 73
     1
 44
1.0
  0
MTEXT
  5
3EB
330
A
100
AcDbEntity
  8
6
 62
    92
100
AcDbMText
 10
419.6687306124999
 20
244.056293722
 30
0.0
 40
6.428574919699999
 41
0.0
 71
     1
 72
     1
  1
240
  7
SLDTEXTSTYLE0
 73
     1
 44
1.0
  0
MTEXT
  5
3EC
330
A
100
AcDbEntity
  8
6
 62
    92
100
AcDbMText
 10
520.1447132785999
 20
257.3893015344999
 30
0.0
 40
6.428574919699999
 41
0.0
 71
     1
 72
     1
  1
c [mm]
  7
SLDTEXTSTYLE0
 73
     1
 44
1.0
  0
MTEXT
  5
3ED
330
A
100
AcDbEntity
  8
6
 62
    92
100
AcDbMText
 10
520.1447132785999
 20
244.056293722
 30
0.0
 40
6.428574919699999
 41
0.0
 71
     1
 72
     1
  1
213
  7
SLDTEXTSTYLE0
 73
     1
 44
1.0
  0
MTEXT
  5
3EE
330
A
100
AcDbEntity
  8
6
 62
    92
100
AcDbMText
 10
469.9067372043
 20
257.3893015344999
 30
0.0
 40
6.428574919699999
 41
0.0
 71
     1
 72
     1
  1
b [mm]
  7
SLDTEXTSTYLE0
 73
     1
 44
1.0
  0
MTEXT
  5
3EF
330
A
100
AcDbEntity
  8
6
 62
    92
100
AcDbMText
 10
570.3827503879
 20
257.3892939050999
 30
0.0
 40
6.428574919699999
 41
0.0
 71
     1
 72
     1
  1
d [mm]
  7
SLDTEXTSTYLE0
 73
     1
 44
1.0
  0
MTEXT
  5
3F0
330
A
100
AcDbEntity
  8
6
 62
    92
100
AcDbMText
 10
570.3827503879
 20
244.056293722
 30
0.0
 40
6.428574919699999
 41
0.0
 71
     1
 72
     1
  1
320
  7
SLDTEXTSTYLE0
 73
     1
 44
1.0
  0
MTEXT
  5
3F1
330
A
100
AcDbEntity
  8
6
 62
    92
100
AcDbMText
 10
292.1111439426999
 20
230.7222940881999
 30
0.0
 40
6.428574919699999
 41
0.0
 71
     1
 72
     1
  1
LSM 130-102-304-E2/S/M-OKA
  7
SLDTEXTSTYLE0
 73
     1
 44
1.0
  0
MTEXT
  5
3F3
330
A
100
AcDbEntity
  8
6
 62
    92
100
AcDbMText
 10
419.6687306124999
 20
230.7232935388999
 30
0.0
 40
6.428574919699999
 41
0.0
 71
     1
 72
     1
  1
278
  7
SLDTEXTSTYLE0
 73
     1
 44
1.0
  0
MTEXT
  5
3F4
330
A
100
AcDbEntity
  8
6
 62
    92
100
AcDbMText
 10
520.1447437961
 20
230.7232935388999
 30
0.0
 40
6.428574919699999
 41
0.0
 71
     1
 72
     1
  1
251
  7
SLDTEXTSTYLE0
 73
     1
 44
1.0
  0
MTEXT
  5
3F5
330
A
100
AcDbEntity
  8
6
 62
    92
100
AcDbMText
 10
570.3827198704
 20
230.7232935388999
 30
0.0
 40
6.428574919699999
 41
0.0
 71
     1
 72
     1
  1
358
  7
SLDTEXTSTYLE0
 73
     1
 44
1.0
  0
MTEXT
  5
3F6
330
A
100
AcDbEntity
  8
6
 62
    92
100
AcDbMText
 10
469.9067677218999
 20
230.7232935388999
 30
0.0
 40
6.428574919699999
 41
0.0
 71
     1
 72
     1
  1
216
  7
SLDTEXTSTYLE0
 73
     1
 44
1.0
  0
MTEXT
  5
3F7
330
A
100
AcDbEntity
  8
6
 62
    92
100
AcDbMText
 10
469.9067372043
 20
244.056293722
 30
0.0
 40
6.428574919699999
 41
0.0
 71
     1
 72
     1
  1
178
  7
SLDTEXTSTYLE0
 73
     1
 44
1.0
  0
MTEXT
  5
3F8
330
A
100
AcDbEntity
  8
6
 62
    92
100
AcDbMText
 10
697.5661120566679
 20
663.9609146117249
 30
0.0
 40
8.75
 41
0.0
 71
     2
 72
     1
  1
encoder
  7
SLDTEXTSTYLE0
 73
     1
 44
1.0
  0
MTEXT
  5
3F9
330
A
100
AcDbEntity
  8
6
 62
    92
100
AcDbMText
 10
698.499095455168
 20
677.944923400825
 30
0.0
 40
8.75
 41
0.0
 71
     2
 72
     1
  1
connector for
  7
SLDTEXTSTYLE0
 73
     1
 44
1.0
  0
MTEXT
  5
3FA
330
A
100
AcDbEntity
  8
6
 62
    92
100
AcDbMText
 10
404.8766174316001
 20
486.9264124705999
 30
0.0
 40
7.50001885
 41
0.0
 71
     2
 72
     1
  1
rating plate
  7
SLDTEXTSTYLE0
 73
     1
 44
1.0
  0
MTEXT
  5
3FB
330
A
100
AcDbEntity
  8
6
 62
    92
100
AcDbMText
 10
262.937863782243
 20
306.0652372254125
 30
0.0
 40
8.049999833099999
 41
0.0
 71
     2
 72
     1
  1
center hole D M8 DIN 332 Bl.2
  7
SLDTEXTSTYLE0
 73
     1
 44
1.0
  0
MTEXT
  5
3FC
330
A
100
AcDbEntity
  8
6
 62
    92
100
AcDbMText
 10
136.5759887694999
 20
633.45600897075
 30
0.0
 40
8.000000119199999
 41
0.0
 71
     2
 72
     1
  1
+0.002
  7
SLDTEXTSTYLE0
 73
     1
 44
1.0
  0
MTEXT
  5
3FD
330
A
100
AcDbEntity
  8
6
 62
    92
100
AcDbMText
 10
136.5759887694999
 20
618.94599920515
 30
0.0
 40
8.000000119199999
 41
0.0
 71
     2
 72
     1
  1
+0.013
  7
SLDTEXTSTYLE0
 73
     1
 44
1.0
  0
MTEXT
  5
3FE
330
A
100
AcDbEntity
  8
6
 62
    92
100
AcDbMText
 10
136.5759887694999
 20
607.44001775975
 30
0.0
 40
8.000000119199999
 41
0.0
 71
     2
 72
     1
  1
-0.009
  7
SLDTEXTSTYLE0
 73
     1
 44
1.0
  0
MTEXT
  5
3FF
330
A
100
AcDbEntity
  8
6
 62
    92
100
AcDbMText
 10
68.28900146479998
 20
613.20002752545
 30
0.0
 40
8.000000119199999
 41
0.0
 71
     2
 72
     1
  1
110
  7
SLDTEXTSTYLE0
 73
     1
 44
1.0
  0
MTEXT
  5
400
330
A
100
AcDbEntity
  8
6
 62
    92
100
AcDbMText
 10
81.28594970699998
 20
608.73402416705
 30
0.0
 40
6.0000002384
 41
0.0
 71
     2
 72
     1
  1
j6
  7
SLDTEXTSTYLE0
 73
     1
 44
1.0
  0
MTEXT
  5
401
330
A
100
AcDbEntity
  8
6
 62
    92
100
AcDbMText
 10
68.28900146479998
 20
638.8000031113501
 30
0.0
 40
8.000000119199999
 41
0.0
 71
     2
 72
     1
  1
24
  7
SLDTEXTSTYLE0
 73
     1
 44
1.0
  0
MTEXT
  5
402
330
A
100
AcDbEntity
  8
6
 62
    92
100
AcDbMText
 10
81.28594970699998
 20
634.33399975295
 30
0.0
 40
6.0000002384
 41
0.0
 71
     2
 72
     1
  1
k6
  7
SLDTEXTSTYLE0
 73
     1
 44
1.0
  0
MTEXT
  5
403
330
A
100
AcDbEntity
  8
6
 62
    92
100
AcDbMText
 10
136.5759887694999
 20
643.46199041605
 30
0.0
 40
8.000000119199999
 41
0.0
 71
     2
 72
     1
  1
+0.015
  7
SLDTEXTSTYLE0
 73
     1
 44
1.0
  0
MTEXT
  5
404
330
A
100
AcDbEntity
  8
6
 62
    92
100
AcDbMText
 10
625.4930419922
 20
755.4171413183
 30
0.0
 40
7.9749000072
 41
0.0
 71
     2
 72
     1
  1
Three phase current synchronous motor
  7
SLDTEXTSTYLE0
 73
     1
 44
1.0
  0
MTEXT
  5
405
330
A
100
AcDbEntity
  8
6
 62
    92
100
AcDbMText
 10
502.5850219726
 20
753.7694739698999
 30
0.0
 40
5.4374998808
 41
0.0
 71
     2
 72
     1
  1
motortyp :
  7
SLDTEXTSTYLE0
 73
     1
 44
1.0
  0
MTEXT
  5
406
330
A
100
AcDbEntity
  8
6
 62
    92
100
AcDbMText
 10
150.5440101623
 20
737.2992308736
 30
0.0
 40
7.612499833099999
 41
0.0
 71
     2
 72
     1
  1
IP 65
  7
SLDTEXTSTYLE0
 73
     1
 44
1.0
  0
MTEXT
  5
407
330
A
100
AcDbEntity
  8
6
 62
    92
100
AcDbMText
 10
39.48609107859999
 20
754.6803403484
 30
0.0
 40
5.4374998808
 41
0.0
 71
     1
 72
     1
  1
mounting of motor :
  7
SLDTEXTSTYLE0
 73
     1
 44
1.0
  0
MTEXT
  5
408
330
A
100
AcDbEntity
  8
6
 62
    92
100
AcDbMText
 10
39.48609107859999
 20
737.2803159343
 30
0.0
 40
5.4374998808
 41
0.0
 71
     1
 72
     1
  1
class of protection:
  7
SLDTEXTSTYLE0
 73
     1
 44
1.0
  0
MTEXT
  5
409
330
A
100
AcDbEntity
  8
6
 62
    92
100
AcDbMText
 10
150.8009986876999
 20
754.7592528462001
 30
0.0
 40
7.612499833099999
 41
0.0
 71
     2
 72
     1
  1
B 5
  7
SLDTEXTSTYLE0
 73
     1
 44
1.0
  0
MTEXT
  5
40A
330
A
100
AcDbEntity
  8
6
 62
    92
100
AcDbMText
 10
102.5340003966999
 20
698.4590012430999
 30
0.0
 40
7.8299897909
 41
0.0
 71
     2
 72
     1
  1
     all dimensions in millimeter
  7
SLDTEXTSTYLE0
 73
     1
 44
1.0
  0
MTEXT
  5
414
330
A
100
AcDbEntity
  8
6
 62
    92
100
AcDbMText
 10
936.4205322265
 20
246.9759696126
 30
0.0
 40
7.920010209099999
 41
0.0
 71
     2
 72
     1
  1
projection
  7
SLDTEXTSTYLE0
 73
     1
 44
1.0
  0
MTEXT
  5
418
330
A
100
AcDbEntity
  8
6
 62
    92
100
AcDbMText
 10
462.8510131836
 20
211.8276153802999
 30
0.0
 40
7.650019884099999
 41
0.0
 71
     2
 72
     1
  1
subject to alterations
  7
SLDTEXTSTYLE0
 73
     1
 44
1.0
  0
MTEXT
  5
41A
330
A
100
AcDbEntity
  8
4
 62
    92
100
AcDbMText
 10
655.5973390158501
 20
526.9291775442249
 30
0.0
 40
6.250000148999999
 41
0.0
 71
     1
 72
     1
  1
77
  7
SLDTEXTSTYLE0
 11
0.0
 21
1.0
 31
0.0
 73
     1
 44
1.0
  0
MTEXT
  5
41B
330
A
100
AcDbEntity
  8
4
 62
    92
100
AcDbMText
 10
429.1528443146001
 20
333.436192547225
 30
0.0
 40
6.250000148999999
 41
0.0
 71
     1
 72
     1
  1
d
  7
SLDTEXTSTYLE0
 73
     1
 44
1.0
  0
MTEXT
  5
41C
330
A
100
AcDbEntity
  8
4
 62
    92
100
AcDbMText
 10
690.2551225242251
 20
476.716698906475
 30
0.0
 40
6.250000148999999
 41
0.0
 71
     1
 72
     1
  1
90
  7
SLDTEXTSTYLE0
 11
0.0
 21
1.0
 31
0.0
 73
     1
 44
1.0
  0
MTEXT
  5
41D
330
A
100
AcDbEntity
  8
4
 62
    92
100
AcDbMText
 10
878.8474015046002
 20
633.4417810787251
 30
0.0
 40
6.250000148999999
 41
0.0
 71
     1
 72
     1
  1
120
  7
SLDTEXTSTYLE0
 73
     1
 44
1.0
  0
MTEXT
  5
41E
330
A
100
AcDbEntity
  8
4
 62
    92
100
AcDbMText
 10
461.7309144553501
 20
480.16343047385
 30
0.0
 40
6.250000148999999
 41
0.0
 71
     1
 72
     1
  1
115
  7
SLDTEXTSTYLE0
 11
0.0
 21
1.0
 31
0.0
 73
     1
 44
1.0
  0
MTEXT
  5
41F
330
A
100
AcDbEntity
  8
4
 62
    92
100
AcDbMText
 10
116.239886623225
 20
497.5748150563498
 30
0.0
 40
6.250000148999999
 41
0.0
 71
     1
 72
     1
  1
8
  7
SLDTEXTSTYLE0
 11
0.0
 21
1.0
 31
0.0
 73
     1
 44
1.0
  0
MTEXT
  5
420
330
A
100
AcDbEntity
  8
4
 62
    92
100
AcDbMText
 10
73.67478645335001
 20
536.7295923579749
 30
0.0
 40
6.250000148999999
 41
0.0
 71
     1
 72
     1
  1
27
  7
SLDTEXTSTYLE0
 73
     1
 44
1.0
  0
MTEXT
  5
421
330
A
100
AcDbEntity
  8
4
 62
    92
100
AcDbMText
 10
955.9622265122252
 20
398.010808538225
 30
0.0
 40
6.250000148999999
 41
0.0
 71
     1
 72
     1
  1
%%c130
  7
SLDTEXTSTYLE0
 11
0.7071066404865335
 21
0.7071069218865337
 31
0.0
 73
     1
 44
1.0
  0
MTEXT
  5
422
330
A
100
AcDbEntity
  8
4
 62
    92
100
AcDbMText
 10
971.6643196653501
 20
384.47056236085
 30
0.0
 40
6.250000148999999
 41
0.0
 71
     1
 72
     1
  1
150
  7
SLDTEXTSTYLE0
 11
0.7071101232286499
 21
0.7071034391286496
 31
0.0
 73
     1
 44
1.0
  0
MTEXT
  5
423
330
A
100
AcDbEntity
  8
4
 62
    92
100
AcDbMText
 10
801.653111343475
 20
393.2393350948499
 30
0.0
 40
6.250000148999999
 41
0.0
 71
     1
 72
     1
  1
%%c9
  7
SLDTEXTSTYLE0
 73
     1
 44
1.0
  0
MTEXT
  5
424
330
A
100
AcDbEntity
  8
4
 62
    92
100
AcDbMText
 10
985.2094987448502
 20
534.742020866975
 30
0.0
 40
6.250000148999999
 41
0.0
 71
     1
 72
     1
  1
90
  7
SLDTEXTSTYLE0
 11
0.0
 21
1.0
 31
0.0
 73
     1
 44
1.0
  0
MTEXT
  5
425
330
A
100
AcDbEntity
  8
4
 62
    92
100
AcDbMText
 10
194.168219905725
 20
437.40326812035
 30
0.0
 40
6.250000148999999
 41
0.0
 71
     1
 72
     1
  1
%%c24
  7
SLDTEXTSTYLE0
 11
0.0
 21
1.0
 31
0.0
 73
     1
 44
1.0
  0
MTEXT
  5
426
330
A
100
AcDbEntity
  8
4
 62
    92
100
AcDbMText
 10
196.6675950002251
 20
452.1913761657249
 30
0.0
 40
4.375
 41
0.0
 71
     1
 72
     1
  1
k6
  7
SLDTEXTSTYLE0
 11
0.0
 21
1.0
 31
0.0
 73
     1
 44
1.0
  0
MTEXT
  5
427
330
A
100
AcDbEntity
  8
4
 62
    92
100
AcDbMText
 10
221.1339882661001
 20
590.8011331906
 30
0.0
 40
6.250000148999999
 41
0.0
 71
     1
 72
     1
  1
3
  7
SLDTEXTSTYLE0
 73
     1
 44
1.0
  0
MTEXT
  5
428
330
A
100
AcDbEntity
  8
4
 62
    92
100
AcDbMText
 10
270.8216217804751
 20
390.38010505335
 30
0.0
 40
6.250000148999999
 41
0.0
 71
     1
 72
     1
  1
3.5
  7
SLDTEXTSTYLE0
 73
     1
 44
1.0
  0
MTEXT
  5
429
330
A
100
AcDbEntity
  8
4
 62
    92
100
AcDbMText
 10
424.7779206086002
 20
364.8457041133499
 30
0.0
 40
6.250000148999999
 41
0.0
 71
     1
 72
     1
  1
c
  7
SLDTEXTSTYLE0
 73
     1
 44
1.0
  0
MTEXT
  5
42A
330
A
100
AcDbEntity
  8
4
 62
    92
100
AcDbMText
 10
262.5121811676001
 20
364.8457041133499
 30
0.0
 40
6.250000148999999
 41
0.0
 71
     1
 72
     1
  1
50
  7
SLDTEXTSTYLE0
 73
     1
 44
1.0
  0
MTEXT
  5
42B
330
A
100
AcDbEntity
  8
4
 62
    92
100
AcDbMText
 10
322.5122574616001
 20
390.38010505335
 30
0.0
 40
6.250000148999999
 41
0.0
 71
     1
 72
     1
  1
28
  7
SLDTEXTSTYLE0
 73
     1
 44
1.0
  0
MTEXT
  5
42C
330
A
100
AcDbEntity
  8
4
 62
    92
100
AcDbMText
 10
402.903416519225
 20
633.4417810787251
 30
0.0
 40
6.250000148999999
 41
0.0
 71
     1
 72
     1
  1
b
  7
SLDTEXTSTYLE0
 73
     1
 44
1.0
  0
MTEXT
  5
42D
330
A
100
AcDbEntity
  8
4
 62
    92
100
AcDbMText
 10
441.6528061676001
 20
656.1858835567252
 30
0.0
 40
6.250000148999999
 41
0.0
 71
     1
 72
     1
  1
a
  7
SLDTEXTSTYLE0
 73
     1
 44
1.0
  0
MTEXT
  5
42E
330
A
100
AcDbEntity
  8
4
 62
    92
100
AcDbMText
 10
319.3601731109751
 20
612.7115717280998
 30
0.0
 40
6.250000148999999
 41
0.0
 71
     1
 72
     1
  1
9
  7
SLDTEXTSTYLE0
 73
     1
 44
1.0
  0
MTEXT
  5
42F
330
A
100
AcDbEntity
  8
4
 62
    92
100
AcDbMText
 10
260.0121811676001
 20
590.8011331906
 30
0.0
 40
6.250000148999999
 41
0.0
 71
     1
 72
     1
  1
40
  7
SLDTEXTSTYLE0
 73
     1
 44
1.0
  0
MTEXT
  5
430
330
A
100
AcDbEntity
  8
4
 62
    92
100
AcDbMText
 10
161.7253640708501
 20
470.66769530535
 30
0.0
 40
6.250000148999999
 41
0.0
 71
     1
 72
     1
  1
%%c110
  7
SLDTEXTSTYLE0
 11
0.0
 21
1.0
 31
0.0
 73
     1
 44
1.0
  0
MTEXT
  5
431
330
A
100
AcDbEntity
  8
4
 62
    92
100
AcDbMText
 10
164.2247391652251
 20
489.6745533508499
 30
0.0
 40
4.375
 41
0.0
 71
     1
 72
     1
  1
j6
  7
SLDTEXTSTYLE0
 11
0.0
 21
1.0
 31
0.0
 73
     1
 44
1.0
  0
MTEXT
  5
432
330
A
100
AcDbEntity
  8
6
 62
    92
100
AcDbMText
 10
610.9852294921999
 20
735.4169560671
 30
0.0
 40
18.3330500126
 41
0.0
 71
     2
 72
     1
  1
LSM130
  7
SLDTEXTSTYLE0
 73
     1
 44
1.0
  0
INSERT
  5
57E
330
A
100
AcDbEntity
  8
0
  6
Continuous
100
AcDbBlockReference
 66
     1
  2
BM_Emetric
 10
0.0
 20
0.0
 30
0.0
  0
ATTRIB
  5
580
330
57E
100
AcDbEntity
  8
TITLE BLOCK
  6
Continuous
100
AcDbText
 10
897.8899999999997
 20
82.55174299761829
 30
0.0
 40
5.133906008519999
  1
G. MUMM
100
AcDbAttribute
  2
GEN-TITLE-NAME{5}
 70
     0
  0
ATTRIB
  5
581
330
57E
100
AcDbEntity
  8
TITLE BLOCK
  6
Continuous
100
AcDbText
 10
897.8899999999997
 20
69.8517429976183
 30
0.0
 40
5.133906008519999
  1

100
AcDbAttribute
  2
GEN-TITLE-CHKM{5}
 70
     0
  0
ATTRIB
  5
582
330
57E
100
AcDbEntity
  8
TITLE BLOCK
  6
Continuous
100
AcDbText
 10
897.8899999999997
 20
57.1517429976183
 30
0.0
 40
5.133906008519999
  1

100
AcDbAttribute
  2
GEN-TITLE-APPM{5}
 70
     0
  0
ATTRIB
  5
583
330
57E
100
AcDbEntity
  8
TITLE BLOCK
  6
Continuous
100
AcDbText
 10
812.8
 20
31.75
 30
0.0
 40
7.62
  1
SERVO MOTOR, LSM130
 41
0.8
100
AcDbAttribute
  2
GEN-TITLE-DES1{15.54}
 70
     0
  0
ATTRIB
  5
584
330
57E
100
AcDbEntity
  8
TITLE BLOCK
  6
Continuous
100
AcDbText
 10
1074.42
 20
57.15174299761829
 30
0.0
 40
5.998969170955619
  1
1
 41
0.8
100
AcDbAttribute
  2
GEN-TITLE-SHEET-OF{2.62}
 70
     0
  0
ATTRIB
  5
585
330
57E
100
AcDbEntity
  8
TITLE BLOCK
  6
Continuous
100
AcDbText
 10
1054.099999999999
 20
57.15174299761829
 30
0.0
 40
5.998969170955619
  1
1
 41
0.8
100
AcDbAttribute
  2
GEN-TITLE-SHEET{2.62}
 70
     0
  0
ATTRIB
  5
586
330
57E
100
AcDbEntity
  8
TITLE BLOCK
  6
Continuous
100
AcDbText
 10
975.3600000000002
 20
57.1517429976183
 30
0.0
 40
5.133906008519999
  1

 41
0.8
100
AcDbAttribute
  2
GEN-TITLE-MAT{11.15}
 70
     0
  0
ATTRIB
  5
587
330
57E
100
AcDbEntity
  8
TITLE BLOCK
  6
Continuous
100
AcDbText
 10
975.3600000000002
 20
69.8517429976183
 30
0.0
 40
5.133906008519999
  1

100
AcDbAttribute
  2
GEN-TITLE-MACH{5}
 70
     0
  0
ATTRIB
  5
588
330
57E
100
AcDbEntity
  8
TITLE BLOCK
  6
Continuous
100
AcDbText
 10
975.3600000000002
 20
82.55174299761829
 30
0.0
 40
5.133906008519999
  1
70503200
100
AcDbAttribute
  2
GEN-TITLE-REF{5}
 70
     0
  0
ATTRIB
  5
589
330
57E
100
AcDbEntity
  8
TITLE BLOCK
  6
Continuous
100
AcDbText
 10
1049.39
 20
69.85174299761829
 30
0.0
 40
5.133906008519999
  1
14.01.03
100
AcDbAttribute
  2
GEN-TITLE-PLOT{5}
 70
     0
  0
ATTRIB
  5
58A
330
57E
100
AcDbEntity
  8
TITLE BLOCK
  6
Continuous
100
AcDbText
 10
965.2000000000001
 20
31.75
 30
0.0
 40
7.62
  1
LSM130-xxx-xxx-xxx-0KA
 41
0.8
100
AcDbAttribute
  2
GEN-TITLE-NR{13.37}
 70
     0
  0
SEQEND
  5
57F
330
57E
100
AcDbEntity
  8
0
  6
Continuous
  0
ENDSEC
  0
SECTION
  2
OBJECTS
  0
DICTIONARY
  5
19
330
0
100
AcDbDictionary
281
     1
  3
ACAD_GROUP
350
1A
  3
ACAD_LAYOUT
350
437
  3
ACAD_MLINESTYLE
350
1B
  3
ACAD_PLOTSETTINGS
350
438
  3
ACAD_PLOTSTYLENAME
350
435
  3
AcDbVariableDictionary
350
446
  3
AcmDictionary
350
459
  3
AMG
350
43D
  3
AMGSNAPSETTINGS
350
48C
  3
ASE_INDEX_DICTIONARY
350
58E
  3
DWGPROPS
350
5C5
  0
DICTIONARY
  5
591
330
A
100
AcDbDictionary
280
     1
281
     1
  3
ACAD_INDEX
360
592
  0
DICTIONARY
  5
1A
102
{ACAD_REACTORS
330
19
102
}
330
19
100
AcDbDictionary
281
     1
  0
DICTIONARY
  5
437
102
{ACAD_REACTORS
330
19
102
}
330
19
100
AcDbDictionary
281
     1
  3
Layout1
350
43A
  3
Model
350
439
  0
DICTIONARY
  5
1B
102
{ACAD_REACTORS
330
19
102
}
330
19
100
AcDbDictionary
281
     1
  3
STANDARD
350
1C
  0
DICTIONARY
  5
438
102
{ACAD_REACTORS
330
19
102
}
330
19
100
AcDbDictionary
281
     1
  0
ACDBDICTIONARYWDFLT
  5
435
102
{ACAD_REACTORS
330
19
102
}
330
19
100
AcDbDictionary
281
     1
  3
Normal
350
436
100
AcDbDictionaryWithDefault
340
436
  0
DICTIONARY
  5
446
102
{ACAD_REACTORS
330
19
102
}
330
19
100
AcDbDictionary
281
     1
  3
INDEXCTL
350
447
  0
DICTIONARY
  5
459
102
{ACAD_REACTORS
330
19
102
}
330
19
100
AcDbDictionary
281
     1
  3
AcmBOMDATA
350
45A
  3
AcmStdDictionary
350
45F
  0
DICTIONARY
  5
43D
102
{ACAD_REACTORS
330
19
102
}
330
19
100
AcDbDictionary
281
     1
  3
AcMgSettings
350
43E
  3
AMGLAYCFG
350
461
  0
DICTIONARY
  5
48C
102
{ACAD_REACTORS
330
19
102
}
330
19
100
AcDbDictionary
281
     1
  3
DIMENSION
350
491
  3
FEA
350
490
  3
HATCH (1)
350
48D
  3
HATCH (2)
350
48E
  3
SIMPLE WELD
350
492
  3
SYMBOLS
350
48F
  0
DICTIONARY
  5
58E
102
{ACAD_REACTORS
330
19
102
}
330
19
100
AcDbDictionary
281
     1
  3
ASEBlockHierarchyIndexRecord
350
590
1001
DCO15
1040
1456024230.175
  0
XRECORD
  5
5C5
102
{ACAD_REACTORS
330
19
102
}
330
19
100
AcDbXrecord
280
     1
  1
DWGPROPS COOKIE
  2

  3

  4

  6

  7

  8

  9

300
AmdtFileType=84
301
=
302
=
303
=
304
=
305
=
306
=
307
=
308
=
309
=
 40
0.0051198726851852
 41
2311942.262181168
 42
2452655.335897696
  1

 90
        1
  0
DICTIONARY
  5
592
102
{ACAD_REACTORS
330
591
102
}
330
591
100
AcDbDictionary
281
     1
  3
*A1
350
593
  0
LAYOUT
  5
43A
102
{ACAD_REACTORS
330
437
102
}
330
437
100
AcDbPlotSettings
  1

  2
\\CONTROLSFS1\HP LaserJet 5Si MX
  4

  6

 40
0.0
 41
0.0
 42
0.0
 43
0.0
 44
0.0
 45
0.0
 46
0.0
 47
0.0
 48
0.0
 49
0.0
140
0.0
141
0.0
142
1.0
143
1.0
 70
   688
 72
     0
 73
     0
 74
     5
  7
monochrome.ctb
 75
    16
147
1.0
148
0.0
149
0.0
100
AcDbLayout
  1
Layout1
 70
     1
 71
     1
 10
0.0
 20
0.0
 11
12.0
 21
9.0
 12
0.0
 22
0.0
 32
0.0
 14
1.000000000000000E+20
 24
1.000000000000000E+20
 34
1.000000000000000E+20
 15
-1.000000000000000E+20
 25
-1.000000000000000E+20
 35
-1.000000000000000E+20
146
0.0
 13
0.0
 23
0.0
 33
0.0
 16
1.0
 26
0.0
 36
0.0
 17
0.0
 27
1.0
 37
0.0
 76
     0
330
B
  0
LAYOUT
  5
439
102
{ACAD_REACTORS
330
437
102
}
330
437
100
AcDbPlotSettings
  1

  2
\\Fdlfs06\Engineering - Digital PrintServer 17/600 C
  4
Letter
  6

 40
6.085416793823242
 41
3.630082130432128
 42
6.085418701171875
 43
5.027069091796875
 44
215.8999938964843
 45
279.3999938964843
 46
0.0
 47
3.556
 48
0.0
 49
0.0
140
0.0
141
0.0
142
1.0
143
107.6761863894737
 70
 11956
 72
     0
 73
     1
 74
     1
  7
monochrome.ctb
 75
     0
147
0.0092871045449448
148
0.8662376182213847
149
0.6693654322551538
100
AcDbLayout
  1
Model
 70
     1
 71
     0
 10
0.0
 20
0.0
 11
12.0
 21
9.0
 12
0.0
 22
0.0
 32
0.0
 14
0.0
 24
0.0
 34
0.0
 15
0.0
 25
0.0
 35
0.0
146
0.0
 13
0.0
 23
0.0
 33
0.0
 16
1.0
 26
0.0
 36
0.0
 17
0.0
 27
1.0
 37
0.0
 76
     0
330
A
  0
MLINESTYLE
  5
1C
102
{ACAD_REACTORS
330
1B
102
}
330
1B
100
AcDbMlineStyle
  2
STANDARD
 70
     0
  3

 62
     0
 51
90.0
 52
90.0
 71
     2
 49
0.5
 62
   256
  6
BYLAYER
 49
-0.5
 62
   256
  6
BYLAYER
  0
ACDBPLACEHOLDER
  5
436
102
{ACAD_REACTORS
330
435
102
}
330
435
  0
DICTIONARYVAR
  5
447
102
{ACAD_REACTORS
330
446
102
}
330
446
100
DictionaryVariables
280
     0
  1
1
  0
ACMDATADICTIONARY
  5
45A
102
{ACAD_REACTORS
330
459
102
}
330
459
100
AcDbDictionary
281
     1
  3
*A1
350
45B
100
AcmDataDictionary
  0
DICTIONARY
  5
45F
102
{ACAD_REACTORS
330
459
102
}
330
459
100
AcDbDictionary
281
     1
  3
ANSI
350
460
  0
DICTIONARY
  5
43E
102
{ACAD_REACTORS
330
43D
102
}
330
43D
100
AcDbDictionary
281
     1
  3
DWGSETTINGS
350
43F
  3
TRANSSETTINGS
350
440
  0
ACAMGFILTERDAT
  5
491
102
{ACAD_REACTORS
330
48C
102
}
330
48C
100
AcAmgFilterDat
 70
    15
  1
DIMENSION,AMDT_*_DIM
  2
*
  3
*
  4
*
  5
*
290
     1
  0
ACAMGFILTERDAT
  5
490
102
{ACAD_REACTORS
330
48C
102
}
330
48C
100
AcAmgFilterDat
 70
    15
  1
*
  2
AM_FEA-AM_*
  3
*
  4
*
  5
*
290
     1
  0
ACAMGFILTERDAT
  5
48D
102
{ACAD_REACTORS
330
48C
102
}
330
48C
100
AcAmgFilterDat
 70
    15
  1
HATCH
  2
*
  3
*
  4
*
  5
*
290
     1
  0
ACAMGFILTERDAT
  5
48E
102
{ACAD_REACTORS
330
48C
102
}
330
48C
100
AcAmgFilterDat
 70
    15
  1
LINE
  2
8,8N,*-8,*-8N,AM_8,AM_8N,*-AM_8,*-AM_8N
  3
*
  4
*
  5
INSERT,STDPART2D
290
     1
  0
ACAMGFILTERDAT
  5
492
102
{ACAD_REACTORS
330
48C
102
}
330
48C
100
AcAmgFilterDat
 70
    15
  1
ARC
  2
AM_5
  3
*
  4
2
  5
INSERT
290
     0
  0
ACAMGFILTERDAT
  5
48F
102
{ACAD_REACTORS
330
48C
102
}
330
48C
100
AcAmgFilterDat
 70
    15
  1
ACMFCFRAME,ACMDATUMTARGET,ACMDATUMID,ACMWELDSYM,ACMSURFSYM,ACMFEATID,ACMPARTREF,ACMBALLOON,AMDTEDGESYM
  2
*
  3
*
  4
*
  5
*
290
     1
  0
XRECORD
  5
590
102
{ACAD_REACTORS
330
58E
102
}
330
58E
100
AcDbXrecord
280
     1
330
57E
  0
LAYER_INDEX
  5
593
102
{ACAD_REACTORS
330
592
102
}
330
592
100
AcDbIndex
 40
2452655.344145544
100
AcDbLayerIndex
  8
0
360
594
 90
        1
  8
DEFPOINTS
360
595
 90
        0
  8
1
360
596
 90
       52
  8
5
360
597
 90
        0
  8
6
360
598
 90
       37
  8
11
360
599
 90
      569
  8
2
360
59A
 90
        0
  8
4
360
59B
 90
      324
  8
90
360
59C
 90
        0
  8
10
360
59D
 90
        2
  8
BORDER
360
59E
 90
        0
  8
TITLE BLOCK
360
59F
 90
        0
  0
ACMDATAENTRYBLOCK
  5
45B
102
{ACAD_REACTORS
330
45A
102
}
330
45A
100
AcmDataEntry
100
AcmDataEntryBlock
  0
IDBUFFER
  5
594
330
0
100
AcDbIdBuffer
330
57E
  0
IDBUFFER
  5
595
330
0
100
AcDbIdBuffer
  0
IDBUFFER
  5
596
330
0
100
AcDbIdBuffer
330
30
330
31
330
32
330
33
330
34
330
35
330
36
330
37
330
38
330
3A
330
3B
330
3C
330
3D
330
3E
330
3F
330
40
330
41
330
42
330
43
330
44
330
45
330
46
330
47
330
48
330
49
330
4A
330
4B
330
4C
330
4D
330
4E
330
64
330
65
330
66
330
67
330
68
330
183
330
184
330
185
330
186
330
30D
330
30E
330
30F
330
310
330
311
330
312
330
318
330
32A
330
362
330
365
330
366
330
367
330
368
  0
IDBUFFER
  5
597
330
0
100
AcDbIdBuffer
  0
IDBUFFER
  5
598
330
0
100
AcDbIdBuffer
330
3E6
330
3E7
330
3EA
330
3EB
330
3EC
330
3ED
330
3EE
330
3EF
330
3F0
330
3F1
330
3F3
330
3F4
330
3F5
330
3F6
330
3F7
330
3F8
330
3F9
330
3FA
330
3FB
330
3FC
330
3FD
330
3FE
330
3FF
330
400
330
401
330
402
330
403
330
404
330
405
330
406
330
407
330
408
330
409
330
40A
330
414
330
418
330
432
  0
IDBUFFER
  5
599
330
0
100
AcDbIdBuffer
330
4F
330
50
330
51
330
52
330
53
330
54
330
55
330
56
330
57
330
58
330
59
330
5A
330
5B
330
5C
330
D2
330
D3
330
D4
330
D5
330
D6
330
D7
330
D8
330
13B
330
13C
330
13D
330
13E
330
13F
330
140
330
141
330
142
330
143
330
144
330
145
330
146
330
147
330
148
330
149
330
14A
330
14B
330
14C
330
14D
330
14E
330
14F
330
150
330
151
330
152
330
153
330
154
330
155
330
156
330
157
330
158
330
159
330
15A
330
15B
330
15C
330
15D
330
15E
330
15F
330
160
330
161
330
162
330
163
330
164
330
165
330
166
330
167
330
168
330
169
330
16A
330
16B
330
16C
330
16D
330
16E
330
16F
330
170
330
171
330
172
330
173
330
174
330
175
330
176
330
177
330
178
330
179
330
17A
330
17B
330
17C
330
17D
330
17E
330
17F
330
180
330
181
330
182
330
187
330
188
330
189
330
18A
330
18B
330
18C
330
18D
330
18E
330
18F
330
190
330
191
330
192
330
193
330
194
330
195
330
196
330
197
330
198
330
199
330
19A
330
19B
330
19C
330
19D
330
19E
330
19F
330
1A0
330
1A1
330
1A2
330
1A3
330
1A4
330
1A5
330
1A6
330
1A7
330
1A8
330
1A9
330
1AA
330
1AB
330
1AC
330
1AD
330
1AE
330
1AF
330
1B0
330
1B1
330
1B2
330
1B3
330
1B4
330
1B5
330
1B6
330
1B7
330
1B8
330
1B9
330
1BA
330
1BB
330
1BC
330
1BD
330
1BE
330
1BF
330
1C0
330
1C1
330
1C2
330
1C3
330
1C4
330
1C5
330
1C6
330
1C7
330
1C8
330
1C9
330
1CA
330
1CB
330
1CC
330
1CD
330
1CE
330
1CF
330
1D0
330
1D1
330
1D2
330
1D3
330
1D4
330
1D5
330
1D6
330
1D7
330
1D8
330
1D9
330
1DA
330
1DB
330
1DC
330
1DD
330
1DE
330
1DF
330
1E0
330
1E1
330
1E2
330
1E3
330
1E4
330
1E5
330
1E6
330
1E7
330
1E8
330
1E9
330
1EA
330
1EB
330
1EC
330
1ED
330
1EE
330
1EF
330
1F0
330
1F1
330
1F2
330
1F3
330
1F4
330
1F5
330
1F6
330
1F7
330
1F8
330
1F9
330
1FA
330
1FB
330
1FC
330
1FD
330
1FE
330
1FF
330
200
330
201
330
202
330
203
330
204
330
205
330
206
330
207
330
208
330
209
330
20A
330
20B
330
20C
330
20D
330
20E
330
20F
330
210
330
211
330
212
330
213
330
214
330
215
330
216
330
217
330
218
330
219
330
21A
330
21B
330
21C
330
21D
330
21E
330
21F
330
220
330
221
330
222
330
223
330
224
330
225
330
226
330
227
330
228
330
229
330
22A
330
22B
330
22C
330
22D
330
22E
330
22F
330
230
330
231
330
232
330
233
330
234
330
235
330
236
330
237
330
238
330
239
330
23A
330
23B
330
23C
330
23D
330
23E
330
23F
330
240
330
241
330
242
330
243
330
244
330
245
330
246
330
247
330
248
330
249
330
24A
330
24B
330
24C
330
24D
330
24E
330
24F
330
250
330
251
330
252
330
253
330
254
330
255
330
256
330
257
330
258
330
259
330
25A
330
25B
330
25C
330
25D
330
25E
330
25F
330
260
330
261
330
262
330
263
330
264
330
265
330
266
330
267
330
268
330
269
330
26A
330
26B
330
26C
330
26D
330
26E
330
26F
330
270
330
271
330
273
330
274
330
275
330
276
330
277
330
278
330
279
330
27A
330
27B
330
27C
330
27D
330
27E
330
27F
330
280
330
281
330
282
330
28C
330
28D
330
28E
330
28F
330
290
330
291
330
292
330
293
330
294
330
295
330
296
330
297
330
298
330
299
330
29A
330
29B
330
29C
330
29D
330
29E
330
29F
330
2A0
330
2A1
330
2A2
330
2A3
330
2A4
330
2A5
330
2A6
330
2A7
330
2A8
330
2A9
330
2AA
330
2AB
330
2AC
330
2AD
330
2AE
330
2AF
330
2B0
330
2B1
330
2B2
330
2B3
330
2B4
330
2B5
330
2B6
330
2B7
330
2B8
330
2B9
330
2BA
330
2BB
330
2BC
330
2BD
330
2BE
330
2BF
330
2C0
330
2C1
330
2C2
330
2C3
330
2C4
330
2C5
330
2C6
330
2C7
330
2C8
330
2C9
330
2CA
330
2CB
330
2CC
330
2CD
330
2CE
330
2CF
330
2D0
330
2D1
330
2D2
330
2D3
330
2D4
330
2D5
330
2D6
330
2D7
330
2D8
330
2D9
330
2DA
330
2DB
330
2DC
330
2DD
330
2DE
330
2DF
330
2E0
330
2E1
330
2E2
330
2E3
330
2E4
330
2E5
330
2E6
330
2E7
330
2E8
330
2E9
330
2EA
330
2EB
330
2EC
330
2ED
330
2EE
330
2F0
330
2F1
330
2F2
330
2F3
330
2F4
330
2F5
330
2F6
330
2F7
330
2F8
330
2F9
330
2FA
330
2FB
330
2FC
330
2FD
330
2FE
330
2FF
330
300
330
301
330
302
330
303
330
304
330
305
330
306
330
307
330
308
330
322
330
323
330
324
330
325
330
326
330
327
330
328
330
329
330
32B
330
32C
330
32D
330
32E
330
32F
330
330
330
331
330
332
330
333
330
334
330
335
330
336
330
337
330
338
330
339
330
33A
330
33B
330
33C
330
33D
330
33E
330
33F
330
340
330
341
330
342
330
343
330
344
330
345
330
346
330
347
330
348
330
349
330
34A
330
34B
330
34C
330
34D
330
34E
330
34F
330
350
330
351
330
352
330
353
330
354
330
355
330
356
330
357
330
358
330
359
330
35A
330
35B
330
35C
330
35D
330
35E
330
35F
330
360
330
361
330
363
330
364
330
369
330
36A
330
36B
330
36C
330
36D
330
36E
330
36F
330
370
330
371
330
372
330
373
330
374
330
375
330
376
330
377
330
378
330
379
330
37A
330
37B
330
37C
330
37D
330
37E
330
37F
330
380
330
381
330
382
330
383
330
384
330
385
330
386
330
387
330
388
330
389
330
38A
330
38B
330
38C
  0
IDBUFFER
  5
59A
330
0
100
AcDbIdBuffer
  0
IDBUFFER
  5
59B
330
0
100
AcDbIdBuffer
330
69
330
6A
330
6B
330
6C
330
6D
330
6E
330
6F
330
70
330
71
330
72
330
73
330
74
330
75
330
76
330
77
330
78
330
79
330
7A
330
7B
330
7C
330
7D
330
7E
330
7F
330
80
330
81
330
82
330
83
330
84
330
85
330
86
330
87
330
88
330
89
330
8A
330
8B
330
8C
330
8D
330
8E
330
8F
330
90
330
91
330
92
330
93
330
94
330
95
330
96
330
97
330
98
330
99
330
9A
330
9B
330
9C
330
9D
330
9E
330
9F
330
A0
330
A1
330
A2
330
A3
330
A4
330
A5
330
A6
330
A7
330
A8
330
A9
330
AA
330
AB
330
AC
330
AD
330
AE
330
AF
330
B0
330
B1
330
B2
330
B3
330
B4
330
B5
330
B6
330
B7
330
B8
330
B9
330
BA
330
BB
330
BC
330
BD
330
BE
330
BF
330
C0
330
C1
330
C2
330
C3
330
C4
330
C5
330
C6
330
C7
330
C8
330
C9
330
CA
330
CB
330
CC
330
CD
330
CE
330
CF
330
D0
330
D1
330
D9
330
DA
330
DB
330
DC
330
DD
330
DE
330
DF
330
E0
330
E1
330
E2
330
E3
330
E4
330
E5
330
E6
330
E7
330
E8
330
E9
330
EA
330
EB
330
EC
330
ED
330
EE
330
EF
330
F0
330
F1
330
F2
330
F3
330
F4
330
F5
330
F6
330
F7
330
F8
330
F9
330
FA
330
FB
330
FC
330
FD
330
FE
330
FF
330
100
330
101
330
102
330
103
330
104
330
105
330
106
330
107
330
108
330
109
330
10A
330
10B
330
10C
330
10D
330
10E
330
10F
330
110
330
111
330
112
330
113
330
114
330
115
330
116
330
117
330
118
330
119
330
11A
330
11B
330
11C
330
11D
330
11E
330
11F
330
120
330
121
330
122
330
123
330
124
330
125
330
126
330
127
330
128
330
129
330
12A
330
12B
330
12C
330
12D
330
12E
330
12F
330
130
330
131
330
132
330
133
330
134
330
135
330
136
330
137
330
138
330
139
330
13A
330
283
330
284
330
285
330
286
330
287
330
288
330
289
330
28A
330
28B
330
38D
330
38E
330
38F
330
390
330
391
330
392
330
393
330
394
330
395
330
396
330
397
330
398
330
399
330
39A
330
39B
330
39C
330
39D
330
39E
330
39F
330
3A0
330
3A1
330
3A2
330
3A3
330
3A4
330
3A5
330
3A6
330
3A7
330
3A8
330
3A9
330
3AA
330
3AB
330
3AC
330
3AD
330
3AE
330
3AF
330
3B0
330
3B1
330
3B2
330
3B3
330
3B4
330
3B5
330
3B6
330
3B7
330
3B8
330
3B9
330
3BA
330
3BB
330
3BC
330
3BD
330
3BE
330
3BF
330
3C0
330
3C1
330
3C2
330
3C3
330
3C4
330
3C5
330
3C6
330
3C7
330
3C8
330
3C9
330
3CA
330
3CB
330
3CC
330
3CD
330
3CE
330
3CF
330
3D0
330
3D1
330
3D2
330
3D3
330
3D4
330
3D5
330
3D6
330
3D7
330
3D8
330
3D9
330
3DA
330
3DB
330
3DC
330
3DD
330
3DE
330
3DF
330
3E0
330
3E1
330
3E2
330
3E3
330
3E4
330
41A
330
41B
330
41C
330
41D
330
41E
330
41F
330
420
330
421
330
422
330
423
330
424
330
425
330
426
330
427
330
428
330
429
330
42A
330
42B
330
42C
330
42D
330
42E
330
42F
330
430
330
431
  0
IDBUFFER
  5
59C
330
0
100
AcDbIdBuffer
  0
IDBUFFER
  5
59D
330
0
100
AcDbIdBuffer
330
272
330
2EF
  0
IDBUFFER
  5
59E
330
0
100
AcDbIdBuffer
  0
IDBUFFER
  5
59F
330
0
100
AcDbIdBuffer
  0
ENDSEC
  0
EOF
