  0
SECTION
  2
HEADER
  9
$ACADVER
  1
AC1015
  9
$ACADMAINTVER
 70
    10
  9
$DWGCODEPAGE
  3
ANSI_1252
  9
$INSBASE
 10
0.0
 20
0.0
 30
0.0
  9
$EXTMIN
 10
-0.0469215828702545
 20
-0.035416425234871
 30
-0.0000000349181948
  9
$EXTMAX
 10
1117.66503258256
 20
863.6312629434701
 30
0.0000000814935746
  9
$LIMMIN
 10
0.0
 20
0.0
  9
$LIMMAX
 10
0.0
 20
0.0
  9
$ORTHOMODE
 70
     0
  9
$REGENMODE
 70
     1
  9
$FILLMODE
 70
     1
  9
$QTEXTMODE
 70
     0
  9
$MIRRTEXT
 70
     1
  9
$LTSCALE
 40
1.0
  9
$ATTMODE
 70
     1
  9
$TEXTSIZE
 40
0.0
  9
$TRACEWID
 40
0.05
  9
$TEXTSTYLE
  7
STANDARD
  9
$CLAYER
  8
0
  9
$CELTYPE
  6
CONTINUOUS
  9
$CECOLOR
 62
   256
  9
$CELTSCALE
 40
1.0
  9
$DISPSILH
 70
     0
  9
$DIMSCALE
 40
1.0
  9
$DIMASZ
 40
0.18
  9
$DIMEXO
 40
1.0
  9
$DIMDLI
 40
0.38
  9
$DIMRND
 40
0.0
  9
$DIMDLE
 40
1.0
  9
$DIMEXE
 40
0.18
  9
$DIMTP
 40
0.0
  9
$DIMTM
 40
0.0
  9
$DIMTXT
 40
0.18
  9
$DIMCEN
 40
0.09
  9
$DIMTSZ
 40
0.0
  9
$DIMTOL
 70
     0
  9
$DIMLIM
 70
     0
  9
$DIMTIH
 70
     1
  9
$DIMTOH
 70
     1
  9
$DIMSE1
 70
     0
  9
$DIMSE2
 70
     0
  9
$DIMTAD
 70
     1
  9
$DIMZIN
 70
     1
  9
$DIMBLK
  1

  9
$DIMASO
 70
     1
  9
$DIMSHO
 70
     1
  9
$DIMPOST
  1

  9
$DIMAPOST
  1

  9
$DIMALT
 70
     0
  9
$DIMALTD
 70
     2
  9
$DIMALTF
 40
0.0394
  9
$DIMLFAC
 40
1.0
  9
$DIMTOFL
 70
     0
  9
$DIMTVP
 40
0.0
  9
$DIMTIX
 70
     0
  9
$DIMSOXD
 70
     0
  9
$DIMSAH
 70
     0
  9
$DIMBLK1
  1

  9
$DIMBLK2
  1

  9
$DIMSTYLE
  2
STANDARD
  9
$DIMCLRD
 70
     0
  9
$DIMCLRE
 70
     0
  9
$DIMCLRT
 70
     0
  9
$DIMTFAC
 40
1.0
  9
$DIMGAP
 40
1.0
  9
$DIMJUST
 70
     0
  9
$DIMSD1
 70
     0
  9
$DIMSD2
 70
     0
  9
$DIMTOLJ
 70
     1
  9
$DIMTZIN
 70
     1
  9
$DIMALTZ
 70
     0
  9
$DIMALTTZ
 70
     0
  9
$DIMUPT
 70
     0
  9
$DIMDEC
 70
     4
  9
$DIMTDEC
 70
     4
  9
$DIMALTU
 70
     2
  9
$DIMALTTD
 70
     2
  9
$DIMTXSTY
  7
STANDARD
  9
$DIMAUNIT
 70
     0
  9
$DIMADEC
 70
     0
  9
$DIMALTRND
 40
0.0
  9
$DIMAZIN
 70
     0
  9
$DIMDSEP
 70
    46
  9
$DIMATFIT
 70
     3
  9
$DIMFRAC
 70
     0
  9
$DIMLDRBLK
  1

  9
$DIMLUNIT
 70
     2
  9
$DIMLWD
 70
    -2
  9
$DIMLWE
 70
    -2
  9
$DIMTMOVE
 70
     0
  9
$LUNITS
 70
     2
  9
$LUPREC
 70
     2
  9
$SKETCHINC
 40
0.1
  9
$FILLETRAD
 40
0.0
  9
$AUNITS
 70
     0
  9
$AUPREC
 70
     0
  9
$MENU
  1
acad
  9
$ELEVATION
 40
0.0
  9
$PELEVATION
 40
0.0
  9
$THICKNESS
 40
0.0
  9
$LIMCHECK
 70
     0
  9
$CHAMFERA
 40
0.0
  9
$CHAMFERB
 40
0.0
  9
$CHAMFERC
 40
0.0
  9
$CHAMFERD
 40
0.0
  9
$SKPOLY
 70
     0
  9
$TDCREATE
 40
2311942.262191597
  9
$TDUCREATE
 40
2311942.512191597
  9
$TDUPDATE
 40
2452655.340613263
  9
$TDUUPDATE
 40
2452655.590613263
  9
$TDINDWG
 40
0.0202912269
  9
$TDUSRTIMER
 40
0.0202911111
  9
$USRTIMER
 70
     1
  9
$ANGBASE
 50
0.0
  9
$ANGDIR
 70
     0
  9
$PDMODE
 70
     0
  9
$PDSIZE
 40
-1.0
  9
$PLINEWID
 40
0.0
  9
$SPLFRAME
 70
     0
  9
$SPLINETYPE
 70
     6
  9
$SPLINESEGS
 70
     8
  9
$HANDSEED
  5
627
  9
$SURFTAB1
 70
     6
  9
$SURFTAB2
 70
     6
  9
$SURFTYPE
 70
     6
  9
$SURFU
 70
     6
  9
$SURFV
 70
     6
  9
$UCSBASE
  2

  9
$UCSNAME
  2

  9
$UCSORG
 10
0.0
 20
0.0
 30
0.0
  9
$UCSXDIR
 10
1.0
 20
0.0
 30
0.0
  9
$UCSYDIR
 10
0.0
 20
1.0
 30
0.0
  9
$UCSORTHOREF
  2

  9
$UCSORTHOVIEW
 70
     0
  9
$UCSORGTOP
 10
0.0
 20
0.0
 30
0.0
  9
$UCSORGBOTTOM
 10
0.0
 20
0.0
 30
0.0
  9
$UCSORGLEFT
 10
0.0
 20
0.0
 30
0.0
  9
$UCSORGRIGHT
 10
0.0
 20
0.0
 30
0.0
  9
$UCSORGFRONT
 10
0.0
 20
0.0
 30
0.0
  9
$UCSORGBACK
 10
0.0
 20
0.0
 30
0.0
  9
$PUCSBASE
  2

  9
$PUCSNAME
  2

  9
$PUCSORG
 10
0.0
 20
0.0
 30
0.0
  9
$PUCSXDIR
 10
1.0
 20
0.0
 30
0.0
  9
$PUCSYDIR
 10
0.0
 20
1.0
 30
0.0
  9
$PUCSORTHOREF
  2

  9
$PUCSORTHOVIEW
 70
     0
  9
$PUCSORGTOP
 10
0.0
 20
0.0
 30
0.0
  9
$PUCSORGBOTTOM
 10
0.0
 20
0.0
 30
0.0
  9
$PUCSORGLEFT
 10
0.0
 20
0.0
 30
0.0
  9
$PUCSORGRIGHT
 10
0.0
 20
0.0
 30
0.0
  9
$PUCSORGFRONT
 10
0.0
 20
0.0
 30
0.0
  9
$PUCSORGBACK
 10
0.0
 20
0.0
 30
0.0
  9
$USERI1
 70
     0
  9
$USERI2
 70
     0
  9
$USERI3
 70
     0
  9
$USERI4
 70
     0
  9
$USERI5
 70
     0
  9
$USERR1
 40
0.0
  9
$USERR2
 40
0.0
  9
$USERR3
 40
0.0
  9
$USERR4
 40
0.0
  9
$USERR5
 40
0.0
  9
$WORLDVIEW
 70
     1
  9
$SHADEDGE
 70
     3
  9
$SHADEDIF
 70
    70
  9
$TILEMODE
 70
     1
  9
$MAXACTVP
 70
    16
  9
$PINSBASE
 10
0.0
 20
0.0
 30
0.0
  9
$PLIMCHECK
 70
     0
  9
$PEXTMIN
 10
1.000000000000000E+20
 20
1.000000000000000E+20
 30
1.000000000000000E+20
  9
$PEXTMAX
 10
-1.000000000000000E+20
 20
-1.000000000000000E+20
 30
-1.000000000000000E+20
  9
$PLIMMIN
 10
0.0
 20
0.0
  9
$PLIMMAX
 10
12.0
 20
9.0
  9
$UNITMODE
 70
     0
  9
$VISRETAIN
 70
     0
  9
$PLINEGEN
 70
     1
  9
$PSLTSCALE
 70
     1
  9
$TREEDEPTH
 70
  3020
  9
$CMLSTYLE
  2
STANDARD
  9
$CMLJUST
 70
     0
  9
$CMLSCALE
 40
1.0
  9
$PROXYGRAPHICS
 70
     0
  9
$MEASUREMENT
 70
     0
  9
$CELWEIGHT
370
    -1
  9
$ENDCAPS
280
     0
  9
$JOINSTYLE
280
     0
  9
$LWDISPLAY
290
     0
  9
$INSUNITS
 70
     0
  9
$HYPERLINKBASE
  1

  9
$STYLESHEET
  1
monochrome.ctb
  9
$XEDIT
290
     1
  9
$CEPSNTYPE
380
     0
  9
$PSTYLEMODE
290
     1
  9
$FINGERPRINTGUID
  2
{2BD65455-B136-4A94-9FD5-6C3307F929C3}
  9
$VERSIONGUID
  2
{303A8D7C-155F-4D42-A3A1-D42DCDDBD02A}
  9
$EXTNAMES
290
     1
  9
$PSVPSCALE
 40
0.0
  9
$OLESTARTUP
290
     0
  0
ENDSEC
  0
SECTION
  2
CLASSES
  0
CLASS
  1
LWPOLYLINE
  2
AcDbPolyline
  3
AutoCAD 2000
 90
    32768
280
     0
281
     1
  0
CLASS
  1
IMAGE
  2
AcDbRasterImage
  3
ISM
 90
    32895
280
     0
281
     1
  0
CLASS
  1
OLE2FRAME
  2
AcDbOle2Frame
  3
AutoCAD 2000
 90
    32768
280
     0
281
     1
  0
CLASS
  1
HATCH
  2
AcDbHatch
  3
AutoCAD 2000
 90
    32768
280
     0
281
     1
  0
CLASS
  1
DICTIONARYVAR
  2
AcDbDictionaryVar
  3
AutoCAD 2000
 90
        0
280
     0
281
     0
  0
CLASS
  1
RASTERVARIABLES
  2
AcDbRasterVariables
  3
ISM
 90
    32768
280
     0
281
     0
  0
CLASS
  1
IMAGEDEF
  2
AcDbRasterImageDef
  3
ISM
 90
    32768
280
     0
281
     0
  0
CLASS
  1
IMAGEDEF_REACTOR
  2
AcDbRasterImageDefReactor
  3
ISM
 90
    32769
280
     0
281
     0
  0
CLASS
  1
IDBUFFER
  2
AcDbIdBuffer
  3
AutoCAD 2000
 90
        0
280
     0
281
     0
  0
CLASS
  1
SPATIAL_FILTER
  2
AcDbSpatialFilter
  3
AutoCAD 2000
 90
    32768
280
     0
281
     0
  0
CLASS
  1
XRECORD
  2
AcDbXrecord
  3
AutoCAD 2000
 90
    32768
280
     0
281
     0
  0
CLASS
  1
SORTENTSTABLE
  2
AcDbSortentsTable
  3
AutoCAD 2000
 90
    32768
280
     0
281
     0
  0
CLASS
  1
LAYER_INDEX
  2
AcDbLayerIndex
  3
AutoCAD 2000
 90
        0
280
     0
281
     0
  0
CLASS
  1
SPATIAL_INDEX
  2
AcDbSpatialIndex
  3
AutoCAD 2000
 90
    32768
280
     0
281
     0
  0
CLASS
  1
OBJECT_PTR
  2
CAseDLPNTableRecord
  3
ASE-LPNTableRecord
 90
    32769
280
     0
281
     0
  0
CLASS
  1
LAYOUT
  2
AcDbLayout
  3
AutoCAD 2000
 90
        0
280
     0
281
     0
  0
CLASS
  1
PLOTSETTINGS
  2
AcDbPlotSettings
  3
AutoCAD 2000
 90
    32768
280
     0
281
     0
  0
CLASS
  1
ACDBDICTIONARYWDFLT
  2
AcDbDictionaryWithDefault
  3
AutoCAD 2000
 90
        0
280
     0
281
     0
  0
CLASS
  1
ACDBPLACEHOLDER
  2
AcDbPlaceHolder
  3
AutoCAD 2000
 90
        0
280
     0
281
     0
  0
CLASS
  1
VBA_PROJECT
  2
AcDbVbaProject
  3
acadvba
 90
    32768
280
     0
281
     0
  0
CLASS
  1
WIPEOUT
  2
AcDbWipeout
  3
WipeOut|AutoCAD Express Tool|expresstools@autodesk.com
 90
    32895
280
     0
281
     1
  0
CLASS
  1
WIPEOUTVARIABLES
  2
AcDbWipeoutVariables
  3
WipeOut|AutoCAD Express Tool|expresstools@autodesk.com
 90
    32768
280
     0
281
     0
  0
CLASS
  1
RTEXT
  2
RText
  3
RText|AutoCAD Express Tool|expresstools@autodesk.com
 90
    32768
280
     0
281
     1
  0
CLASS
  1
ARCALIGNEDTEXT
  2
AcDbArcAlignedText
  3
ATEXT|AutoCAD Express Tool|expresstools@autodesk.com
 90
    32768
280
     0
281
     1
  0
CLASS
  1
AMGSETTINGSOBJ
  2
AmgSettingsObj
  3
"AcadM|Product Description: AutoCAD Mechanical 2000|Company: Autodesk"
 90
        0
280
     0
281
     0
  0
CLASS
  1
ACME_DOCUMENT
  2
AcMeDbDoc
  3
AcMeServices
 90
        0
280
     0
281
     0
  0
CLASS
  1
ACMESCOPE
  2
AcMeScope
  3
AcMeServices
 90
        0
280
     0
281
     0
  0
CLASS
  1
ACMECOMMANDHISTORY
  2
AcMeCommandHistory
  3
AcMeServices
 90
        0
280
     0
281
     0
  0
CLASS
  1
ACIMSYSVARMAN
  2
AcImSysVarManager
  3
AcMeServices
 90
        0
280
     0
281
     0
  0
CLASS
  1
ACIMREALSYSVAR
  2
AcImRealSysVar
  3
AcMeServices
 90
        0
280
     0
281
     0
  0
CLASS
  1
ACIMINTSYSVAR
  2
AcImIntSysVar
  3
AcMeServices
 90
        0
280
     0
281
     0
  0
CLASS
  1
ACMEDRAWINGMAN
  2
AcMeDrawingMan
  3
AcMeServices
 90
        0
280
     0
281
     0
  0
CLASS
  1
ACMEVIEW
  2
AcMeView
  3
AcMeServices
 90
        0
280
     0
281
     0
  0
CLASS
  1
ACDBENTITYCACHE
  2
AcMeEntityCache
  3
AcMeServices
 90
        0
280
     0
281
     0
  0
CLASS
  1
GSMANAGER
  2
AcMeGSManager
  3
AcMeServices
 90
        0
280
     0
281
     0
  0
CLASS
  1
AmdtInternalReactor
  2
AmdtInternalReactor
  3
AcMeServices
 90
        0
280
     0
281
     0
  0
CLASS
  1
ACMESTATEMGR
  2
AcMeStateMgr
  3
AcMeServices
 90
        0
280
     0
281
     0
  0
CLASS
  1
ACGREFMASTER
  2
AcGrefMaster
  3
AcAttribServices
 90
        0
280
     0
281
     0
  0
CLASS
  1
ACME_DATABASE
  2
AcMeDbDatabase
  3
AcMeServices
 90
        0
280
     0
281
     0
  0
CLASS
  1
ACRFINSADJUSTERMGR
  2
AcRfInsAdjusterMgr
  3
AcMeServices
 90
        0
280
     0
281
     0
  0
CLASS
  1
ACGREFMASTER
  2
AcGrefacadMaster
  3
AcGrefServices
 90
        0
280
     0
281
     0
  0
CLASS
  1
AMIMASTER
  2
AmiMaster
  3
AmiServices
 90
        0
280
     0
281
     0
  0
CLASS
  1
ACMDATADICTIONARY
  2
AcmDataDictionary
  3
"AcmSymBB|Product Description: AutoCAD Mechanical 2000|Company: Autodesk"
 90
        0
280
     0
281
     0
  0
CLASS
  1
ACMDATAENTRYBLOCK
  2
AcmDataEntryBlock
  3
"AcmSymBB|Product Description: AutoCAD Mechanical 2000|Company: Autodesk"
 90
        0
280
     0
281
     0
  0
CLASS
  1
ACIMSTRSYSVAR
  2
AcImStrSysVar
  3
AcMeServices
 90
        0
280
     0
281
     0
  0
CLASS
  1
ACMSTANDARDANSI
  2
AcmStandardANSI
  3
"Amdt_StdImp|Product Description: AutoCAD Mechanical 2000|Company: Autodesk"
 90
        0
280
     0
281
     0
  0
CLASS
  1
AMGOBJPROPCFG
  2
AmgObjPropCfg
  3
"AmgLay|Product Description: AutoCAD Mechanical 2000|Company: Autodesk"
 90
        1
280
     0
281
     0
  0
CLASS
  1
ACMSURFSTANDARDANSI
  2
AcmSurfTextStdANSI
  3
"Amdt_StdImp|Product Description: AutoCAD Mechanical 2000|Company: Autodesk"
 90
        0
280
     0
281
     0
  0
CLASS
  1
ACMFCFSTANDARDANSI
  2
AcmFCFStdANSI
  3
"Amdt_StdImp|Product Description: AutoCAD Mechanical 2000|Company: Autodesk"
 90
        0
280
     0
281
     0
  0
CLASS
  1
ACMWELDSTANDARDANSI
  2
AcmWeldingStdANSI
  3
"Amdt_StdImp|Product Description: AutoCAD Mechanical 2000|Company: Autodesk"
 90
        0
280
     0
281
     0
  0
CLASS
  1
ACMIDSTANDARDANSI
  2
AcmIdStdANSI
  3
"Amdt_StdImp|Product Description: AutoCAD Mechanical 2000|Company: Autodesk"
 90
        0
280
     0
281
     0
  0
CLASS
  1
ACMDATUMSTANDARDANSI
  2
AcmDatumStdANSI
  3
"Amdt_StdImp|Product Description: AutoCAD Mechanical 2000|Company: Autodesk"
 90
        0
280
     0
281
     0
  0
CLASS
  1
ACMBOMSTANDARDANSI
  2
AcmBOMStdANSI
  3
"Amdt_StdImp|Product Description: AutoCAD Mechanical 2000|Company: Autodesk"
 90
        0
280
     0
281
     0
  0
CLASS
  1
ACMDETAILSTANDARDANSI
  2
AmdtDetailSymStdANSI
  3
"Amdt_StdImp|Product Description: AutoCAD Mechanical 2000|Company: Autodesk"
 90
        0
280
     0
281
     0
  0
CLASS
  1
ACMSECTIONSTANDARDANSI
  2
AmdtSectionSymStdANSI
  3
"Amdt_StdImp|Product Description: AutoCAD Mechanical 2000|Company: Autodesk"
 90
        0
280
     0
281
     0
  0
CLASS
  1
ACMCENTERLINESTANDARDANSI
  2
AmdtCenterLineStdANSI
  3
"Amdt_StdImp|Product Description: AutoCAD Mechanical 2000|Company: Autodesk"
 90
        0
280
     0
281
     0
  0
CLASS
  1
ACMThreadLineSTANDARDANSI
  2
AmdtThreadLineStdANSI
  3
"Amdt_StdImp|Product Description: AutoCAD Mechanical 2000|Company: Autodesk"
 90
        0
280
     0
281
     0
  0
CLASS
  1
"AcAmgLayStd"
  2
AcAmgLayStd
  3
"AcAmgLayStd|Product Description: AutoCAD Mechanical 2000|Company: Autodesk"
 90
        0
280
     0
281
     0
  0
CLASS
  1
"AcAmgDimStd"
  2
AcAmgDimStd
  3
"AcAmgDimStd|Product Description: AutoCAD Mechanical 2000|Company: Autodesk"
 90
        0
280
     0
281
     0
  0
CLASS
  1
AcAmgTitleStd
  2
AcAmgTitleStd
  3
"TITLEAPP"
 90
        0
280
     0
281
     0
  0
CLASS
  1
ACAMGFILTERDAT
  2
AcAmgFilterDat
  3
"AcadM|Product Description: AutoCAD Mechanical 2000|Company: Autodesk"
 90
        0
280
     0
281
     0
  0
CLASS
  1
AMDTFORMULAUPDATEDISPATCHER
  2
AmdtFormulaUpdateDispatcher
  3
AcMeServices
 90
        0
280
     0
281
     0
  0
ENDSEC
  0
SECTION
  2
TABLES
  0
TABLE
  2
VPORT
  5
7
330
0
100
AcDbSymbolTable
 70
     4
  0
VPORT
  5
626
330
7
100
AcDbSymbolTableRecord
100
AcDbViewportTableRecord
  2
*Active
 70
     0
 10
0.0
 20
0.0
 11
1.0
 21
1.0
 12
558.8090554998449
 22
431.7979232591175
 13
0.0
 23
0.0
 14
1.0
 24
1.0
 15
0.0
 25
0.0
 16
0.0
 26
0.0
 36
1.0
 17
0.0
 27
0.0
 37
0.0
 40
873.1401712813415
 41
1.666666666666666
 42
50.0
 43
0.0
 44
0.0
 50
0.0
 51
0.0
 71
     0
 72
  2000
 73
     1
 74
     1
 75
     1
 76
     0
 77
     0
 78
     0
281
     0
 65
     1
110
0.0
120
0.0
130
0.0
111
1.0
121
0.0
131
0.0
112
0.0
122
1.0
132
0.0
 79
     0
146
0.0
  0
ENDTAB
  0
TABLE
  2
LTYPE
  5
4
330
0
100
AcDbSymbolTable
 70
    23
  0
LTYPE
  5
11
330
4
100
AcDbSymbolTableRecord
100
AcDbLinetypeTableRecord
  2
BYBLOCK
 70
     0
  3

 72
    65
 73
     0
 40
0.0
  0
LTYPE
  5
12
330
4
100
AcDbSymbolTableRecord
100
AcDbLinetypeTableRecord
  2
BYLAYER
 70
     0
  3

 72
    65
 73
     0
 40
0.0
  0
LTYPE
  5
13
330
4
100
AcDbSymbolTableRecord
100
AcDbLinetypeTableRecord
  2
CONTINUOUS
 70
     0
  3
Solid line
 72
    65
 73
     0
 40
0.0
  0
LTYPE
  5
1E
330
4
100
AcDbSymbolTableRecord
100
AcDbLinetypeTableRecord
  2
HIDDEN
 70
     0
  3
Hidden __ __ __ __ __ __ __ __ __ __ __ __ __ __
 72
    65
 73
     2
 40
1.905
 49
1.27
 74
     0
 49
-0.635
 74
     0
  0
LTYPE
  5
1F
330
4
100
AcDbSymbolTableRecord
100
AcDbLinetypeTableRecord
  2
PHANTOM
 70
     0
  3
Phantom ______  __  __  ______  __  __  ______
 72
    65
 73
     6
 40
12.7
 49
6.349999999999999
 74
     0
 49
-1.27
 74
     0
 49
1.27
 74
     0
 49
-1.27
 74
     0
 49
1.27
 74
     0
 49
-1.27
 74
     0
  0
LTYPE
  5
20
330
4
100
AcDbSymbolTableRecord
100
AcDbLinetypeTableRecord
  2
CENTER
 70
     0
  3
Center ____ _ ____ _ ____ _ ____ _ ____ _ ____
 72
    65
 73
     4
 40
10.16
 49
6.349999999999999
 74
     0
 49
-1.27
 74
     0
 49
1.27
 74
     0
 49
-1.27
 74
     0
  0
LTYPE
  5
21
330
4
100
AcDbSymbolTableRecord
100
AcDbLinetypeTableRecord
  2
CENTERX2
 70
     0
  3
Center (2x) ________  __  ________  __  _____
 72
    65
 73
     4
 40
20.32
 49
12.7
 74
     0
 49
-2.54
 74
     0
 49
2.54
 74
     0
 49
-2.54
 74
     0
  0
LTYPE
  5
22
330
4
100
AcDbSymbolTableRecord
100
AcDbLinetypeTableRecord
  2
DOT2
 70
     0
  3
Dot (.5x) ........................................
 72
    65
 73
     2
 40
0.635
 49
0.0
 74
     0
 49
-0.635
 74
     0
  0
LTYPE
  5
4D2
330
4
100
AcDbSymbolTableRecord
100
AcDbLinetypeTableRecord
  2
AM_ISO02W050
 70
     0
  3
__ __ __ __ __ __ __ __ __ __ __ __ __ __ __
 72
    65
 73
     2
 40
7.5
 49
6.0
 74
     0
 49
-1.5
 74
     0
  0
LTYPE
  5
4D3
330
4
100
AcDbSymbolTableRecord
100
AcDbLinetypeTableRecord
  2
AM_ISO08W050
 70
     0
  3
____ . ____ . ____ . ____ . ____ . ____ . ____
 72
    65
 73
     4
 40
18.0
 49
12.0
 74
     0
 49
-1.5
 74
     0
 49
3.0
 74
     0
 49
-1.5
 74
     0
  0
LTYPE
  5
4D4
330
4
100
AcDbSymbolTableRecord
100
AcDbLinetypeTableRecord
  2
AM_ISO09W050
 70
     0
  3
_____ . . _____ . . _____ . . ____ .. ____
 72
    65
 73
     6
 40
22.5
 49
12.0
 74
     0
 49
-1.5
 74
     0
 49
3.0
 74
     0
 49
-1.5
 74
     0
 49
3.0
 74
     0
 49
-1.5
 74
     0
  0
LTYPE
  5
4D5
330
4
100
AcDbSymbolTableRecord
100
AcDbLinetypeTableRecord
  2
Amconstr
 70
     0
  3
_______________________
 72
    65
 73
     2
 40
9999.0
 49
9999.0
 74
     0
 49
0.0
 74
     0
  0
LTYPE
  5
4D6
330
4
100
AcDbSymbolTableRecord
100
AcDbLinetypeTableRecord
  2
AM_ISO08W050x2
 70
     0
  3
__ . __ . __ . __ . __ . __
 72
    65
 73
     4
 40
9.0
 49
6.0
 74
     0
 49
-0.75
 74
     0
 49
1.5
 74
     0
 49
-0.75
 74
     0
  0
LTYPE
  5
4D7
330
4
100
AcDbSymbolTableRecord
100
AcDbLinetypeTableRecord
  2
AM_ISO02W050x2
 70
     0
  3
 _ _ _ _ _ _ _ _ _ _ _ _
 72
    65
 73
     2
 40
3.75
 49
3.0
 74
     0
 49
-0.75
 74
     0
  0
LTYPE
  5
4DA
330
4
100
AcDbSymbolTableRecord
100
AcDbLinetypeTableRecord
  2
Amzigzag
 70
     0
  3
/\/-/\/-/\/-/\/-/\/-/\/
 72
    65
 73
     2
 40
11.00009999999999
 49
0.0001
 74
     4
 75
   135
340
4D9
 46
0.04
 50
0.0
 44
0.0
 45
0.0
 49
-11.0
 74
     0
  0
LTYPE
  5
4DB
330
4
100
AcDbSymbolTableRecord
100
AcDbLinetypeTableRecord
  2
PHANTOM2
 70
     0
  3
Phantom (.5x) ___ _ _ ___ _ _ ___ _ _ ___ _ _
 72
    65
 73
     6
 40
1.25
 49
0.625
 74
     0
 49
-0.125
 74
     0
 49
0.125
 74
     0
 49
-0.125
 74
     0
 49
0.125
 74
     0
 49
-0.125
 74
     0
  0
LTYPE
  5
4DC
330
4
100
AcDbSymbolTableRecord
100
AcDbLinetypeTableRecord
  2
CENTER2
 70
     0
  3
Center (.5x) ___ _ ___ _ ___ _ ___ _ ___ _ ___
 72
    65
 73
     4
 40
1.125
 49
0.75
 74
     0
 49
-0.125
 74
     0
 49
0.125
 74
     0
 49
-0.125
 74
     0
  0
LTYPE
  5
4DD
330
4
100
AcDbSymbolTableRecord
100
AcDbLinetypeTableRecord
  2
HIDDEN2
 70
     0
  3
Hidden (.5x) _ _ _ _ _ _ _ _ _ _ _ _ _ _ _ _ _
 72
    65
 73
     2
 40
0.1875
 49
0.125
 74
     0
 49
-0.0625
 74
     0
  0
LTYPE
  5
4DE
330
4
100
AcDbSymbolTableRecord
100
AcDbLinetypeTableRecord
  2
Amzigzag2
 70
     0
  3
/\/-/\/-/\/-/\/-/\/-/\/
 72
    65
 73
     2
 40
0.4401
 49
0.0001
 74
     4
 75
   135
340
4D9
 46
0.0016
 50
0.0
 44
0.0
 45
0.0
 49
-0.4400000000000001
 74
     0
  0
LTYPE
  5
4EB
330
4
100
AcDbSymbolTableRecord
100
AcDbLinetypeTableRecord
  2
ACANSTGB
 70
     0
  3
__ . . __ . .
 72
    65
 73
     6
 40
0.35433070866
 49
0.15748031496
 74
     0
 49
-0.03937007874
 74
     0
 49
0.03937007874
 74
     0
 49
-0.03937007874
 74
     0
 49
0.03937007874
 74
     0
 49
-0.03937007874
 74
     0
  0
LTYPE
  5
4EC
330
4
100
AcDbSymbolTableRecord
100
AcDbLinetypeTableRecord
  2
ACANSTGL
 70
     0
  3
_ _ _ _ _
 72
    65
 73
     2
 40
0.11811023622
 49
0.07874015748
 74
     0
 49
-0.03937007874
 74
     0
  0
LTYPE
  5
50A
330
4
100
AcDbSymbolTableRecord
100
AcDbLinetypeTableRecord
  2
MS
 70
     0
  3
MEDIUM_SOLID
 72
    65
 73
     0
 40
0.0
  0
LTYPE
  5
50B
330
4
100
AcDbSymbolTableRecord
100
AcDbLinetypeTableRecord
  2
LS
 70
     0
  3
LIGHT_SOLID
 72
    65
 73
     0
 40
0.0
  0
LTYPE
  5
50C
330
4
100
AcDbSymbolTableRecord
100
AcDbLinetypeTableRecord
  2
LP
 70
     0
  3
LIGHT_PHANTOM
 72
    65
 73
     6
 40
1.5
 49
0.75
 74
     0
 49
-0.14999998
 74
     0
 49
0.14999998
 74
     0
 49
-0.14999998
 74
     0
 49
0.14999998
 74
     0
 49
-0.14999998
 74
     0
  0
LTYPE
  5
50D
330
4
100
AcDbSymbolTableRecord
100
AcDbLinetypeTableRecord
  2
NC
 70
     0
  3
NUMERIC_CONTROL
 72
    65
 73
     0
 40
0.0
  0
ENDTAB
  0
TABLE
  2
LAYER
  5
2
330
0
100
AcDbSymbolTable
 70
    12
  0
LAYER
  5
14
330
2
100
AcDbSymbolTableRecord
100
AcDbLayerTableRecord
  2
0
 70
     0
 62
     7
  6
CONTINUOUS
370
    -3
390
4A6
  0
LAYER
  5
26
330
2
100
AcDbSymbolTableRecord
100
AcDbLayerTableRecord
  2
DEFPOINTS
 70
     0
 62
     7
  6
CONTINUOUS
290
     0
370
    -3
390
4A6
  0
LAYER
  5
28
330
2
100
AcDbSymbolTableRecord
100
AcDbLayerTableRecord
  2
1
 70
     0
 62
     7
  6
CONTINUOUS
370
    -3
390
4A6
  0
LAYER
  5
29
330
2
100
AcDbSymbolTableRecord
100
AcDbLayerTableRecord
  2
5
 70
     0
 62
     7
  6
CONTINUOUS
370
    -3
390
4A6
  0
LAYER
  5
2A
330
2
100
AcDbSymbolTableRecord
100
AcDbLayerTableRecord
  2
6
 70
     0
 62
     7
  6
CONTINUOUS
370
    -3
390
4A6
  0
LAYER
  5
2B
330
2
100
AcDbSymbolTableRecord
100
AcDbLayerTableRecord
  2
11
 70
     0
 62
     7
  6
CONTINUOUS
370
    -3
390
4A6
  0
LAYER
  5
2C
330
2
100
AcDbSymbolTableRecord
100
AcDbLayerTableRecord
  2
2
 70
     0
 62
     7
  6
CONTINUOUS
370
    -3
390
4A6
  0
LAYER
  5
2D
330
2
100
AcDbSymbolTableRecord
100
AcDbLayerTableRecord
  2
4
 70
     0
 62
     7
  6
CONTINUOUS
370
    -3
390
4A6
  0
LAYER
  5
2E
330
2
100
AcDbSymbolTableRecord
100
AcDbLayerTableRecord
  2
90
 70
     0
 62
     7
  6
CONTINUOUS
370
    -3
390
4A6
  0
LAYER
  5
2F
330
2
100
AcDbSymbolTableRecord
100
AcDbLayerTableRecord
  2
10
 70
     0
 62
     7
  6
CONTINUOUS
370
    -3
390
4A6
  0
LAYER
  5
50E
330
2
100
AcDbSymbolTableRecord
100
AcDbLayerTableRecord
  2
BORDER
 70
     0
 62
    15
  6
CONTINUOUS
370
    -3
390
4A6
  0
LAYER
  5
50F
330
2
100
AcDbSymbolTableRecord
100
AcDbLayerTableRecord
  2
TITLE BLOCK
 70
     0
 62
     2
  6
CONTINUOUS
370
    -3
390
4A6
  0
ENDTAB
  0
TABLE
  2
STYLE
  5
3
330
0
100
AcDbSymbolTable
 70
     7
  0
STYLE
  5
17
330
3
100
AcDbSymbolTableRecord
100
AcDbTextStyleTableRecord
  2
STANDARD
 70
     0
 40
0.0
 41
1.0
 50
0.0
 71
     0
 42
0.0
  3
txt
  4

  0
STYLE
  5
453
330
3
100
AcDbSymbolTableRecord
100
AcDbTextStyleTableRecord
  2
SLDTEXTSTYLE0
 70
     0
 40
0.0
 41
0.675
 50
0.0
 71
     0
 42
0.0
  3
txt
  4

  0
STYLE
  5
4D9
330
3
100
AcDbSymbolTableRecord
100
AcDbTextStyleTableRecord
  2

 70
     1
 40
0.0
 41
1.0
 50
0.0
 71
     0
 42
3.5
  3
ltypeshp.shx
  4

  0
STYLE
  5
4DF
330
3
100
AcDbSymbolTableRecord
100
AcDbTextStyleTableRecord
  2
ACANSTS
 70
     0
 40
1.0
 41
1.0
 50
0.0
 71
     0
 42
3.5
  3
romans.shx
  4

  0
STYLE
  5
4EA
330
3
100
AcDbSymbolTableRecord
100
AcDbTextStyleTableRecord
  2
ACANSGDT
 70
     0
 40
0.0
 41
1.0
 50
0.0
 71
     0
 42
3.5
  3
amgdtans.shx
  4

  0
STYLE
  5
510
330
3
100
AcDbSymbolTableRecord
100
AcDbTextStyleTableRecord
  2
AE
 70
     0
 40
0.0
 41
1.0
 50
0.0
 71
     0
 42
0.16408998
  3
MIGRATOR
  4

  0
STYLE
  5
511
330
3
100
AcDbSymbolTableRecord
100
AcDbTextStyleTableRecord
  2

 70
     1
 40
0.0
 41
1.0
 50
0.0
 71
     0
 42
1.0
  3
symtb128
  4

  0
ENDTAB
  0
TABLE
  2
VIEW
  5
5
330
0
100
AcDbSymbolTable
 70
     0
  0
ENDTAB
  0
TABLE
  2
UCS
  5
6
330
0
100
AcDbSymbolTable
 70
     0
  0
ENDTAB
  0
TABLE
  2
APPID
  5
8
330
0
100
AcDbSymbolTable
 70
     7
  0
APPID
  5
16
330
8
100
AcDbSymbolTableRecord
100
AcDbRegAppTableRecord
  2
ACAD
 70
     0
  0
APPID
  5
4B2
330
8
100
AcDbSymbolTableRecord
100
AcDbRegAppTableRecord
  2
MCAD_NO_VIS
 70
     0
  0
APPID
  5
4B3
330
8
100
AcDbSymbolTableRecord
100
AcDbRegAppTableRecord
  2
ACAD_TEMP_GRAPHIC
 70
     0
  0
APPID
  5
4C6
330
8
100
AcDbSymbolTableRecord
100
AcDbRegAppTableRecord
  2
ACATTRIBSERVICES
 70
     0
  0
APPID
  5
513
330
8
100
AcDbSymbolTableRecord
100
AcDbRegAppTableRecord
  2
GENIUS_GENBLLY_14
 70
     0
  0
APPID
  5
514
330
8
100
AcDbSymbolTableRecord
100
AcDbRegAppTableRecord
  2
GENIUS_GENTRA_14
 70
     0
  0
APPID
  5
600
330
8
100
AcDbSymbolTableRecord
100
AcDbRegAppTableRecord
  2
DCO15
 70
     0
  0
ENDTAB
  0
TABLE
  2
DIMSTYLE
  5
9
330
0
100
AcDbSymbolTable
 70
     8
100
AcDbDimStyleTable
 71
     0
  0
DIMSTYLE
105
18
330
9
100
AcDbSymbolTableRecord
100
AcDbDimStyleTableRecord
  2
STANDARD
 70
     0
340
17
  0
DIMSTYLE
105
4F0
330
9
100
AcDbSymbolTableRecord
100
AcDbDimStyleTableRecord
  2
AM_ANSI
 70
     0
  4
mm
 41
0.1
 42
0.05
 43
0.5
 44
0.1
 47
0.1
 48
0.1
 78
     7
 79
     2
140
0.12
141
0.0
146
0.71
147
0.06
176
   256
177
   256
178
     2
274
     4
284
     7
340
17
371
    -1
372
    -1
  0
DIMSTYLE
105
4F1
330
9
100
AcDbSymbolTableRecord
100
AcDbDimStyleTableRecord
  2
AM_ANSI$3
 70
     0
  4
mm
 41
0.1
 42
0.05
 43
0.5
 44
0.1
 47
0.1
 48
0.1
 78
     7
 79
     2
140
0.12
141
0.0
146
0.71
147
0.06
176
   256
177
   256
178
     2
274
     4
284
     7
288
     1
289
     0
340
17
371
    -1
372
    -1
  0
DIMSTYLE
105
4F2
330
9
100
AcDbSymbolTableRecord
100
AcDbDimStyleTableRecord
  2
AM_ANSI$4
 70
     0
  4
mm
 41
0.1
 42
0.05
 43
0.5
 44
0.1
 47
0.1
 48
0.1
 78
     7
 79
     2
140
0.12
141
0.0
146
0.71
147
0.06
176
   256
177
   256
178
     2
274
     4
284
     7
288
     1
289
     0
340
17
371
    -1
372
    -1
  0
DIMSTYLE
105
4F3
330
9
100
AcDbSymbolTableRecord
100
AcDbDimStyleTableRecord
  2
AM_ANSI$7
 70
     0
  4
mm
 41
0.1
 42
0.05
 43
0.5
 44
0.1
 47
0.1
 48
0.1
 78
     7
 79
     2
140
0.24
141
0.0
146
0.71
147
0.06
176
   256
177
   256
178
     2
274
     4
284
     7
340
17
371
    -1
372
    -1
  0
DIMSTYLE
105
4F4
330
9
100
AcDbSymbolTableRecord
100
AcDbDimStyleTableRecord
  2
AM_ANSI$SF
 70
     0
  4
mm
 41
0.1
 42
0.05
 43
0.5
 44
0.1
 47
0.1
 48
0.1
 75
     1
 76
     1
 78
     7
 79
     2
140
0.12
141
0.0
146
0.71
147
0.06
176
   256
177
   256
178
     2
274
     4
284
     7
340
17
371
    -1
372
    -1
  0
DIMSTYLE
105
4F9
330
9
100
AcDbSymbolTableRecord
100
AcDbDimStyleTableRecord
  2
AM_ANSI$SH
 70
     0
  4
mm
 41
0.1
 42
0.05
 43
0.5
 44
0.1
 47
0.1
 48
0.1
 75
     1
 76
     1
 78
     7
 79
     2
140
0.12
141
0.0
146
0.71
147
0.06
173
     1
176
   256
177
   256
178
     2
274
     4
284
     7
340
17
343
4F5
371
    -1
372
    -1
  0
DIMSTYLE
105
512
330
9
100
AcDbSymbolTableRecord
100
AcDbDimStyleTableRecord
  2
GEN-ANSI
 70
     0
  3
<>
  4
mm
 41
0.14
 42
0.125
 43
0.5
 44
0.125
 47
0.1
 48
0.1
 73
     0
 74
     0
 77
     1
 78
     7
140
0.12
141
0.0
146
0.71
147
0.06
176
   256
177
   256
178
     2
274
     4
340
17
  0
ENDTAB
  0
TABLE
  2
BLOCK_RECORD
  5
1
330
0
100
AcDbSymbolTable
 70
     3
  0
BLOCK_RECORD
  5
A
102
{ACAD_XDICTIONARY
360
602
102
}
330
1
100
AcDbSymbolTableRecord
100
AcDbBlockTableRecord
  2
*MODEL_SPACE
340
4A9
  0
BLOCK_RECORD
  5
B
330
1
100
AcDbSymbolTableRecord
100
AcDbBlockTableRecord
  2
*PAPER_SPACE
340
4AA
  0
BLOCK_RECORD
  5
4F5
330
1
100
AcDbSymbolTableRecord
100
AcDbBlockTableRecord
  2
GENAXEH
340
0
  0
BLOCK_RECORD
  5
506
330
1
100
AcDbSymbolTableRecord
100
AcDbBlockTableRecord
  2
A$C215E2678
340
0
  0
BLOCK_RECORD
  5
515
330
1
100
AcDbSymbolTableRecord
100
AcDbBlockTableRecord
  2
BM_Emetric
340
0
102
{BLKREFS
331
5EE
102
}
  0
ENDTAB
  0
ENDSEC
  0
SECTION
  2
BLOCKS
  0
BLOCK
  5
D
330
A
100
AcDbEntity
  8
0
100
AcDbBlockBegin
  2
*MODEL_SPACE
 70
     0
 10
0.0
 20
0.0
 30
0.0
  3
*MODEL_SPACE
  1

  0
ENDBLK
  5
E
330
A
100
AcDbEntity
  8
0
100
AcDbBlockEnd
  0
BLOCK
  5
F
330
B
100
AcDbEntity
 67
     1
  8
0
100
AcDbBlockBegin
  2
*PAPER_SPACE
 70
     0
 10
0.0
 20
0.0
 30
0.0
  3
*PAPER_SPACE
  1

  0
ENDBLK
  5
10
330
B
100
AcDbEntity
 67
     1
  8
0
100
AcDbBlockEnd
  0
BLOCK
  5
4F7
330
4F5
100
AcDbEntity
  8
0
100
AcDbBlockBegin
  2
GENAXEH
 70
     0
 10
0.0
 20
0.0
 30
0.0
  3
GENAXEH
  1

  0
LINE
  5
4F6
330
4F5
100
AcDbEntity
  8
0
100
AcDbLine
 10
-1.0
 20
0.0
 30
0.0
 11
1.0
 21
0.0
 31
0.0
  0
ENDBLK
  5
4F8
330
4F5
100
AcDbEntity
  8
0
100
AcDbBlockEnd
  0
BLOCK
  5
508
330
506
100
AcDbEntity
  8
0
100
AcDbBlockBegin
  2
A$C215E2678
 70
     0
 10
0.0
 20
0.0
 30
0.0
  3
A$C215E2678
  1

  0
TEXT
  5
507
330
506
100
AcDbEntity
  8
BORDER
100
AcDbText
 10
-0.375
 20
-2.3125
 30
0.0
 40
0.375
  1
2
 72
     1
 11
-0.25
 21
-2.125
 31
0.0
100
AcDbText
 73
     2
  0
ENDBLK
  5
509
330
506
100
AcDbEntity
  8
0
100
AcDbBlockEnd
  0
BLOCK
  5
5EA
330
515
100
AcDbEntity
  8
0
100
AcDbBlockBegin
  2
BM_Emetric
 70
     2
 10
0.0
 20
0.0
 30
0.0
  3
BM_Emetric
  1

  0
LINE
  5
516
330
515
100
AcDbEntity
  8
BORDER
100
AcDbLine
 10
7.620076200000095
 20
434.3399491999999
 30
0.0
 11
12.7
 21
431.7999999999999
 31
0.0
  0
LINE
  5
517
330
515
100
AcDbEntity
  8
BORDER
100
AcDbLine
 10
7.619695199999974
 20
429.2600761999999
 30
0.0
 11
12.69961899999987
 21
431.8000253999999
 31
0.0
  0
LINE
  5
518
330
515
100
AcDbEntity
  8
BORDER
100
AcDbLine
 10
2.540152400000012
 20
431.8007365999999
 30
0.0
 11
7.620076200000095
 21
431.8007365999999
 31
0.0
  0
LINE
  5
519
330
515
100
AcDbEntity
  8
BORDER
100
AcDbLine
 10
7.620076200000095
 20
429.2605841999999
 30
0.0
 11
7.620076200000095
 21
434.340508
 31
0.0
  0
ATTDEF
  5
51A
330
515
100
AcDbEntity
  8
TITLE BLOCK
  6
Continuous
100
AcDbText
 10
897.8899999999997
 20
82.55174299761829
 30
0.0
 40
5.133906008519999
  1

100
AcDbAttributeDefinition
  3
Drawn by
  2
GEN-TITLE-NAME{5}
 70
     0
1001
GENIUS_GENBLLY_14
1000
BOR2
  0
ATTDEF
  5
51B
330
515
100
AcDbEntity
  8
TITLE BLOCK
  6
Continuous
100
AcDbText
 10
897.8899999999997
 20
69.8517429976183
 30
0.0
 40
5.133906008519999
  1

100
AcDbAttributeDefinition
  3
Check by
  2
GEN-TITLE-CHKM{5}
 70
     0
1001
GENIUS_GENBLLY_14
1000
BOR2
  0
ATTDEF
  5
51C
330
515
100
AcDbEntity
  8
TITLE BLOCK
  6
Continuous
100
AcDbText
 10
897.8899999999997
 20
57.1517429976183
 30
0.0
 40
5.133906008519999
  1

100
AcDbAttributeDefinition
  3
Approved by
  2
GEN-TITLE-APPM{5}
 70
     0
1001
GENIUS_GENBLLY_14
1000
BOR2
1001
GENIUS_GENTRA_14
1002
{
1070
     3
1000
GENTRAPR,%s,(GENMSG gentitus 73)
1000
Approved by
1000
gb
1070
     0
1002
}
  0
TEXT
  5
51D
330
515
100
AcDbEntity
  8
TITLE BLOCK
  6
Continuous
100
AcDbText
 10
886.8000972231191
 20
106.4868367359032
 30
0.0
 40
5.133906008519999
  1
  DRAWING
 50
0.09999996
  7
AE
100
AcDbText
  0
TEXT
  5
51E
330
515
100
AcDbEntity
  8
TITLE BLOCK
  6
Continuous
100
AcDbText
 10
886.8000972231191
 20
117.1235071153846
 30
0.0
 40
5.133906008519999
  1
DO NOT SCALE
 50
0.09999996
  7
AE
100
AcDbText
  0
LINE
  5
51F
330
515
100
AcDbEntity
  8
TITLE BLOCK
  6
Continuous
100
AcDbLine
 10
805.1625446281812
 20
53.34174299761829
 30
0.0
 11
1104.899999999999
 21
53.34174299761829
 31
0.0
  0
LINE
  5
520
330
515
100
AcDbEntity
  8
TITLE BLOCK
  6
Continuous
100
AcDbLine
 10
880.1196497217985
 20
66.04174299761829
 30
0.0
 11
1104.899999999999
 21
66.04174299761829
 31
0.0
  0
LINE
  5
521
330
515
100
AcDbEntity
  8
TITLE BLOCK
  6
Continuous
100
AcDbLine
 10
880.1196497217985
 20
78.74174299761827
 30
0.0
 11
1104.899999999999
 21
78.74174299761827
 31
0.0
  0
LINE
  5
522
330
515
100
AcDbEntity
  8
TITLE BLOCK
  6
Continuous
100
AcDbLine
 10
880.1196497217985
 20
91.44174299761827
 30
0.0
 11
1104.899999999999
 21
91.44174299761827
 31
0.0
  0
LINE
  5
523
330
515
100
AcDbEntity
  8
TITLE BLOCK
  6
Continuous
100
AcDbLine
 10
660.4
 20
127.0017429976183
 30
0.0
 11
1104.899999999999
 21
127.0017429976183
 31
0.0
  0
LINE
  5
524
330
515
100
AcDbEntity
  8
BORDER
100
AcDbLine
 10
558.8
 20
25.399963678
 30
0.0
 11
561.3397714
 21
20.319983744
 31
0.0
  0
LINE
  5
525
330
515
100
AcDbEntity
  8
BORDER
100
AcDbLine
 10
556.2598476
 20
20.320009398
 30
0.0
 11
558.8
 21
25.4
 31
0.0
  0
LINE
  5
526
330
515
100
AcDbEntity
  8
BORDER
100
AcDbLine
 10
556.2598476
 20
20.31999872999999
 30
0.0
 11
561.3397714
 21
20.31999872999999
 31
0.0
  0
LINE
  5
527
330
515
100
AcDbEntity
  8
BORDER
100
AcDbLine
 10
558.799619
 20
15.23999746
 30
0.0
 11
558.799619
 21
20.31999872999999
 31
0.0
  0
LINE
  5
528
330
515
100
AcDbEntity
  8
BORDER
100
AcDbLine
 10
558.799619
 20
15.23999746
 30
0.0
 11
558.799619
 21
20.31999872999999
 31
0.0
  0
TEXT
  5
529
330
515
100
AcDbEntity
  8
TITLE BLOCK
  6
Continuous
100
AcDbText
 10
717.4759883878006
 20
29.97497253251012
 30
0.0
 40
3.857603011244991
  1
REVISION
 50
0.09999996
  7
AE
100
AcDbText
  0
LINE
  5
52A
330
515
100
AcDbEntity
  8
TITLE BLOCK
  6
Continuous
100
AcDbLine
 10
660.4
 20
38.1017429976183
 30
0.0
 11
805.1625446281812
 21
38.1017429976183
 31
0.0
  0
LINE
  5
52B
330
515
100
AcDbEntity
  8
TITLE BLOCK
  6
Continuous
100
AcDbLine
 10
660.4
 20
76.20174299761828
 30
0.0
 11
805.1625446281812
 21
76.20174299761828
 31
0.0
  0
LINE
  5
52C
330
515
100
AcDbEntity
  8
TITLE BLOCK
  6
Continuous
100
AcDbLine
 10
660.4
 20
88.90174299761829
 30
0.0
 11
805.1625446281812
 21
88.90174299761829
 31
0.0
  0
LINE
  5
52D
330
515
100
AcDbEntity
  8
TITLE BLOCK
  6
Continuous
100
AcDbLine
 10
660.4
 20
101.6017429976182
 30
0.0
 11
805.1625446281812
 21
101.6017429976182
 31
0.0
  0
LINE
  5
52E
330
515
100
AcDbEntity
  8
TITLE BLOCK
  6
Continuous
100
AcDbLine
 10
660.4
 20
114.3017429976182
 30
0.0
 11
805.1625446281812
 21
114.3017429976182
 31
0.0
  0
LINE
  5
52F
330
515
100
AcDbEntity
  8
TITLE BLOCK
  6
Continuous
100
AcDbLine
 10
660.4
 20
63.5017429976183
 30
0.0
 11
805.1625446281812
 21
63.5017429976183
 31
0.0
  0
LINE
  5
530
330
515
100
AcDbEntity
  8
TITLE BLOCK
  6
Continuous
100
AcDbLine
 10
660.4
 20
50.80174299761829
 30
0.0
 11
805.1625446281812
 21
50.80174299761829
 31
0.0
  0
TEXT
  5
531
330
515
100
AcDbEntity
  8
BORDER
100
AcDbText
 10
932.2557173999999
 20
14.80786347480914
 30
0.0
 40
1.016
  1
FULL SIZE   50   02
 50
0.0999999600000001
 41
0.7749084200000001
  7
AE
100
AcDbText
  0
LINE
  5
532
330
515
100
AcDbEntity
  8
TITLE BLOCK
  6
Continuous
100
AcDbLine
 10
718.8199999999999
 20
38.1017429976183
 30
0.0
 11
718.8199999999999
 21
127.0017429976183
 31
0.0
  0
TEXT
  5
533
330
515
100
AcDbEntity
  8
TITLE BLOCK
  6
Continuous
100
AcDbText
 10
693.4898003352477
 20
42.72241401402765
 30
0.0
 40
3.857603011244991
  1
DATE
 50
0.09999996
  7
AE
100
AcDbText
  0
TEXT
  5
534
330
515
100
AcDbEntity
  8
TITLE BLOCK
  6
Continuous
100
AcDbText
 10
664.8827003180477
 20
42.69151355378778
 30
0.0
 40
3.919325545192706
  1
NO.
 50
0.09999996
  7
AE
100
AcDbText
  0
LINE
  5
535
330
515
100
AcDbEntity
  8
TITLE BLOCK
  6
Continuous
100
AcDbLine
 10
660.4
 20
25.4
 30
0.0
 11
660.4
 21
127.0017429976183
 31
0.0
  0
LINE
  5
536
330
515
100
AcDbEntity
  8
TITLE BLOCK
  6
Continuous
100
AcDbLine
 10
678.18
 20
38.1017429976183
 30
0.0
 11
678.18
 21
127.0017429976183
 31
0.0
  0
LINE
  5
537
330
515
100
AcDbEntity
  8
BORDER
  6
LS
100
AcDbLine
 10
937.2600380999999
 20
20.57486845080915
 30
0.0
 11
937.2600380999999
 21
24.13086972080915
 31
0.0
  0
LINE
  5
538
330
515
100
AcDbEntity
  8
BORDER
  6
LS
100
AcDbLine
 10
939.8000482599998
 20
20.57486845080915
 30
0.0
 11
939.8000482599998
 21
24.13086972080915
 31
0.0
  0
LINE
  5
539
330
515
100
AcDbEntity
  8
BORDER
  6
LS
100
AcDbLine
 10
936.7520508000001
 20
22.60686972080914
 30
0.0
 11
936.7520508000001
 21
24.13086972080915
 31
0.0
  0
LINE
  5
53A
330
515
100
AcDbEntity
  8
BORDER
  6
LS
100
AcDbLine
 10
937.7680508
 20
22.60686972080914
 30
0.0
 11
937.7680508
 21
24.13086972080915
 31
0.0
  0
LINE
  5
53B
330
515
100
AcDbEntity
  8
BORDER
  6
LS
100
AcDbLine
 10
938.2760635
 20
21.59086895880915
 30
0.0
 11
938.2760635
 21
24.13086972080915
 31
0.0
  0
LINE
  5
53C
330
515
100
AcDbEntity
  8
BORDER
  6
LS
100
AcDbLine
 10
938.7840736600001
 20
21.59086895880915
 30
0.0
 11
938.7840736600001
 21
24.13086972080915
 31
0.0
  0
LINE
  5
53D
330
515
100
AcDbEntity
  8
BORDER
  6
LS
100
AcDbLine
 10
939.29206096
 20
22.60686972080914
 30
0.0
 11
939.29206096
 21
24.13086972080915
 31
0.0
  0
LINE
  5
53E
330
515
100
AcDbEntity
  8
BORDER
  6
LS
100
AcDbLine
 10
932.18002032
 20
20.57486845080915
 30
0.0
 11
932.18002032
 21
24.13086972080915
 31
0.0
  0
LINE
  5
53F
330
515
100
AcDbEntity
  8
BORDER
  6
LS
100
AcDbLine
 10
934.7200304800001
 20
20.57486845080915
 30
0.0
 11
934.7200304800001
 21
24.13086972080915
 31
0.0
  0
LINE
  5
540
330
515
100
AcDbEntity
  8
BORDER
  6
LS
100
AcDbLine
 10
932.6880304800001
 20
22.60686972080914
 30
0.0
 11
932.6880304800001
 21
24.13086972080915
 31
0.0
  0
LINE
  5
541
330
515
100
AcDbEntity
  8
BORDER
  6
LS
100
AcDbLine
 10
933.1960431800002
 20
21.59086895880915
 30
0.0
 11
933.1960431800002
 21
24.13086972080915
 31
0.0
  0
LINE
  5
542
330
515
100
AcDbEntity
  8
BORDER
  6
LS
100
AcDbLine
 10
933.7040533399999
 20
21.59086895880915
 30
0.0
 11
933.7040533399999
 21
24.13086972080915
 31
0.0
  0
LINE
  5
543
330
515
100
AcDbEntity
  8
BORDER
  6
LS
100
AcDbLine
 10
934.2120406400001
 20
22.60686972080914
 30
0.0
 11
934.2120406400001
 21
24.13086972080915
 31
0.0
  0
LINE
  5
544
330
515
100
AcDbEntity
  8
BORDER
  6
LS
100
AcDbLine
 10
935.22804064
 20
22.60686972080914
 30
0.0
 11
935.22804064
 21
24.13086972080915
 31
0.0
  0
LINE
  5
545
330
515
100
AcDbEntity
  8
BORDER
  6
LS
100
AcDbLine
 10
935.7360533400001
 20
21.59086895880915
 30
0.0
 11
935.7360533400001
 21
24.13086972080915
 31
0.0
  0
LINE
  5
546
330
515
100
AcDbEntity
  8
BORDER
  6
LS
100
AcDbLine
 10
936.2440635000002
 20
21.59086895880915
 30
0.0
 11
936.2440635000002
 21
24.13086972080915
 31
0.0
  0
LINE
  5
547
330
515
100
AcDbEntity
  8
BORDER
  6
LS
100
AcDbLine
 10
940.3080609599999
 20
22.60686972080914
 30
0.0
 11
940.3080609599999
 21
24.13086972080915
 31
0.0
  0
LINE
  5
548
330
515
100
AcDbEntity
  8
BORDER
  6
LS
100
AcDbLine
 10
927.0999999999999
 20
19.05086845080915
 30
0.0
 11
927.0999999999999
 21
24.13086972080915
 31
0.0
  0
LINE
  5
549
330
515
100
AcDbEntity
  8
BORDER
  6
LS
100
AcDbLine
 10
927.6080127
 20
22.60686972080914
 30
0.0
 11
927.6080127
 21
24.13086972080915
 31
0.0
  0
LINE
  5
54A
330
515
100
AcDbEntity
  8
BORDER
  6
LS
100
AcDbLine
 10
928.1160228600001
 20
21.59086895880915
 30
0.0
 11
928.1160228600001
 21
24.13086972080915
 31
0.0
  0
LINE
  5
54B
330
515
100
AcDbEntity
  8
BORDER
  6
LS
100
AcDbLine
 10
929.6400101600001
 20
20.57486845080915
 30
0.0
 11
929.6400101600001
 21
24.13086972080915
 31
0.0
  0
LINE
  5
54C
330
515
100
AcDbEntity
  8
BORDER
  6
LS
100
AcDbLine
 10
928.62403556
 20
21.59086895880915
 30
0.0
 11
928.62403556
 21
24.13086972080915
 31
0.0
  0
LINE
  5
54D
330
515
100
AcDbEntity
  8
BORDER
  6
LS
100
AcDbLine
 10
929.13202286
 20
22.60686972080914
 30
0.0
 11
929.13202286
 21
24.13086972080915
 31
0.0
  0
LINE
  5
54E
330
515
100
AcDbEntity
  8
BORDER
  6
LS
100
AcDbLine
 10
930.1480203199998
 20
22.60686972080914
 30
0.0
 11
930.1480203199998
 21
24.13086972080915
 31
0.0
  0
LINE
  5
54F
330
515
100
AcDbEntity
  8
BORDER
  6
LS
100
AcDbLine
 10
930.6560330200001
 20
21.59086895880915
 30
0.0
 11
930.6560330200001
 21
24.13086972080915
 31
0.0
  0
LINE
  5
550
330
515
100
AcDbEntity
  8
BORDER
  6
LS
100
AcDbLine
 10
931.1640457199999
 20
21.59086895880915
 30
0.0
 11
931.1640457199999
 21
24.13086972080915
 31
0.0
  0
LINE
  5
551
330
515
100
AcDbEntity
  8
BORDER
  6
LS
100
AcDbLine
 10
931.6720330199999
 20
22.60686972080914
 30
0.0
 11
931.6720330199999
 21
24.13086972080915
 31
0.0
  0
TEXT
  5
552
330
515
100
AcDbEntity
  8
BORDER
100
AcDbText
 10
926.3760618999999
 20
15.49360175280915
 30
0.0
 40
2.031999491999999
  1
0
 50
0.0999999600000001
  7
AE
100
AcDbText
  0
TEXT
  5
553
330
515
100
AcDbEntity
  8
BORDER
100
AcDbText
 10
936.5361
 20
17.01760175280914
 30
0.0
 40
2.031999491999999
  1
4
 50
0.0999999600000001
  7
AE
100
AcDbText
  0
TEXT
  5
554
330
515
100
AcDbEntity
  8
BORDER
100
AcDbText
 10
931.45608222
 20
17.01760175280914
 30
0.0
 40
2.031999491999999
  1
2
 50
0.0999999600000001
  7
AE
100
AcDbText
  0
TEXT
  5
555
330
515
100
AcDbEntity
  8
TITLE BLOCK
  6
Continuous
100
AcDbText
 10
807.7199999999999
 20
45.72174299761829
 30
0.0
 40
3.857603011244991
  1
DRAWING NAME
 50
0.09999996
  7
AE
100
AcDbText
  0
TEXT
  5
556
330
515
100
AcDbEntity
  8
TITLE BLOCK
  6
Continuous
100
AcDbText
 10
805.9419999999999
 20
119.3817429976183
 30
0.0
 40
3.278962461575079
  1
NOTICE: This drawing or material
 50
0.09999996
 41
0.7005041199999999
  7
AE
100
AcDbText
  0
LINE
  5
557
330
515
100
AcDbEntity
  8
TITLE BLOCK
  6
Continuous
100
AcDbLine
 10
880.1196497217985
 20
55.8817429976183
 30
0.0
 11
880.1196497217985
 21
127.0017429976183
 31
0.0
  0
LINE
  5
558
330
515
100
AcDbEntity
  8
TITLE BLOCK
  6
Continuous
100
AcDbLine
 10
805.1625446281812
 20
25.4
 30
0.0
 11
805.1625446281812
 21
127.0017429976183
 31
0.0
  0
TEXT
  5
559
330
515
100
AcDbEntity
  8
TITLE BLOCK
  6
Continuous
100
AcDbText
 10
806.2619157184524
 20
86.67918267069842
 30
0.0
 40
3.278962461575079
  1
reproduced, will be used only for
 50
0.09999996
 41
0.6799434399999999
  7
AE
100
AcDbText
  0
TEXT
  5
55A
330
515
100
AcDbEntity
  8
TITLE BLOCK
  6
Continuous
100
AcDbText
 10
806.9653123507388
 20
60.70973001504532
 30
0.0
 40
3.278962461575079
  1
consent of G & L Motion Control Inc..
 50
0.09999996
 41
0.79688752
  7
AE
100
AcDbText
  0
TEXT
  5
55B
330
515
100
AcDbEntity
  8
TITLE BLOCK
  6
Continuous
100
AcDbText
 10
806.1389419495721
 20
67.82226903643513
 30
0.0
 40
3.278962461575079
  1
as authorized by specific written
 50
0.09999996
 41
0.6799434399999999
  7
AE
100
AcDbText
  0
TEXT
  5
55C
330
515
100
AcDbEntity
  8
TITLE BLOCK
  6
Continuous
100
AcDbText
 10
806.1411367724243
 20
74.01228187952366
 30
0.0
 40
3.278962461575079
  1
used or disclosed to anyone except
 50
0.09999996
 41
0.6605569100000001
  7
AE
100
AcDbText
  0
TEXT
  5
55D
330
515
100
AcDbEntity
  8
TITLE BLOCK
  6
Continuous
100
AcDbText
 10
805.9749475294488
 20
80.53019047885307
 30
0.0
 40
3.278962461575079
  1
your information, and will not be
 50
0.09999996
 41
0.6799434399999999
  7
AE
100
AcDbText
  0
TEXT
  5
55E
330
515
100
AcDbEntity
  8
TITLE BLOCK
  6
Continuous
100
AcDbText
 10
806.212297044645
 20
93.34052882252844
 30
0.0
 40
3.278962461575079
  1
will not be copied or otherwise
 50
0.09999996
 41
0.72234601
  7
AE
100
AcDbText
  0
TEXT
  5
55F
330
515
100
AcDbEntity
  8
TITLE BLOCK
  6
Continuous
100
AcDbText
 10
805.9156579174404
 20
100.0020562432092
 30
0.0
 40
3.278962461575079
  1
in confidence on condition that it
 50
0.09999996
 41
0.6605569100000001
  7
AE
100
AcDbText
  0
TEXT
  5
560
330
515
100
AcDbEntity
  8
TITLE BLOCK
  6
Continuous
100
AcDbText
 10
805.8279139948613
 20
113.1607982191674
 30
0.0
 40
3.278962461575079
  1
contains proprietary information
 50
0.09999996
 41
0.7005041199999999
  7
AE
100
AcDbText
  0
TEXT
  5
561
330
515
100
AcDbEntity
  8
TITLE BLOCK
  6
Continuous
100
AcDbText
 10
806.1184291743698
 20
106.4788951997148
 30
0.0
 40
3.278962461575079
  1
of G & L Motion Control Inc., is submitted
 50
0.09999996
 41
0.6799434399999999
  7
AE
100
AcDbText
  0
TEXT
  5
562
330
515
100
AcDbEntity
  8
TITLE BLOCK
  6
Continuous
100
AcDbText
 10
881.38
 20
86.3617429976183
 30
0.0
 40
3.857603011244991
  1
DR
 50
0.09999996
  7
AE
100
AcDbText
  0
TEXT
  5
563
330
515
100
AcDbEntity
  8
TITLE BLOCK
  6
Continuous
100
AcDbText
 10
881.38
 20
80.0117429976183
 30
0.0
 40
3.857603011244991
  1
BY
 50
0.09999996
  7
AE
100
AcDbText
  0
TEXT
  5
564
330
515
100
AcDbEntity
  8
TITLE BLOCK
  6
Continuous
100
AcDbText
 10
881.6949789261077
 20
67.31174299761828
 30
0.0
 40
3.857603011244991
  1
BY
 50
0.09999996
  7
AE
100
AcDbText
  0
TEXT
  5
565
330
515
100
AcDbEntity
  8
TITLE BLOCK
  6
Continuous
100
AcDbText
 10
881.38
 20
73.66174299761829
 30
0.0
 40
3.857603011244991
  1
CHK
 50
0.09999996
  7
AE
100
AcDbText
  0
TEXT
  5
566
330
515
100
AcDbEntity
  8
TITLE BLOCK
  6
Continuous
100
AcDbText
 10
881.888
 20
60.9617429976183
 30
0.0
 40
3.857603011244991
  1
APPD
 50
0.09999996
  7
AE
100
AcDbText
  0
TEXT
  5
567
330
515
100
AcDbEntity
  8
TITLE BLOCK
  6
Continuous
100
AcDbText
 10
881.38
 20
54.61174299761831
 30
0.0
 40
3.857603011244991
  1
BY
 50
0.09999996
  7
AE
100
AcDbText
  0
ATTDEF
  5
568
330
515
100
AcDbEntity
  8
TITLE BLOCK
  6
Continuous
100
AcDbText
 10
812.8
 20
31.75
 30
0.0
 40
7.62
  1

 41
0.8
100
AcDbAttributeDefinition
  3
Drawing Name
  2
GEN-TITLE-DES1{15.54}
 70
     0
1001
GENIUS_GENBLLY_14
1000
BOR5
  0
LINE
  5
569
330
515
100
AcDbEntity
  8
BORDER
  6
LS
100
AcDbLine
 10
1003.3
 20
19.05086845080915
 30
0.0
 11
1003.3
 21
24.13086972080915
 31
0.0
  0
TEXT
  5
56A
330
515
100
AcDbEntity
  8
BORDER
100
AcDbText
 10
1002.576061899999
 20
15.49360175280915
 30
0.0
 40
2.031999491999999
  1
3
 50
0.0999999600000001
  7
AE
100
AcDbText
  0
LINE
  5
56B
330
515
100
AcDbEntity
  8
BORDER
  6
LS
100
AcDbLine
 10
977.8999999999999
 20
19.05086845080915
 30
0.0
 11
977.8999999999999
 21
24.13086972080915
 31
0.0
  0
LINE
  5
56C
330
515
100
AcDbEntity
  8
BORDER
  6
LS
100
AcDbLine
 10
972.82014986
 20
20.57486845080915
 30
0.0
 11
972.82014986
 21
24.13086972080915
 31
0.0
  0
LINE
  5
56D
330
515
100
AcDbEntity
  8
BORDER
  6
LS
100
AcDbLine
 10
967.7401320800001
 20
20.57486845080915
 30
0.0
 11
967.7401320800001
 21
24.13086972080915
 31
0.0
  0
TEXT
  5
56E
330
515
100
AcDbEntity
  8
BORDER
100
AcDbText
 10
977.1760619
 20
15.49360175280915
 30
0.0
 40
2.031999491999999
  1
2
 50
0.0999999600000001
  7
AE
100
AcDbText
  0
TEXT
  5
56F
330
515
100
AcDbEntity
  8
BORDER
100
AcDbText
 10
972.09621176
 20
17.01760175280914
 30
0.0
 40
2.031999491999999
  1
8
 50
0.0999999600000001
  7
AE
100
AcDbText
  0
TEXT
  5
570
330
515
100
AcDbEntity
  8
BORDER
100
AcDbText
 10
967.0161914399999
 20
17.01760175280914
 30
0.0
 40
2.031999491999999
  1
6
 50
0.0999999600000001
  7
AE
100
AcDbText
  0
LINE
  5
571
330
515
100
AcDbEntity
  8
BORDER
  6
LS
100
AcDbLine
 10
962.6601117599999
 20
20.57486845080915
 30
0.0
 11
962.6601117599999
 21
24.13086972080915
 31
0.0
  0
LINE
  5
572
330
515
100
AcDbEntity
  8
BORDER
  6
LS
100
AcDbLine
 10
957.5801168399999
 20
20.57486845080915
 30
0.0
 11
957.5801168399999
 21
24.13086972080915
 31
0.0
  0
LINE
  5
573
330
515
100
AcDbEntity
  8
BORDER
  6
LS
100
AcDbLine
 10
949.9600863599999
 20
20.57486845080915
 30
0.0
 11
949.9600863599999
 21
24.13086972080915
 31
0.0
  0
LINE
  5
574
330
515
100
AcDbEntity
  8
BORDER
  6
LS
100
AcDbLine
 10
950.46809906
 20
22.60686972080914
 30
0.0
 11
950.46809906
 21
24.13086972080915
 31
0.0
  0
LINE
  5
575
330
515
100
AcDbEntity
  8
BORDER
  6
LS
100
AcDbLine
 10
950.9761117600001
 20
21.59086895880915
 30
0.0
 11
950.9761117600001
 21
24.13086972080915
 31
0.0
  0
LINE
  5
576
330
515
100
AcDbEntity
  8
BORDER
  6
LS
100
AcDbLine
 10
947.9280888999999
 20
22.60686972080914
 30
0.0
 11
947.9280888999999
 21
24.13086972080915
 31
0.0
  0
LINE
  5
577
330
515
100
AcDbEntity
  8
BORDER
  6
LS
100
AcDbLine
 10
948.4361016000001
 20
21.59086895880915
 30
0.0
 11
948.4361016000001
 21
24.13086972080915
 31
0.0
  0
LINE
  5
578
330
515
100
AcDbEntity
  8
BORDER
  6
LS
100
AcDbLine
 10
948.94411176
 20
21.59086895880915
 30
0.0
 11
948.94411176
 21
24.13086972080915
 31
0.0
  0
LINE
  5
579
330
515
100
AcDbEntity
  8
BORDER
  6
LS
100
AcDbLine
 10
949.4520990600001
 20
22.60686972080914
 30
0.0
 11
949.4520990600001
 21
24.13086972080915
 31
0.0
  0
LINE
  5
57A
330
515
100
AcDbEntity
  8
BORDER
  6
LS
100
AcDbLine
 10
944.88006858
 20
20.57486845080915
 30
0.0
 11
944.88006858
 21
24.13086972080915
 31
0.0
  0
LINE
  5
57B
330
515
100
AcDbEntity
  8
BORDER
  6
LS
100
AcDbLine
 10
947.42007874
 20
20.57486845080915
 30
0.0
 11
947.42007874
 21
24.13086972080915
 31
0.0
  0
LINE
  5
57C
330
515
100
AcDbEntity
  8
BORDER
  6
LS
100
AcDbLine
 10
943.86409398
 20
21.59086895880915
 30
0.0
 11
943.86409398
 21
24.13086972080915
 31
0.0
  0
LINE
  5
57D
330
515
100
AcDbEntity
  8
BORDER
  6
LS
100
AcDbLine
 10
944.37208128
 20
22.60686972080914
 30
0.0
 11
944.37208128
 21
24.13086972080915
 31
0.0
  0
LINE
  5
57E
330
515
100
AcDbEntity
  8
BORDER
  6
LS
100
AcDbLine
 10
945.3880787399999
 20
22.60686972080914
 30
0.0
 11
945.3880787399999
 21
24.13086972080915
 31
0.0
  0
LINE
  5
57F
330
515
100
AcDbEntity
  8
BORDER
  6
LS
100
AcDbLine
 10
945.89609144
 20
21.59086895880915
 30
0.0
 11
945.89609144
 21
24.13086972080915
 31
0.0
  0
LINE
  5
580
330
515
100
AcDbEntity
  8
BORDER
  6
LS
100
AcDbLine
 10
946.4041041400001
 20
21.59086895880915
 30
0.0
 11
946.4041041400001
 21
24.13086972080915
 31
0.0
  0
LINE
  5
581
330
515
100
AcDbEntity
  8
BORDER
  6
LS
100
AcDbLine
 10
946.9120914399999
 20
22.60686972080914
 30
0.0
 11
946.9120914399999
 21
24.13086972080915
 31
0.0
  0
LINE
  5
582
330
515
100
AcDbEntity
  8
BORDER
  6
LS
100
AcDbLine
 10
952.5
 20
19.05086845080915
 30
0.0
 11
952.5
 21
24.13086972080915
 31
0.0
  0
LINE
  5
583
330
515
100
AcDbEntity
  8
BORDER
  6
LS
100
AcDbLine
 10
951.48412192
 20
21.59086895880915
 30
0.0
 11
951.48412192
 21
24.13086972080915
 31
0.0
  0
LINE
  5
584
330
515
100
AcDbEntity
  8
BORDER
  6
LS
100
AcDbLine
 10
951.99210922
 20
22.60686972080914
 30
0.0
 11
951.99210922
 21
24.13086972080915
 31
0.0
  0
TEXT
  5
585
330
515
100
AcDbEntity
  8
BORDER
100
AcDbText
 10
951.7760619
 20
15.49360175280915
 30
0.0
 40
2.031999491999999
  1
1
 50
0.0999999600000001
  7
AE
100
AcDbText
  0
TEXT
  5
586
330
515
100
AcDbEntity
  8
BORDER
100
AcDbText
 10
946.6961406400001
 20
17.01760175280914
 30
0.0
 40
2.031999491999999
  1
8
 50
0.0999999600000001
  7
AE
100
AcDbText
  0
TEXT
  5
587
330
515
100
AcDbEntity
  8
BORDER
100
AcDbText
 10
961.93617366
 20
17.01760175280914
 30
0.0
 40
2.031999491999999
  1
4
 50
0.0999999600000001
  7
AE
100
AcDbText
  0
TEXT
  5
588
330
515
100
AcDbEntity
  8
BORDER
100
AcDbText
 10
956.85617874
 20
17.01760175280914
 30
0.0
 40
2.031999491999999
  1
2
 50
0.0999999600000001
  7
AE
100
AcDbText
  0
LINE
  5
589
330
515
100
AcDbEntity
  8
BORDER
  6
LS
100
AcDbLine
 10
942.3400584199999
 20
20.57486845080915
 30
0.0
 11
942.3400584199999
 21
24.13086972080915
 31
0.0
  0
LINE
  5
58A
330
515
100
AcDbEntity
  8
BORDER
  6
LS
100
AcDbLine
 10
940.81607112
 20
21.59086895880915
 30
0.0
 11
940.81607112
 21
24.13086972080915
 31
0.0
  0
LINE
  5
58B
330
515
100
AcDbEntity
  8
BORDER
  6
LS
100
AcDbLine
 10
941.32408382
 20
21.59086895880915
 30
0.0
 11
941.32408382
 21
24.13086972080915
 31
0.0
  0
LINE
  5
58C
330
515
100
AcDbEntity
  8
BORDER
  6
LS
100
AcDbLine
 10
941.8320711199999
 20
22.60686972080914
 30
0.0
 11
941.8320711199999
 21
24.13086972080915
 31
0.0
  0
LINE
  5
58D
330
515
100
AcDbEntity
  8
BORDER
  6
LS
100
AcDbLine
 10
942.84807112
 20
22.60686972080914
 30
0.0
 11
942.84807112
 21
24.13086972080915
 31
0.0
  0
LINE
  5
58E
330
515
100
AcDbEntity
  8
BORDER
  6
LS
100
AcDbLine
 10
943.3560812799999
 20
21.59086895880915
 30
0.0
 11
943.3560812799999
 21
24.13086972080915
 31
0.0
  0
TEXT
  5
58F
330
515
100
AcDbEntity
  8
BORDER
100
AcDbText
 10
941.6161203200001
 20
17.01760175280914
 30
0.0
 40
2.031999491999999
  1
6
 50
0.0999999600000001
  7
AE
100
AcDbText
  0
ATTDEF
  5
590
330
515
100
AcDbEntity
  8
TITLE BLOCK
  6
Continuous
100
AcDbText
 10
1074.42
 20
57.15174299761829
 30
0.0
 40
5.998969170955619
  1

 41
0.8
100
AcDbAttributeDefinition
  3
Sheet of
  2
GEN-TITLE-SHEET-OF{2.62}
 70
     0
1001
GENIUS_GENBLLY_14
1000
BOR3
  0
ATTDEF
  5
591
330
515
100
AcDbEntity
  8
TITLE BLOCK
  6
Continuous
100
AcDbText
 10
1054.099999999999
 20
57.15174299761829
 30
0.0
 40
5.998969170955619
  1

 41
0.8
100
AcDbAttributeDefinition
  3
Sheet
  2
GEN-TITLE-SHEET{2.62}
 70
     0
1001
GENIUS_GENBLLY_14
1000
BOR3
  0
TEXT
  5
592
330
515
100
AcDbEntity
  8
TITLE BLOCK
  6
Continuous
100
AcDbText
 10
1032.51
 20
73.66174299761829
 30
0.0
 40
3.857603011244991
  1
DATE
 50
0.09999996
  7
AE
100
AcDbText
  0
TEXT
  5
593
330
515
100
AcDbEntity
  8
TITLE BLOCK
  6
Continuous
100
AcDbText
 10
1032.51
 20
60.9617429976183
 30
0.0
 40
3.857603011244991
  1
SHEET   OF
 50
0.09999996
  7
AE
100
AcDbText
  0
ATTDEF
  5
594
330
515
100
AcDbEntity
  8
TITLE BLOCK
  6
Continuous
100
AcDbText
 10
975.3600000000002
 20
57.1517429976183
 30
0.0
 40
5.133906008519999
  1

 41
0.8
100
AcDbAttributeDefinition
  3
Material
  2
GEN-TITLE-MAT{11.15}
 70
     0
1001
GENIUS_GENBLLY_14
1000
BOR3
  0
ATTDEF
  5
595
330
515
100
AcDbEntity
  8
TITLE BLOCK
  6
Continuous
100
AcDbText
 10
975.3600000000002
 20
69.8517429976183
 30
0.0
 40
5.133906008519999
  1

100
AcDbAttributeDefinition
  3
Machine
  2
GEN-TITLE-MACH{5}
 70
     0
1001
GENIUS_GENBLLY_14
1000
BOR2
  0
ATTDEF
  5
596
330
515
100
AcDbEntity
  8
TITLE BLOCK
  6
Continuous
100
AcDbText
 10
975.3600000000002
 20
82.55174299761829
 30
0.0
 40
5.133906008519999
  1

100
AcDbAttributeDefinition
  3
Ref. No.
  2
GEN-TITLE-REF{5}
 70
     0
1001
GENIUS_GENBLLY_14
1000
BOR2
  0
TEXT
  5
597
330
515
100
AcDbEntity
  8
TITLE BLOCK
  6
Continuous
100
AcDbText
 10
957.58
 20
60.9617429976183
 30
0.0
 40
3.857603011244991
  1
MATL
 50
0.09999996
  7
AE
100
AcDbText
  0
TEXT
  5
598
330
515
100
AcDbEntity
  8
TITLE BLOCK
  6
Continuous
100
AcDbText
 10
957.58
 20
73.66174299761829
 30
0.0
 40
3.857603011244991
  1
MACH
 50
0.09999996
  7
AE
100
AcDbText
  0
TEXT
  5
599
330
515
100
AcDbEntity
  8
TITLE BLOCK
  6
Continuous
100
AcDbText
 10
957.58
 20
86.3617429976183
 30
0.0
 40
3.857603011244991
  1
REF
 50
0.09999996
  7
AE
100
AcDbText
  0
TEXT
  5
59A
330
515
100
AcDbEntity
  8
TITLE BLOCK
  6
Continuous
100
AcDbText
 10
957.58
 20
45.72174299761829
 30
0.0
 40
3.857603011244991
  1
DRAWING NUMBER
 50
0.09999996
  7
AE
100
AcDbText
  0
LINE
  5
59B
330
515
100
AcDbEntity
  8
TITLE BLOCK
  6
Continuous
100
AcDbLine
 10
955.0399999999998
 20
25.4
 30
0.0
 11
955.0399999999998
 21
127.0017429976183
 31
0.0
  0
LINE
  5
59C
330
515
100
AcDbEntity
  8
TITLE BLOCK
  6
Continuous
100
AcDbLine
 10
1030.033864808189
 20
53.34174299761829
 30
0.0
 11
1030.033864808187
 21
78.74174299761827
 31
0.0
  0
ATTDEF
  5
59D
330
515
100
AcDbEntity
  8
TITLE BLOCK
  6
Continuous
100
AcDbText
 10
1049.39
 20
69.85174299761829
 30
0.0
 40
5.133906008519999
  1

100
AcDbAttributeDefinition
  3
Date
  2
GEN-TITLE-PLOT{5}
 70
     0
1001
GENIUS_GENBLLY_14
1000
BOR2
  0
ATTDEF
  5
59E
330
515
100
AcDbEntity
  8
TITLE BLOCK
  6
Continuous
100
AcDbText
 10
965.2000000000001
 20
31.75
 30
0.0
 40
7.62
  1

 41
0.8
100
AcDbAttributeDefinition
  3
Drawing Number
  2
GEN-TITLE-NR{13.37}
 70
     0
1001
GENIUS_GENBLLY_14
1000
BOR5
  0
LINE
  5
59F
330
515
100
AcDbEntity
  8
BORDER
100
AcDbLine
 10
558.7988316
 20
843.2799237999999
 30
0.0
 11
558.7988316
 21
848.3598475999999
 31
0.0
  0
LINE
  5
5A0
330
515
100
AcDbEntity
  8
BORDER
100
AcDbLine
 10
556.2590602
 20
843.2799237999999
 30
0.0
 11
561.338984
 21
843.2799237999999
 31
0.0
  0
LINE
  5
5A1
330
515
100
AcDbEntity
  8
BORDER
100
AcDbLine
 10
556.2598476
 20
843.2799237999999
 30
0.0
 11
558.8
 21
838.1999999999999
 31
0.0
  0
LINE
  5
5A2
330
515
100
AcDbEntity
  8
BORDER
100
AcDbLine
 10
558.7995935999999
 20
838.2003809999998
 30
0.0
 11
561.3397714
 21
843.2803048
 31
0.0
  0
LINE
  5
5A3
330
515
100
AcDbEntity
  8
BORDER
100
AcDbLine
 10
1109.980105409999
 20
431.8004571999999
 30
0.0
 11
1115.06002794
 21
431.8004571999999
 31
0.0
  0
LINE
  5
5A4
330
515
100
AcDbEntity
  8
BORDER
100
AcDbLine
 10
1104.899999999999
 20
431.7999999999999
 30
0.0
 11
1109.979893319999
 21
434.3399237999999
 31
0.0
  0
LINE
  5
5A5
330
515
100
AcDbEntity
  8
BORDER
100
AcDbLine
 10
1109.980105409999
 20
429.2603047999999
 30
0.0
 11
1109.980105409999
 21
434.3402285999999
 31
0.0
  0
LINE
  5
5A6
330
515
100
AcDbEntity
  8
BORDER
100
AcDbLine
 10
1104.900331215999
 20
431.7999491999999
 30
0.0
 11
1109.980225043999
 21
429.2600253999999
 31
0.0
  0
LINE
  5
5A7
330
515
100
AcDbEntity
  8
BORDER
  6
Continuous
100
AcDbLine
 10
1117.6
 20
558.8
 30
0.0
 11
1117.6
 21
0.0
 31
0.0
  0
LINE
  5
5A8
330
515
100
AcDbEntity
  8
BORDER
  6
Continuous
100
AcDbLine
 10
1117.6
 20
0.0
 30
0.0
 11
0.0
 21
0.0
 31
0.0
  0
LINE
  5
5A9
330
515
100
AcDbEntity
  8
BORDER
100
AcDbLine
 10
254.0
 20
0.0
 30
0.0
 11
254.0
 21
0.0
 31
0.0
  0
MTEXT
  5
5AA
330
515
100
AcDbEntity
  8
BORDER
  6
Continuous
100
AcDbMText
 10
1028.856961502622
 20
119.3817429976183
 30
0.0
 40
6.349999999999999
 41
135.2804
 71
     2
 72
     5
  1
{\fArial|b0|i0|c0|p34;\C1;G & L Motion Control Inc.}
 73
     1
 44
1.0
  0
MTEXT
  5
5AB
330
515
100
AcDbEntity
  8
BORDER
  6
Continuous
100
AcDbMText
 10
1028.909731744085
 20
103.0375967327382
 30
0.0
 40
3.999992
 41
145.3896
 71
     5
 72
     1
  1
{\Fromans.shx;\C9;672 South Military Road\PFond du Lac, Wisconsin 54936 U.S.A.}
 73
     1
 44
1.0
  0
LINE
  5
5AC
330
515
100
AcDbEntity
  8
BORDER
100
AcDbLine
 10
1117.6
 20
863.5999999999999
 30
0.0
 11
1117.6
 21
0.0
 31
0.0
  0
LINE
  5
5AD
330
515
100
AcDbEntity
  8
BORDER
100
AcDbLine
 10
1117.6
 20
863.5999999999999
 30
0.0
 11
0.0
 21
863.5999999999999
 31
0.0
  0
LINE
  5
5AE
330
515
100
AcDbEntity
  8
BORDER
100
AcDbLine
 10
0.0
 20
863.5999999999999
 30
0.0
 11
0.0
 21
0.0
 31
0.0
  0
LINE
  5
5AF
330
515
100
AcDbEntity
  8
BORDER
100
AcDbLine
 10
12.7
 20
25.4
 30
0.0
 11
12.7
 21
838.1999999999999
 31
0.0
  0
LINE
  5
5B0
330
515
100
AcDbEntity
  8
BORDER
100
AcDbLine
 10
1104.899999999999
 20
25.4
 30
0.0
 11
1104.899999999999
 21
838.1999999999999
 31
0.0
  0
LINE
  5
5B1
330
515
100
AcDbEntity
  8
BORDER
100
AcDbLine
 10
12.7
 20
838.1999999999999
 30
0.0
 11
1104.899999999999
 21
838.1999999999999
 31
0.0
  0
LINE
  5
5B2
330
515
100
AcDbEntity
  8
BORDER
100
AcDbLine
 10
12.7
 20
25.4
 30
0.0
 11
1104.899999999999
 21
25.4
 31
0.0
  0
LINE
  5
5B3
330
515
100
AcDbEntity
  8
BORDER
100
AcDbLine
 10
977.8999999999999
 20
850.9
 30
0.0
 11
977.8999999999999
 21
838.1999999999999
 31
0.0
  0
LINE
  5
5B4
330
515
100
AcDbEntity
  8
BORDER
100
AcDbLine
 10
838.1999999999999
 20
850.9
 30
0.0
 11
838.1999999999999
 21
838.1999999999999
 31
0.0
  0
LINE
  5
5B5
330
515
100
AcDbEntity
  8
BORDER
100
AcDbLine
 10
698.5
 20
850.9
 30
0.0
 11
698.5
 21
838.1999999999999
 31
0.0
  0
LINE
  5
5B6
330
515
100
AcDbEntity
  8
BORDER
100
AcDbLine
 10
419.0999999999999
 20
850.9
 30
0.0
 11
419.0999999999999
 21
838.1999999999999
 31
0.0
  0
LINE
  5
5B7
330
515
100
AcDbEntity
  8
BORDER
100
AcDbLine
 10
279.4
 20
850.9
 30
0.0
 11
279.4
 21
838.1999999999999
 31
0.0
  0
LINE
  5
5B8
330
515
100
AcDbEntity
  8
BORDER
100
AcDbLine
 10
139.7
 20
850.9
 30
0.0
 11
139.7
 21
838.1999999999999
 31
0.0
  0
LINE
  5
5B9
330
515
100
AcDbEntity
  8
BORDER
100
AcDbLine
 10
1117.6
 20
755.6499999999999
 30
0.0
 11
1104.899999999999
 21
755.6499999999999
 31
0.0
  0
LINE
  5
5BA
330
515
100
AcDbEntity
  8
BORDER
100
AcDbLine
 10
1117.6
 20
647.6999999999999
 30
0.0
 11
1104.899999999999
 21
647.6999999999999
 31
0.0
  0
LINE
  5
5BB
330
515
100
AcDbEntity
  8
BORDER
100
AcDbLine
 10
1117.6
 20
539.7499999999999
 30
0.0
 11
1104.899999999999
 21
539.7499999999999
 31
0.0
  0
LINE
  5
5BC
330
515
100
AcDbEntity
  8
BORDER
100
AcDbLine
 10
1117.6
 20
323.8499999999999
 30
0.0
 11
1104.899999999999
 21
323.8499999999999
 31
0.0
  0
LINE
  5
5BD
330
515
100
AcDbEntity
  8
BORDER
100
AcDbLine
 10
1117.6
 20
215.8999999999999
 30
0.0
 11
1104.899999999999
 21
215.8999999999999
 31
0.0
  0
LINE
  5
5BE
330
515
100
AcDbEntity
  8
BORDER
100
AcDbLine
 10
1117.6
 20
107.9499999999999
 30
0.0
 11
1104.899999999999
 21
107.9499999999999
 31
0.0
  0
LINE
  5
5BF
330
515
100
AcDbEntity
  8
BORDER
100
AcDbLine
 10
12.7
 20
755.6499999999999
 30
0.0
 11
0.0
 21
755.6499999999999
 31
0.0
  0
LINE
  5
5C0
330
515
100
AcDbEntity
  8
BORDER
100
AcDbLine
 10
12.7
 20
647.6999999999999
 30
0.0
 11
0.0
 21
647.6999999999999
 31
0.0
  0
LINE
  5
5C1
330
515
100
AcDbEntity
  8
BORDER
100
AcDbLine
 10
12.7
 20
539.7499999999999
 30
0.0
 11
0.0
 21
539.7499999999999
 31
0.0
  0
LINE
  5
5C2
330
515
100
AcDbEntity
  8
BORDER
100
AcDbLine
 10
12.7
 20
323.8499999999999
 30
0.0
 11
0.0
 21
323.8499999999999
 31
0.0
  0
LINE
  5
5C3
330
515
100
AcDbEntity
  8
BORDER
100
AcDbLine
 10
12.7
 20
215.8999999999999
 30
0.0
 11
0.0
 21
215.8999999999999
 31
0.0
  0
LINE
  5
5C4
330
515
100
AcDbEntity
  8
BORDER
100
AcDbLine
 10
12.7
 20
107.9499999999999
 30
0.0
 11
0.0
 21
107.9499999999999
 31
0.0
  0
LINE
  5
5C5
330
515
100
AcDbEntity
  8
BORDER
100
AcDbLine
 10
139.7
 20
25.4
 30
0.0
 11
139.7
 21
12.7
 31
0.0
  0
LINE
  5
5C6
330
515
100
AcDbEntity
  8
BORDER
100
AcDbLine
 10
279.4
 20
25.4
 30
0.0
 11
279.4
 21
12.7
 31
0.0
  0
LINE
  5
5C7
330
515
100
AcDbEntity
  8
BORDER
100
AcDbLine
 10
419.0999999999999
 20
25.4
 30
0.0
 11
419.0999999999999
 21
12.7
 31
0.0
  0
LINE
  5
5C8
330
515
100
AcDbEntity
  8
BORDER
100
AcDbLine
 10
698.5
 20
25.4
 30
0.0
 11
698.5
 21
12.7
 31
0.0
  0
LINE
  5
5C9
330
515
100
AcDbEntity
  8
BORDER
100
AcDbLine
 10
838.1999999999999
 20
25.4
 30
0.0
 11
838.1999999999999
 21
12.7
 31
0.0
  0
TEXT
  5
5CA
330
515
100
AcDbEntity
  8
BORDER
100
AcDbText
 10
904.875
 20
846.1375
 30
0.0
 40
9.524999999999998
  1
2
 72
     1
 11
908.0499999999998
 21
850.9
 31
0.0
100
AcDbText
 73
     2
  0
TEXT
  5
5CB
330
515
100
AcDbEntity
  8
BORDER
100
AcDbText
 10
1046.1625
 20
846.1375
 30
0.0
 40
9.524999999999998
  1
1
 72
     1
 11
1047.75
 21
850.9
 31
0.0
100
AcDbText
 73
     2
  0
TEXT
  5
5CC
330
515
100
AcDbEntity
  8
BORDER
100
AcDbText
 10
765.1749999999999
 20
846.1375
 30
0.0
 40
9.524999999999998
  1
3
 72
     1
 11
768.3499999999999
 21
850.9
 31
0.0
100
AcDbText
 73
     2
  0
TEXT
  5
5CD
330
515
100
AcDbEntity
  8
BORDER
100
AcDbText
 10
206.3749999999999
 20
846.1375
 30
0.0
 40
9.524999999999998
  1
7
 72
     1
 11
209.5499999999999
 21
850.9
 31
0.0
100
AcDbText
 73
     2
  0
TEXT
  5
5CE
330
515
100
AcDbEntity
  8
BORDER
100
AcDbText
 10
346.0749999999999
 20
846.1375
 30
0.0
 40
9.524999999999998
  1
6
 72
     1
 11
349.25
 21
850.9
 31
0.0
100
AcDbText
 73
     2
  0
TEXT
  5
5CF
330
515
100
AcDbEntity
  8
BORDER
100
AcDbText
 10
485.775
 20
846.1375
 30
0.0
 40
9.524999999999998
  1
5
 72
     1
 11
488.9499999999999
 21
850.9
 31
0.0
100
AcDbText
 73
     2
  0
TEXT
  5
5D0
330
515
100
AcDbEntity
  8
BORDER
100
AcDbText
 10
66.675
 20
846.1375
 30
0.0
 40
9.524999999999998
  1
8
 72
     1
 11
69.84999999999999
 21
850.9
 31
0.0
100
AcDbText
 73
     2
  0
TEXT
  5
5D1
330
515
100
AcDbEntity
  8
BORDER
100
AcDbText
 10
625.475
 20
846.1375
 30
0.0
 40
9.524999999999998
  1
4
 72
     1
 11
628.65
 21
850.9
 31
0.0
100
AcDbText
 73
     2
  0
TEXT
  5
5D2
330
515
100
AcDbEntity
  8
BORDER
100
AcDbText
 10
1108.075
 20
696.9124999999999
 30
0.0
 40
9.524999999999998
  1
G
 72
     1
 11
1111.25
 21
701.675
 31
0.0
100
AcDbText
 73
     2
  0
TEXT
  5
5D3
330
515
100
AcDbEntity
  8
BORDER
100
AcDbText
 10
1108.075
 20
804.8624999999999
 30
0.0
 40
9.524999999999998
  1
H
 72
     1
 11
1111.25
 21
809.6249999999999
 31
0.0
100
AcDbText
 73
     2
  0
TEXT
  5
5D4
330
515
100
AcDbEntity
  8
BORDER
100
AcDbText
 10
1108.075
 20
588.9624999999999
 30
0.0
 40
9.524999999999998
  1
F
 72
     1
 11
1111.25
 21
593.725
 31
0.0
100
AcDbText
 73
     2
  0
TEXT
  5
5D5
330
515
100
AcDbEntity
  8
BORDER
100
AcDbText
 10
1108.075
 20
373.0624999999999
 30
0.0
 40
9.524999999999998
  1
D
 72
     1
 11
1111.25
 21
377.8249999999999
 31
0.0
100
AcDbText
 73
     2
  0
TEXT
  5
5D6
330
515
100
AcDbEntity
  8
BORDER
100
AcDbText
 10
1108.075
 20
49.21249999999999
 30
0.0
 40
9.524999999999998
  1
A
 72
     1
 11
1111.25
 21
53.97499999999999
 31
0.0
100
AcDbText
 73
     2
  0
TEXT
  5
5D7
330
515
100
AcDbEntity
  8
BORDER
100
AcDbText
 10
1108.075
 20
157.1625
 30
0.0
 40
9.524999999999998
  1
B
 72
     1
 11
1111.25
 21
161.9249999999999
 31
0.0
100
AcDbText
 73
     2
  0
TEXT
  5
5D8
330
515
100
AcDbEntity
  8
BORDER
100
AcDbText
 10
1108.075
 20
265.1124999999999
 30
0.0
 40
9.524999999999998
  1
C
 72
     1
 11
1111.25
 21
269.8749999999999
 31
0.0
100
AcDbText
 73
     2
  0
TEXT
  5
5D9
330
515
100
AcDbEntity
  8
BORDER
100
AcDbText
 10
1108.075
 20
481.0125
 30
0.0
 40
9.524999999999998
  1
E
 72
     1
 11
1111.25
 21
485.775
 31
0.0
100
AcDbText
 73
     2
  0
TEXT
  5
5DA
330
515
100
AcDbEntity
  8
BORDER
100
AcDbText
 10
3.174999999999999
 20
49.21249999999999
 30
0.0
 40
9.524999999999998
  1
A
 72
     1
 11
6.349999999999999
 21
53.97499999999999
 31
0.0
100
AcDbText
 73
     2
  0
TEXT
  5
5DB
330
515
100
AcDbEntity
  8
BORDER
100
AcDbText
 10
3.174999999999999
 20
157.1625
 30
0.0
 40
9.524999999999998
  1
B
 72
     1
 11
6.349999999999999
 21
161.9249999999999
 31
0.0
100
AcDbText
 73
     2
  0
TEXT
  5
5DC
330
515
100
AcDbEntity
  8
BORDER
100
AcDbText
 10
3.174999999999999
 20
265.1124999999999
 30
0.0
 40
9.524999999999998
  1
C
 72
     1
 11
6.349999999999999
 21
269.8749999999999
 31
0.0
100
AcDbText
 73
     2
  0
TEXT
  5
5DD
330
515
100
AcDbEntity
  8
BORDER
100
AcDbText
 10
3.174999999999999
 20
373.0624999999999
 30
0.0
 40
9.524999999999998
  1
D
 72
     1
 11
6.349999999999999
 21
377.8249999999999
 31
0.0
100
AcDbText
 73
     2
  0
TEXT
  5
5DE
330
515
100
AcDbEntity
  8
BORDER
100
AcDbText
 10
3.174999999999999
 20
481.0125
 30
0.0
 40
9.524999999999998
  1
E
 72
     1
 11
6.349999999999999
 21
485.775
 31
0.0
100
AcDbText
 73
     2
  0
TEXT
  5
5DF
330
515
100
AcDbEntity
  8
BORDER
100
AcDbText
 10
3.174999999999999
 20
588.9624999999999
 30
0.0
 40
9.524999999999998
  1
F
 72
     1
 11
6.349999999999999
 21
593.725
 31
0.0
100
AcDbText
 73
     2
  0
TEXT
  5
5E0
330
515
100
AcDbEntity
  8
BORDER
100
AcDbText
 10
3.174999999999999
 20
696.9124999999999
 30
0.0
 40
9.524999999999998
  1
G
 72
     1
 11
6.349999999999999
 21
701.675
 31
0.0
100
AcDbText
 73
     2
  0
TEXT
  5
5E1
330
515
100
AcDbEntity
  8
BORDER
100
AcDbText
 10
3.174999999999999
 20
804.8624999999999
 30
0.0
 40
9.524999999999998
  1
H
 72
     1
 11
6.349999999999999
 21
809.6249999999999
 31
0.0
100
AcDbText
 73
     2
  0
TEXT
  5
5E2
330
515
100
AcDbEntity
  8
BORDER
100
AcDbText
 10
1046.1625
 20
7.9375
 30
0.0
 40
9.524999999999998
  1
1
 72
     1
 11
1047.75
 21
12.7
 31
0.0
100
AcDbText
 73
     2
  0
TEXT
  5
5E3
330
515
100
AcDbEntity
  8
BORDER
100
AcDbText
 10
904.875
 20
7.9375
 30
0.0
 40
9.524999999999998
  1
2
 72
     1
 11
908.0499999999998
 21
12.7
 31
0.0
100
AcDbText
 73
     2
  0
TEXT
  5
5E4
330
515
100
AcDbEntity
  8
BORDER
100
AcDbText
 10
765.1749999999999
 20
7.9375
 30
0.0
 40
9.524999999999998
  1
3
 72
     1
 11
768.3499999999999
 21
12.7
 31
0.0
100
AcDbText
 73
     2
  0
TEXT
  5
5E5
330
515
100
AcDbEntity
  8
BORDER
100
AcDbText
 10
625.475
 20
7.9375
 30
0.0
 40
9.524999999999998
  1
4
 72
     1
 11
628.65
 21
12.7
 31
0.0
100
AcDbText
 73
     2
  0
TEXT
  5
5E6
330
515
100
AcDbEntity
  8
BORDER
100
AcDbText
 10
485.775
 20
7.9375
 30
0.0
 40
9.524999999999998
  1
5
 72
     1
 11
488.9499999999999
 21
12.7
 31
0.0
100
AcDbText
 73
     2
  0
TEXT
  5
5E7
330
515
100
AcDbEntity
  8
BORDER
100
AcDbText
 10
346.0749999999999
 20
7.9375
 30
0.0
 40
9.524999999999998
  1
6
 72
     1
 11
349.25
 21
12.7
 31
0.0
100
AcDbText
 73
     2
  0
TEXT
  5
5E8
330
515
100
AcDbEntity
  8
BORDER
100
AcDbText
 10
206.3749999999999
 20
7.9375
 30
0.0
 40
9.524999999999998
  1
7
 72
     1
 11
209.5499999999999
 21
12.7
 31
0.0
100
AcDbText
 73
     2
  0
TEXT
  5
5E9
330
515
100
AcDbEntity
  8
BORDER
100
AcDbText
 10
66.675
 20
7.9375
 30
0.0
 40
9.524999999999998
  1
8
 72
     1
 11
69.84999999999999
 21
12.7
 31
0.0
100
AcDbText
 73
     2
  0
ENDBLK
  5
5EB
330
515
100
AcDbEntity
  8
0
100
AcDbBlockEnd
  0
ENDSEC
  0
SECTION
  2
ENTITIES
  0
LINE
  5
30
330
A
100
AcDbEntity
  8
4
 62
    92
100
AcDbLine
 10
631.6780395507377
 20
349.3922080992749
 30
0.0
 11
628.6780395507377
 21
350.3922080992749
 31
0.0
  0
LINE
  5
31
330
A
100
AcDbEntity
  8
4
 62
    92
100
AcDbLine
 10
628.6780395507377
 20
350.3922080992749
 30
0.0
 11
628.6780395507377
 21
348.3922080992749
 31
0.0
  0
LINE
  5
32
330
A
100
AcDbEntity
  8
4
 62
    92
100
AcDbLine
 10
628.6780395507377
 20
348.3922080992749
 30
0.0
 11
631.6780395507377
 21
349.3922080992749
 31
0.0
  0
LINE
  5
33
330
A
100
AcDbEntity
  8
4
  6
Continuous
 62
    92
100
AcDbLine
 10
631.6780395507377
 20
349.3922080992749
 30
0.0
 11
266.6780395507377
 21
349.3922080992749
 31
0.0
  0
LINE
  5
34
330
A
100
AcDbEntity
  8
4
 62
    92
100
AcDbLine
 10
266.6780395507377
 20
349.3922080992749
 30
0.0
 11
269.6780395507377
 21
348.3922080992749
 31
0.0
  0
LINE
  5
35
330
A
100
AcDbEntity
  8
4
 62
    92
100
AcDbLine
 10
269.6780395507377
 20
348.3922080992749
 30
0.0
 11
269.6780395507377
 21
350.3922080992749
 31
0.0
  0
LINE
  5
36
330
A
100
AcDbEntity
  8
4
 62
    92
100
AcDbLine
 10
269.6780395507377
 20
350.3922080992749
 30
0.0
 11
266.6780395507377
 21
349.3922080992749
 31
0.0
  0
LINE
  5
37
330
A
100
AcDbEntity
  8
4
  6
Continuous
 62
    92
100
AcDbLine
 10
631.6780395507377
 20
417.697204589775
 30
0.0
 11
631.6780395507377
 21
349.3922080992749
 31
0.0
  0
LINE
  5
38
330
A
100
AcDbEntity
  8
4
  6
Continuous
 62
    92
100
AcDbLine
 10
266.6780395507377
 20
363.55947875965
 30
0.0
 11
266.6780395507377
 21
349.3922080992749
 31
0.0
  0
LINE
  5
39
330
A
100
AcDbEntity
  8
4
  6
Continuous
 62
    92
100
AcDbLine
 10
596.7333526611127
 20
374.9259414671499
 30
0.0
 11
616.6770858763627
 21
374.9259414671499
 31
0.0
  0
LINE
  5
3A
330
A
100
AcDbEntity
  8
4
 62
    92
100
AcDbLine
 10
616.6770858763627
 20
374.9259414671499
 30
0.0
 11
613.6770858763627
 21
375.9259414671499
 31
0.0
  0
LINE
  5
3B
330
A
100
AcDbEntity
  8
4
 62
    92
100
AcDbLine
 10
613.6770858763627
 20
375.9259414671499
 30
0.0
 11
613.6770858763627
 21
373.9259414671499
 31
0.0
  0
LINE
  5
3C
330
A
100
AcDbEntity
  8
4
 62
    92
100
AcDbLine
 10
613.6770858763627
 20
373.9259414671499
 30
0.0
 11
616.6770858763627
 21
374.9259414671499
 31
0.0
  0
LINE
  5
3D
330
A
100
AcDbEntity
  8
4
  6
Continuous
 62
    92
100
AcDbLine
 10
616.6770858763627
 20
374.9259414671499
 30
0.0
 11
631.6780395507377
 21
374.9259414671499
 31
0.0
  0
LINE
  5
3E
330
A
100
AcDbEntity
  8
4
 62
    92
100
AcDbLine
 10
631.6780395507377
 20
374.9259414671499
 30
0.0
 11
634.6780395507376
 21
373.9259414671499
 31
0.0
  0
LINE
  5
3F
330
A
100
AcDbEntity
  8
4
 62
    92
100
AcDbLine
 10
634.6780395507376
 20
373.9259414671499
 30
0.0
 11
634.6780395507376
 21
375.9259414671499
 31
0.0
  0
LINE
  5
40
330
A
100
AcDbEntity
  8
4
 62
    92
100
AcDbLine
 10
634.6780395507376
 20
375.9259414671499
 30
0.0
 11
631.6780395507377
 21
374.9259414671499
 31
0.0
  0
LINE
  5
41
330
A
100
AcDbEntity
  8
4
  6
Continuous
 62
    92
100
AcDbLine
 10
631.6780395507377
 20
374.9259414671499
 30
0.0
 11
640.4280395507377
 21
374.9259414671499
 31
0.0
  0
LINE
  5
42
330
A
100
AcDbEntity
  8
4
  6
Continuous
 62
    92
100
AcDbLine
 10
616.6770858763627
 20
409.4883956907749
 30
0.0
 11
616.6770858763627
 21
374.9259414671499
 31
0.0
  0
LINE
  5
43
330
A
100
AcDbEntity
  8
4
  6
Continuous
 62
    92
100
AcDbLine
 10
631.6780395507377
 20
407.69312286365
 30
0.0
 11
631.6780395507377
 21
374.9259414671499
 31
0.0
  0
LINE
  5
44
330
A
100
AcDbEntity
  8
4
 62
    92
100
AcDbLine
 10
621.8021316527377
 20
532.697204589775
 30
0.0
 11
620.8021316527378
 21
529.6972045897749
 31
0.0
  0
LINE
  5
45
330
A
100
AcDbEntity
  8
4
 62
    92
100
AcDbLine
 10
620.8021316527378
 20
529.6972045897749
 30
0.0
 11
622.8021316527377
 21
529.6972045897749
 31
0.0
  0
LINE
  5
46
330
A
100
AcDbEntity
  8
4
 62
    92
100
AcDbLine
 10
622.8021316527377
 20
529.6972045897749
 30
0.0
 11
621.8021316527377
 21
532.697204589775
 31
0.0
  0
LINE
  5
47
330
A
100
AcDbEntity
  8
4
  6
Continuous
 62
    92
100
AcDbLine
 10
621.8021316527377
 20
532.697204589775
 30
0.0
 11
621.8021316527377
 21
417.697204589775
 31
0.0
  0
LINE
  5
48
330
A
100
AcDbEntity
  8
4
 62
    92
100
AcDbLine
 10
621.8021316527377
 20
417.697204589775
 30
0.0
 11
622.8021316527377
 21
420.6972045897749
 31
0.0
  0
LINE
  5
49
330
A
100
AcDbEntity
  8
4
 62
    92
100
AcDbLine
 10
622.8021316527377
 20
420.6972045897749
 30
0.0
 11
620.8021316527378
 21
420.6972045897749
 31
0.0
  0
LINE
  5
4A
330
A
100
AcDbEntity
  8
4
 62
    92
100
AcDbLine
 10
620.8021316527378
 20
420.6972045897749
 30
0.0
 11
621.8021316527377
 21
417.697204589775
 31
0.0
  0
LINE
  5
4B
330
A
100
AcDbEntity
  8
4
  6
Continuous
 62
    92
100
AcDbLine
 10
625.2798767089877
 20
532.697204589775
 30
0.0
 11
621.8021316527377
 21
532.697204589775
 31
0.0
  0
LINE
  5
4C
330
A
100
AcDbEntity
  8
4
  6
Continuous
 62
    92
100
AcDbLine
 10
623.0667800902377
 20
417.697204589775
 30
0.0
 11
621.8021316527377
 21
417.697204589775
 31
0.0
  0
LINE
  5
4D
330
A
100
AcDbEntity
  8
11
  6
Continuous
 62
    92
100
AcDbLine
 10
616.6780395507377
 20
480.1967086790249
 30
0.0
 11
616.6780395507377
 21
508.9472045897749
 31
0.0
  0
LINE
  5
4E
330
A
100
AcDbEntity
  8
11
  6
Continuous
 62
    92
100
AcDbLine
 10
614.1780390828627
 20
511.4484637760249
 30
0.0
 11
547.9280395507377
 21
511.4484634397749
 31
0.0
  0
LINE
  5
4F
330
A
100
AcDbEntity
  8
11
  6
Continuous
 62
    92
100
AcDbLine
 10
545.4272384643626
 20
513.947204589775
 30
0.0
 11
545.4272384643626
 21
545.8222045897749
 31
0.0
  0
LINE
  5
50
330
A
100
AcDbEntity
  8
11
  6
Continuous
 62
    92
100
AcDbLine
 10
526.6780395507376
 20
535.904716491525
 30
0.0
 11
544.1780395507377
 21
535.904716491525
 31
0.0
  0
LINE
  5
51
330
A
100
AcDbEntity
  8
11
  6
Continuous
 62
    92
100
AcDbLine
 10
545.4272384643626
 20
534.654716491525
 30
0.0
 11
545.4272384643626
 21
533.9472045897749
 31
0.0
  0
LINE
  5
52
330
A
100
AcDbEntity
  8
11
  6
Continuous
 62
    92
100
AcDbLine
 10
546.6780395507377
 20
532.697052001775
 30
0.0
 11
619.1780395507377
 21
532.697052001775
 31
0.0
  0
LINE
  5
53
330
A
100
AcDbEntity
  8
11
  6
Continuous
 62
    92
100
AcDbLine
 10
631.6780395507377
 20
475.197204589775
 30
0.0
 11
631.6780395507377
 21
532.697204589775
 31
0.0
  0
LINE
  5
54
330
A
100
AcDbEntity
  8
11
  6
Continuous
 62
    92
100
AcDbLine
 10
631.6780395507377
 20
532.697204589775
 30
0.0
 11
619.1780395507377
 21
532.697204589775
 31
0.0
  0
LINE
  5
55
330
A
100
AcDbEntity
  8
11
  6
Continuous
 62
    92
100
AcDbLine
 10
616.6770858763627
 20
535.1972045897749
 30
0.0
 11
616.6770858763627
 21
544.5722045897749
 31
0.0
  0
LINE
  5
56
330
A
100
AcDbEntity
  8
11
  6
Continuous
 62
    92
100
AcDbLine
 10
614.1780395507376
 20
547.0725097655249
 30
0.0
 11
526.6780395507376
 21
547.0725097655249
 31
0.0
  0
LINE
  5
57
330
A
100
AcDbEntity
  8
11
  6
Continuous
 62
    92
100
AcDbLine
 10
526.6780395507376
 20
547.0725097655249
 30
0.0
 11
526.6780395507376
 21
475.197204589775
 31
0.0
  0
LINE
  5
58
330
A
100
AcDbEntity
  8
11
  6
Continuous
 62
    92
100
AcDbLine
 10
514.1780395507376
 20
535.904716491525
 30
0.0
 11
532.9280395507376
 21
535.904716491525
 31
0.0
  0
LINE
  5
59
330
A
100
AcDbEntity
  8
11
  6
Continuous
 62
    92
100
AcDbLine
 10
514.1780395507376
 20
475.197204589775
 30
0.0
 11
514.1780395507376
 21
547.0722045897749
 31
0.0
  0
LINE
  5
5A
330
A
100
AcDbEntity
  8
11
  6
Continuous
 62
    92
100
AcDbLine
 10
514.1780395507376
 20
547.0722045897749
 30
0.0
 11
526.6780395507376
 21
547.0722045897749
 31
0.0
  0
LINE
  5
5B
330
A
100
AcDbEntity
  8
11
  6
Continuous
 62
    92
100
AcDbLine
 10
526.6780395507376
 20
547.0722045897749
 30
0.0
 11
526.6780395507376
 21
475.197204589775
 31
0.0
  0
LINE
  5
5C
330
A
100
AcDbEntity
  8
11
  6
Continuous
 62
    92
100
AcDbLine
 10
637.9280395507377
 20
529.197219848525
 30
0.0
 11
637.9280395507377
 21
519.197219848525
 31
0.0
  0
LINE
  5
5D
330
A
100
AcDbEntity
  8
11
  6
Continuous
 62
    92
100
AcDbLine
 10
637.9280395507377
 20
519.197219848525
 30
0.0
 11
638.9280242919877
 21
519.197219848525
 31
0.0
  0
LINE
  5
5E
330
A
100
AcDbEntity
  8
11
  6
Continuous
 62
    92
100
AcDbLine
 10
638.9280242919877
 20
519.197219848525
 30
0.0
 11
638.9280242919877
 21
524.6859588621499
 31
0.0
  0
LINE
  5
5F
330
A
100
AcDbEntity
  8
11
  6
Continuous
 62
    92
100
AcDbLine
 10
638.9280242919877
 20
524.6859588621499
 30
0.0
 11
638.9280242919877
 21
529.197219848525
 31
0.0
  0
LINE
  5
60
330
A
100
AcDbEntity
  8
11
  6
Continuous
 62
    92
100
AcDbLine
 10
638.9280242919877
 20
529.197219848525
 30
0.0
 11
637.9280395507377
 21
529.197219848525
 31
0.0
  0
LINE
  5
61
330
A
100
AcDbEntity
  8
11
  6
Continuous
 62
    92
100
AcDbLine
 10
638.9280242919877
 20
524.6859588621499
 30
0.0
 11
638.9280242919877
 21
528.572219848525
 31
0.0
  0
LINE
  5
62
330
A
100
AcDbEntity
  8
11
  6
Continuous
 62
    92
100
AcDbLine
 10
639.1780395507376
 20
528.572219848525
 30
0.0
 11
643.9280242919878
 21
528.572219848525
 31
0.0
  0
LINE
  5
63
330
A
100
AcDbEntity
  8
11
  6
Continuous
 62
    92
100
AcDbLine
 10
643.9280242919878
 20
528.572219848525
 30
0.0
 11
643.9280242919878
 21
519.822219848525
 31
0.0
  0
LINE
  5
64
330
A
100
AcDbEntity
  8
11
  6
Continuous
 62
    92
100
AcDbLine
 10
643.9280242919878
 20
519.822219848525
 30
0.0
 11
638.9280242919877
 21
519.822219848525
 31
0.0
  0
LINE
  5
65
330
A
100
AcDbEntity
  8
11
  6
Continuous
 62
    92
100
AcDbLine
 10
638.9280242919877
 20
519.822219848525
 30
0.0
 11
638.9280242919877
 21
524.6859588621499
 31
0.0
  0
LINE
  5
66
330
A
100
AcDbEntity
  8
10
  6
CENTERX2
 62
    92
100
AcDbLine
 10
645.5555267333627
 20
524.197219848525
 30
0.0
 11
626.9542999267376
 21
524.197219848525
 31
0.0
  0
LINE
  5
67
330
A
100
AcDbEntity
  8
11
  6
Continuous
 62
    92
100
AcDbLine
 10
545.4280395507376
 20
523.9472045897749
 30
0.0
 11
545.4280395507376
 21
513.947204589775
 31
0.0
  0
LINE
  5
68
330
A
100
AcDbEntity
  8
11
  6
Continuous
 62
    92
100
AcDbLine
 10
545.4280395507376
 20
513.947204589775
 30
0.0
 11
546.4280624388627
 21
513.947204589775
 31
0.0
  0
LINE
  5
69
330
A
100
AcDbEntity
  8
11
  6
Continuous
 62
    92
100
AcDbLine
 10
546.4280624388627
 20
513.947204589775
 30
0.0
 11
546.4280624388627
 21
519.4359436034
 31
0.0
  0
LINE
  5
6A
330
A
100
AcDbEntity
  8
11
  6
Continuous
 62
    92
100
AcDbLine
 10
546.4280624388627
 20
519.4359436034
 30
0.0
 11
546.4280624388627
 21
523.9472045897749
 31
0.0
  0
LINE
  5
6B
330
A
100
AcDbEntity
  8
11
  6
Continuous
 62
    92
100
AcDbLine
 10
546.4280624388627
 20
523.9472045897749
 30
0.0
 11
545.4280395507376
 21
523.9472045897749
 31
0.0
  0
LINE
  5
6C
330
A
100
AcDbEntity
  8
11
  6
Continuous
 62
    92
100
AcDbLine
 10
546.4280624388627
 20
519.4359436034
 30
0.0
 11
546.4280624388627
 21
523.322204589775
 31
0.0
  0
LINE
  5
6D
330
A
100
AcDbEntity
  8
11
  6
Continuous
 62
    92
100
AcDbLine
 10
546.6780395507377
 20
523.322204589775
 30
0.0
 11
551.4280624388627
 21
523.322204589775
 31
0.0
  0
LINE
  5
6E
330
A
100
AcDbEntity
  8
11
  6
Continuous
 62
    92
100
AcDbLine
 10
551.4280624388627
 20
523.322204589775
 30
0.0
 11
551.4280624388627
 21
514.5722045897749
 31
0.0
  0
LINE
  5
6F
330
A
100
AcDbEntity
  8
11
  6
Continuous
 62
    92
100
AcDbLine
 10
551.4280624388627
 20
514.5722045897749
 30
0.0
 11
546.4280624388627
 21
514.5722045897749
 31
0.0
  0
LINE
  5
70
330
A
100
AcDbEntity
  8
11
  6
Continuous
 62
    92
100
AcDbLine
 10
546.4280624388627
 20
514.5722045897749
 30
0.0
 11
546.4280624388627
 21
519.4359436034
 31
0.0
  0
LINE
  5
71
330
A
100
AcDbEntity
  8
10
  6
CENTERX2
 62
    92
100
AcDbLine
 10
553.0555648803628
 20
518.9472045897749
 30
0.0
 11
534.4542999267376
 21
518.9472045897749
 31
0.0
  0
LINE
  5
72
330
A
100
AcDbEntity
  8
11
  6
Continuous
 62
    92
100
AcDbLine
 10
696.6780395507377
 20
503.7996902465249
 30
0.0
 11
702.9280395507377
 21
501.210960388025
 31
0.0
  0
LINE
  5
73
330
A
100
AcDbEntity
  8
11
  6
Continuous
 62
    92
100
AcDbLine
 10
696.6780395507377
 20
475.197204589775
 30
0.0
 11
696.6780395507377
 21
503.7996902465249
 31
0.0
  0
LINE
  5
74
330
A
100
AcDbEntity
  8
11
  6
Continuous
 62
    92
100
AcDbLine
 10
696.6780395507377
 20
531.4472045897749
 30
0.0
 11
696.6780395507377
 21
503.7996902465249
 31
0.0
  0
LINE
  5
75
330
A
100
AcDbEntity
  8
11
  6
Continuous
 62
    92
100
AcDbLine
 10
696.6780395507377
 20
503.7996902465249
 30
0.0
 11
639.4280548094876
 21
503.7996902465249
 31
0.0
  0
LINE
  5
76
330
A
100
AcDbEntity
  8
11
  6
Continuous
 62
    92
100
AcDbLine
 10
637.9273910522377
 20
505.299705505275
 30
0.0
 11
637.9273910522377
 21
506.299690246525
 31
0.0
  0
LINE
  5
77
330
A
100
AcDbEntity
  8
11
  6
Continuous
 62
    92
100
AcDbLine
 10
702.9280395507377
 20
475.197204589775
 30
0.0
 11
702.9280395507377
 21
524.16220092765
 31
0.0
  0
LINE
  5
78
330
A
100
AcDbEntity
  8
11
  6
Continuous
 62
    92
100
AcDbLine
 10
702.1955413817376
 20
525.92970275865
 30
0.0
 11
697.4105377197377
 21
530.7147064207749
 31
0.0
  0
LINE
  5
79
330
A
100
AcDbEntity
  8
11
  6
Continuous
 62
    92
100
AcDbLine
 10
695.6418151854876
 20
531.4463272094
 30
0.0
 11
639.1780395507376
 21
531.4463272094
 31
0.0
  0
LINE
  5
7A
330
A
100
AcDbEntity
  8
11
  6
Continuous
 62
    92
100
AcDbLine
 10
639.1780395507376
 20
531.4463272094
 30
0.0
 11
632.9280395507376
 21
531.4463272094
 31
0.0
  0
LINE
  5
7B
330
A
100
AcDbEntity
  8
11
  6
Continuous
 62
    92
100
AcDbLine
 10
632.9280395507376
 20
531.4463272094
 30
0.0
 11
632.9280395507376
 21
475.197204589775
 31
0.0
  0
LINE
  5
7C
330
A
100
AcDbEntity
  8
11
  6
Continuous
 62
    92
100
AcDbLine
 10
637.9280395507377
 20
506.299690246525
 30
0.0
 11
637.9280395507377
 21
524.6859588621499
 31
0.0
  0
LINE
  5
7D
330
A
100
AcDbEntity
  8
11
  6
Continuous
 62
    92
100
AcDbLine
 10
637.9280395507377
 20
524.6859588621499
 30
0.0
 11
637.9280395507377
 21
531.4472045897749
 31
0.0
  0
LINE
  5
7E
330
A
100
AcDbEntity
  8
11
  6
Continuous
 62
    92
100
AcDbLine
 10
632.9280395507376
 20
524.5809402465249
 30
0.0
 11
637.9280395507377
 21
524.5809402465249
 31
0.0
  0
LINE
  5
7F
330
A
100
AcDbEntity
  8
11
  6
Continuous
 62
    92
100
AcDbLine
 10
616.6780395507377
 20
463.44019317615
 30
0.0
 11
616.6780395507377
 21
441.447204589775
 31
0.0
  0
LINE
  5
80
330
A
100
AcDbEntity
  8
11
  6
Continuous
 62
    92
100
AcDbLine
 10
614.1780395507376
 20
438.9470901487749
 30
0.0
 11
547.9280395507377
 21
438.9470901487749
 31
0.0
  0
LINE
  5
81
330
A
100
AcDbEntity
  8
11
  6
Continuous
 62
    92
100
AcDbLine
 10
545.4272384643626
 20
436.447204589775
 30
0.0
 11
545.4272384643626
 21
404.572204589775
 31
0.0
  0
LINE
  5
82
330
A
100
AcDbEntity
  8
11
  6
Continuous
 62
    92
100
AcDbLine
 10
526.6780395507376
 20
414.4896926879
 30
0.0
 11
544.1780395507377
 21
414.4896926879
 31
0.0
  0
LINE
  5
83
330
A
100
AcDbEntity
  8
11
  6
Continuous
 62
    92
100
AcDbLine
 10
545.4272384643626
 20
415.7396926879
 30
0.0
 11
545.4272384643626
 21
416.447204589775
 31
0.0
  0
LINE
  5
84
330
A
100
AcDbEntity
  8
11
  6
Continuous
 62
    92
100
AcDbLine
 10
546.6780395507377
 20
417.698539733775
 30
0.0
 11
619.1780395507377
 21
417.698539733775
 31
0.0
  0
LINE
  5
85
330
A
100
AcDbEntity
  8
11
  6
Continuous
 62
    92
100
AcDbLine
 10
631.6780395507377
 20
475.197204589775
 30
0.0
 11
631.6780395507377
 21
417.697204589775
 31
0.0
  0
LINE
  5
86
330
A
100
AcDbEntity
  8
11
  6
Continuous
 62
    92
100
AcDbLine
 10
631.6780395507377
 20
417.697204589775
 30
0.0
 11
619.1780395507377
 21
417.697204589775
 31
0.0
  0
LINE
  5
87
330
A
100
AcDbEntity
  8
11
  6
Continuous
 62
    92
100
AcDbLine
 10
616.6770858763627
 20
415.197204589775
 30
0.0
 11
616.6770858763627
 21
405.822204589775
 31
0.0
  0
LINE
  5
88
330
A
100
AcDbEntity
  8
11
  6
Continuous
 62
    92
100
AcDbLine
 10
614.1780395507376
 20
403.3230438231499
 30
0.0
 11
526.6780395507376
 21
403.3230438231499
 31
0.0
  0
LINE
  5
89
330
A
100
AcDbEntity
  8
11
  6
Continuous
 62
    92
100
AcDbLine
 10
526.6780395507376
 20
403.3230438231499
 30
0.0
 11
526.6780395507376
 21
475.197204589775
 31
0.0
  0
LINE
  5
8A
330
A
100
AcDbEntity
  8
11
  6
Continuous
 62
    92
100
AcDbLine
 10
514.1780395507376
 20
414.4896926879
 30
0.0
 11
532.9280395507376
 21
414.4896926879
 31
0.0
  0
LINE
  5
8B
330
A
100
AcDbEntity
  8
11
  6
Continuous
 62
    92
100
AcDbLine
 10
514.1780395507376
 20
475.197204589775
 30
0.0
 11
514.1780395507376
 21
403.3222045897749
 31
0.0
  0
LINE
  5
8C
330
A
100
AcDbEntity
  8
11
  6
Continuous
 62
    92
100
AcDbLine
 10
514.1780395507376
 20
403.3222045897749
 30
0.0
 11
526.6780395507376
 21
403.3222045897749
 31
0.0
  0
LINE
  5
8D
330
A
100
AcDbEntity
  8
11
  6
Continuous
 62
    92
100
AcDbLine
 10
526.6780395507376
 20
403.3222045897749
 30
0.0
 11
526.6780395507376
 21
475.197204589775
 31
0.0
  0
LINE
  5
8E
330
A
100
AcDbEntity
  8
11
  6
Continuous
 62
    92
100
AcDbLine
 10
637.9280395507377
 20
421.1971893308999
 30
0.0
 11
637.9280395507377
 21
431.1971893308999
 31
0.0
  0
LINE
  5
8F
330
A
100
AcDbEntity
  8
11
  6
Continuous
 62
    92
100
AcDbLine
 10
637.9280395507377
 20
431.1971893308999
 30
0.0
 11
638.9280242919877
 21
431.1971893308999
 31
0.0
  0
LINE
  5
90
330
A
100
AcDbEntity
  8
11
  6
Continuous
 62
    92
100
AcDbLine
 10
638.9280242919877
 20
431.1971893308999
 30
0.0
 11
638.9280242919877
 21
425.708450317275
 31
0.0
  0
LINE
  5
91
330
A
100
AcDbEntity
  8
11
  6
Continuous
 62
    92
100
AcDbLine
 10
638.9280242919877
 20
425.708450317275
 30
0.0
 11
638.9280242919877
 21
421.1971893308999
 31
0.0
  0
LINE
  5
92
330
A
100
AcDbEntity
  8
11
  6
Continuous
 62
    92
100
AcDbLine
 10
638.9280242919877
 20
421.1971893308999
 30
0.0
 11
637.9280395507377
 21
421.1971893308999
 31
0.0
  0
LINE
  5
93
330
A
100
AcDbEntity
  8
11
  6
Continuous
 62
    92
100
AcDbLine
 10
638.9280242919877
 20
425.708450317275
 30
0.0
 11
638.9280242919877
 21
421.8221893308999
 31
0.0
  0
LINE
  5
94
330
A
100
AcDbEntity
  8
11
  6
Continuous
 62
    92
100
AcDbLine
 10
639.1780395507376
 20
421.8221893308999
 30
0.0
 11
643.9280242919878
 21
421.8221893308999
 31
0.0
  0
LINE
  5
95
330
A
100
AcDbEntity
  8
11
  6
Continuous
 62
    92
100
AcDbLine
 10
643.9280242919878
 20
421.8221893308999
 30
0.0
 11
643.9280242919878
 21
430.5721893308999
 31
0.0
  0
LINE
  5
96
330
A
100
AcDbEntity
  8
11
  6
Continuous
 62
    92
100
AcDbLine
 10
643.9280242919878
 20
430.5721893308999
 30
0.0
 11
638.9280242919877
 21
430.5721893308999
 31
0.0
  0
LINE
  5
97
330
A
100
AcDbEntity
  8
11
  6
Continuous
 62
    92
100
AcDbLine
 10
638.9280242919877
 20
430.5721893308999
 30
0.0
 11
638.9280242919877
 21
425.708450317275
 31
0.0
  0
LINE
  5
98
330
A
100
AcDbEntity
  8
10
  6
CENTERX2
 62
    92
100
AcDbLine
 10
645.5555267333627
 20
426.1971893309
 30
0.0
 11
626.9542999267376
 21
426.1971893309
 31
0.0
  0
LINE
  5
99
330
A
100
AcDbEntity
  8
11
  6
Continuous
 62
    92
100
AcDbLine
 10
545.4280395507376
 20
426.447204589775
 30
0.0
 11
545.4280395507376
 21
436.447204589775
 31
0.0
  0
LINE
  5
9A
330
A
100
AcDbEntity
  8
11
  6
Continuous
 62
    92
100
AcDbLine
 10
545.4280395507376
 20
436.447204589775
 30
0.0
 11
546.4280624388627
 21
436.447204589775
 31
0.0
  0
LINE
  5
9B
330
A
100
AcDbEntity
  8
11
  6
Continuous
 62
    92
100
AcDbLine
 10
546.4280624388627
 20
436.447204589775
 30
0.0
 11
546.4280624388627
 21
430.9584655760249
 31
0.0
  0
LINE
  5
9C
330
A
100
AcDbEntity
  8
11
  6
Continuous
 62
    92
100
AcDbLine
 10
546.4280624388627
 20
430.9584655760249
 30
0.0
 11
546.4280624388627
 21
426.447204589775
 31
0.0
  0
LINE
  5
9D
330
A
100
AcDbEntity
  8
11
  6
Continuous
 62
    92
100
AcDbLine
 10
546.4280624388627
 20
426.447204589775
 30
0.0
 11
545.4280395507376
 21
426.447204589775
 31
0.0
  0
LINE
  5
9E
330
A
100
AcDbEntity
  8
11
  6
Continuous
 62
    92
100
AcDbLine
 10
546.4280624388627
 20
430.9584655760249
 30
0.0
 11
546.4280624388627
 21
427.072204589775
 31
0.0
  0
LINE
  5
9F
330
A
100
AcDbEntity
  8
11
  6
Continuous
 62
    92
100
AcDbLine
 10
546.6780395507377
 20
427.072204589775
 30
0.0
 11
551.4280624388627
 21
427.072204589775
 31
0.0
  0
LINE
  5
A0
330
A
100
AcDbEntity
  8
11
  6
Continuous
 62
    92
100
AcDbLine
 10
551.4280624388627
 20
427.072204589775
 30
0.0
 11
551.4280624388627
 21
435.822204589775
 31
0.0
  0
LINE
  5
A1
330
A
100
AcDbEntity
  8
11
  6
Continuous
 62
    92
100
AcDbLine
 10
551.4280624388627
 20
435.822204589775
 30
0.0
 11
546.4280624388627
 21
435.822204589775
 31
0.0
  0
LINE
  5
A2
330
A
100
AcDbEntity
  8
11
  6
Continuous
 62
    92
100
AcDbLine
 10
546.4280624388627
 20
435.822204589775
 30
0.0
 11
546.4280624388627
 21
430.9584655760249
 31
0.0
  0
LINE
  5
A3
330
A
100
AcDbEntity
  8
10
  6
CENTERX2
 62
    92
100
AcDbLine
 10
553.0555648803628
 20
431.447204589775
 30
0.0
 11
534.4542999267376
 21
431.447204589775
 31
0.0
  0
LINE
  5
A4
330
A
100
AcDbEntity
  8
11
  6
Continuous
 62
    92
100
AcDbLine
 10
696.6780395507377
 20
446.594718933025
 30
0.0
 11
702.9280395507377
 21
449.1834487913999
 31
0.0
  0
LINE
  5
A5
330
A
100
AcDbEntity
  8
11
  6
Continuous
 62
    92
100
AcDbLine
 10
696.6780395507377
 20
475.197204589775
 30
0.0
 11
696.6780395507377
 21
446.594718933025
 31
0.0
  0
LINE
  5
A6
330
A
100
AcDbEntity
  8
11
  6
Continuous
 62
    92
100
AcDbLine
 10
696.6780395507377
 20
418.9472045897749
 30
0.0
 11
696.6780395507377
 21
446.594718933025
 31
0.0
  0
LINE
  5
A7
330
A
100
AcDbEntity
  8
11
  6
Continuous
 62
    92
100
AcDbLine
 10
696.6780395507377
 20
446.594718933025
 30
0.0
 11
639.4280548094876
 21
446.594718933025
 31
0.0
  0
LINE
  5
A8
330
A
100
AcDbEntity
  8
11
  6
Continuous
 62
    92
100
AcDbLine
 10
637.9273910522377
 20
445.0947036741499
 30
0.0
 11
637.9273910522377
 21
444.094718933025
 31
0.0
  0
LINE
  5
A9
330
A
100
AcDbEntity
  8
11
  6
Continuous
 62
    92
100
AcDbLine
 10
702.9280395507377
 20
475.197204589775
 30
0.0
 11
702.9280395507377
 21
426.232208251775
 31
0.0
  0
LINE
  5
AA
330
A
100
AcDbEntity
  8
11
  6
Continuous
 62
    92
100
AcDbLine
 10
702.1955413817376
 20
424.4647064207749
 30
0.0
 11
697.4105377197377
 21
419.67970275865
 31
0.0
  0
LINE
  5
AB
330
A
100
AcDbEntity
  8
11
  6
Continuous
 62
    92
100
AcDbLine
 10
695.6418151854876
 20
418.947891235275
 30
0.0
 11
639.1780395507376
 21
418.947891235275
 31
0.0
  0
LINE
  5
AC
330
A
100
AcDbEntity
  8
11
  6
Continuous
 62
    92
100
AcDbLine
 10
639.1780395507376
 20
418.947891235275
 30
0.0
 11
632.9280395507376
 21
418.947891235275
 31
0.0
  0
LINE
  5
AD
330
A
100
AcDbEntity
  8
11
  6
Continuous
 62
    92
100
AcDbLine
 10
632.9280395507376
 20
418.947891235275
 30
0.0
 11
632.9280395507376
 21
475.197204589775
 31
0.0
  0
LINE
  5
AE
330
A
100
AcDbEntity
  8
11
  6
Continuous
 62
    92
100
AcDbLine
 10
637.9280395507377
 20
444.094718933025
 30
0.0
 11
637.9280395507377
 21
425.708450317275
 31
0.0
  0
LINE
  5
AF
330
A
100
AcDbEntity
  8
11
  6
Continuous
 62
    92
100
AcDbLine
 10
637.9280395507377
 20
425.708450317275
 30
0.0
 11
637.9280395507377
 21
418.9472045897749
 31
0.0
  0
LINE
  5
B0
330
A
100
AcDbEntity
  8
11
  6
Continuous
 62
    92
100
AcDbLine
 10
632.9280395507376
 20
425.813468933025
 30
0.0
 11
637.9280395507377
 21
425.813468933025
 31
0.0
  0
LINE
  5
B1
330
A
100
AcDbEntity
  8
1
  6
Continuous
 62
    92
100
AcDbLine
 10
322.9456619835747
 20
290.1464337412832
 30
0.0
 11
145.8326706505747
 21
290.1464337412832
 31
0.0
  0
LINE
  5
B2
330
A
100
AcDbEntity
  8
1
  6
Continuous
 62
    92
100
AcDbLine
 10
145.8326706505747
 20
290.1464337412832
 30
0.0
 11
204.1767997741127
 21
475.197204589775
 31
0.0
  0
LINE
  5
B3
330
A
100
AcDbEntity
  8
1
  6
Continuous
 62
    92
100
AcDbLine
 10
204.1767997741127
 20
475.197204589775
 30
0.0
 11
195.3380508422377
 21
484.0359725951499
 31
0.0
  0
LINE
  5
B4
330
A
100
AcDbEntity
  8
4
 62
    92
100
AcDbLine
 10
732.0780487059877
 20
571.4472045897749
 30
0.0
 11
731.0780487059877
 21
568.447204589775
 31
0.0
  0
LINE
  5
B5
330
A
100
AcDbEntity
  8
4
 62
    92
100
AcDbLine
 10
731.0780487059877
 20
568.447204589775
 30
0.0
 11
733.0780487059875
 21
568.447204589775
 31
0.0
  0
LINE
  5
B6
330
A
100
AcDbEntity
  8
4
 62
    92
100
AcDbLine
 10
733.0780487059875
 20
568.447204589775
 30
0.0
 11
732.0780487059877
 21
571.4472045897749
 31
0.0
  0
LINE
  5
B7
330
A
100
AcDbEntity
  8
4
  6
Continuous
 62
    92
100
AcDbLine
 10
732.0780487059877
 20
571.4472045897749
 30
0.0
 11
732.0780487059877
 21
475.197204589775
 31
0.0
  0
LINE
  5
B8
330
A
100
AcDbEntity
  8
4
 62
    92
100
AcDbLine
 10
732.0780487059877
 20
475.197204589775
 30
0.0
 11
733.0780487059875
 21
478.197204589775
 31
0.0
  0
LINE
  5
B9
330
A
100
AcDbEntity
  8
4
 62
    92
100
AcDbLine
 10
733.0780487059875
 20
478.197204589775
 30
0.0
 11
731.0780487059877
 21
478.197204589775
 31
0.0
  0
LINE
  5
BA
330
A
100
AcDbEntity
  8
4
 62
    92
100
AcDbLine
 10
731.0780487059877
 20
478.197204589775
 30
0.0
 11
732.0780487059877
 21
475.197204589775
 31
0.0
  0
LINE
  5
BB
330
A
100
AcDbEntity
  8
4
  6
Continuous
 62
    92
100
AcDbLine
 10
688.7555236816127
 20
571.4472045897749
 30
0.0
 11
732.0780487059877
 21
571.4472045897749
 31
0.0
  0
LINE
  5
BC
330
A
100
AcDbEntity
  8
4
  6
Continuous
 62
    92
100
AcDbLine
 10
692.0055694579876
 20
475.197204589775
 30
0.0
 11
732.0780487059877
 21
475.197204589775
 31
0.0
  0
LINE
  5
BD
330
A
100
AcDbEntity
  8
4
 62
    92
100
AcDbLine
 10
204.1767997741127
 20
317.9822006224
 30
0.0
 11
207.1767997741127
 21
316.9822006223999
 31
0.0
  0
LINE
  5
BE
330
A
100
AcDbEntity
  8
4
 62
    92
100
AcDbLine
 10
207.1767997741127
 20
316.9822006223999
 30
0.0
 11
207.1767997741127
 21
318.9822006223999
 31
0.0
  0
LINE
  5
BF
330
A
100
AcDbEntity
  8
4
 62
    92
100
AcDbLine
 10
207.1767997741127
 20
318.9822006223999
 30
0.0
 11
204.1767997741127
 21
317.9822006224
 31
0.0
  0
LINE
  5
C0
330
A
100
AcDbEntity
  8
4
  6
Continuous
 62
    92
100
AcDbLine
 10
204.1767997741127
 20
317.9822006224
 30
0.0
 11
702.9280395507377
 21
317.9822006224
 31
0.0
  0
LINE
  5
C1
330
A
100
AcDbEntity
  8
4
 62
    92
100
AcDbLine
 10
702.9280395507377
 20
317.9822006224
 30
0.0
 11
699.9280395507376
 21
318.9822006223999
 31
0.0
  0
LINE
  5
C2
330
A
100
AcDbEntity
  8
4
 62
    92
100
AcDbLine
 10
699.9280395507376
 20
318.9822006223999
 30
0.0
 11
699.9280395507376
 21
316.9822006223999
 31
0.0
  0
LINE
  5
C3
330
A
100
AcDbEntity
  8
4
 62
    92
100
AcDbLine
 10
699.9280395507376
 20
316.9822006223999
 30
0.0
 11
702.9280395507377
 21
317.9822006224
 31
0.0
  0
LINE
  5
C4
330
A
100
AcDbEntity
  8
4
  6
Continuous
 62
    92
100
AcDbLine
 10
204.1767997741127
 20
368.88595962515
 30
0.0
 11
204.1767997741127
 21
317.9822006224
 31
0.0
  0
LINE
  5
C5
330
A
100
AcDbEntity
  8
4
  6
Continuous
 62
    92
100
AcDbLine
 10
702.9280395507377
 20
449.1834487913999
 30
0.0
 11
702.9280395507377
 21
317.9822006224
 31
0.0
  0
LINE
  5
C6
330
A
100
AcDbEntity
  8
4
 62
    92
100
AcDbLine
 10
766.7355651854876
 20
418.9484634397749
 30
0.0
 11
767.7355651854876
 21
421.9484634397749
 31
0.0
  0
LINE
  5
C7
330
A
100
AcDbEntity
  8
4
 62
    92
100
AcDbLine
 10
767.7355651854876
 20
421.9484634397749
 30
0.0
 11
765.7355651854877
 21
421.9484634397749
 31
0.0
  0
LINE
  5
C8
330
A
100
AcDbEntity
  8
4
 62
    92
100
AcDbLine
 10
765.7355651854877
 20
421.9484634397749
 30
0.0
 11
766.7355651854876
 21
418.9484634397749
 31
0.0
  0
LINE
  5
C9
330
A
100
AcDbEntity
  8
4
  6
Continuous
 62
    92
100
AcDbLine
 10
766.7355651854876
 20
418.9484634397749
 30
0.0
 11
766.7355651854876
 21
531.4472045897749
 31
0.0
  0
LINE
  5
CA
330
A
100
AcDbEntity
  8
4
 62
    92
100
AcDbLine
 10
766.7355651854876
 20
531.4472045897749
 30
0.0
 11
765.7355651854877
 21
528.4472045897749
 31
0.0
  0
LINE
  5
CB
330
A
100
AcDbEntity
  8
4
 62
    92
100
AcDbLine
 10
765.7355651854877
 20
528.4472045897749
 30
0.0
 11
767.7355651854876
 21
528.4472045897749
 31
0.0
  0
LINE
  5
CC
330
A
100
AcDbEntity
  8
4
 62
    92
100
AcDbLine
 10
767.7355651854876
 20
528.4472045897749
 30
0.0
 11
766.7355651854876
 21
531.4472045897749
 31
0.0
  0
LINE
  5
CD
330
A
100
AcDbEntity
  8
4
  6
Continuous
 62
    92
100
AcDbLine
 10
684.4243164062377
 20
418.9484634397749
 30
0.0
 11
766.7355651854876
 21
418.9484634397749
 31
0.0
  0
LINE
  5
CE
330
A
100
AcDbEntity
  8
4
  6
Continuous
 62
    92
100
AcDbLine
 10
688.7555236816127
 20
531.4472045897749
 30
0.0
 11
721.2480468749877
 21
531.4472045897749
 31
0.0
  0
LINE
  5
CF
330
A
100
AcDbEntity
  8
4
  6
Continuous
 62
    92
100
AcDbLine
 10
739.6593017577377
 20
531.4472045897749
 30
0.0
 11
766.7355651854876
 21
531.4472045897749
 31
0.0
  0
LINE
  5
D0
330
A
100
AcDbEntity
  8
4
 62
    92
100
AcDbLine
 10
439.4618148803627
 20
547.0722045897749
 30
0.0
 11
438.4618148803626
 21
544.0722045897749
 31
0.0
  0
LINE
  5
D1
330
A
100
AcDbEntity
  8
4
 62
    92
100
AcDbLine
 10
438.4618148803626
 20
544.0722045897749
 30
0.0
 11
440.4618148803627
 21
544.0722045897749
 31
0.0
  0
LINE
  5
D2
330
A
100
AcDbEntity
  8
4
 62
    92
100
AcDbLine
 10
440.4618148803627
 20
544.0722045897749
 30
0.0
 11
439.4618148803627
 21
547.0722045897749
 31
0.0
  0
LINE
  5
D3
330
A
100
AcDbEntity
  8
4
  6
Continuous
 62
    92
100
AcDbLine
 10
439.4618148803627
 20
547.0722045897749
 30
0.0
 11
439.4618148803627
 21
403.3222045897749
 31
0.0
  0
LINE
  5
D4
330
A
100
AcDbEntity
  8
4
 62
    92
100
AcDbLine
 10
439.4618148803627
 20
403.3222045897749
 30
0.0
 11
440.4618148803627
 21
406.322204589775
 31
0.0
  0
LINE
  5
D5
330
A
100
AcDbEntity
  8
4
 62
    92
100
AcDbLine
 10
440.4618148803627
 20
406.322204589775
 30
0.0
 11
438.4618148803626
 21
406.322204589775
 31
0.0
  0
LINE
  5
D6
330
A
100
AcDbEntity
  8
4
 62
    92
100
AcDbLine
 10
438.4618148803626
 20
406.322204589775
 30
0.0
 11
439.4618148803627
 21
403.3222045897749
 31
0.0
  0
LINE
  5
D7
330
A
100
AcDbEntity
  8
4
  6
Continuous
 62
    92
100
AcDbLine
 10
452.4580307006127
 20
547.0722045897749
 30
0.0
 11
439.4618148803627
 21
547.0722045897749
 31
0.0
  0
LINE
  5
D8
330
A
100
AcDbEntity
  8
4
  6
Continuous
 62
    92
100
AcDbLine
 10
454.6242828368626
 20
403.3222045897749
 30
0.0
 11
439.4618148803627
 21
403.3222045897749
 31
0.0
  0
LINE
  5
D9
330
A
100
AcDbEntity
  8
4
  6
Continuous
 62
    92
100
AcDbLine
 10
171.8992919921126
 20
428.199714660525
 30
0.0
 11
171.8992919921126
 21
460.197204589775
 31
0.0
  0
LINE
  5
DA
330
A
100
AcDbEntity
  8
4
 62
    92
100
AcDbLine
 10
171.8992919921126
 20
460.197204589775
 30
0.0
 11
170.8992919921128
 21
457.197204589775
 31
0.0
  0
LINE
  5
DB
330
A
100
AcDbEntity
  8
4
 62
    92
100
AcDbLine
 10
170.8992919921128
 20
457.197204589775
 30
0.0
 11
172.8992919921125
 21
457.197204589775
 31
0.0
  0
LINE
  5
DC
330
A
100
AcDbEntity
  8
4
 62
    92
100
AcDbLine
 10
172.8992919921125
 20
457.197204589775
 30
0.0
 11
171.8992919921126
 21
460.197204589775
 31
0.0
  0
LINE
  5
DD
330
A
100
AcDbEntity
  8
4
  6
Continuous
 62
    92
100
AcDbLine
 10
171.8992919921126
 20
460.197204589775
 30
0.0
 11
171.8992919921126
 21
490.198463439775
 31
0.0
  0
LINE
  5
DE
330
A
100
AcDbEntity
  8
4
 62
    92
100
AcDbLine
 10
171.8992919921126
 20
490.198463439775
 30
0.0
 11
172.8992919921125
 21
493.1984634397749
 31
0.0
  0
LINE
  5
DF
330
A
100
AcDbEntity
  8
4
 62
    92
100
AcDbLine
 10
172.8992919921125
 20
493.1984634397749
 30
0.0
 11
170.8992919921128
 21
493.1984634397749
 31
0.0
  0
LINE
  5
E0
330
A
100
AcDbEntity
  8
4
 62
    92
100
AcDbLine
 10
170.8992919921128
 20
493.1984634397749
 30
0.0
 11
171.8992919921126
 21
490.198463439775
 31
0.0
  0
LINE
  5
E1
330
A
100
AcDbEntity
  8
4
  6
Continuous
 62
    92
100
AcDbLine
 10
171.8992919921126
 20
490.198463439775
 30
0.0
 11
171.8992919921126
 21
498.9484634397749
 31
0.0
  0
LINE
  5
E2
330
A
100
AcDbEntity
  8
4
  6
Continuous
 62
    92
100
AcDbLine
 10
211.0180397033626
 20
460.197204589775
 30
0.0
 11
171.8992919921126
 21
460.197204589775
 31
0.0
  0
LINE
  5
E3
330
A
100
AcDbEntity
  8
4
  6
Continuous
 62
    92
100
AcDbLine
 10
215.9080429076126
 20
490.198463439775
 30
0.0
 11
171.8992919921126
 21
490.198463439775
 31
0.0
  0
LINE
  5
E4
330
A
100
AcDbEntity
  8
4
  6
Continuous
 62
    92
100
AcDbLine
 10
188.4517974853627
 20
575.3471984861501
 30
0.0
 11
204.1767997741127
 21
575.3471984861501
 31
0.0
  0
LINE
  5
E5
330
A
100
AcDbEntity
  8
4
 62
    92
100
AcDbLine
 10
204.1767997741127
 20
575.3471984861501
 30
0.0
 11
201.1767997741127
 21
576.34719848615
 31
0.0
  0
LINE
  5
E6
330
A
100
AcDbEntity
  8
4
 62
    92
100
AcDbLine
 10
201.1767997741127
 20
576.34719848615
 30
0.0
 11
201.1767997741127
 21
574.3471984861501
 31
0.0
  0
LINE
  5
E7
330
A
100
AcDbEntity
  8
4
 62
    92
100
AcDbLine
 10
201.1767997741127
 20
574.3471984861501
 30
0.0
 11
204.1767997741127
 21
575.3471984861501
 31
0.0
  0
LINE
  5
E8
330
A
100
AcDbEntity
  8
4
  6
Continuous
 62
    92
100
AcDbLine
 10
204.1767997741127
 20
575.3471984861501
 30
0.0
 11
207.9267997741127
 21
575.3471984861501
 31
0.0
  0
LINE
  5
E9
330
A
100
AcDbEntity
  8
4
 62
    92
100
AcDbLine
 10
207.9267997741127
 20
575.3471984861501
 30
0.0
 11
210.9267997741127
 21
574.3471984861501
 31
0.0
  0
LINE
  5
EA
330
A
100
AcDbEntity
  8
4
 62
    92
100
AcDbLine
 10
210.9267997741127
 20
574.3471984861501
 30
0.0
 11
210.9267997741127
 21
576.34719848615
 31
0.0
  0
LINE
  5
EB
330
A
100
AcDbEntity
  8
4
 62
    92
100
AcDbLine
 10
210.9267997741127
 20
576.34719848615
 30
0.0
 11
207.9267997741127
 21
575.3471984861501
 31
0.0
  0
LINE
  5
EC
330
A
100
AcDbEntity
  8
4
  6
Continuous
 62
    92
100
AcDbLine
 10
207.9267997741127
 20
575.3471984861501
 30
0.0
 11
216.6767997741127
 21
575.3471984861501
 31
0.0
  0
LINE
  5
ED
330
A
100
AcDbEntity
  8
4
  6
Continuous
 62
    92
100
AcDbLine
 10
204.1767997741127
 20
480.8796920775249
 30
0.0
 11
204.1767997741127
 21
575.3471984861501
 31
0.0
  0
LINE
  5
EE
330
A
100
AcDbEntity
  8
4
  6
Continuous
 62
    92
100
AcDbLine
 10
207.9267997741127
 20
475.197204589775
 30
0.0
 11
207.9267997741127
 21
575.3471984861501
 31
0.0
  0
LINE
  5
EF
330
A
100
AcDbEntity
  8
4
  6
Continuous
 62
    92
100
AcDbLine
 10
238.1405563353627
 20
374.9259414671499
 30
0.0
 11
262.3030395507377
 21
374.9259414671499
 31
0.0
  0
LINE
  5
F0
330
A
100
AcDbEntity
  8
4
 62
    92
100
AcDbLine
 10
262.3030395507377
 20
374.9259414671499
 30
0.0
 11
259.3030395507377
 21
375.9259414671499
 31
0.0
  0
LINE
  5
F1
330
A
100
AcDbEntity
  8
4
 62
    92
100
AcDbLine
 10
259.3030395507377
 20
375.9259414671499
 30
0.0
 11
259.3030395507377
 21
373.9259414671499
 31
0.0
  0
LINE
  5
F2
330
A
100
AcDbEntity
  8
4
 62
    92
100
AcDbLine
 10
259.3030395507377
 20
373.9259414671499
 30
0.0
 11
262.3030395507377
 21
374.9259414671499
 31
0.0
  0
LINE
  5
F3
330
A
100
AcDbEntity
  8
4
  6
Continuous
 62
    92
100
AcDbLine
 10
262.3030395507377
 20
374.9259414671499
 30
0.0
 11
266.6780395507377
 21
374.9259414671499
 31
0.0
  0
LINE
  5
F4
330
A
100
AcDbEntity
  8
4
 62
    92
100
AcDbLine
 10
266.6780395507377
 20
374.9259414671499
 30
0.0
 11
269.6780395507377
 21
373.9259414671499
 31
0.0
  0
LINE
  5
F5
330
A
100
AcDbEntity
  8
4
 62
    92
100
AcDbLine
 10
269.6780395507377
 20
373.9259414671499
 30
0.0
 11
269.6780395507377
 21
375.9259414671499
 31
0.0
  0
LINE
  5
F6
330
A
100
AcDbEntity
  8
4
 62
    92
100
AcDbLine
 10
269.6780395507377
 20
375.9259414671499
 30
0.0
 11
266.6780395507377
 21
374.9259414671499
 31
0.0
  0
LINE
  5
F7
330
A
100
AcDbEntity
  8
4
  6
Continuous
 62
    92
100
AcDbLine
 10
266.6780395507377
 20
374.9259414671499
 30
0.0
 11
275.4280395507377
 21
374.9259414671499
 31
0.0
  0
LINE
  5
F8
330
A
100
AcDbEntity
  8
4
  6
Continuous
 62
    92
100
AcDbLine
 10
262.3030395507377
 20
414.914688110275
 30
0.0
 11
262.3030395507377
 21
374.9259414671499
 31
0.0
  0
LINE
  5
F9
330
A
100
AcDbEntity
  8
4
  6
Continuous
 62
    92
100
AcDbLine
 10
266.6780395507377
 20
422.622207641525
 30
0.0
 11
266.6780395507377
 21
374.9259414671499
 31
0.0
  0
LINE
  5
FA
330
A
100
AcDbEntity
  8
4
 62
    92
100
AcDbLine
 10
266.6780395507377
 20
349.3922080992749
 30
0.0
 11
263.6780395507376
 21
350.3922080992749
 31
0.0
  0
LINE
  5
FB
330
A
100
AcDbEntity
  8
4
 62
    92
100
AcDbLine
 10
263.6780395507376
 20
350.3922080992749
 30
0.0
 11
263.6780395507376
 21
348.3922080992749
 31
0.0
  0
LINE
  5
FC
330
A
100
AcDbEntity
  8
4
 62
    92
100
AcDbLine
 10
263.6780395507376
 20
348.3922080992749
 30
0.0
 11
266.6780395507377
 21
349.3922080992749
 31
0.0
  0
LINE
  5
FD
330
A
100
AcDbEntity
  8
4
  6
Continuous
 62
    92
100
AcDbLine
 10
266.6780395507377
 20
349.3922080992749
 30
0.0
 11
204.1767997741127
 21
349.3922080992749
 31
0.0
  0
LINE
  5
FE
330
A
100
AcDbEntity
  8
4
 62
    92
100
AcDbLine
 10
204.1767997741127
 20
349.3922080992749
 30
0.0
 11
207.1767997741127
 21
348.3922080992749
 31
0.0
  0
LINE
  5
FF
330
A
100
AcDbEntity
  8
4
 62
    92
100
AcDbLine
 10
207.1767997741127
 20
348.3922080992749
 30
0.0
 11
207.1767997741127
 21
350.3922080992749
 31
0.0
  0
LINE
  5
100
330
A
100
AcDbEntity
  8
4
 62
    92
100
AcDbLine
 10
207.1767997741127
 20
350.3922080992749
 30
0.0
 11
204.1767997741127
 21
349.3922080992749
 31
0.0
  0
LINE
  5
101
330
A
100
AcDbEntity
  8
4
  6
Continuous
 62
    92
100
AcDbLine
 10
266.6780395507377
 20
382.153457641525
 30
0.0
 11
266.6780395507377
 21
349.3922080992749
 31
0.0
  0
LINE
  5
102
330
A
100
AcDbEntity
  8
4
  6
Continuous
 62
    92
100
AcDbLine
 10
204.1767997741127
 20
467.9097213743999
 30
0.0
 11
204.1767997741127
 21
349.3922080992749
 31
0.0
  0
LINE
  5
103
330
A
100
AcDbEntity
  8
4
 62
    92
100
AcDbLine
 10
277.9280395507377
 20
374.9259414671499
 30
0.0
 11
280.9280395507377
 21
373.9259414671499
 31
0.0
  0
LINE
  5
104
330
A
100
AcDbEntity
  8
4
 62
    92
100
AcDbLine
 10
280.9280395507377
 20
373.9259414671499
 30
0.0
 11
280.9280395507377
 21
375.9259414671499
 31
0.0
  0
LINE
  5
105
330
A
100
AcDbEntity
  8
4
 62
    92
100
AcDbLine
 10
280.9280395507377
 20
375.9259414671499
 30
0.0
 11
277.9280395507377
 21
374.9259414671499
 31
0.0
  0
LINE
  5
106
330
A
100
AcDbEntity
  8
4
  6
Continuous
 62
    92
100
AcDbLine
 10
277.9280395507377
 20
374.9259414671499
 30
0.0
 11
312.9280395507377
 21
374.9259414671499
 31
0.0
  0
LINE
  5
107
330
A
100
AcDbEntity
  8
4
 62
    92
100
AcDbLine
 10
312.9280395507377
 20
374.9259414671499
 30
0.0
 11
309.9280395507377
 21
375.9259414671499
 31
0.0
  0
LINE
  5
108
330
A
100
AcDbEntity
  8
4
 62
    92
100
AcDbLine
 10
309.9280395507377
 20
375.9259414671499
 30
0.0
 11
309.9280395507377
 21
373.9259414671499
 31
0.0
  0
LINE
  5
109
330
A
100
AcDbEntity
  8
4
 62
    92
100
AcDbLine
 10
309.9280395507377
 20
373.9259414671499
 30
0.0
 11
312.9280395507377
 21
374.9259414671499
 31
0.0
  0
LINE
  5
10A
330
A
100
AcDbEntity
  8
4
  6
Continuous
 62
    92
100
AcDbLine
 10
277.9280395507377
 20
424.12096405015
 30
0.0
 11
277.9280395507377
 21
374.9259414671499
 31
0.0
  0
LINE
  5
10B
330
A
100
AcDbEntity
  8
4
  6
Continuous
 62
    92
100
AcDbLine
 10
312.9280395507377
 20
423.03846740715
 30
0.0
 11
312.9280395507377
 21
374.9259414671499
 31
0.0
  0
LINE
  5
10C
330
A
100
AcDbEntity
  8
4
 62
    92
100
AcDbLine
 10
266.6780395507377
 20
617.9884567259001
 30
0.0
 11
269.6780395507377
 21
616.9884567259
 31
0.0
  0
LINE
  5
10D
330
A
100
AcDbEntity
  8
4
 62
    92
100
AcDbLine
 10
269.6780395507377
 20
616.9884567259
 30
0.0
 11
269.6780395507377
 21
618.9884567259
 31
0.0
  0
LINE
  5
10E
330
A
100
AcDbEntity
  8
4
 62
    92
100
AcDbLine
 10
269.6780395507377
 20
618.9884567259
 30
0.0
 11
266.6780395507377
 21
617.9884567259001
 31
0.0
  0
LINE
  5
10F
330
A
100
AcDbEntity
  8
4
  6
Continuous
 62
    92
100
AcDbLine
 10
266.6780395507377
 20
617.9884567259001
 30
0.0
 11
489.1780395507376
 21
617.9884567259001
 31
0.0
  0
LINE
  5
110
330
A
100
AcDbEntity
  8
4
 62
    92
100
AcDbLine
 10
489.1780395507376
 20
617.9884567259001
 30
0.0
 11
486.1780395507377
 21
618.9884567259
 31
0.0
  0
LINE
  5
111
330
A
100
AcDbEntity
  8
4
 62
    92
100
AcDbLine
 10
486.1780395507377
 20
618.9884567259
 30
0.0
 11
486.1780395507377
 21
616.9884567259
 31
0.0
  0
LINE
  5
112
330
A
100
AcDbEntity
  8
4
 62
    92
100
AcDbLine
 10
486.1780395507377
 20
616.9884567259
 30
0.0
 11
489.1780395507376
 21
617.9884567259001
 31
0.0
  0
LINE
  5
113
330
A
100
AcDbEntity
  8
4
  6
Continuous
 62
    92
100
AcDbLine
 10
266.6780395507377
 20
542.174705505275
 30
0.0
 11
266.6780395507377
 21
617.9884567259001
 31
0.0
  0
LINE
  5
114
330
A
100
AcDbEntity
  8
4
  6
Continuous
 62
    92
100
AcDbLine
 10
489.1780395507376
 20
582.247222900275
 30
0.0
 11
489.1780395507376
 21
617.9884567259001
 31
0.0
  0
LINE
  5
115
330
A
100
AcDbEntity
  8
4
 62
    92
100
AcDbLine
 10
266.6780395507377
 20
640.732215881275
 30
0.0
 11
269.6780395507377
 21
639.7322158812751
 31
0.0
  0
LINE
  5
116
330
A
100
AcDbEntity
  8
4
 62
    92
100
AcDbLine
 10
269.6780395507377
 20
639.7322158812751
 30
0.0
 11
269.6780395507377
 21
641.732215881275
 31
0.0
  0
LINE
  5
117
330
A
100
AcDbEntity
  8
4
 62
    92
100
AcDbLine
 10
269.6780395507377
 20
641.732215881275
 30
0.0
 11
266.6780395507377
 21
640.732215881275
 31
0.0
  0
LINE
  5
118
330
A
100
AcDbEntity
  8
4
  6
Continuous
 62
    92
100
AcDbLine
 10
266.6780395507377
 20
640.732215881275
 30
0.0
 11
665.4268188476127
 21
640.732215881275
 31
0.0
  0
LINE
  5
119
330
A
100
AcDbEntity
  8
4
 62
    92
100
AcDbLine
 10
665.4268188476127
 20
640.732215881275
 30
0.0
 11
662.4268188476126
 21
641.732215881275
 31
0.0
  0
LINE
  5
11A
330
A
100
AcDbEntity
  8
4
 62
    92
100
AcDbLine
 10
662.4268188476126
 20
641.732215881275
 30
0.0
 11
662.4268188476126
 21
639.7322158812751
 31
0.0
  0
LINE
  5
11B
330
A
100
AcDbEntity
  8
4
 62
    92
100
AcDbLine
 10
662.4268188476126
 20
639.7322158812751
 30
0.0
 11
665.4268188476127
 21
640.732215881275
 31
0.0
  0
LINE
  5
11C
330
A
100
AcDbEntity
  8
4
  6
Continuous
 62
    92
100
AcDbLine
 10
266.6780395507377
 20
563.8347091673999
 30
0.0
 11
266.6780395507377
 21
640.732215881275
 31
0.0
  0
LINE
  5
11D
330
A
100
AcDbEntity
  8
4
  6
Continuous
 62
    92
100
AcDbLine
 10
665.4268188476127
 20
564.9184646605249
 30
0.0
 11
665.4268188476127
 21
640.732215881275
 31
0.0
  0
LINE
  5
11E
330
A
100
AcDbEntity
  8
4
  6
Continuous
 62
    92
100
AcDbLine
 10
293.6530609129876
 20
597.25721740715
 30
0.0
 11
277.9280395507377
 21
597.25721740715
 31
0.0
  0
LINE
  5
11F
330
A
100
AcDbEntity
  8
4
 62
    92
100
AcDbLine
 10
277.9280395507377
 20
597.25721740715
 30
0.0
 11
280.9280395507377
 21
596.25721740715
 31
0.0
  0
LINE
  5
120
330
A
100
AcDbEntity
  8
4
 62
    92
100
AcDbLine
 10
280.9280395507377
 20
596.25721740715
 30
0.0
 11
280.9280395507377
 21
598.25721740715
 31
0.0
  0
LINE
  5
121
330
A
100
AcDbEntity
  8
4
 62
    92
100
AcDbLine
 10
280.9280395507377
 20
598.25721740715
 30
0.0
 11
277.9280395507377
 21
597.25721740715
 31
0.0
  0
LINE
  5
122
330
A
100
AcDbEntity
  8
4
  6
Continuous
 62
    92
100
AcDbLine
 10
277.9280395507377
 20
597.25721740715
 30
0.0
 11
266.6780395507377
 21
597.25721740715
 31
0.0
  0
LINE
  5
123
330
A
100
AcDbEntity
  8
4
 62
    92
100
AcDbLine
 10
266.6780395507377
 20
597.25721740715
 30
0.0
 11
263.6780395507376
 21
598.25721740715
 31
0.0
  0
LINE
  5
124
330
A
100
AcDbEntity
  8
4
 62
    92
100
AcDbLine
 10
263.6780395507376
 20
598.25721740715
 30
0.0
 11
263.6780395507376
 21
596.25721740715
 31
0.0
  0
LINE
  5
125
330
A
100
AcDbEntity
  8
4
 62
    92
100
AcDbLine
 10
263.6780395507376
 20
596.25721740715
 30
0.0
 11
266.6780395507377
 21
597.25721740715
 31
0.0
  0
LINE
  5
126
330
A
100
AcDbEntity
  8
4
  6
Continuous
 62
    92
100
AcDbLine
 10
266.6780395507377
 20
597.25721740715
 30
0.0
 11
257.9280395507377
 21
597.25721740715
 31
0.0
  0
LINE
  5
127
330
A
100
AcDbEntity
  8
4
  6
Continuous
 62
    92
100
AcDbLine
 10
277.9280395507377
 20
525.8659591674
 30
0.0
 11
277.9280395507377
 21
597.25721740715
 31
0.0
  0
LINE
  5
128
330
A
100
AcDbEntity
  8
4
  6
Continuous
 62
    92
100
AcDbLine
 10
266.6780395507377
 20
520.9759750365249
 30
0.0
 11
266.6780395507377
 21
597.25721740715
 31
0.0
  0
LINE
  5
129
330
A
100
AcDbEntity
  8
4
 62
    92
100
AcDbLine
 10
207.9267997741127
 20
575.3471984861501
 30
0.0
 11
210.9267997741127
 21
574.3471984861501
 31
0.0
  0
LINE
  5
12A
330
A
100
AcDbEntity
  8
4
 62
    92
100
AcDbLine
 10
210.9267997741127
 20
574.3471984861501
 30
0.0
 11
210.9267997741127
 21
576.34719848615
 31
0.0
  0
LINE
  5
12B
330
A
100
AcDbEntity
  8
4
 62
    92
100
AcDbLine
 10
210.9267997741127
 20
576.34719848615
 30
0.0
 11
207.9267997741127
 21
575.3471984861501
 31
0.0
  0
LINE
  5
12C
330
A
100
AcDbEntity
  8
4
  6
Continuous
 62
    92
100
AcDbLine
 10
207.9267997741127
 20
575.3471984861501
 30
0.0
 11
257.9280395507377
 21
575.3471984861501
 31
0.0
  0
LINE
  5
12D
330
A
100
AcDbEntity
  8
4
 62
    92
100
AcDbLine
 10
257.9280395507377
 20
575.3471984861501
 30
0.0
 11
254.9280395507377
 21
576.34719848615
 31
0.0
  0
LINE
  5
12E
330
A
100
AcDbEntity
  8
4
 62
    92
100
AcDbLine
 10
254.9280395507377
 20
576.34719848615
 30
0.0
 11
254.9280395507377
 21
574.3471984861501
 31
0.0
  0
LINE
  5
12F
330
A
100
AcDbEntity
  8
4
 62
    92
100
AcDbLine
 10
254.9280395507377
 20
574.3471984861501
 30
0.0
 11
257.9280395507377
 21
575.3471984861501
 31
0.0
  0
LINE
  5
130
330
A
100
AcDbEntity
  8
4
  6
Continuous
 62
    92
100
AcDbLine
 10
207.9267997741127
 20
475.197204589775
 30
0.0
 11
207.9267997741127
 21
575.3471984861501
 31
0.0
  0
LINE
  5
131
330
A
100
AcDbEntity
  8
4
  6
Continuous
 62
    92
100
AcDbLine
 10
257.9280395507377
 20
475.197204589775
 30
0.0
 11
257.9280395507377
 21
575.3471984861501
 31
0.0
  0
LINE
  5
132
330
A
100
AcDbEntity
  8
1
  6
Continuous
 62
    92
100
AcDbLine
 10
329.1780967712376
 20
460.822204589775
 30
0.0
 11
329.1780395507377
 21
489.5722045897749
 31
0.0
  0
LINE
  5
133
330
A
100
AcDbEntity
  8
1
  6
Continuous
 62
    92
100
AcDbLine
 10
332.3030395507377
 20
492.6978149412749
 30
0.0
 11
419.8030395507377
 21
492.6978149412749
 31
0.0
  0
LINE
  5
134
330
A
100
AcDbEntity
  8
1
  6
Continuous
 62
    92
100
AcDbLine
 10
422.9280776977376
 20
489.5722045897749
 30
0.0
 11
422.9280776977376
 21
460.822204589775
 31
0.0
  0
LINE
  5
135
330
A
100
AcDbEntity
  8
1
  6
Continuous
 62
    92
100
AcDbLine
 10
419.8030395507377
 20
457.6977767942749
 30
0.0
 11
332.3030395507377
 21
457.6977767942749
 31
0.0
  0
LINE
  5
136
330
A
100
AcDbEntity
  8
11
  6
CENTERX2
 62
    92
100
AcDbLine
 10
489.1780395507376
 20
589.07846832265
 30
0.0
 11
489.1780395507376
 21
545.342201232775
 31
0.0
  0
LINE
  5
137
330
A
100
AcDbEntity
  8
11
  6
CENTERX2
 62
    92
100
AcDbLine
 10
489.1780395507376
 20
545.342201232775
 30
0.0
 11
489.1780395507376
 21
537.9072036741499
 31
0.0
  0
LINE
  5
138
330
A
100
AcDbEntity
  8
11
  6
Continuous
 62
    92
100
AcDbLine
 10
473.5530395507376
 20
547.0722045897749
 30
0.0
 11
504.1780395507377
 21
547.0722045897749
 31
0.0
  0
LINE
  5
139
330
A
100
AcDbEntity
  8
11
  6
Continuous
 62
    92
100
AcDbLine
 10
504.1780395507377
 20
547.0722045897749
 30
0.0
 11
504.8030395507376
 21
547.6972045897749
 31
0.0
  0
LINE
  5
13A
330
A
100
AcDbEntity
  8
11
  6
Continuous
 62
    92
100
AcDbLine
 10
504.8030395507376
 20
547.6972045897749
 30
0.0
 11
504.8030395507376
 21
550.072196960275
 31
0.0
  0
LINE
  5
13B
330
A
100
AcDbEntity
  8
11
  6
Continuous
 62
    92
100
AcDbLine
 10
504.8030395507376
 20
550.072196960275
 30
0.0
 11
473.5530395507376
 21
550.072196960275
 31
0.0
  0
LINE
  5
13C
330
A
100
AcDbEntity
  8
11
  6
Continuous
 62
    92
100
AcDbLine
 10
473.5530395507376
 20
550.072196960275
 30
0.0
 11
473.5530395507376
 21
547.0722045897749
 31
0.0
  0
LINE
  5
13D
330
A
100
AcDbEntity
  8
11
  6
Continuous
 62
    92
100
AcDbLine
 10
502.9280395507377
 20
550.072196960275
 30
0.0
 11
502.9280395507377
 21
587.0722045897749
 31
0.0
  0
LINE
  5
13E
330
A
100
AcDbEntity
  8
11
  6
Continuous
 62
    92
100
AcDbLine
 10
502.9280395507377
 20
587.0722045897749
 30
0.0
 11
475.4280395507377
 21
587.0722045897749
 31
0.0
  0
LINE
  5
13F
330
A
100
AcDbEntity
  8
11
  6
Continuous
 62
    92
100
AcDbLine
 10
475.4280395507377
 20
587.0722045897749
 30
0.0
 11
457.9280395507376
 21
587.0722045897749
 31
0.0
  0
LINE
  5
140
330
A
100
AcDbEntity
  8
11
  6
Continuous
 62
    92
100
AcDbLine
 10
475.4280395507377
 20
555.8222045897749
 30
0.0
 11
457.9280395507376
 21
555.8222045897749
 31
0.0
  0
LINE
  5
141
330
A
100
AcDbEntity
  8
11
  6
Continuous
 62
    92
100
AcDbLine
 10
502.9280395507377
 20
587.0722045897749
 30
0.0
 11
501.6717834472377
 21
585.60469055165
 31
0.0
  0
LINE
  5
142
330
A
100
AcDbEntity
  8
11
  6
Continuous
 62
    92
100
AcDbLine
 10
501.6717834472377
 20
585.60469055165
 30
0.0
 11
499.8026535101127
 21
583.1900312124
 31
0.0
  0
LINE
  5
143
330
A
100
AcDbEntity
  8
11
  6
Continuous
 62
    92
100
AcDbLine
 10
499.8026535101127
 20
583.1900312124
 30
0.0
 11
498.2074076328627
 21
580.4546630821501
 31
0.0
  0
LINE
  5
144
330
A
100
AcDbEntity
  8
11
  6
Continuous
 62
    92
100
AcDbLine
 10
498.2074076328627
 20
580.4546630821501
 30
0.0
 11
496.9555462426127
 21
577.44247941865
 31
0.0
  0
LINE
  5
145
330
A
100
AcDbEntity
  8
11
  6
Continuous
 62
    92
100
AcDbLine
 10
496.9555462426127
 20
577.44247941865
 30
0.0
 11
496.1052920824877
 21
574.21749185515
 31
0.0
  0
LINE
  5
146
330
A
100
AcDbEntity
  8
11
  6
Continuous
 62
    92
100
AcDbLine
 10
496.1052920824877
 20
574.21749185515
 30
0.0
 11
495.6969085934876
 21
570.8602397928999
 31
0.0
  0
LINE
  5
147
330
A
100
AcDbEntity
  8
11
  6
Continuous
 62
    92
100
AcDbLine
 10
495.6969085934876
 20
570.8602397928999
 30
0.0
 11
495.7477583666126
 21
567.4615235786498
 31
0.0
  0
LINE
  5
148
330
A
100
AcDbEntity
  8
11
  6
Continuous
 62
    92
100
AcDbLine
 10
495.7477583666126
 20
567.4615235786498
 30
0.0
 11
496.2502087647377
 21
564.1144003767749
 31
0.0
  0
LINE
  5
149
330
A
100
AcDbEntity
  8
11
  6
Continuous
 62
    92
100
AcDbLine
 10
496.2502087647377
 20
564.1144003767749
 30
0.0
 11
497.1728632341126
 21
560.9058797667749
 31
0.0
  0
LINE
  5
14A
330
A
100
AcDbEntity
  8
11
  6
Continuous
 62
    92
100
AcDbLine
 10
497.1728632341126
 20
560.9058797667749
 30
0.0
 11
498.4647957123627
 21
557.9098284228999
 31
0.0
  0
LINE
  5
14B
330
A
100
AcDbEntity
  8
11
  6
Continuous
 62
    92
100
AcDbLine
 10
498.4647957123627
 20
557.9098284228999
 30
0.0
 11
500.0617904662377
 21
555.1822128295249
 31
0.0
  0
LINE
  5
14C
330
A
100
AcDbEntity
  8
11
  6
Continuous
 62
    92
100
AcDbLine
 10
500.0617904662377
 20
555.1822128295249
 30
0.0
 11
502.9280395507377
 21
551.0122146605249
 31
0.0
  0
LINE
  5
14D
330
A
100
AcDbEntity
  8
11
  6
Continuous
 62
    92
100
AcDbLine
 10
475.4280395507377
 20
550.072196960275
 30
0.0
 11
475.4280395507377
 21
555.8222045897749
 31
0.0
  0
LINE
  5
14E
330
A
100
AcDbEntity
  8
11
  6
Continuous
 62
    92
100
AcDbLine
 10
502.9280395507377
 20
550.072196960275
 30
0.0
 11
489.1780395507376
 21
571.4472045897749
 31
0.0
  0
LINE
  5
14F
330
A
100
AcDbEntity
  8
11
  6
Continuous
 62
    92
100
AcDbLine
 10
489.1780395507376
 20
571.4472045897749
 30
0.0
 11
457.9280395507376
 21
571.4472045897749
 31
0.0
  0
LINE
  5
150
330
A
100
AcDbEntity
  8
11
  6
Continuous
 62
    92
100
AcDbLine
 10
438.5530395507377
 20
584.8847045897749
 30
0.0
 11
438.5530395507377
 21
558.0097045897749
 31
0.0
  0
LINE
  5
151
330
A
100
AcDbEntity
  8
11
  6
Continuous
 62
    92
100
AcDbLine
 10
438.5530395507377
 20
558.0097045897749
 30
0.0
 11
439.8030395507377
 21
557.0722045897749
 31
0.0
  0
LINE
  5
152
330
A
100
AcDbEntity
  8
11
  6
Continuous
 62
    92
100
AcDbLine
 10
439.8030395507377
 20
557.0722045897749
 30
0.0
 11
448.5530395507376
 21
557.0722045897749
 31
0.0
  0
LINE
  5
153
330
A
100
AcDbEntity
  8
11
  6
Continuous
 62
    92
100
AcDbLine
 10
448.5530395507376
 20
557.0722045897749
 30
0.0
 11
449.8030395507377
 21
558.0097045897749
 31
0.0
  0
LINE
  5
154
330
A
100
AcDbEntity
  8
11
  6
Continuous
 62
    92
100
AcDbLine
 10
449.8030395507377
 20
558.0097045897749
 30
0.0
 11
449.8030395507377
 21
584.8847045897749
 31
0.0
  0
LINE
  5
155
330
A
100
AcDbEntity
  8
11
  6
Continuous
 62
    92
100
AcDbLine
 10
449.8030395507377
 20
584.8847045897749
 30
0.0
 11
448.5530395507376
 21
585.822204589775
 31
0.0
  0
LINE
  5
156
330
A
100
AcDbEntity
  8
11
  6
Continuous
 62
    92
100
AcDbLine
 10
448.5530395507376
 20
585.822204589775
 30
0.0
 11
439.8030395507377
 21
585.822204589775
 31
0.0
  0
LINE
  5
157
330
A
100
AcDbEntity
  8
11
  6
Continuous
 62
    92
100
AcDbLine
 10
439.8030395507377
 20
585.822204589775
 30
0.0
 11
438.5530395507377
 21
584.8847045897749
 31
0.0
  0
LINE
  5
158
330
A
100
AcDbEntity
  8
11
  6
Continuous
 62
    92
100
AcDbLine
 10
449.8030395507377
 20
584.8847045897749
 30
0.0
 11
438.5530395507377
 21
584.8847045897749
 31
0.0
  0
LINE
  5
159
330
A
100
AcDbEntity
  8
11
  6
Continuous
 62
    92
100
AcDbLine
 10
449.8030395507377
 20
558.0097045897749
 30
0.0
 11
438.5530395507377
 21
558.0097045897749
 31
0.0
  0
LINE
  5
15A
330
A
100
AcDbEntity
  8
11
  6
Continuous
 62
    92
100
AcDbLine
 10
452.9280395507377
 20
584.5722045897749
 30
0.0
 11
452.9280395507377
 21
558.3222045897749
 31
0.0
  0
LINE
  5
15B
330
A
100
AcDbEntity
  8
11
  6
Continuous
 62
    92
100
AcDbLine
 10
452.9280395507377
 20
558.3222045897749
 30
0.0
 11
455.4280395507377
 21
558.3222045897749
 31
0.0
  0
LINE
  5
15C
330
A
100
AcDbEntity
  8
11
  6
Continuous
 62
    92
100
AcDbLine
 10
455.4280395507377
 20
558.3222045897749
 30
0.0
 11
455.4280395507377
 21
584.5722045897749
 31
0.0
  0
LINE
  5
15D
330
A
100
AcDbEntity
  8
11
  6
Continuous
 62
    92
100
AcDbLine
 10
455.4280395507377
 20
584.5722045897749
 30
0.0
 11
452.9280395507377
 21
584.5722045897749
 31
0.0
  0
LINE
  5
15E
330
A
100
AcDbEntity
  8
11
  6
Continuous
 62
    92
100
AcDbLine
 10
452.9280395507377
 20
584.5722045897749
 30
0.0
 11
452.9280395507377
 21
585.822204589775
 31
0.0
  0
LINE
  5
15F
330
A
100
AcDbEntity
  8
11
  6
Continuous
 62
    92
100
AcDbLine
 10
452.9280395507377
 20
585.822204589775
 30
0.0
 11
452.3030395507377
 21
585.822204589775
 31
0.0
  0
LINE
  5
160
330
A
100
AcDbEntity
  8
11
  6
Continuous
 62
    92
100
AcDbLine
 10
452.3030395507377
 20
585.822204589775
 30
0.0
 11
450.6793136596127
 21
584.8847045897749
 31
0.0
  0
LINE
  5
161
330
A
100
AcDbEntity
  8
11
  6
Continuous
 62
    92
100
AcDbLine
 10
450.6793136596127
 20
584.8847045897749
 30
0.0
 11
449.8030395507377
 21
584.8847045897749
 31
0.0
  0
LINE
  5
162
330
A
100
AcDbEntity
  8
11
  6
Continuous
 62
    92
100
AcDbLine
 10
452.3030395507377
 20
557.0722045897749
 30
0.0
 11
452.3030395507377
 21
585.822204589775
 31
0.0
  0
LINE
  5
163
330
A
100
AcDbEntity
  8
11
  6
Continuous
 62
    92
100
AcDbLine
 10
439.8030395507377
 20
557.0722045897749
 30
0.0
 11
439.8030395507377
 21
585.822204589775
 31
0.0
  0
LINE
  5
164
330
A
100
AcDbEntity
  8
11
  6
Continuous
 62
    92
100
AcDbLine
 10
448.5530395507376
 20
557.0722045897749
 30
0.0
 11
448.5530395507376
 21
585.822204589775
 31
0.0
  0
LINE
  5
165
330
A
100
AcDbEntity
  8
11
  6
Continuous
 62
    92
100
AcDbLine
 10
452.9280395507377
 20
558.3222045897749
 30
0.0
 11
452.9280395507377
 21
557.0722045897749
 31
0.0
  0
LINE
  5
166
330
A
100
AcDbEntity
  8
11
  6
Continuous
 62
    92
100
AcDbLine
 10
452.9280395507377
 20
557.0722045897749
 30
0.0
 11
452.3030395507377
 21
557.0722045897749
 31
0.0
  0
LINE
  5
167
330
A
100
AcDbEntity
  8
11
  6
Continuous
 62
    92
100
AcDbLine
 10
452.3030395507377
 20
557.0722045897749
 30
0.0
 11
450.6793136596127
 21
558.0097045897749
 31
0.0
  0
LINE
  5
168
330
A
100
AcDbEntity
  8
11
  6
Continuous
 62
    92
100
AcDbLine
 10
450.6793136596127
 20
558.0097045897749
 30
0.0
 11
449.8030395507377
 21
558.0097045897749
 31
0.0
  0
LINE
  5
169
330
A
100
AcDbEntity
  8
11
  6
Continuous
 62
    92
100
AcDbLine
 10
455.4280395507377
 20
585.822204589775
 30
0.0
 11
455.4280395507377
 21
557.0722045897749
 31
0.0
  0
LINE
  5
16A
330
A
100
AcDbEntity
  8
11
  6
Continuous
 62
    92
100
AcDbLine
 10
455.4280395507377
 20
557.0722045897749
 30
0.0
 11
456.6780395507377
 21
557.0722045897749
 31
0.0
  0
LINE
  5
16B
330
A
100
AcDbEntity
  8
11
  6
Continuous
 62
    92
100
AcDbLine
 10
456.6780395507377
 20
557.0722045897749
 30
0.0
 11
456.6780395507377
 21
585.822204589775
 31
0.0
  0
LINE
  5
16C
330
A
100
AcDbEntity
  8
11
  6
Continuous
 62
    92
100
AcDbLine
 10
456.6780395507377
 20
585.822204589775
 30
0.0
 11
455.4280395507377
 21
585.822204589775
 31
0.0
  0
LINE
  5
16D
330
A
100
AcDbEntity
  8
11
  6
Continuous
 62
    92
100
AcDbLine
 10
456.6780395507377
 20
584.5722045897749
 30
0.0
 11
456.6780395507377
 21
558.3222045897749
 31
0.0
  0
LINE
  5
16E
330
A
100
AcDbEntity
  8
11
  6
Continuous
 62
    92
100
AcDbLine
 10
456.6780395507377
 20
558.3222045897749
 30
0.0
 11
457.9280395507376
 21
558.3222045897749
 31
0.0
  0
LINE
  5
16F
330
A
100
AcDbEntity
  8
11
  6
Continuous
 62
    92
100
AcDbLine
 10
457.9280395507376
 20
558.3222045897749
 30
0.0
 11
457.9280395507376
 21
584.5722045897749
 31
0.0
  0
LINE
  5
170
330
A
100
AcDbEntity
  8
11
  6
Continuous
 62
    92
100
AcDbLine
 10
457.9280395507376
 20
584.5722045897749
 30
0.0
 11
456.6780395507377
 21
584.5722045897749
 31
0.0
  0
LINE
  5
171
330
A
100
AcDbEntity
  8
11
  6
Continuous
 62
    92
100
AcDbLine
 10
457.9280395507376
 20
555.8222045897749
 30
0.0
 11
457.9280395507376
 21
587.0722045897749
 31
0.0
  0
LINE
  5
172
330
A
100
AcDbEntity
  8
11
  6
Continuous
 62
    92
100
AcDbLine
 10
489.1780395507376
 20
571.4472045897749
 30
0.0
 11
475.4280395507377
 21
555.8222045897749
 31
0.0
  0
LINE
  5
173
330
A
100
AcDbEntity
  8
11
  6
CENTERX2
 62
    92
100
AcDbLine
 10
665.4268188476127
 20
573.45346832265
 30
0.0
 11
665.4268188476127
 21
529.717201232775
 31
0.0
  0
LINE
  5
174
330
A
100
AcDbEntity
  8
11
  6
CENTERX2
 62
    92
100
AcDbLine
 10
665.4268188476127
 20
529.717201232775
 30
0.0
 11
665.4268188476127
 21
522.2822036741499
 31
0.0
  0
LINE
  5
175
330
A
100
AcDbEntity
  8
11
  6
Continuous
 62
    92
100
AcDbLine
 10
681.0518188476127
 20
531.4472045897749
 30
0.0
 11
650.4268188476126
 21
531.4472045897749
 31
0.0
  0
LINE
  5
176
330
A
100
AcDbEntity
  8
11
  6
Continuous
 62
    92
100
AcDbLine
 10
650.4268188476126
 20
531.4472045897749
 30
0.0
 11
649.8018188476127
 21
532.0722045897749
 31
0.0
  0
LINE
  5
177
330
A
100
AcDbEntity
  8
11
  6
Continuous
 62
    92
100
AcDbLine
 10
649.8018188476127
 20
532.0722045897749
 30
0.0
 11
649.8018188476127
 21
534.447196960275
 31
0.0
  0
LINE
  5
178
330
A
100
AcDbEntity
  8
11
  6
Continuous
 62
    92
100
AcDbLine
 10
649.8018188476127
 20
534.447196960275
 30
0.0
 11
681.0518188476127
 21
534.447196960275
 31
0.0
  0
LINE
  5
179
330
A
100
AcDbEntity
  8
11
  6
Continuous
 62
    92
100
AcDbLine
 10
681.0518188476127
 20
534.447196960275
 30
0.0
 11
681.0518188476127
 21
531.4472045897749
 31
0.0
  0
LINE
  5
17A
330
A
100
AcDbEntity
  8
11
  6
Continuous
 62
    92
100
AcDbLine
 10
651.6768188476127
 20
534.447196960275
 30
0.0
 11
651.6768188476127
 21
571.4472045897749
 31
0.0
  0
LINE
  5
17B
330
A
100
AcDbEntity
  8
11
  6
Continuous
 62
    92
100
AcDbLine
 10
651.6768188476127
 20
571.4472045897749
 30
0.0
 11
679.1768188476127
 21
571.4472045897749
 31
0.0
  0
LINE
  5
17C
330
A
100
AcDbEntity
  8
11
  6
Continuous
 62
    92
100
AcDbLine
 10
679.1768188476127
 20
571.4472045897749
 30
0.0
 11
696.6768188476127
 21
571.4472045897749
 31
0.0
  0
LINE
  5
17D
330
A
100
AcDbEntity
  8
11
  6
Continuous
 62
    92
100
AcDbLine
 10
679.1768188476127
 20
540.1972045897749
 30
0.0
 11
696.6768188476127
 21
540.1972045897749
 31
0.0
  0
LINE
  5
17E
330
A
100
AcDbEntity
  8
11
  6
Continuous
 62
    92
100
AcDbLine
 10
651.6768188476127
 20
571.4472045897749
 30
0.0
 11
652.9330749511126
 21
569.97969055165
 31
0.0
  0
LINE
  5
17F
330
A
100
AcDbEntity
  8
11
  6
Continuous
 62
    92
100
AcDbLine
 10
652.9330749511126
 20
569.97969055165
 30
0.0
 11
654.8020065508628
 21
567.5647314728998
 31
0.0
  0
LINE
  5
180
330
A
100
AcDbEntity
  8
11
  6
Continuous
 62
    92
100
AcDbLine
 10
654.8020065508628
 20
567.5647314728998
 30
0.0
 11
656.3970863111127
 21
564.829113668775
 31
0.0
  0
LINE
  5
181
330
A
100
AcDbEntity
  8
11
  6
Continuous
 62
    92
100
AcDbLine
 10
656.3970863111127
 20
564.829113668775
 30
0.0
 11
657.6488213944877
 21
561.8167419600249
 31
0.0
  0
LINE
  5
182
330
A
100
AcDbEntity
  8
11
  6
Continuous
 62
    92
100
AcDbLine
 10
657.6488213944877
 20
561.8167419600249
 30
0.0
 11
658.4989952884876
 21
558.5916374189
 31
0.0
  0
LINE
  5
183
330
A
100
AcDbEntity
  8
11
  6
Continuous
 62
    92
100
AcDbLine
 10
658.4989952884876
 20
558.5916374189
 30
0.0
 11
658.9073486907376
 21
555.23434564365
 31
0.0
  0
LINE
  5
184
330
A
100
AcDbEntity
  8
11
  6
Continuous
 62
    92
100
AcDbLine
 10
658.9073486907376
 20
555.23434564365
 30
0.0
 11
658.8565205328626
 21
551.8356691424001
 31
0.0
  0
LINE
  5
185
330
A
100
AcDbEntity
  8
11
  6
Continuous
 62
    92
100
AcDbLine
 10
658.8565205328626
 20
551.8356691424001
 30
0.0
 11
658.3541421602377
 21
548.48866291815
 31
0.0
  0
LINE
  5
186
330
A
100
AcDbEntity
  8
11
  6
Continuous
 62
    92
100
AcDbLine
 10
658.3541421602377
 20
548.48866291815
 30
0.0
 11
657.4316061974876
 21
545.2803303532749
 31
0.0
  0
LINE
  5
187
330
A
100
AcDbEntity
  8
11
  6
Continuous
 62
    92
100
AcDbLine
 10
657.4316061974876
 20
545.2803303532749
 30
0.0
 11
656.1398326496126
 21
542.2845286835249
 31
0.0
  0
LINE
  5
188
330
A
100
AcDbEntity
  8
11
  6
Continuous
 62
    92
100
AcDbLine
 10
656.1398326496126
 20
542.2845286835249
 30
0.0
 11
654.5430297851127
 21
539.5572128295249
 31
0.0
  0
LINE
  5
189
330
A
100
AcDbEntity
  8
11
  6
Continuous
 62
    92
100
AcDbLine
 10
654.5430297851127
 20
539.5572128295249
 30
0.0
 11
651.6768188476127
 21
535.3872146605249
 31
0.0
  0
LINE
  5
18A
330
A
100
AcDbEntity
  8
11
  6
Continuous
 62
    92
100
AcDbLine
 10
679.1768188476127
 20
534.447196960275
 30
0.0
 11
679.1768188476127
 21
540.1972045897749
 31
0.0
  0
LINE
  5
18B
330
A
100
AcDbEntity
  8
11
  6
Continuous
 62
    92
100
AcDbLine
 10
651.6768188476127
 20
534.447196960275
 30
0.0
 11
665.4268188476127
 21
555.8222045897749
 31
0.0
  0
LINE
  5
18C
330
A
100
AcDbEntity
  8
11
  6
Continuous
 62
    92
100
AcDbLine
 10
665.4268188476127
 20
555.8222045897749
 30
0.0
 11
696.6768188476127
 21
555.8222045897749
 31
0.0
  0
LINE
  5
18D
330
A
100
AcDbEntity
  8
11
  6
Continuous
 62
    92
100
AcDbLine
 10
716.0518188476126
 20
569.2597045897749
 30
0.0
 11
716.0518188476126
 21
542.3847045897749
 31
0.0
  0
LINE
  5
18E
330
A
100
AcDbEntity
  8
11
  6
Continuous
 62
    92
100
AcDbLine
 10
716.0518188476126
 20
542.3847045897749
 30
0.0
 11
714.8018188476127
 21
541.4472045897749
 31
0.0
  0
LINE
  5
18F
330
A
100
AcDbEntity
  8
11
  6
Continuous
 62
    92
100
AcDbLine
 10
714.8018188476127
 20
541.4472045897749
 30
0.0
 11
706.0518188476127
 21
541.4472045897749
 31
0.0
  0
LINE
  5
190
330
A
100
AcDbEntity
  8
11
  6
Continuous
 62
    92
100
AcDbLine
 10
706.0518188476127
 20
541.4472045897749
 30
0.0
 11
704.8018188476127
 21
542.3847045897749
 31
0.0
  0
LINE
  5
191
330
A
100
AcDbEntity
  8
11
  6
Continuous
 62
    92
100
AcDbLine
 10
704.8018188476127
 20
542.3847045897749
 30
0.0
 11
704.8018188476127
 21
569.2597045897749
 31
0.0
  0
LINE
  5
192
330
A
100
AcDbEntity
  8
11
  6
Continuous
 62
    92
100
AcDbLine
 10
704.8018188476127
 20
569.2597045897749
 30
0.0
 11
706.0518188476127
 21
570.197204589775
 31
0.0
  0
LINE
  5
193
330
A
100
AcDbEntity
  8
11
  6
Continuous
 62
    92
100
AcDbLine
 10
706.0518188476127
 20
570.197204589775
 30
0.0
 11
714.8018188476127
 21
570.197204589775
 31
0.0
  0
LINE
  5
194
330
A
100
AcDbEntity
  8
11
  6
Continuous
 62
    92
100
AcDbLine
 10
714.8018188476127
 20
570.197204589775
 30
0.0
 11
716.0518188476126
 21
569.2597045897749
 31
0.0
  0
LINE
  5
195
330
A
100
AcDbEntity
  8
11
  6
Continuous
 62
    92
100
AcDbLine
 10
704.8018188476127
 20
569.2597045897749
 30
0.0
 11
716.0518188476126
 21
569.2597045897749
 31
0.0
  0
LINE
  5
196
330
A
100
AcDbEntity
  8
11
  6
Continuous
 62
    92
100
AcDbLine
 10
704.8018188476127
 20
542.3847045897749
 30
0.0
 11
716.0518188476126
 21
542.3847045897749
 31
0.0
  0
LINE
  5
197
330
A
100
AcDbEntity
  8
11
  6
Continuous
 62
    92
100
AcDbLine
 10
701.6768188476127
 20
568.9472045897749
 30
0.0
 11
701.6768188476127
 21
542.6972045897749
 31
0.0
  0
LINE
  5
198
330
A
100
AcDbEntity
  8
11
  6
Continuous
 62
    92
100
AcDbLine
 10
701.6768188476127
 20
542.6972045897749
 30
0.0
 11
699.1768188476127
 21
542.6972045897749
 31
0.0
  0
LINE
  5
199
330
A
100
AcDbEntity
  8
11
  6
Continuous
 62
    92
100
AcDbLine
 10
699.1768188476127
 20
542.6972045897749
 30
0.0
 11
699.1768188476127
 21
568.9472045897749
 31
0.0
  0
LINE
  5
19A
330
A
100
AcDbEntity
  8
11
  6
Continuous
 62
    92
100
AcDbLine
 10
699.1768188476127
 20
568.9472045897749
 30
0.0
 11
701.6768188476127
 21
568.9472045897749
 31
0.0
  0
LINE
  5
19B
330
A
100
AcDbEntity
  8
11
  6
Continuous
 62
    92
100
AcDbLine
 10
701.6768188476127
 20
568.9472045897749
 30
0.0
 11
701.6768188476127
 21
570.197204589775
 31
0.0
  0
LINE
  5
19C
330
A
100
AcDbEntity
  8
11
  6
Continuous
 62
    92
100
AcDbLine
 10
701.6768188476127
 20
570.197204589775
 30
0.0
 11
702.3018188476127
 21
570.197204589775
 31
0.0
  0
LINE
  5
19D
330
A
100
AcDbEntity
  8
11
  6
Continuous
 62
    92
100
AcDbLine
 10
702.3018188476127
 20
570.197204589775
 30
0.0
 11
703.9255828857378
 21
569.2597045897749
 31
0.0
  0
LINE
  5
19E
330
A
100
AcDbEntity
  8
11
  6
Continuous
 62
    92
100
AcDbLine
 10
703.9255828857378
 20
569.2597045897749
 30
0.0
 11
704.8018188476127
 21
569.2597045897749
 31
0.0
  0
LINE
  5
19F
330
A
100
AcDbEntity
  8
11
  6
Continuous
 62
    92
100
AcDbLine
 10
702.3018188476127
 20
541.4472045897749
 30
0.0
 11
702.3018188476127
 21
570.197204589775
 31
0.0
  0
LINE
  5
1A0
330
A
100
AcDbEntity
  8
11
  6
Continuous
 62
    92
100
AcDbLine
 10
714.8018188476127
 20
541.4472045897749
 30
0.0
 11
714.8018188476127
 21
570.197204589775
 31
0.0
  0
LINE
  5
1A1
330
A
100
AcDbEntity
  8
11
  6
Continuous
 62
    92
100
AcDbLine
 10
706.0518188476127
 20
541.4472045897749
 30
0.0
 11
706.0518188476127
 21
570.197204589775
 31
0.0
  0
LINE
  5
1A2
330
A
100
AcDbEntity
  8
11
  6
Continuous
 62
    92
100
AcDbLine
 10
701.6768188476127
 20
542.6972045897749
 30
0.0
 11
701.6768188476127
 21
541.4472045897749
 31
0.0
  0
LINE
  5
1A3
330
A
100
AcDbEntity
  8
11
  6
Continuous
 62
    92
100
AcDbLine
 10
701.6768188476127
 20
541.4472045897749
 30
0.0
 11
702.3018188476127
 21
541.4472045897749
 31
0.0
  0
LINE
  5
1A4
330
A
100
AcDbEntity
  8
11
  6
Continuous
 62
    92
100
AcDbLine
 10
702.3018188476127
 20
541.4472045897749
 30
0.0
 11
703.9255828857378
 21
542.3847045897749
 31
0.0
  0
LINE
  5
1A5
330
A
100
AcDbEntity
  8
11
  6
Continuous
 62
    92
100
AcDbLine
 10
703.9255828857378
 20
542.3847045897749
 30
0.0
 11
704.8018188476127
 21
542.3847045897749
 31
0.0
  0
LINE
  5
1A6
330
A
100
AcDbEntity
  8
11
  6
Continuous
 62
    92
100
AcDbLine
 10
699.1768188476127
 20
570.197204589775
 30
0.0
 11
699.1768188476127
 21
541.4472045897749
 31
0.0
  0
LINE
  5
1A7
330
A
100
AcDbEntity
  8
11
  6
Continuous
 62
    92
100
AcDbLine
 10
699.1768188476127
 20
541.4472045897749
 30
0.0
 11
697.9268188476127
 21
541.4472045897749
 31
0.0
  0
LINE
  5
1A8
330
A
100
AcDbEntity
  8
11
  6
Continuous
 62
    92
100
AcDbLine
 10
697.9268188476127
 20
541.4472045897749
 30
0.0
 11
697.9268188476127
 21
570.197204589775
 31
0.0
  0
LINE
  5
1A9
330
A
100
AcDbEntity
  8
11
  6
Continuous
 62
    92
100
AcDbLine
 10
697.9268188476127
 20
570.197204589775
 30
0.0
 11
699.1768188476127
 21
570.197204589775
 31
0.0
  0
LINE
  5
1AA
330
A
100
AcDbEntity
  8
11
  6
Continuous
 62
    92
100
AcDbLine
 10
697.9268188476127
 20
568.9472045897749
 30
0.0
 11
697.9268188476127
 21
542.6972045897749
 31
0.0
  0
LINE
  5
1AB
330
A
100
AcDbEntity
  8
11
  6
Continuous
 62
    92
100
AcDbLine
 10
697.9268188476127
 20
542.6972045897749
 30
0.0
 11
696.6768188476127
 21
542.6972045897749
 31
0.0
  0
LINE
  5
1AC
330
A
100
AcDbEntity
  8
11
  6
Continuous
 62
    92
100
AcDbLine
 10
696.6768188476127
 20
542.6972045897749
 30
0.0
 11
696.6768188476127
 21
568.9472045897749
 31
0.0
  0
LINE
  5
1AD
330
A
100
AcDbEntity
  8
11
  6
Continuous
 62
    92
100
AcDbLine
 10
696.6768188476127
 20
568.9472045897749
 30
0.0
 11
697.9268188476127
 21
568.9472045897749
 31
0.0
  0
LINE
  5
1AE
330
A
100
AcDbEntity
  8
11
  6
Continuous
 62
    92
100
AcDbLine
 10
696.6768188476127
 20
540.1972045897749
 30
0.0
 11
696.6768188476127
 21
571.4472045897749
 31
0.0
  0
LINE
  5
1AF
330
A
100
AcDbEntity
  8
11
  6
Continuous
 62
    92
100
AcDbLine
 10
665.4268188476127
 20
555.8222045897749
 30
0.0
 11
679.1768188476127
 21
540.1972045897749
 31
0.0
  0
LINE
  5
1B0
330
A
100
AcDbEntity
  8
11
  6
Continuous
 62
    92
100
AcDbLine
 10
205.4267997741127
 20
475.197204589775
 30
0.0
 11
205.4267997741127
 21
460.197204589775
 31
0.0
  0
LINE
  5
1B1
330
A
100
AcDbEntity
  8
11
  6
Continuous
 62
    92
100
AcDbLine
 10
267.0530433654877
 20
459.572204589775
 30
0.0
 11
267.0530433654877
 21
475.197204589775
 31
0.0
  0
LINE
  5
1B2
330
A
100
AcDbEntity
  8
11
  6
Continuous
 62
    92
100
AcDbLine
 10
299.1780395507376
 20
475.197204589775
 30
0.0
 11
299.1780395507376
 21
494.5722045897749
 31
0.0
  0
LINE
  5
1B3
330
A
100
AcDbEntity
  8
11
  6
Continuous
 62
    92
100
AcDbLine
 10
205.4267997741127
 20
475.197204589775
 30
0.0
 11
205.4267997741127
 21
490.1972045897749
 31
0.0
  0
LINE
  5
1B4
330
A
100
AcDbEntity
  8
11
  6
Continuous
 62
    92
100
AcDbLine
 10
267.0530433654877
 20
475.197204589775
 30
0.0
 11
267.0530433654877
 21
490.94721221915
 31
0.0
  0
LINE
  5
1B5
330
A
100
AcDbEntity
  8
11
  6
Continuous
 62
    92
100
AcDbLine
 10
212.9280395507377
 20
470.1976623534
 30
0.0
 11
252.9280395507377
 21
470.1976623534
 31
0.0
  0
LINE
  5
1B6
330
A
100
AcDbEntity
  8
11
  6
Continuous
 62
    92
100
AcDbLine
 10
257.9282302856126
 20
475.197204589775
 30
0.0
 11
257.9280395507377
 21
475.197204589775
 31
0.0
  0
LINE
  5
1B7
330
A
100
AcDbEntity
  8
11
  6
Continuous
 62
    92
100
AcDbLine
 10
212.9280395507377
 20
480.1979293821499
 30
0.0
 11
252.9280395507377
 21
480.1979293821499
 31
0.0
  0
LINE
  5
1B8
330
A
100
AcDbEntity
  8
11
  6
Continuous
 62
    92
100
AcDbLine
 10
257.9282302856126
 20
475.197204589775
 30
0.0
 11
257.9280395507377
 21
475.197204589775
 31
0.0
  0
LINE
  5
1B9
330
A
100
AcDbEntity
  8
11
  6
Continuous
 62
    92
100
AcDbLine
 10
268.2192916869877
 20
490.8222045897749
 30
0.0
 11
267.0530433654877
 21
490.8222045897749
 31
0.0
  0
LINE
  5
1BA
330
A
100
AcDbEntity
  8
11
  6
Continuous
 62
    92
100
AcDbLine
 10
266.4280433654877
 20
490.1981582640249
 30
0.0
 11
205.4267997741127
 21
490.1981582640249
 31
0.0
  0
LINE
  5
1BB
330
A
100
AcDbEntity
  8
11
  6
Continuous
 62
    92
100
AcDbLine
 10
205.4267997741127
 20
490.1981582640249
 30
0.0
 11
204.1767997741127
 21
488.947204589775
 31
0.0
  0
LINE
  5
1BC
330
A
100
AcDbEntity
  8
11
  6
Continuous
 62
    92
100
AcDbLine
 10
204.1767997741127
 20
488.947204589775
 30
0.0
 11
204.1767997741127
 21
475.197204589775
 31
0.0
  0
LINE
  5
1BD
330
A
100
AcDbEntity
  8
11
  6
Continuous
 62
    92
100
AcDbLine
 10
204.1767997741127
 20
475.197204589775
 30
0.0
 11
204.1767997741127
 21
461.447204589775
 31
0.0
  0
LINE
  5
1BE
330
A
100
AcDbEntity
  8
11
  6
Continuous
 62
    92
100
AcDbLine
 10
204.1767997741127
 20
461.447204589775
 30
0.0
 11
205.4267997741127
 21
460.197204589775
 31
0.0
  0
LINE
  5
1BF
330
A
100
AcDbEntity
  8
11
  6
Continuous
 62
    92
100
AcDbLine
 10
205.4267997741127
 20
460.197204589775
 30
0.0
 11
266.4280433654877
 21
460.197204589775
 31
0.0
  0
LINE
  5
1C0
330
A
100
AcDbEntity
  8
11
  6
Continuous
 62
    92
100
AcDbLine
 10
267.0516891478627
 20
459.572204589775
 30
0.0
 11
268.2180519103626
 21
459.572204589775
 31
0.0
  0
LINE
  5
1C1
330
A
100
AcDbEntity
  8
11
  6
Continuous
 62
    92
100
AcDbLine
 10
269.2480392456126
 20
469.365943908525
 30
0.0
 11
269.3104651527377
 21
468.0295259883999
 31
0.0
  0
LINE
  5
1C2
330
A
100
AcDbEntity
  8
11
  6
Continuous
 62
    92
100
AcDbLine
 10
269.3104651527377
 20
468.0295259883999
 30
0.0
 11
269.3508561183626
 21
467.14815596165
 31
0.0
  0
LINE
  5
1C3
330
A
100
AcDbEntity
  8
11
  6
Continuous
 62
    92
100
AcDbLine
 10
269.3508561183626
 20
467.14815596165
 30
0.0
 11
269.3786449168627
 21
466.5232431435249
 31
0.0
  0
LINE
  5
1C4
330
A
100
AcDbEntity
  8
11
  6
Continuous
 62
    92
100
AcDbLine
 10
269.3786449168627
 20
466.5232431435249
 30
0.0
 11
269.3984074343626
 21
466.0570827690249
 31
0.0
  0
LINE
  5
1C5
330
A
100
AcDbEntity
  8
11
  6
Continuous
 62
    92
100
AcDbLine
 10
269.3984074343626
 20
466.0570827690249
 30
0.0
 11
269.4125667421127
 21
465.6960132528999
 31
0.0
  0
LINE
  5
1C6
330
A
100
AcDbEntity
  8
11
  6
Continuous
 62
    92
100
AcDbLine
 10
269.4125667421127
 20
465.6960132528999
 30
0.0
 11
269.4224317571126
 21
465.4081148727749
 31
0.0
  0
LINE
  5
1C7
330
A
100
AcDbEntity
  8
11
  6
Continuous
 62
    92
100
AcDbLine
 10
269.4224317571126
 20
465.4081148727749
 30
0.0
 11
269.4286219916127
 21
465.1732147814
 31
0.0
  0
LINE
  5
1C8
330
A
100
AcDbEntity
  8
11
  6
Continuous
 62
    92
100
AcDbLine
 10
269.4286219916127
 20
465.1732147814
 30
0.0
 11
269.4311957754877
 21
464.9779445954
 31
0.0
  0
LINE
  5
1C9
330
A
100
AcDbEntity
  8
11
  6
Continuous
 62
    92
100
AcDbLine
 10
269.4311957754877
 20
464.9779445954
 30
0.0
 11
269.4295346962376
 21
464.8131060305249
 31
0.0
  0
LINE
  5
1CA
330
A
100
AcDbEntity
  8
11
  6
Continuous
 62
    92
100
AcDbLine
 10
269.4295346962376
 20
464.8131060305249
 30
0.0
 11
269.4217987059877
 21
464.6721878050249
 31
0.0
  0
LINE
  5
1CB
330
A
100
AcDbEntity
  8
11
  6
Continuous
 62
    92
100
AcDbLine
 10
269.4217987059877
 20
464.6721878050249
 30
0.0
 11
269.3926257471126
 21
464.38402584315
 31
0.0
  0
LINE
  5
1CC
330
A
100
AcDbEntity
  8
11
  6
Continuous
 62
    92
100
AcDbLine
 10
269.3926257471126
 20
464.38402584315
 30
0.0
 11
269.3583259308626
 21
464.09404016915
 31
0.0
  0
LINE
  5
1CD
330
A
100
AcDbEntity
  8
11
  6
Continuous
 62
    92
100
AcDbLine
 10
269.3583259308626
 20
464.09404016915
 30
0.0
 11
269.3189039466127
 21
463.80231209115
 31
0.0
  0
LINE
  5
1CE
330
A
100
AcDbEntity
  8
11
  6
Continuous
 62
    92
100
AcDbLine
 10
269.3189039466127
 20
463.80231209115
 30
0.0
 11
269.2743674263626
 21
463.508924009775
 31
0.0
  0
LINE
  5
1CF
330
A
100
AcDbEntity
  8
11
  6
Continuous
 62
    92
100
AcDbLine
 10
269.2743674263626
 20
463.508924009775
 30
0.0
 11
269.2247269409877
 21
463.21395934065
 31
0.0
  0
LINE
  5
1D0
330
A
100
AcDbEntity
  8
11
  6
Continuous
 62
    92
100
AcDbLine
 10
269.2247269409877
 20
463.21395934065
 30
0.0
 11
269.1699959927376
 21
462.9175024354
 31
0.0
  0
LINE
  5
1D1
330
A
100
AcDbEntity
  8
11
  6
Continuous
 62
    92
100
AcDbLine
 10
269.1699959927376
 20
462.9175024354
 30
0.0
 11
269.1101910024876
 21
462.6196385012749
 31
0.0
  0
LINE
  5
1D2
330
A
100
AcDbEntity
  8
11
  6
Continuous
 62
    92
100
AcDbLine
 10
269.1101910024876
 20
462.6196385012749
 30
0.0
 11
269.0453312934877
 21
462.3204535196499
 31
0.0
  0
LINE
  5
1D3
330
A
100
AcDbEntity
  8
11
  6
Continuous
 62
    92
100
AcDbLine
 10
269.0453312934877
 20
462.3204535196499
 30
0.0
 11
268.9754390712376
 21
462.02003416315
 31
0.0
  0
LINE
  5
1D4
330
A
100
AcDbEntity
  8
11
  6
Continuous
 62
    92
100
AcDbLine
 10
268.9754390712376
 20
462.02003416315
 30
0.0
 11
268.9005393981127
 21
461.7184677122749
 31
0.0
  0
LINE
  5
1D5
330
A
100
AcDbEntity
  8
11
  6
Continuous
 62
    92
100
AcDbLine
 10
268.9005393981127
 20
461.7184677122749
 30
0.0
 11
268.8172990939877
 21
461.3996413147749
 31
0.0
  0
LINE
  5
1D6
330
A
100
AcDbEntity
  8
11
  6
Continuous
 62
    92
100
AcDbLine
 10
268.8172990939877
 20
461.3996413147749
 30
0.0
 11
268.7396370953627
 21
461.1122840595249
 31
0.0
  0
LINE
  5
1D7
330
A
100
AcDbEntity
  8
11
  6
Continuous
 62
    92
100
AcDbLine
 10
268.7396370953627
 20
461.1122840595249
 30
0.0
 11
268.6665375866126
 21
460.852241174775
 31
0.0
  0
LINE
  5
1D8
330
A
100
AcDbEntity
  8
11
  6
Continuous
 62
    92
100
AcDbLine
 10
268.6665375866126
 20
460.852241174775
 30
0.0
 11
268.5971218827377
 21
460.616098718775
 31
0.0
  0
LINE
  5
1D9
330
A
100
AcDbEntity
  8
11
  6
Continuous
 62
    92
100
AcDbLine
 10
268.5971218827377
 20
460.616098718775
 30
0.0
 11
268.5306120957377
 21
460.401033417775
 31
0.0
  0
LINE
  5
1DA
330
A
100
AcDbEntity
  8
11
  6
Continuous
 62
    92
100
AcDbLine
 10
268.5306120957377
 20
460.401033417775
 30
0.0
 11
268.4663015534876
 21
460.2046994575249
 31
0.0
  0
LINE
  5
1DB
330
A
100
AcDbEntity
  8
11
  6
Continuous
 62
    92
100
AcDbLine
 10
268.4663015534876
 20
460.2046994575249
 30
0.0
 11
268.4035295579876
 21
460.02514259365
 31
0.0
  0
LINE
  5
1DC
330
A
100
AcDbEntity
  8
11
  6
Continuous
 62
    92
100
AcDbLine
 10
268.4035295579876
 20
460.02514259365
 30
0.0
 11
268.3416585679876
 21
459.860734907025
 31
0.0
  0
LINE
  5
1DD
330
A
100
AcDbEntity
  8
11
  6
Continuous
 62
    92
100
AcDbLine
 10
268.3416585679876
 20
459.860734907025
 30
0.0
 11
268.2800521298627
 21
459.710125583525
 31
0.0
  0
LINE
  5
1DE
330
A
100
AcDbEntity
  8
11
  6
Continuous
 62
    92
100
AcDbLine
 10
268.2800521298627
 20
459.710125583525
 30
0.0
 11
268.2180519103626
 21
459.572204589775
 31
0.0
  0
LINE
  5
1DF
330
A
100
AcDbEntity
  8
11
  6
Continuous
 62
    92
100
AcDbLine
 10
268.2180519103626
 20
459.572204589775
 30
0.0
 11
268.1463121899877
 21
459.429872958025
 31
0.0
  0
LINE
  5
1E0
330
A
100
AcDbEntity
  8
11
  6
Continuous
 62
    92
100
AcDbLine
 10
268.1463121899877
 20
459.429872958025
 30
0.0
 11
268.0637535976126
 21
459.2796953429
 31
0.0
  0
LINE
  5
1E1
330
A
100
AcDbEntity
  8
11
  6
Continuous
 62
    92
100
AcDbLine
 10
268.0637535976126
 20
459.2796953429
 30
0.0
 11
267.9699162189878
 21
459.1204089124
 31
0.0
  0
LINE
  5
1E2
330
A
100
AcDbEntity
  8
11
  6
Continuous
 62
    92
100
AcDbLine
 10
267.9699162189878
 20
459.1204089124
 30
0.0
 11
267.8641280303627
 21
458.9506160383999
 31
0.0
  0
LINE
  5
1E3
330
A
100
AcDbEntity
  8
11
  6
Continuous
 62
    92
100
AcDbLine
 10
267.8641280303627
 20
458.9506160383999
 30
0.0
 11
267.7454910371127
 21
458.7687424219
 31
0.0
  0
LINE
  5
1E4
330
A
100
AcDbEntity
  8
11
  6
Continuous
 62
    92
100
AcDbLine
 10
267.7454910371127
 20
458.7687424219
 30
0.0
 11
267.6128564118627
 21
458.5729878903999
 31
0.0
  0
LINE
  5
1E5
330
A
100
AcDbEntity
  8
11
  6
Continuous
 62
    92
100
AcDbLine
 10
267.6128564118627
 20
458.5729878903999
 30
0.0
 11
267.4647872381127
 21
458.361266584025
 31
0.0
  0
LINE
  5
1E6
330
A
100
AcDbEntity
  8
11
  6
Continuous
 62
    92
100
AcDbLine
 10
267.4647872381127
 20
458.361266584025
 30
0.0
 11
267.2995063031127
 21
458.131132317025
 31
0.0
  0
LINE
  5
1E7
330
A
100
AcDbEntity
  8
11
  6
Continuous
 62
    92
100
AcDbLine
 10
267.2995063031127
 20
458.131132317025
 30
0.0
 11
267.1148249157377
 21
457.8796834404
 31
0.0
  0
LINE
  5
1E8
330
A
100
AcDbEntity
  8
11
  6
Continuous
 62
    92
100
AcDbLine
 10
267.1148249157377
 20
457.8796834404
 30
0.0
 11
266.9080467223627
 21
457.6034393308999
 31
0.0
  0
LINE
  5
1E9
330
A
100
AcDbEntity
  8
11
  6
Continuous
 62
    92
100
AcDbLine
 10
265.5980415343626
 20
455.63471221915
 30
0.0
 11
265.5339230707377
 21
455.523815859775
 31
0.0
  0
LINE
  5
1EA
330
A
100
AcDbEntity
  8
11
  6
Continuous
 62
    92
100
AcDbLine
 10
265.5339230707377
 20
455.523815859775
 30
0.0
 11
265.4705145249877
 21
455.4124331691499
 31
0.0
  0
LINE
  5
1EB
330
A
100
AcDbEntity
  8
11
  6
Continuous
 62
    92
100
AcDbLine
 10
265.4705145249877
 20
455.4124331691499
 30
0.0
 11
265.4078201322377
 21
455.300571196775
 31
0.0
  0
LINE
  5
1EC
330
A
100
AcDbEntity
  8
11
  6
Continuous
 62
    92
100
AcDbLine
 10
265.4078201322377
 20
455.300571196775
 30
0.0
 11
265.3458440367377
 21
455.18823705565
 31
0.0
  0
LINE
  5
1ED
330
A
100
AcDbEntity
  8
11
  6
Continuous
 62
    92
100
AcDbLine
 10
265.3458440367377
 20
455.18823705565
 30
0.0
 11
265.2845902916127
 21
455.075437920525
 31
0.0
  0
LINE
  5
1EE
330
A
100
AcDbEntity
  8
11
  6
Continuous
 62
    92
100
AcDbLine
 10
265.2845902916127
 20
455.075437920525
 30
0.0
 11
265.2240628568626
 21
454.96218102665
 31
0.0
  0
LINE
  5
1EF
330
A
100
AcDbEntity
  8
11
  6
Continuous
 62
    92
100
AcDbLine
 10
265.2240628568626
 20
454.96218102665
 30
0.0
 11
265.1642655997377
 21
454.84847366815
 31
0.0
  0
LINE
  5
1F0
330
A
100
AcDbEntity
  8
11
  6
Continuous
 62
    92
100
AcDbLine
 10
265.1642655997377
 20
454.84847366815
 30
0.0
 11
265.1052022927377
 21
454.7343231963999
 31
0.0
  0
LINE
  5
1F1
330
A
100
AcDbEntity
  8
11
  6
Continuous
 62
    92
100
AcDbLine
 10
265.1052022927377
 20
454.7343231963999
 30
0.0
 11
265.0468766137377
 21
454.6197370182749
 31
0.0
  0
LINE
  5
1F2
330
A
100
AcDbEntity
  8
11
  6
Continuous
 62
    92
100
AcDbLine
 10
265.0468766137377
 20
454.6197370182749
 30
0.0
 11
264.9892921447376
 21
454.50472259515
 31
0.0
  0
LINE
  5
1F3
330
A
100
AcDbEntity
  8
11
  6
Continuous
 62
    92
100
AcDbLine
 10
264.9892921447376
 20
454.50472259515
 30
0.0
 11
264.9138576134877
 21
454.35389010965
 31
0.0
  0
LINE
  5
1F4
330
A
100
AcDbEntity
  8
11
  6
Continuous
 62
    92
100
AcDbLine
 10
264.9138576134877
 20
454.35389010965
 30
0.0
 11
264.8427636088628
 21
454.2135898015249
 31
0.0
  0
LINE
  5
1F5
330
A
100
AcDbEntity
  8
11
  6
Continuous
 62
    92
100
AcDbLine
 10
264.8427636088628
 20
454.2135898015249
 30
0.0
 11
264.7755294713626
 21
454.082834775775
 31
0.0
  0
LINE
  5
1F6
330
A
100
AcDbEntity
  8
11
  6
Continuous
 62
    92
100
AcDbLine
 10
264.7755294713626
 20
454.082834775775
 30
0.0
 11
264.7117281051126
 21
453.9607661160249
 31
0.0
  0
LINE
  5
1F7
330
A
100
AcDbEntity
  8
11
  6
Continuous
 62
    92
100
AcDbLine
 10
264.7117281051126
 20
453.9607661160249
 30
0.0
 11
264.6509768391128
 21
453.8466340350249
 31
0.0
  0
LINE
  5
1F8
330
A
100
AcDbEntity
  8
11
  6
Continuous
 62
    92
100
AcDbLine
 10
264.6509768391128
 20
453.8466340350249
 30
0.0
 11
264.5929297233626
 21
453.73978247615
 31
0.0
  0
LINE
  5
1F9
330
A
100
AcDbEntity
  8
11
  6
Continuous
 62
    92
100
AcDbLine
 10
264.5929297233626
 20
453.73978247615
 30
0.0
 11
264.5372709353627
 21
453.63963649565
 31
0.0
  0
LINE
  5
1FA
330
A
100
AcDbEntity
  8
11
  6
Continuous
 62
    92
100
AcDbLine
 10
264.5372709353627
 20
453.63963649565
 30
0.0
 11
264.4837090283626
 21
453.545691915275
 31
0.0
  0
LINE
  5
1FB
330
A
100
AcDbEntity
  8
11
  6
Continuous
 62
    92
100
AcDbLine
 10
264.4837090283626
 20
453.545691915275
 30
0.0
 11
264.4319718024876
 21
453.4575068520251
 31
0.0
  0
LINE
  5
1FC
330
A
100
AcDbEntity
  8
11
  6
Continuous
 62
    92
100
AcDbLine
 10
264.4319718024876
 20
453.4575068520251
 30
0.0
 11
264.3818016052378
 21
453.37469482415
 31
0.0
  0
LINE
  5
1FD
330
A
100
AcDbEntity
  8
11
  6
Continuous
 62
    92
100
AcDbLine
 10
262.9280395507377
 20
406.4472045897749
 30
0.0
 11
262.9280395507377
 21
451.5271987913999
 31
0.0
  0
LINE
  5
1FE
330
A
100
AcDbEntity
  8
11
  6
Continuous
 62
    92
100
AcDbLine
 10
299.1780395507376
 20
405.822204589775
 30
0.0
 11
299.1780395507376
 21
446.4609374999
 31
0.0
  0
LINE
  5
1FF
330
A
100
AcDbEntity
  8
11
  6
Continuous
 62
    92
100
AcDbLine
 10
299.1780395507376
 20
446.4609374999
 30
0.0
 11
299.1780395507376
 21
475.197204589775
 31
0.0
  0
LINE
  5
200
330
A
100
AcDbEntity
  8
11
  6
Continuous
 62
    92
100
AcDbLine
 10
277.9280395507377
 20
475.197204589775
 30
0.0
 11
277.9280395507377
 21
445.177215576025
 31
0.0
  0
LINE
  5
201
330
A
100
AcDbEntity
  8
11
  6
Continuous
 62
    92
100
AcDbLine
 10
320.4280395507377
 20
444.03597259515
 30
0.0
 11
320.4280395507377
 21
475.197204589775
 31
0.0
  0
LINE
  5
202
330
A
100
AcDbEntity
  8
11
  6
Continuous
 62
    92
100
AcDbLine
 10
266.6780395507377
 20
417.6146926879
 30
0.0
 11
277.9280395507377
 21
417.6146926879
 31
0.0
  0
LINE
  5
203
330
A
100
AcDbEntity
  8
11
  6
Continuous
 62
    92
100
AcDbLine
 10
320.4280395507377
 20
414.4896926879
 30
0.0
 11
329.1780395507377
 21
414.4896926879
 31
0.0
  0
LINE
  5
204
330
A
100
AcDbEntity
  8
11
  6
Continuous
 62
    92
100
AcDbLine
 10
277.9280395507377
 20
402.697204589775
 30
0.0
 11
277.9280395507377
 21
445.098442077525
 31
0.0
  0
LINE
  5
205
330
A
100
AcDbEntity
  8
11
  6
Continuous
 62
    92
100
AcDbLine
 10
280.5792922973627
 20
447.59344482415
 30
0.0
 11
299.1780395507376
 21
446.459716796775
 31
0.0
  0
LINE
  5
206
330
A
100
AcDbEntity
  8
11
  6
Continuous
 62
    92
100
AcDbLine
 10
299.1780395507376
 20
446.459716796775
 30
0.0
 11
317.9280395507376
 21
446.459716796775
 31
0.0
  0
LINE
  5
207
330
A
100
AcDbEntity
  8
11
  6
Continuous
 62
    92
100
AcDbLine
 10
320.4276580809877
 20
443.9609374999
 30
0.0
 11
320.4276580809877
 21
405.822204589775
 31
0.0
  0
LINE
  5
208
330
A
100
AcDbEntity
  8
11
  6
Continuous
 62
    92
100
AcDbLine
 10
322.9292984008626
 20
403.323042594275
 30
0.0
 11
329.1780395507377
 21
403.3230438231499
 31
0.0
  0
LINE
  5
209
330
A
100
AcDbEntity
  8
11
  6
Continuous
 62
    92
100
AcDbLine
 10
329.1780395507377
 20
475.197204589775
 30
0.0
 11
329.1780395507377
 21
403.3222045897749
 31
0.0
  0
LINE
  5
20A
330
A
100
AcDbEntity
  8
11
  6
Continuous
 62
    92
100
AcDbLine
 10
329.1780395507377
 20
403.3222045897749
 30
0.0
 11
321.4630432128627
 21
403.3222045897749
 31
0.0
  0
LINE
  5
20B
330
A
100
AcDbEntity
  8
11
  6
Continuous
 62
    92
100
AcDbLine
 10
319.6955413817377
 20
404.05470275865
 30
0.0
 11
318.6605377197377
 21
405.089706420775
 31
0.0
  0
LINE
  5
20C
330
A
100
AcDbEntity
  8
11
  6
Continuous
 62
    92
100
AcDbLine
 10
318.6605377197377
 20
405.089706420775
 30
0.0
 11
318.5188158504877
 21
405.220699970775
 31
0.0
  0
LINE
  5
20D
330
A
100
AcDbEntity
  8
11
  6
Continuous
 62
    92
100
AcDbLine
 10
318.5188158504877
 20
405.220699970775
 30
0.0
 11
318.3655772398627
 21
405.341819506775
 31
0.0
  0
LINE
  5
20E
330
A
100
AcDbEntity
  8
11
  6
Continuous
 62
    92
100
AcDbLine
 10
318.3655772398627
 20
405.341819506775
 30
0.0
 11
318.2018875109877
 21
405.451596024025
 31
0.0
  0
LINE
  5
20F
330
A
100
AcDbEntity
  8
11
  6
Continuous
 62
    92
100
AcDbLine
 10
318.2018875109877
 20
405.451596024025
 30
0.0
 11
318.0290508708627
 21
405.54871989165
 31
0.0
  0
LINE
  5
210
330
A
100
AcDbEntity
  8
11
  6
Continuous
 62
    92
100
AcDbLine
 10
318.0290508708627
 20
405.54871989165
 30
0.0
 11
317.8485782676127
 21
405.6320886113999
 31
0.0
  0
LINE
  5
211
330
A
100
AcDbEntity
  8
11
  6
Continuous
 62
    92
100
AcDbLine
 10
317.8485782676127
 20
405.6320886113999
 30
0.0
 11
317.6621445406127
 21
405.7008465698999
 31
0.0
  0
LINE
  5
212
330
A
100
AcDbEntity
  8
11
  6
Continuous
 62
    92
100
AcDbLine
 10
317.6621445406127
 20
405.7008465698999
 30
0.0
 11
317.4715370294876
 21
405.75441389215
 31
0.0
  0
LINE
  5
213
330
A
100
AcDbEntity
  8
11
  6
Continuous
 62
    92
100
AcDbLine
 10
317.4715370294876
 20
405.75441389215
 30
0.0
 11
317.2785989159878
 21
405.7925023871501
 31
0.0
  0
LINE
  5
214
330
A
100
AcDbEntity
  8
11
  6
Continuous
 62
    92
100
AcDbLine
 10
317.2785989159878
 20
405.7925023871501
 30
0.0
 11
317.0851710298626
 21
405.8151176910249
 31
0.0
  0
LINE
  5
215
330
A
100
AcDbEntity
  8
11
  6
Continuous
 62
    92
100
AcDbLine
 10
317.0851710298626
 20
405.8151176910249
 30
0.0
 11
316.8930358886126
 21
405.8225479125249
 31
0.0
  0
LINE
  5
216
330
A
100
AcDbEntity
  8
11
  6
Continuous
 62
    92
100
AcDbLine
 10
316.8930358886126
 20
405.8225479125249
 30
0.0
 11
299.1780395507376
 21
405.8225479125249
 31
0.0
  0
LINE
  5
217
330
A
100
AcDbEntity
  8
11
  6
Continuous
 62
    92
100
AcDbLine
 10
299.1780395507376
 20
405.8225479125249
 30
0.0
 11
280.7918090819877
 21
408.5259475706499
 31
0.0
  0
LINE
  5
218
330
A
100
AcDbEntity
  8
11
  6
Continuous
 62
    92
100
AcDbLine
 10
277.9266853332377
 20
406.0521926878999
 30
0.0
 11
277.9266853332377
 21
402.697204589775
 31
0.0
  0
LINE
  5
219
330
A
100
AcDbEntity
  8
11
  6
Continuous
 62
    92
100
AcDbLine
 10
275.4280395507377
 20
400.1976242063999
 30
0.0
 11
266.6780395507377
 21
400.1976242063999
 31
0.0
  0
LINE
  5
21A
330
A
100
AcDbEntity
  8
11
  6
Continuous
 62
    92
100
AcDbLine
 10
266.6780395507377
 20
400.1976242063999
 30
0.0
 11
266.6780395507377
 21
457.29345703115
 31
0.0
  0
LINE
  5
21B
330
A
100
AcDbEntity
  8
11
  6
Continuous
 62
    92
100
AcDbLine
 10
266.6780395507377
 20
400.1972045897749
 30
0.0
 11
266.6780395507377
 21
405.822204589775
 31
0.0
  0
LINE
  5
21C
330
A
100
AcDbEntity
  8
11
  6
Continuous
 62
    92
100
AcDbLine
 10
266.0530395507377
 20
406.44667053215
 30
0.0
 11
262.9280395507377
 21
406.44667053215
 31
0.0
  0
LINE
  5
21D
330
A
100
AcDbEntity
  8
11
  6
Continuous
 62
    92
100
AcDbLine
 10
262.9280395507377
 20
406.44667053215
 30
0.0
 11
262.3030395507377
 21
406.61470794665
 31
0.0
  0
LINE
  5
21E
330
A
100
AcDbEntity
  8
11
  6
Continuous
 62
    92
100
AcDbLine
 10
262.3030395507377
 20
406.61470794665
 30
0.0
 11
262.3030395507377
 21
450.94221496565
 31
0.0
  0
LINE
  5
21F
330
A
100
AcDbEntity
  8
11
  6
CENTERX2
 62
    92
100
AcDbLine
 10
310.1417846679877
 20
420.395950317275
 30
0.0
 11
328.4280319213627
 21
420.395950317275
 31
0.0
  0
LINE
  5
220
330
A
100
AcDbEntity
  8
11
  6
Continuous
 62
    92
100
AcDbLine
 10
319.1780395507377
 20
415.083450317275
 30
0.0
 11
312.9280395507377
 21
415.083450317275
 31
0.0
  0
LINE
  5
221
330
A
100
AcDbEntity
  8
11
  6
Continuous
 62
    92
100
AcDbLine
 10
312.9280395507377
 20
415.083450317275
 30
0.0
 11
312.9280395507377
 21
425.708450317275
 31
0.0
  0
LINE
  5
222
330
A
100
AcDbEntity
  8
11
  6
Continuous
 62
    92
100
AcDbLine
 10
312.9280395507377
 20
425.708450317275
 30
0.0
 11
319.1780395507377
 21
425.708450317275
 31
0.0
  0
LINE
  5
223
330
A
100
AcDbEntity
  8
11
  6
Continuous
 62
    92
100
AcDbLine
 10
319.1780395507377
 20
425.708450317275
 30
0.0
 11
319.1780395507377
 21
415.083450317275
 31
0.0
  0
LINE
  5
224
330
A
100
AcDbEntity
  8
11
  6
Continuous
 62
    92
100
AcDbLine
 10
319.1780395507377
 20
414.458450317275
 30
0.0
 11
319.1780395507377
 21
426.333450317275
 31
0.0
  0
LINE
  5
225
330
A
100
AcDbEntity
  8
11
  6
Continuous
 62
    92
100
AcDbLine
 10
319.1780395507377
 20
426.333450317275
 30
0.0
 11
320.4280395507377
 21
426.333450317275
 31
0.0
  0
LINE
  5
226
330
A
100
AcDbEntity
  8
11
  6
Continuous
 62
    92
100
AcDbLine
 10
320.4280395507377
 20
426.333450317275
 30
0.0
 11
320.4280395507377
 21
414.458450317275
 31
0.0
  0
LINE
  5
227
330
A
100
AcDbEntity
  8
11
  6
Continuous
 62
    92
100
AcDbLine
 10
320.4280395507377
 20
414.458450317275
 30
0.0
 11
319.1780395507377
 21
414.458450317275
 31
0.0
  0
LINE
  5
228
330
A
100
AcDbEntity
  8
11
  6
CENTERX2
 62
    92
100
AcDbLine
 10
197.3268051147376
 20
475.197204589775
 30
0.0
 11
339.1305465697377
 21
475.197204589775
 31
0.0
  0
LINE
  5
229
330
A
100
AcDbEntity
  8
11
  6
CENTERX2
 62
    92
100
AcDbLine
 10
409.5442886352377
 20
475.197204589775
 30
0.0
 11
425.3818054198626
 21
475.197204589775
 31
0.0
  0
LINE
  5
22A
330
A
100
AcDbEntity
  8
11
  6
CENTERX2
 62
    92
100
AcDbLine
 10
447.0430297851127
 20
475.197204589775
 30
0.0
 11
607.5005645751126
 21
475.197204589775
 31
0.0
  0
LINE
  5
22B
330
A
100
AcDbEntity
  8
11
  6
CENTERX2
 62
    92
100
AcDbLine
 10
626.3085098266127
 20
475.197204589775
 30
0.0
 11
708.3092803954876
 21
475.197204589775
 31
0.0
  0
LINE
  5
22C
330
A
100
AcDbEntity
  8
4
 62
    92
100
AcDbLine
 10
139.4567985533627
 20
543.9484634397749
 30
0.0
 11
138.4567985533627
 21
540.9484634397749
 31
0.0
  0
LINE
  5
22D
330
A
100
AcDbEntity
  8
4
 62
    92
100
AcDbLine
 10
138.4567985533627
 20
540.9484634397749
 30
0.0
 11
140.4567985533626
 21
540.9484634397749
 31
0.0
  0
LINE
  5
22E
330
A
100
AcDbEntity
  8
4
 62
    92
100
AcDbLine
 10
140.4567985533626
 20
540.9484634397749
 30
0.0
 11
139.4567985533627
 21
543.9484634397749
 31
0.0
  0
LINE
  5
22F
330
A
100
AcDbEntity
  8
4
  6
Continuous
 62
    92
100
AcDbLine
 10
139.4567985533627
 20
543.9484634397749
 30
0.0
 11
139.4567985533627
 21
406.44594573965
 31
0.0
  0
LINE
  5
230
330
A
100
AcDbEntity
  8
4
 62
    92
100
AcDbLine
 10
139.4567985533627
 20
406.44594573965
 30
0.0
 11
140.4567985533626
 21
409.44594573965
 31
0.0
  0
LINE
  5
231
330
A
100
AcDbEntity
  8
4
 62
    92
100
AcDbLine
 10
140.4567985533626
 20
409.44594573965
 30
0.0
 11
138.4567985533627
 21
409.44594573965
 31
0.0
  0
LINE
  5
232
330
A
100
AcDbEntity
  8
4
 62
    92
100
AcDbLine
 10
138.4567985533627
 20
409.44594573965
 30
0.0
 11
139.4567985533627
 21
406.44594573965
 31
0.0
  0
LINE
  5
233
330
A
100
AcDbEntity
  8
4
  6
Continuous
 62
    92
100
AcDbLine
 10
262.9280395507377
 20
543.9484634397749
 30
0.0
 11
139.4567985533627
 21
543.9484634397749
 31
0.0
  0
LINE
  5
234
330
A
100
AcDbEntity
  8
4
  6
Continuous
 62
    92
100
AcDbLine
 10
262.9280395507377
 20
406.44594573965
 30
0.0
 11
139.4567985533627
 21
406.44594573965
 31
0.0
  0
LINE
  5
235
330
A
100
AcDbEntity
  8
11
  6
Continuous
 62
    92
100
AcDbLine
 10
269.2480392456126
 20
481.0284652708999
 30
0.0
 11
269.3106524781127
 21
482.3649513094
 31
0.0
  0
LINE
  5
236
330
A
100
AcDbEntity
  8
11
  6
Continuous
 62
    92
100
AcDbLine
 10
269.3106524781127
 20
482.3649513094
 30
0.0
 11
269.3511557187377
 21
483.2463621634
 31
0.0
  0
LINE
  5
237
330
A
100
AcDbEntity
  8
11
  6
Continuous
 62
    92
100
AcDbLine
 10
269.3511557187377
 20
483.2463621634
 30
0.0
 11
269.3790118387377
 21
483.871299462025
 31
0.0
  0
LINE
  5
238
330
A
100
AcDbEntity
  8
11
  6
Continuous
 62
    92
100
AcDbLine
 10
269.3790118387377
 20
483.871299462025
 30
0.0
 11
269.3988105929877
 21
484.33747301365
 31
0.0
  0
LINE
  5
239
330
A
100
AcDbEntity
  8
11
  6
Continuous
 62
    92
100
AcDbLine
 10
269.3988105929877
 20
484.33747301365
 30
0.0
 11
269.4129813661127
 21
484.6985466988999
 31
0.0
  0
LINE
  5
23A
330
A
100
AcDbEntity
  8
11
  6
Continuous
 62
    92
100
AcDbLine
 10
269.4129813661127
 20
484.6985466988999
 30
0.0
 11
269.4228349157376
 21
484.9864409099
 31
0.0
  0
LINE
  5
23B
330
A
100
AcDbEntity
  8
11
  6
Continuous
 62
    92
100
AcDbLine
 10
269.4228349157376
 20
484.9864409099
 30
0.0
 11
269.4289889136126
 21
485.2213278242749
 31
0.0
  0
LINE
  5
23C
330
A
100
AcDbEntity
  8
11
  6
Continuous
 62
    92
100
AcDbLine
 10
269.4289889136126
 20
485.2213278242749
 30
0.0
 11
269.4314953758627
 21
485.4165735295249
 31
0.0
  0
LINE
  5
23D
330
A
100
AcDbEntity
  8
11
  6
Continuous
 62
    92
100
AcDbLine
 10
269.4314953758627
 20
485.4165735295249
 30
0.0
 11
269.4297220216126
 21
485.581371267275
 31
0.0
  0
LINE
  5
23E
330
A
100
AcDbEntity
  8
11
  6
Continuous
 62
    92
100
AcDbLine
 10
269.4297220216126
 20
485.581371267275
 30
0.0
 11
269.4217987059877
 21
485.7222213744
 31
0.0
  0
LINE
  5
23F
330
A
100
AcDbEntity
  8
11
  6
Continuous
 62
    92
100
AcDbLine
 10
269.4217987059877
 20
485.7222213744
 30
0.0
 11
269.3928518963626
 21
486.0104792783999
 31
0.0
  0
LINE
  5
240
330
A
100
AcDbEntity
  8
11
  6
Continuous
 62
    92
100
AcDbLine
 10
269.3928518963626
 20
486.0104792783999
 30
0.0
 11
269.3587281086128
 21
486.30053963115
 31
0.0
  0
LINE
  5
241
330
A
100
AcDbEntity
  8
11
  6
Continuous
 62
    92
100
AcDbLine
 10
269.3587281086128
 20
486.30053963115
 30
0.0
 11
269.3194319309876
 21
486.5923210816499
 31
0.0
  0
LINE
  5
242
330
A
100
AcDbEntity
  8
11
  6
Continuous
 62
    92
100
AcDbLine
 10
269.3194319309876
 20
486.5923210816499
 30
0.0
 11
269.2749709236127
 21
486.8857411987749
 31
0.0
  0
LINE
  5
243
330
A
100
AcDbEntity
  8
11
  6
Continuous
 62
    92
100
AcDbLine
 10
269.2749709236127
 20
486.8857411987749
 30
0.0
 11
269.2253556139877
 21
487.1807165485249
 31
0.0
  0
LINE
  5
244
330
A
100
AcDbEntity
  8
11
  6
Continuous
 62
    92
100
AcDbLine
 10
269.2253556139877
 20
487.1807165485249
 30
0.0
 11
269.1705994899876
 21
487.4771627731499
 31
0.0
  0
LINE
  5
245
330
A
100
AcDbEntity
  8
11
  6
Continuous
 62
    92
100
AcDbLine
 10
269.1705994899876
 20
487.4771627731499
 30
0.0
 11
269.1107189868627
 21
487.7749946715249
 31
0.0
  0
LINE
  5
246
330
A
100
AcDbEntity
  8
11
  6
Continuous
 62
    92
100
AcDbLine
 10
269.1107189868627
 20
487.7749946715249
 30
0.0
 11
269.0457334712376
 21
488.07412628065
 31
0.0
  0
LINE
  5
247
330
A
100
AcDbEntity
  8
11
  6
Continuous
 62
    92
100
AcDbLine
 10
269.0457334712376
 20
488.07412628065
 30
0.0
 11
268.9756652206127
 21
488.3744709584
 31
0.0
  0
LINE
  5
248
330
A
100
AcDbEntity
  8
11
  6
Continuous
 62
    92
100
AcDbLine
 10
268.9756652206127
 20
488.3744709584
 30
0.0
 11
268.9005393981127
 21
488.67594146715
 31
0.0
  0
LINE
  5
249
330
A
100
AcDbEntity
  8
11
  6
Continuous
 62
    92
100
AcDbLine
 10
268.9005393981127
 20
488.67594146715
 30
0.0
 11
268.8175237983628
 21
488.994738395275
 31
0.0
  0
LINE
  5
24A
330
A
100
AcDbEntity
  8
11
  6
Continuous
 62
    92
100
AcDbLine
 10
268.8175237983628
 20
488.994738395275
 30
0.0
 11
268.7400316556127
 21
489.282073374275
 31
0.0
  0
LINE
  5
24B
330
A
100
AcDbEntity
  8
11
  6
Continuous
 62
    92
100
AcDbLine
 10
268.7400316556127
 20
489.282073374275
 30
0.0
 11
268.6670509362377
 21
489.54210068015
 31
0.0
  0
LINE
  5
24C
330
A
100
AcDbEntity
  8
11
  6
Continuous
 62
    92
100
AcDbLine
 10
268.6670509362377
 20
489.54210068015
 30
0.0
 11
268.5977055178626
 21
489.7782339183999
 31
0.0
  0
LINE
  5
24D
330
A
100
AcDbEntity
  8
11
  6
Continuous
 62
    92
100
AcDbLine
 10
268.5977055178626
 20
489.7782339183999
 30
0.0
 11
268.5312189972377
 21
489.9932961680249
 31
0.0
  0
LINE
  5
24E
330
A
100
AcDbEntity
  8
11
  6
Continuous
 62
    92
100
AcDbLine
 10
268.5312189972377
 20
489.9932961680249
 30
0.0
 11
268.4668851886126
 21
490.1896331796499
 31
0.0
  0
LINE
  5
24F
330
A
100
AcDbEntity
  8
11
  6
Continuous
 62
    92
100
AcDbLine
 10
268.4668851886126
 20
490.1896331796499
 30
0.0
 11
268.4040429076127
 21
490.3691992612749
 31
0.0
  0
LINE
  5
250
330
A
100
AcDbEntity
  8
11
  6
Continuous
 62
    92
100
AcDbLine
 10
268.4040429076127
 20
490.3691992612749
 30
0.0
 11
268.3420531282378
 21
490.533622526775
 31
0.0
  0
LINE
  5
251
330
A
100
AcDbEntity
  8
11
  6
Continuous
 62
    92
100
AcDbLine
 10
268.3420531282378
 20
490.533622526775
 30
0.0
 11
268.2802768341126
 21
490.6842541263999
 31
0.0
  0
LINE
  5
252
330
A
100
AcDbEntity
  8
11
  6
Continuous
 62
    92
100
AcDbLine
 10
268.2802768341126
 20
490.6842541263999
 30
0.0
 11
268.2180519103626
 21
490.8222045897749
 31
0.0
  0
LINE
  5
253
330
A
100
AcDbEntity
  8
11
  6
Continuous
 62
    92
100
AcDbLine
 10
268.2180519103626
 20
490.8222045897749
 30
0.0
 11
268.1465366529877
 21
490.964661332025
 31
0.0
  0
LINE
  5
254
330
A
100
AcDbEntity
  8
11
  6
Continuous
 62
    92
100
AcDbLine
 10
268.1465366529877
 20
490.964661332025
 30
0.0
 11
268.0641478108627
 21
491.1149335619
 31
0.0
  0
LINE
  5
255
330
A
100
AcDbEntity
  8
11
  6
Continuous
 62
    92
100
AcDbLine
 10
268.0641478108627
 20
491.1149335619
 30
0.0
 11
267.9704291868627
 21
491.2742861835249
 31
0.0
  0
LINE
  5
256
330
A
100
AcDbEntity
  8
11
  6
Continuous
 62
    92
100
AcDbLine
 10
267.9704291868627
 20
491.2742861835249
 30
0.0
 11
267.8647112783627
 21
491.44411823015
 31
0.0
  0
LINE
  5
257
330
A
100
AcDbEntity
  8
11
  6
Continuous
 62
    92
100
AcDbLine
 10
267.8647112783627
 20
491.44411823015
 30
0.0
 11
267.7460975521126
 21
491.626004815025
 31
0.0
  0
LINE
  5
258
330
A
100
AcDbEntity
  8
11
  6
Continuous
 62
    92
100
AcDbLine
 10
267.7460975521126
 20
491.626004815025
 30
0.0
 11
267.6134396597377
 21
491.82174637815
 31
0.0
  0
LINE
  5
259
330
A
100
AcDbEntity
  8
11
  6
Continuous
 62
    92
100
AcDbLine
 10
267.6134396597377
 20
491.82174637815
 30
0.0
 11
267.4653002059876
 21
492.033428512025
 31
0.0
  0
LINE
  5
25A
330
A
100
AcDbEntity
  8
11
  6
Continuous
 62
    92
100
AcDbLine
 10
267.4653002059876
 20
492.033428512025
 30
0.0
 11
267.2999005163627
 21
492.263496587775
 31
0.0
  0
LINE
  5
25B
330
A
100
AcDbEntity
  8
11
  6
Continuous
 62
    92
100
AcDbLine
 10
267.2999005163627
 20
492.263496587775
 30
0.0
 11
267.1150493788626
 21
492.51485084965
 31
0.0
  0
LINE
  5
25C
330
A
100
AcDbEntity
  8
11
  6
Continuous
 62
    92
100
AcDbLine
 10
267.1150493788626
 20
492.51485084965
 30
0.0
 11
266.9080467223627
 21
492.790969848525
 31
0.0
  0
LINE
  5
25D
330
A
100
AcDbEntity
  8
11
  6
Continuous
 62
    92
100
AcDbLine
 10
264.9892921447376
 20
495.8897247312751
 30
0.0
 11
264.9138576134877
 21
496.04052118465
 31
0.0
  0
LINE
  5
25E
330
A
100
AcDbEntity
  8
11
  6
Continuous
 62
    92
100
AcDbLine
 10
264.9138576134877
 20
496.04052118465
 30
0.0
 11
264.8427636088628
 21
496.1807930509
 31
0.0
  0
LINE
  5
25F
330
A
100
AcDbEntity
  8
11
  6
Continuous
 62
    92
100
AcDbLine
 10
264.8427636088628
 20
496.1807930509
 30
0.0
 11
264.7755294713626
 21
496.311526918775
 31
0.0
  0
LINE
  5
260
330
A
100
AcDbEntity
  8
11
  6
Continuous
 62
    92
100
AcDbLine
 10
264.7755294713626
 20
496.311526918775
 30
0.0
 11
264.7117281051126
 21
496.4335814860249
 31
0.0
  0
LINE
  5
261
330
A
100
AcDbEntity
  8
11
  6
Continuous
 62
    92
100
AcDbLine
 10
264.7117281051126
 20
496.4335814860249
 30
0.0
 11
264.6509768391128
 21
496.5477064023999
 31
0.0
  0
LINE
  5
262
330
A
100
AcDbEntity
  8
11
  6
Continuous
 62
    92
100
AcDbLine
 10
264.6509768391128
 20
496.5477064023999
 30
0.0
 11
264.5929297233626
 21
496.6545576659
 31
0.0
  0
LINE
  5
263
330
A
100
AcDbEntity
  8
11
  6
Continuous
 62
    92
100
AcDbLine
 10
264.5929297233626
 20
496.6545576659
 30
0.0
 11
264.5372709353627
 21
496.7547102376499
 31
0.0
  0
LINE
  5
264
330
A
100
AcDbEntity
  8
11
  6
Continuous
 62
    92
100
AcDbLine
 10
264.5372709353627
 20
496.7547102376499
 30
0.0
 11
264.4837090283626
 21
496.8486683906499
 31
0.0
  0
LINE
  5
265
330
A
100
AcDbEntity
  8
11
  6
Continuous
 62
    92
100
AcDbLine
 10
264.4837090283626
 20
496.8486683906499
 30
0.0
 11
264.4319718024876
 21
496.9368741826499
 31
0.0
  0
LINE
  5
266
330
A
100
AcDbEntity
  8
11
  6
Continuous
 62
    92
100
AcDbLine
 10
264.4319718024876
 20
496.9368741826499
 30
0.0
 11
264.3818016052378
 21
497.0197143553999
 31
0.0
  0
LINE
  5
267
330
A
100
AcDbEntity
  8
11
  6
Continuous
 62
    92
100
AcDbLine
 10
262.9280395507377
 20
543.9472045897749
 30
0.0
 11
262.9280395507377
 21
498.867210388025
 31
0.0
  0
LINE
  5
268
330
A
100
AcDbEntity
  8
11
  6
Continuous
 62
    92
100
AcDbLine
 10
299.1780395507376
 20
544.5722045897749
 30
0.0
 11
299.1780395507376
 21
503.933471679525
 31
0.0
  0
LINE
  5
269
330
A
100
AcDbEntity
  8
11
  6
Continuous
 62
    92
100
AcDbLine
 10
299.1780395507376
 20
503.933471679525
 30
0.0
 11
299.1780395507376
 21
475.197204589775
 31
0.0
  0
LINE
  5
26A
330
A
100
AcDbEntity
  8
11
  6
Continuous
 62
    92
100
AcDbLine
 10
277.9280395507377
 20
475.197204589775
 30
0.0
 11
277.9280395507377
 21
505.2171936034
 31
0.0
  0
LINE
  5
26B
330
A
100
AcDbEntity
  8
11
  6
Continuous
 62
    92
100
AcDbLine
 10
320.4280395507377
 20
506.3584747312749
 30
0.0
 11
320.4280395507377
 21
475.197204589775
 31
0.0
  0
LINE
  5
26C
330
A
100
AcDbEntity
  8
11
  6
Continuous
 62
    92
100
AcDbLine
 10
266.6780395507377
 20
532.779716491525
 30
0.0
 11
277.9280395507377
 21
532.779716491525
 31
0.0
  0
LINE
  5
26D
330
A
100
AcDbEntity
  8
11
  6
Continuous
 62
    92
100
AcDbLine
 10
320.4280395507377
 20
535.904716491525
 30
0.0
 11
329.1780395507377
 21
535.904716491525
 31
0.0
  0
LINE
  5
26E
330
A
100
AcDbEntity
  8
11
  6
Continuous
 62
    92
100
AcDbLine
 10
277.9280395507377
 20
547.6972045897749
 30
0.0
 11
277.9280395507377
 21
505.2959671019
 31
0.0
  0
LINE
  5
26F
330
A
100
AcDbEntity
  8
11
  6
Continuous
 62
    92
100
AcDbLine
 10
280.5792919308627
 20
502.8009674131499
 30
0.0
 11
299.1780395507376
 21
503.9346923826499
 31
0.0
  0
LINE
  5
270
330
A
100
AcDbEntity
  8
11
  6
Continuous
 62
    92
100
AcDbLine
 10
299.1780395507376
 20
503.9346923826499
 30
0.0
 11
317.9280395507376
 21
503.9346923826499
 31
0.0
  0
LINE
  5
271
330
A
100
AcDbEntity
  8
11
  6
Continuous
 62
    92
100
AcDbLine
 10
320.4276580809877
 20
506.4334716795249
 30
0.0
 11
320.4276580809877
 21
544.5722045897749
 31
0.0
  0
LINE
  5
272
330
A
100
AcDbEntity
  8
11
  6
Continuous
 62
    92
100
AcDbLine
 10
322.9292984008626
 20
547.0725097655249
 30
0.0
 11
329.1780395507377
 21
547.0725097655249
 31
0.0
  0
LINE
  5
273
330
A
100
AcDbEntity
  8
11
  6
Continuous
 62
    92
100
AcDbLine
 10
329.1780395507377
 20
475.197204589775
 30
0.0
 11
329.1780395507377
 21
547.0722045897749
 31
0.0
  0
LINE
  5
274
330
A
100
AcDbEntity
  8
11
  6
Continuous
 62
    92
100
AcDbLine
 10
329.1780395507377
 20
547.0722045897749
 30
0.0
 11
321.4630432128627
 21
547.0722045897749
 31
0.0
  0
LINE
  5
275
330
A
100
AcDbEntity
  8
11
  6
Continuous
 62
    92
100
AcDbLine
 10
319.6955413817377
 20
546.3397064207749
 30
0.0
 11
318.6605377197377
 21
545.3047027586499
 31
0.0
  0
LINE
  5
276
330
A
100
AcDbEntity
  8
11
  6
Continuous
 62
    92
100
AcDbLine
 10
316.8930358886126
 20
544.57167053215
 30
0.0
 11
299.1780395507376
 21
544.57167053215
 31
0.0
  0
LINE
  5
277
330
A
100
AcDbEntity
  8
11
  6
Continuous
 62
    92
100
AcDbLine
 10
299.1780395507376
 20
544.57167053215
 30
0.0
 11
280.7918090819877
 21
541.8684616087751
 31
0.0
  0
LINE
  5
278
330
A
100
AcDbEntity
  8
11
  6
Continuous
 62
    92
100
AcDbLine
 10
277.9285926818626
 20
544.342216491525
 30
0.0
 11
277.9285926818626
 21
547.6972045897749
 31
0.0
  0
LINE
  5
279
330
A
100
AcDbEntity
  8
11
  6
Continuous
 62
    92
100
AcDbLine
 10
275.4280395507377
 20
550.19792938215
 30
0.0
 11
266.6780395507377
 21
550.19792938215
 31
0.0
  0
LINE
  5
27A
330
A
100
AcDbEntity
  8
11
  6
Continuous
 62
    92
100
AcDbLine
 10
266.6780395507377
 20
550.19792938215
 30
0.0
 11
266.6780395507377
 21
493.1009521482749
 31
0.0
  0
LINE
  5
27B
330
A
100
AcDbEntity
  8
11
  6
Continuous
 62
    92
100
AcDbLine
 10
266.6780395507377
 20
550.1972045897749
 30
0.0
 11
266.6780395507377
 21
544.5722045897749
 31
0.0
  0
LINE
  5
27C
330
A
100
AcDbEntity
  8
11
  6
Continuous
 62
    92
100
AcDbLine
 10
266.0530395507377
 20
543.948883056525
 30
0.0
 11
262.9280395507377
 21
543.948883056525
 31
0.0
  0
LINE
  5
27D
330
A
100
AcDbEntity
  8
11
  6
Continuous
 62
    92
100
AcDbLine
 10
262.9280395507377
 20
543.948883056525
 30
0.0
 11
262.3030395507377
 21
543.779701232775
 31
0.0
  0
LINE
  5
27E
330
A
100
AcDbEntity
  8
11
  6
Continuous
 62
    92
100
AcDbLine
 10
262.3030395507377
 20
543.779701232775
 30
0.0
 11
262.3030395507377
 21
499.4521942137749
 31
0.0
  0
LINE
  5
27F
330
A
100
AcDbEntity
  8
11
  6
Continuous
 62
    92
100
AcDbLine
 10
262.3030395507377
 20
499.4521942137749
 30
0.0
 11
262.3030395507377
 21
490.198463439775
 31
0.0
  0
LINE
  5
280
330
A
100
AcDbEntity
  8
11
  6
Continuous
 62
    92
100
AcDbLine
 10
262.3030395507377
 20
460.197204589775
 30
0.0
 11
262.3030395507377
 21
450.94221496565
 31
0.0
  0
LINE
  5
281
330
A
100
AcDbEntity
  8
11
  6
CENTERX2
 62
    92
100
AcDbLine
 10
310.1417846679877
 20
529.9984588621499
 30
0.0
 11
328.4280319213627
 21
529.9984588621499
 31
0.0
  0
LINE
  5
282
330
A
100
AcDbEntity
  8
11
  6
Continuous
 62
    92
100
AcDbLine
 10
319.1780395507377
 20
535.3109588621499
 30
0.0
 11
312.9280395507377
 21
535.3109588621499
 31
0.0
  0
LINE
  5
283
330
A
100
AcDbEntity
  8
11
  6
Continuous
 62
    92
100
AcDbLine
 10
312.9280395507377
 20
535.3109588621499
 30
0.0
 11
312.9280395507377
 21
524.6859588621499
 31
0.0
  0
LINE
  5
284
330
A
100
AcDbEntity
  8
11
  6
Continuous
 62
    92
100
AcDbLine
 10
312.9280395507377
 20
524.6859588621499
 30
0.0
 11
319.1780395507377
 21
524.6859588621499
 31
0.0
  0
LINE
  5
285
330
A
100
AcDbEntity
  8
11
  6
Continuous
 62
    92
100
AcDbLine
 10
319.1780395507377
 20
524.6859588621499
 30
0.0
 11
319.1780395507377
 21
535.3109588621499
 31
0.0
  0
LINE
  5
286
330
A
100
AcDbEntity
  8
11
  6
Continuous
 62
    92
100
AcDbLine
 10
319.1780395507377
 20
535.9359588621499
 30
0.0
 11
319.1780395507377
 21
524.06095886215
 31
0.0
  0
LINE
  5
287
330
A
100
AcDbEntity
  8
11
  6
Continuous
 62
    92
100
AcDbLine
 10
319.1780395507377
 20
524.06095886215
 30
0.0
 11
320.4280395507377
 21
524.06095886215
 31
0.0
  0
LINE
  5
288
330
A
100
AcDbEntity
  8
11
  6
Continuous
 62
    92
100
AcDbLine
 10
320.4280395507377
 20
524.06095886215
 30
0.0
 11
320.4280395507377
 21
535.9359588621499
 31
0.0
  0
LINE
  5
289
330
A
100
AcDbEntity
  8
11
  6
Continuous
 62
    92
100
AcDbLine
 10
320.4280395507377
 20
535.9359588621499
 30
0.0
 11
319.1780395507377
 21
535.9359588621499
 31
0.0
  0
LINE
  5
28A
330
A
100
AcDbEntity
  8
11
  6
Continuous
 62
    92
100
AcDbLine
 10
514.1780395507376
 20
475.197204589775
 30
0.0
 11
514.1780395507376
 21
547.0722045897749
 31
0.0
  0
LINE
  5
28B
330
A
100
AcDbEntity
  8
11
  6
Continuous
 62
    92
100
AcDbLine
 10
514.1780395507376
 20
547.0722045897749
 30
0.0
 11
329.1780395507377
 21
547.0722045897749
 31
0.0
  0
LINE
  5
28C
330
A
100
AcDbEntity
  8
11
  6
Continuous
 62
    92
100
AcDbLine
 10
329.1780395507377
 20
534.38471221915
 30
0.0
 11
514.1780395507376
 21
534.38471221915
 31
0.0
  0
LINE
  5
28D
330
A
100
AcDbEntity
  8
11
  6
Continuous
 62
    92
100
AcDbLine
 10
329.1780395507377
 20
516.697219848525
 30
0.0
 11
514.1780395507376
 21
516.697219848525
 31
0.0
  0
LINE
  5
28E
330
A
100
AcDbEntity
  8
11
  6
Continuous
 62
    92
100
AcDbLine
 10
329.1780395507377
 20
504.9471893308999
 30
0.0
 11
514.1780395507376
 21
504.9471893308999
 31
0.0
  0
LINE
  5
28F
330
A
100
AcDbEntity
  8
11
  6
Continuous
 62
    92
100
AcDbLine
 10
329.1780395507377
 20
494.4471969602751
 30
0.0
 11
514.1780395507376
 21
494.4471969602751
 31
0.0
  0
LINE
  5
290
330
A
100
AcDbEntity
  8
11
  6
Continuous
 62
    92
100
AcDbLine
 10
514.1780395507376
 20
475.197204589775
 30
0.0
 11
514.1780395507376
 21
403.3222045897749
 31
0.0
  0
LINE
  5
291
330
A
100
AcDbEntity
  8
11
  6
Continuous
 62
    92
100
AcDbLine
 10
514.1780395507376
 20
403.3222045897749
 30
0.0
 11
329.1780395507377
 21
403.3222045897749
 31
0.0
  0
LINE
  5
292
330
A
100
AcDbEntity
  8
11
  6
Continuous
 62
    92
100
AcDbLine
 10
329.1780395507377
 20
416.009696960275
 30
0.0
 11
514.1780395507376
 21
416.009696960275
 31
0.0
  0
LINE
  5
293
330
A
100
AcDbEntity
  8
11
  6
Continuous
 62
    92
100
AcDbLine
 10
329.1780395507377
 20
433.6971893308999
 30
0.0
 11
514.1780395507376
 21
433.6971893308999
 31
0.0
  0
LINE
  5
294
330
A
100
AcDbEntity
  8
11
  6
Continuous
 62
    92
100
AcDbLine
 10
329.1780395507377
 20
445.447219848525
 30
0.0
 11
514.1780395507376
 21
445.447219848525
 31
0.0
  0
LINE
  5
295
330
A
100
AcDbEntity
  8
11
  6
Continuous
 62
    92
100
AcDbLine
 10
329.1780395507377
 20
455.9472122191499
 30
0.0
 11
514.1780395507376
 21
455.9472122191499
 31
0.0
  0
LINE
  5
296
330
A
100
AcDbEntity
  8
1
  6
Continuous
 62
    92
100
AcDbLine
 10
276.3272094728752
 20
234.34600830065
 30
0.0
 11
543.8327026368751
 21
234.34600830065
 31
0.0
  0
LINE
  5
297
330
A
100
AcDbEntity
  8
1
  6
Continuous
 62
    92
100
AcDbLine
 10
543.8327026368751
 20
234.34600830065
 30
0.0
 11
594.0707092286751
 21
234.34600830065
 31
0.0
  0
LINE
  5
298
330
A
100
AcDbEntity
  8
1
  6
Continuous
 62
    92
100
AcDbLine
 10
276.3272094728752
 20
221.0130157469499
 30
0.0
 11
543.8327026368751
 21
221.0130157469499
 31
0.0
  0
LINE
  5
299
330
A
100
AcDbEntity
  8
1
  6
Continuous
 62
    92
100
AcDbLine
 10
543.8327026368751
 20
221.0130157469499
 30
0.0
 11
594.0707092286751
 21
221.0130157469499
 31
0.0
  0
LINE
  5
29A
330
A
100
AcDbEntity
  8
1
  6
Continuous
 62
    92
100
AcDbLine
 10
276.3272094728752
 20
207.67901611315
 30
0.0
 11
543.8327026368751
 21
207.67901611315
 31
0.0
  0
LINE
  5
29B
330
A
100
AcDbEntity
  8
1
  6
Continuous
 62
    92
100
AcDbLine
 10
543.8327026368751
 20
207.67901611315
 30
0.0
 11
594.0707092286751
 21
207.67901611315
 31
0.0
  0
LINE
  5
29C
330
A
100
AcDbEntity
  8
1
  6
Continuous
 62
    92
100
AcDbLine
 10
276.3272094728752
 20
194.34600830065
 30
0.0
 11
543.8327026368751
 21
194.34600830065
 31
0.0
  0
LINE
  5
29D
330
A
100
AcDbEntity
  8
1
  6
Continuous
 62
    92
100
AcDbLine
 10
543.8327026368751
 20
194.34600830065
 30
0.0
 11
594.0707092286751
 21
194.34600830065
 31
0.0
  0
LINE
  5
29E
330
A
100
AcDbEntity
  8
1
  6
Continuous
 62
    92
100
AcDbLine
 10
276.3272094728752
 20
234.34600830065
 30
0.0
 11
276.3272094728752
 21
194.34600830065
 31
0.0
  0
LINE
  5
2A0
330
A
100
AcDbEntity
  8
1
  6
Continuous
 62
    92
100
AcDbLine
 10
393.1187133790751
 20
234.34600830065
 30
0.0
 11
393.1187133790751
 21
194.34600448595
 31
0.0
  0
LINE
  5
2A1
330
A
100
AcDbEntity
  8
1
  6
Continuous
 62
    92
100
AcDbLine
 10
443.3566894532751
 20
234.34600830065
 30
0.0
 11
443.3566894532751
 21
194.34600448595
 31
0.0
  0
LINE
  5
2A2
330
A
100
AcDbEntity
  8
1
  6
Continuous
 62
    92
100
AcDbLine
 10
493.5946655274752
 20
234.34600830065
 30
0.0
 11
493.5946655274752
 21
194.34600448595
 31
0.0
  0
LINE
  5
2A3
330
A
100
AcDbEntity
  8
1
  6
Continuous
 62
    92
100
AcDbLine
 10
543.8327026368751
 20
234.34600830065
 30
0.0
 11
543.8327026368751
 21
194.34600830065
 31
0.0
  0
LINE
  5
2A4
330
A
100
AcDbEntity
  8
1
  6
Continuous
 62
    92
100
AcDbLine
 10
594.0707092286751
 20
234.34600830065
 30
0.0
 11
594.0707092286751
 21
194.34600830065
 31
0.0
  0
LINE
  5
2A5
330
A
100
AcDbEntity
  8
1
  6
Continuous
 62
    92
100
AcDbLine
 10
905.8332138061251
 20
624.4724426268748
 30
0.0
 11
905.8332138061251
 21
620.349937438875
 31
0.0
  0
LINE
  5
2A6
330
A
100
AcDbEntity
  8
1
  6
Continuous
 62
    92
100
AcDbLine
 10
905.8332138061251
 20
620.349937438875
 30
0.0
 11
909.970710754375
 21
620.349937438875
 31
0.0
  0
LINE
  5
2A7
330
A
100
AcDbEntity
  8
1
  6
Continuous
 62
    92
100
AcDbLine
 10
909.970710754375
 20
620.349937438875
 30
0.0
 11
909.970710754375
 21
624.4724426268748
 31
0.0
  0
LINE
  5
2A8
330
A
100
AcDbEntity
  8
1
  6
Continuous
 62
    92
100
AcDbLine
 10
909.970710754375
 20
624.4724426268748
 30
0.0
 11
905.8332138061251
 21
624.4724426268748
 31
0.0
  0
LINE
  5
2A9
330
A
100
AcDbEntity
  8
1
  6
Continuous
 62
    92
100
AcDbLine
 10
759.6045227049877
 20
473.1427612304
 30
0.0
 11
759.6045227049877
 21
469.0202560424
 31
0.0
  0
LINE
  5
2AA
330
A
100
AcDbEntity
  8
1
  6
Continuous
 62
    92
100
AcDbLine
 10
759.6045227049877
 20
469.0202560424
 30
0.0
 11
763.7420196532376
 21
469.0202560424
 31
0.0
  0
LINE
  5
2AB
330
A
100
AcDbEntity
  8
1
  6
Continuous
 62
    92
100
AcDbLine
 10
763.7420196532376
 20
469.0202560424
 30
0.0
 11
763.7420196532376
 21
473.1427612304
 31
0.0
  0
LINE
  5
2AC
330
A
100
AcDbEntity
  8
1
  6
Continuous
 62
    92
100
AcDbLine
 10
763.7420196532376
 20
473.1427612304
 30
0.0
 11
759.6045227049877
 21
473.1427612304
 31
0.0
  0
LINE
  5
2AD
330
A
100
AcDbEntity
  8
1
  6
Continuous
 62
    92
100
AcDbLine
 10
613.8863677978625
 20
469.4470062255249
 30
0.0
 11
613.8863677978625
 21
465.324501037525
 31
0.0
  0
LINE
  5
2AE
330
A
100
AcDbEntity
  8
1
  6
Continuous
 62
    92
100
AcDbLine
 10
613.8863677978625
 20
465.324501037525
 30
0.0
 11
618.0238647461127
 21
465.324501037525
 31
0.0
  0
LINE
  5
2AF
330
A
100
AcDbEntity
  8
1
  6
Continuous
 62
    92
100
AcDbLine
 10
618.0238647461127
 20
465.324501037525
 30
0.0
 11
618.0238647461127
 21
469.4470062255249
 31
0.0
  0
LINE
  5
2B0
330
A
100
AcDbEntity
  8
1
  6
Continuous
 62
    92
100
AcDbLine
 10
618.0238647461127
 20
469.4470062255249
 30
0.0
 11
613.8863677978625
 21
469.4470062255249
 31
0.0
  0
LINE
  5
2B1
330
A
100
AcDbEntity
  8
1
  6
Continuous
 62
    92
100
AcDbLine
 10
431.7386932372377
 20
471.0309066771499
 30
0.0
 11
431.7386932372377
 21
466.90840148915
 31
0.0
  0
LINE
  5
2B2
330
A
100
AcDbEntity
  8
1
  6
Continuous
 62
    92
100
AcDbLine
 10
431.7386932372377
 20
466.90840148915
 30
0.0
 11
435.8761901854877
 21
466.90840148915
 31
0.0
  0
LINE
  5
2B3
330
A
100
AcDbEntity
  8
1
  6
Continuous
 62
    92
100
AcDbLine
 10
435.8761901854877
 20
466.90840148915
 30
0.0
 11
435.8761901854877
 21
471.0309066771499
 31
0.0
  0
LINE
  5
2B4
330
A
100
AcDbEntity
  8
1
  6
Continuous
 62
    92
100
AcDbLine
 10
435.8761901854877
 20
471.0309066771499
 30
0.0
 11
431.7386932372377
 21
471.0309066771499
 31
0.0
  0
LINE
  5
2B5
330
A
100
AcDbEntity
  8
1
  6
Continuous
 62
    92
100
AcDbLine
 10
999.9288253783751
 20
369.155021667375
 30
0.0
 11
1002.843940734875
 21
366.239982604875
 31
0.0
  0
LINE
  5
2B6
330
A
100
AcDbEntity
  8
1
  6
Continuous
 62
    92
100
AcDbLine
 10
1002.843940734875
 20
366.239982604875
 30
0.0
 11
1005.76958465575
 21
369.165626525875
 31
0.0
  0
LINE
  5
2B7
330
A
100
AcDbEntity
  8
1
  6
Continuous
 62
    92
100
AcDbLine
 10
1005.76958465575
 20
369.165626525875
 30
0.0
 11
1002.854469299375
 21
372.080665588375
 31
0.0
  0
LINE
  5
2B8
330
A
100
AcDbEntity
  8
1
  6
Continuous
 62
    92
100
AcDbLine
 10
1002.854469299375
 20
372.080665588375
 30
0.0
 11
999.9288253783751
 21
369.155021667375
 31
0.0
  0
LINE
  5
2B9
330
A
100
AcDbEntity
  8
11
  6
Continuous
 62
    92
100
AcDbLine
 10
58.72544097910008
 20
648.5999908447499
 30
0.0
 11
177.125404358
 21
648.5999908447499
 31
0.0
  0
LINE
  5
2BA
330
A
100
AcDbEntity
  8
11
  6
Continuous
 62
    92
100
AcDbLine
 10
177.125404358
 20
648.5999908447499
 30
0.0
 11
177.125404358
 21
597.40000915525
 31
0.0
  0
LINE
  5
2BB
330
A
100
AcDbEntity
  8
11
  6
Continuous
 62
    92
100
AcDbLine
 10
177.125404358
 20
597.40000915525
 30
0.0
 11
58.72544097910008
 21
597.40000915525
 31
0.0
  0
LINE
  5
2BC
330
A
100
AcDbEntity
  8
11
  6
Continuous
 62
    92
100
AcDbLine
 10
58.72544097910008
 20
597.40000915525
 30
0.0
 11
58.72544097910008
 21
648.5999908447499
 31
0.0
  0
LINE
  5
2BD
330
A
100
AcDbEntity
  8
11
  6
Continuous
 62
    92
100
AcDbLine
 10
58.72544097910008
 20
623.0000152587499
 30
0.0
 11
177.125404358
 21
623.0000152587499
 31
0.0
  0
LINE
  5
2BE
330
A
100
AcDbEntity
  8
11
  6
Continuous
 62
    92
100
AcDbLine
 10
135.5254287721
 20
648.5999908447499
 30
0.0
 11
135.5254287721
 21
597.40000915525
 31
0.0
  0
LINE
  5
2BF
330
A
100
AcDbEntity
  8
11
  6
CENTERX2
 62
    92
100
AcDbLine
 10
900.7596435547752
 20
220.27322387685
 30
0.0
 11
942.6312255860752
 21
220.27322387685
 31
0.0
  0
LINE
  5
2C0
330
A
100
AcDbEntity
  8
11
  6
CENTERX2
 62
    92
100
AcDbLine
 10
932.9191894532751
 20
230.33662414535
 30
0.0
 11
932.9191894532751
 21
210.22052764885
 31
0.0
  0
LINE
  5
2C1
330
A
100
AcDbEntity
  8
11
  6
Continuous
 62
    92
100
AcDbLine
 10
919.7192382813751
 20
220.27322387685
 30
0.0
 11
919.7192382813751
 21
229.0732269286499
 31
0.0
  0
LINE
  5
2C2
330
A
100
AcDbEntity
  8
11
  6
Continuous
 62
    92
100
AcDbLine
 10
919.7192382813751
 20
229.0732269286499
 30
0.0
 11
902.1187133790752
 21
224.67322540275
 31
0.0
  0
LINE
  5
2C3
330
A
100
AcDbEntity
  8
11
  6
Continuous
 62
    92
100
AcDbLine
 10
902.1187133790752
 20
224.67322540275
 30
0.0
 11
902.1187133790752
 21
220.27322387685
 31
0.0
  0
LINE
  5
2C4
330
A
100
AcDbEntity
  8
11
  6
Continuous
 62
    92
100
AcDbLine
 10
919.7192382813751
 20
220.27322387685
 30
0.0
 11
919.7192382813751
 21
211.47322082505
 31
0.0
  0
LINE
  5
2C5
330
A
100
AcDbEntity
  8
11
  6
Continuous
 62
    92
100
AcDbLine
 10
919.7192382813751
 20
211.47322082505
 30
0.0
 11
902.1187133790752
 21
215.8732299803499
 31
0.0
  0
LINE
  5
2C6
330
A
100
AcDbEntity
  8
11
  6
Continuous
 62
    92
100
AcDbLine
 10
902.1187133790752
 20
215.8732299803499
 30
0.0
 11
902.1187133790752
 21
220.27322387685
 31
0.0
  0
LINE
  5
2CE
330
A
100
AcDbEntity
  8
1
  6
Continuous
 62
    92
100
AcDbLine
 10
838.5939941407
 20
660.2019958496001
 30
0.0
 11
702.4450073243
 21
660.2019958496001
 31
0.0
  0
LINE
  5
2CF
330
A
100
AcDbEntity
  8
1
  6
Continuous
 62
    92
100
AcDbLine
 10
702.4450073243
 20
660.2019958496001
 30
0.0
 11
679.0
 21
564.0
 31
0.0
  0
LINE
  5
2D0
330
A
100
AcDbEntity
  8
4
 62
    92
100
AcDbLine
 10
842.9156570435001
 20
616.735931396375
 30
0.0
 11
845.9156570435
 21
615.735931396375
 31
0.0
  0
LINE
  5
2D1
330
A
100
AcDbEntity
  8
4
 62
    92
100
AcDbLine
 10
845.9156570435
 20
615.735931396375
 30
0.0
 11
845.9156570435
 21
617.735931396375
 31
0.0
  0
LINE
  5
2D2
330
A
100
AcDbEntity
  8
4
 62
    92
100
AcDbLine
 10
845.9156570435
 20
617.735931396375
 30
0.0
 11
842.9156570435001
 21
616.735931396375
 31
0.0
  0
LINE
  5
2D3
330
A
100
AcDbEntity
  8
4
  6
Continuous
 62
    92
100
AcDbLine
 10
842.9156570435001
 20
616.735931396375
 30
0.0
 11
992.9156570435001
 21
616.735931396375
 31
0.0
  0
LINE
  5
2D4
330
A
100
AcDbEntity
  8
4
 62
    92
100
AcDbLine
 10
992.9156570435001
 20
616.735931396375
 30
0.0
 11
989.9156570435001
 21
617.735931396375
 31
0.0
  0
LINE
  5
2D5
330
A
100
AcDbEntity
  8
4
 62
    92
100
AcDbLine
 10
989.9156570435001
 20
617.735931396375
 30
0.0
 11
989.9156570435001
 21
615.735931396375
 31
0.0
  0
LINE
  5
2D6
330
A
100
AcDbEntity
  8
4
 62
    92
100
AcDbLine
 10
989.9156570435001
 20
615.735931396375
 30
0.0
 11
992.9156570435001
 21
616.735931396375
 31
0.0
  0
LINE
  5
2D7
330
A
100
AcDbEntity
  8
4
  6
Continuous
 62
    92
100
AcDbLine
 10
842.9156570435001
 20
512.7628860473748
 30
0.0
 11
842.9156570435001
 21
616.735931396375
 31
0.0
  0
LINE
  5
2D8
330
A
100
AcDbEntity
  8
4
  6
Continuous
 62
    92
100
AcDbLine
 10
992.9156570435001
 20
521.4272842406248
 30
0.0
 11
992.9156570435001
 21
616.735931396375
 31
0.0
  0
LINE
  5
2D9
330
A
100
AcDbEntity
  8
4
  6
Continuous
 62
    92
100
AcDbLine
 10
109.171409606875
 20
494.6705780028749
 30
0.0
 11
109.171409606875
 21
478.945556640625
 31
0.0
  0
LINE
  5
2DA
330
A
100
AcDbEntity
  8
4
 62
    92
100
AcDbLine
 10
109.171409606875
 20
478.945556640625
 30
0.0
 11
110.171409606875
 21
481.9455566406248
 31
0.0
  0
LINE
  5
2DB
330
A
100
AcDbEntity
  8
4
 62
    92
100
AcDbLine
 10
110.171409606875
 20
481.9455566406248
 30
0.0
 11
108.171409606875
 21
481.9455566406248
 31
0.0
  0
LINE
  5
2DC
330
A
100
AcDbEntity
  8
4
 62
    92
100
AcDbLine
 10
108.171409606875
 20
481.9455566406248
 30
0.0
 11
109.171409606875
 21
478.945556640625
 31
0.0
  0
LINE
  5
2DD
330
A
100
AcDbEntity
  8
4
  6
Continuous
 62
    92
100
AcDbLine
 10
109.171409606875
 20
478.945556640625
 30
0.0
 11
109.171409606875
 21
468.945556640625
 31
0.0
  0
LINE
  5
2DE
330
A
100
AcDbEntity
  8
4
 62
    92
100
AcDbLine
 10
109.171409606875
 20
468.945556640625
 30
0.0
 11
108.171409606875
 21
465.9455566406249
 31
0.0
  0
LINE
  5
2DF
330
A
100
AcDbEntity
  8
4
 62
    92
100
AcDbLine
 10
108.171409606875
 20
465.9455566406249
 30
0.0
 11
110.171409606875
 21
465.9455566406249
 31
0.0
  0
LINE
  5
2E0
330
A
100
AcDbEntity
  8
4
 62
    92
100
AcDbLine
 10
110.171409606875
 20
465.9455566406249
 30
0.0
 11
109.171409606875
 21
468.945556640625
 31
0.0
  0
LINE
  5
2E1
330
A
100
AcDbEntity
  8
4
  6
Continuous
 62
    92
100
AcDbLine
 10
109.171409606875
 20
468.945556640625
 30
0.0
 11
109.171409606875
 21
460.195556640625
 31
0.0
  0
LINE
  5
2E2
330
A
100
AcDbEntity
  8
4
  6
Continuous
 62
    92
100
AcDbLine
 10
78.66695404050005
 20
478.945556640625
 30
0.0
 11
109.171409606875
 21
478.945556640625
 31
0.0
  0
LINE
  5
2E3
330
A
100
AcDbEntity
  8
4
  6
Continuous
 62
    92
100
AcDbLine
 10
77.7628707885001
 20
468.945556640625
 30
0.0
 11
109.171409606875
 21
468.945556640625
 31
0.0
  0
LINE
  5
2E4
330
A
100
AcDbEntity
  8
4
 62
    92
100
AcDbLine
 10
44.91443634037511
 20
520.6003341673749
 30
0.0
 11
47.91443634025017
 21
519.6003341673749
 31
0.0
  0
LINE
  5
2E5
330
A
100
AcDbEntity
  8
4
 62
    92
100
AcDbLine
 10
47.91443634025017
 20
519.6003341673749
 30
0.0
 11
47.91443634025017
 21
521.6003341673749
 31
0.0
  0
LINE
  5
2E6
330
A
100
AcDbEntity
  8
4
 62
    92
100
AcDbLine
 10
47.91443634025017
 20
521.6003341673749
 30
0.0
 11
44.91443634037511
 21
520.6003341673749
 31
0.0
  0
LINE
  5
2E7
330
A
100
AcDbEntity
  8
4
  6
Continuous
 62
    92
100
AcDbLine
 10
44.91443634037511
 20
520.6003341673749
 30
0.0
 11
78.66695404050005
 21
520.6003341673749
 31
0.0
  0
LINE
  5
2E8
330
A
100
AcDbEntity
  8
4
 62
    92
100
AcDbLine
 10
78.66695404050005
 20
520.6003341673749
 30
0.0
 11
75.66695404050017
 21
521.6003341673749
 31
0.0
  0
LINE
  5
2E9
330
A
100
AcDbEntity
  8
4
 62
    92
100
AcDbLine
 10
75.66695404050017
 20
521.6003341673749
 30
0.0
 11
75.66695404050017
 21
519.6003341673749
 31
0.0
  0
LINE
  5
2EA
330
A
100
AcDbEntity
  8
4
 62
    92
100
AcDbLine
 10
75.66695404050017
 20
519.6003341673749
 30
0.0
 11
78.66695404050005
 21
520.6003341673749
 31
0.0
  0
LINE
  5
2EB
330
A
100
AcDbEntity
  8
4
  6
Continuous
 62
    92
100
AcDbLine
 10
44.91443634037511
 20
473.945556640625
 30
0.0
 11
44.91443634037511
 21
520.6003341673749
 31
0.0
  0
LINE
  5
2EC
330
A
100
AcDbEntity
  8
4
  6
Continuous
 62
    92
100
AcDbLine
 10
78.66695404050005
 20
471.862998962375
 30
0.0
 11
78.66695404050005
 21
520.6003341673749
 31
0.0
  0
LINE
  5
2ED
330
A
100
AcDbEntity
  8
4
 62
    92
100
AcDbLine
 10
945.194480896
 20
331.7621002196249
 30
0.0
 11
948.0228794894999
 21
333.1763708432499
 31
0.0
  0
LINE
  5
2EE
330
A
100
AcDbEntity
  8
4
 62
    92
100
AcDbLine
 10
948.0228794894999
 20
333.1763708432499
 30
0.0
 11
946.608637396625
 21
334.5905558745
 31
0.0
  0
LINE
  5
2EF
330
A
100
AcDbEntity
  8
4
 62
    92
100
AcDbLine
 10
946.608637396625
 20
334.5905558745
 30
0.0
 11
945.194480896
 21
331.7621002196249
 31
0.0
  0
LINE
  5
2F0
330
A
100
AcDbEntity
  8
4
  6
Continuous
 62
    92
100
AcDbLine
 10
945.194480896
 20
331.7621002196249
 30
0.0
 11
1060.09857940675
 21
446.6662368773749
 31
0.0
  0
LINE
  5
2F1
330
A
100
AcDbEntity
  8
4
 62
    92
100
AcDbLine
 10
1060.09857940675
 20
446.6662368773749
 30
0.0
 11
1057.27018081325
 21
445.2519662538749
 31
0.0
  0
LINE
  5
2F2
330
A
100
AcDbEntity
  8
4
 62
    92
100
AcDbLine
 10
1057.27018081325
 20
445.2519662538749
 30
0.0
 11
1058.684422906124
 21
443.8377812225
 31
0.0
  0
LINE
  5
2F3
330
A
100
AcDbEntity
  8
4
 62
    92
100
AcDbLine
 10
1058.684422906124
 20
443.8377812225
 30
0.0
 11
1060.09857940675
 21
446.6662368773749
 31
0.0
  0
LINE
  5
2F4
330
A
100
AcDbEntity
  8
4
  6
Continuous
 62
    92
100
AcDbLine
 10
860.4633407592499
 20
416.4932022093749
 30
0.0
 11
945.194480896
 21
331.7621002196249
 31
0.0
  0
LINE
  5
2F5
330
A
100
AcDbEntity
  8
4
  6
Continuous
 62
    92
100
AcDbLine
 10
975.36743927
 20
531.3973388671249
 30
0.0
 11
1024.8993759155
 21
481.865440368625
 31
0.0
  0
LINE
  5
2F6
330
A
100
AcDbEntity
  8
4
  6
Continuous
 62
    92
100
AcDbLine
 10
1034.6468429565
 20
472.117973327625
 30
0.0
 11
1060.09857940675
 21
446.6662368773749
 31
0.0
  0
LINE
  5
2F7
330
A
100
AcDbEntity
  8
4
 62
    92
100
AcDbLine
 10
950.9753494262501
 20
308.3012161255
 30
0.0
 11
953.8037549878751
 21
309.71547281325
 31
0.0
  0
LINE
  5
2F8
330
A
100
AcDbEntity
  8
4
 62
    92
100
AcDbLine
 10
953.8037549878751
 20
309.71547281325
 30
0.0
 11
952.3895198628752
 21
311.1296648126249
 31
0.0
  0
LINE
  5
2F9
330
A
100
AcDbEntity
  8
4
 62
    92
100
AcDbLine
 10
952.3895198628752
 20
311.1296648126249
 30
0.0
 11
950.9753494262501
 21
308.3012161255
 31
0.0
  0
LINE
  5
2FA
330
A
100
AcDbEntity
  8
4
  6
Continuous
 62
    92
100
AcDbLine
 10
950.9753494262501
 20
308.3012161255
 30
0.0
 11
1083.559120178249
 21
440.8837280272499
 31
0.0
  0
LINE
  5
2FB
330
A
100
AcDbEntity
  8
4
 62
    92
100
AcDbLine
 10
1083.559120178249
 20
440.8837280272499
 30
0.0
 11
1080.730714616625
 21
439.4694713395
 31
0.0
  0
LINE
  5
2FC
330
A
100
AcDbEntity
  8
4
 62
    92
100
AcDbLine
 10
1080.730714616625
 20
439.4694713395
 30
0.0
 11
1082.144949741625
 21
438.0552793401249
 31
0.0
  0
LINE
  5
2FD
330
A
100
AcDbEntity
  8
4
 62
    92
100
AcDbLine
 10
1082.144949741625
 20
438.0552793401249
 30
0.0
 11
1083.559120178249
 21
440.8837280272499
 31
0.0
  0
LINE
  5
2FE
330
A
100
AcDbEntity
  8
4
  6
Continuous
 62
    92
100
AcDbLine
 10
860.3318862915001
 20
398.9455566406249
 30
0.0
 11
950.9753494262501
 21
308.3012161255
 31
0.0
  0
LINE
  5
2FF
330
A
100
AcDbEntity
  8
4
  6
Continuous
 62
    92
100
AcDbLine
 10
992.9156570435001
 20
531.528068542375
 30
0.0
 11
1083.559120178249
 21
440.8837280272499
 31
0.0
  0
LINE
  5
300
330
A
100
AcDbEntity
  8
4
  6
Continuous
 62
    92
100
AcDbLine
 10
834.8960189820001
 20
376.5334854124999
 30
0.0
 11
854.83979034425
 21
376.5334854124999
 31
0.0
  0
LINE
  5
301
330
A
100
AcDbEntity
  8
4
 62
    92
100
AcDbLine
 10
854.83979034425
 20
376.5334854124999
 30
0.0
 11
851.8397903442501
 21
377.5334854124999
 31
0.0
  0
LINE
  5
302
330
A
100
AcDbEntity
  8
4
 62
    92
100
AcDbLine
 10
851.8397903442501
 20
377.5334854124999
 30
0.0
 11
851.8397903442501
 21
375.5334854125
 31
0.0
  0
LINE
  5
303
330
A
100
AcDbEntity
  8
4
 62
    92
100
AcDbLine
 10
851.8397903442501
 20
375.5334854125
 30
0.0
 11
854.83979034425
 21
376.5334854124999
 31
0.0
  0
LINE
  5
304
330
A
100
AcDbEntity
  8
4
  6
Continuous
 62
    92
100
AcDbLine
 10
854.83979034425
 20
376.5334854124999
 30
0.0
 11
866.03401947025
 21
376.5334854124999
 31
0.0
  0
LINE
  5
305
330
A
100
AcDbEntity
  8
4
 62
    92
100
AcDbLine
 10
866.03401947025
 20
376.5334854124999
 30
0.0
 11
869.03401947025
 21
375.5334854125
 31
0.0
  0
LINE
  5
306
330
A
100
AcDbEntity
  8
4
 62
    92
100
AcDbLine
 10
869.03401947025
 20
375.5334854125
 30
0.0
 11
869.03401947025
 21
377.5334854124999
 31
0.0
  0
LINE
  5
307
330
A
100
AcDbEntity
  8
4
 62
    92
100
AcDbLine
 10
869.03401947025
 20
377.5334854124999
 30
0.0
 11
866.03401947025
 21
376.5334854124999
 31
0.0
  0
LINE
  5
308
330
A
100
AcDbEntity
  8
4
  6
Continuous
 62
    92
100
AcDbLine
 10
866.03401947025
 20
376.5334854124999
 30
0.0
 11
874.7840194702501
 21
376.5334854124999
 31
0.0
  0
LINE
  5
309
330
A
100
AcDbEntity
  8
4
  6
Continuous
 62
    92
100
AcDbLine
 10
854.83979034425
 20
416.3568649291249
 30
0.0
 11
854.83979034425
 21
376.5334854124999
 31
0.0
  0
LINE
  5
30A
330
A
100
AcDbEntity
  8
4
  6
Continuous
 62
    92
100
AcDbLine
 10
866.03401947025
 20
417.271057128875
 30
0.0
 11
866.03401947025
 21
376.5334854124999
 31
0.0
  0
LINE
  5
30B
330
A
100
AcDbEntity
  8
4
 62
    92
100
AcDbLine
 10
1028.864906311
 20
585.8205566406249
 30
0.0
 11
1027.864906311
 21
582.820556640625
 31
0.0
  0
LINE
  5
30C
330
A
100
AcDbEntity
  8
4
 62
    92
100
AcDbLine
 10
1027.864906311
 20
582.820556640625
 30
0.0
 11
1029.864906311
 21
582.820556640625
 31
0.0
  0
LINE
  5
30D
330
A
100
AcDbEntity
  8
4
 62
    92
100
AcDbLine
 10
1029.864906311
 20
582.820556640625
 30
0.0
 11
1028.864906311
 21
585.8205566406249
 31
0.0
  0
LINE
  5
30E
330
A
100
AcDbEntity
  8
4
  6
Continuous
 62
    92
100
AcDbLine
 10
1028.864906311
 20
585.8205566406249
 30
0.0
 11
1028.864906311
 21
473.945556640625
 31
0.0
  0
LINE
  5
30F
330
A
100
AcDbEntity
  8
4
 62
    92
100
AcDbLine
 10
1028.864906311
 20
473.945556640625
 30
0.0
 11
1029.864906311
 21
476.9455566406249
 31
0.0
  0
LINE
  5
310
330
A
100
AcDbEntity
  8
4
 62
    92
100
AcDbLine
 10
1029.864906311
 20
476.9455566406249
 30
0.0
 11
1027.864906311
 21
476.9455566406249
 31
0.0
  0
LINE
  5
311
330
A
100
AcDbEntity
  8
4
 62
    92
100
AcDbLine
 10
1027.864906311
 20
476.9455566406249
 30
0.0
 11
1028.864906311
 21
473.945556640625
 31
0.0
  0
LINE
  5
312
330
A
100
AcDbEntity
  8
4
  6
Continuous
 62
    92
100
AcDbLine
 10
917.9156570435001
 20
585.8205566406249
 30
0.0
 11
1028.864906311
 21
585.8205566406249
 31
0.0
  0
LINE
  5
313
330
A
100
AcDbEntity
  8
4
  6
Continuous
 62
    92
100
AcDbLine
 10
997.525642395
 20
473.945556640625
 30
0.0
 11
1028.864906311
 21
473.945556640625
 31
0.0
  0
LINE
  5
314
330
A
100
AcDbEntity
  8
11
  6
Continuous
 62
    92
100
AcDbLine
 10
911.6656570435001
 20
585.8205566406249
 30
0.0
 11
911.6656570435001
 21
585.3130493163749
 31
0.0
  0
LINE
  5
315
330
A
100
AcDbEntity
  8
11
  6
Continuous
 62
    92
100
AcDbLine
 10
924.16458892825
 20
585.3130493163749
 30
0.0
 11
924.16458892825
 21
585.8205566406249
 31
0.0
  0
LINE
  5
316
330
A
100
AcDbEntity
  8
11
  6
Continuous
 62
    92
100
AcDbLine
 10
924.16458892825
 20
585.8205566406249
 30
0.0
 11
911.6656570435001
 21
585.8205566406249
 31
0.0
  0
LINE
  5
317
330
A
100
AcDbEntity
  8
11
  6
Continuous
 62
    92
100
AcDbLine
 10
902.9156570435
 20
548.8218078612499
 30
0.0
 11
902.9156570435
 21
565.820556640625
 31
0.0
  0
LINE
  5
318
330
A
100
AcDbEntity
  8
11
  6
Continuous
 62
    92
100
AcDbLine
 10
932.9156570435001
 20
548.8218078612499
 30
0.0
 11
932.9156570435001
 21
565.8218154906249
 31
0.0
  0
LINE
  5
319
330
A
100
AcDbEntity
  8
11
  6
CENTERX2
 62
    92
100
AcDbLine
 10
917.9156570435001
 20
587.8280410766249
 30
0.0
 11
917.9156570435001
 21
544.090553283625
 31
0.0
  0
LINE
  5
31A
330
A
100
AcDbEntity
  8
11
  6
CENTERX2
 62
    92
100
AcDbLine
 10
934.7906570435
 20
570.1955566406249
 30
0.0
 11
901.039360046375
 21
570.1955566406249
 31
0.0
  0
LINE
  5
31B
330
A
100
AcDbEntity
  8
11
  6
Continuous
 62
    92
100
AcDbLine
 10
932.058189392125
 20
478.9457473755
 30
0.0
 11
936.6660385132501
 21
478.9457473755
 31
0.0
  0
LINE
  5
31C
330
A
100
AcDbEntity
  8
11
  6
Continuous
 62
    92
100
AcDbLine
 10
936.6660385132501
 20
478.9457473755
 30
0.0
 11
936.6660385132501
 21
468.9454421996249
 31
0.0
  0
LINE
  5
31D
330
A
100
AcDbEntity
  8
11
  6
Continuous
 62
    92
100
AcDbLine
 10
936.6660385132501
 20
468.9454421996249
 30
0.0
 11
932.058189392125
 21
468.9454421996249
 31
0.0
  0
LINE
  5
31E
330
A
100
AcDbEntity
  8
11
  6
Continuous
 62
    92
100
AcDbLine
 10
910.4152755737501
 20
516.5368041991248
 30
0.0
 11
910.4152755737501
 21
530.569320678625
 31
0.0
  0
LINE
  5
31F
330
A
100
AcDbEntity
  8
11
  6
Continuous
 62
    92
100
AcDbLine
 10
925.414894104
 20
530.569320678625
 30
0.0
 11
925.414894104
 21
516.5368041991248
 31
0.0
  0
LINE
  5
320
330
A
100
AcDbEntity
  8
11
  6
CENTERX2
 62
    92
100
AcDbLine
 10
973.6056594848751
 20
441.7918167113749
 30
0.0
 11
949.8143844604999
 21
455.5280456542499
 31
0.0
  0
LINE
  5
321
330
A
100
AcDbEntity
  8
11
  6
Continuous
 62
    92
100
AcDbLine
 10
958.5506515502501
 20
459.1443023681249
 30
0.0
 11
970.7031326293751
 21
452.128082275375
 31
0.0
  0
LINE
  5
322
330
A
100
AcDbEntity
  8
11
  6
Continuous
 62
    92
100
AcDbLine
 10
963.203132629375
 20
439.13930511475
 30
0.0
 11
951.05065155025
 21
446.1555633545
 31
0.0
  0
LINE
  5
323
330
A
100
AcDbEntity
  8
11
  6
CENTERX2
 62
    92
100
AcDbLine
 10
863.8519363403752
 20
442.7317962646249
 30
0.0
 11
886.009452819875
 21
455.524307250875
 31
0.0
  0
LINE
  5
324
330
A
100
AcDbEntity
  8
11
  6
Continuous
 62
    92
100
AcDbLine
 10
884.7806625366251
 20
446.1543045043749
 30
0.0
 11
872.6268844605
 21
439.138046264625
 31
0.0
  0
LINE
  5
325
330
A
100
AcDbEntity
  8
11
  6
Continuous
 62
    92
100
AcDbLine
 10
865.1281814575
 20
452.12682342525
 30
0.0
 11
877.280662536625
 21
459.1430816649999
 31
0.0
  0
LINE
  5
326
330
A
100
AcDbEntity
  8
11
  6
Continuous
 62
    92
100
AcDbLine
 10
899.16458892825
 20
420.51557159425
 30
0.0
 11
899.16458892825
 21
435.7030639647499
 31
0.0
  0
LINE
  5
327
330
A
100
AcDbEntity
  8
11
  6
Continuous
 62
    92
100
AcDbLine
 10
936.664970398
 20
435.7030639647499
 30
0.0
 11
936.664970398
 21
420.51557159425
 31
0.0
  0
LINE
  5
328
330
A
100
AcDbEntity
  8
11
  6
Continuous
 62
    92
100
AcDbLine
 10
905.4157333373749
 20
417.3218307495
 30
0.0
 11
905.4157333373749
 21
431.353050231875
 31
0.0
  0
LINE
  5
329
330
A
100
AcDbEntity
  8
11
  6
Continuous
 62
    92
100
AcDbLine
 10
930.416038513125
 20
431.353050231875
 30
0.0
 11
930.4160385132501
 21
417.3218307495
 31
0.0
  0
LINE
  5
32A
330
A
100
AcDbEntity
  8
11
  6
CENTERX2
 62
    92
100
AcDbLine
 10
948.548133850125
 20
491.631828308
 30
0.0
 11
984.2569046020001
 21
512.248054504375
 31
0.0
  0
LINE
  5
32B
330
A
100
AcDbEntity
  8
11
  6
Continuous
 62
    92
100
AcDbLine
 10
973.5619430542501
 20
484.4205627441249
 30
0.0
 11
960.40940094
 21
476.8267974852499
 31
0.0
  0
LINE
  5
32C
330
A
100
AcDbEntity
  8
11
  6
Continuous
 62
    92
100
AcDbLine
 10
941.65940094
 20
509.3030700682501
 30
0.0
 11
954.8119430542501
 21
516.8967971801248
 31
0.0
  0
LINE
  5
32D
330
A
100
AcDbEntity
  8
11
  6
Continuous
 62
    92
100
AcDbLine
 10
973.203132629375
 20
491.4318237303749
 30
0.0
 11
961.0519485473751
 21
484.4155654906249
 31
0.0
  0
LINE
  5
32E
330
A
100
AcDbEntity
  8
11
  6
Continuous
 62
    92
100
AcDbLine
 10
948.5519485473751
 20
506.0667953491249
 30
0.0
 11
960.703132629375
 21
513.0818328857499
 31
0.0
  0
LINE
  5
32F
330
A
100
AcDbEntity
  8
11
  6
CENTERX2
 62
    92
100
AcDbLine
 10
885.98313140875
 20
492.3817977905
 30
0.0
 11
879.3381576538751
 21
496.2180480956249
 31
0.0
  0
LINE
  5
330
330
A
100
AcDbEntity
  8
11
  6
CENTERX2
 62
    92
100
AcDbLine
 10
868.560646057125
 20
502.4393234252499
 30
0.0
 11
852.3769454956251
 21
511.783081054625
 31
0.0
  0
LINE
  5
331
330
A
100
AcDbEntity
  8
11
  6
Continuous
 62
    92
100
AcDbLine
 10
881.019447326625
 20
516.8993148803749
 30
0.0
 11
894.171913147
 21
509.3055496215
 31
0.0
  0
LINE
  5
332
330
A
100
AcDbEntity
  8
11
  6
Continuous
 62
    92
100
AcDbLine
 10
875.4219076043751
 20
476.8293028435
 30
0.0
 11
862.269447326625
 21
484.4230804442499
 31
0.0
  0
LINE
  5
333
330
A
100
AcDbEntity
  8
11
  6
Continuous
 62
    92
100
AcDbLine
 10
875.1268844605
 20
513.0818328857499
 30
0.0
 11
887.2794418335001
 21
506.0667953491249
 31
0.0
  0
LINE
  5
334
330
A
100
AcDbEntity
  8
11
  6
Continuous
 62
    92
100
AcDbLine
 10
874.7794418335001
 20
484.4155654906249
 30
0.0
 11
862.6268844605
 21
491.4318237303749
 31
0.0
  0
LINE
  5
335
330
A
100
AcDbEntity
  8
11
  6
Continuous
 62
    92
100
AcDbLine
 10
855.3418807983751
 20
445.463081359875
 30
0.0
 11
872.794150388375
 21
421.9901944154999
 31
0.0
  0
LINE
  5
336
330
A
100
AcDbEntity
  8
11
  6
Continuous
 62
    92
100
AcDbLine
 10
872.794150388375
 20
421.9901944154999
 30
0.0
 11
898.4453049035002
 21
407.8788906761249
 31
0.0
  0
LINE
  5
337
330
A
100
AcDbEntity
  8
11
  6
Continuous
 62
    92
100
AcDbLine
 10
898.4453049035002
 20
407.8788906761249
 30
0.0
 11
927.667191599875
 21
405.700386426625
 31
0.0
  0
LINE
  5
338
330
A
100
AcDbEntity
  8
11
  6
Continuous
 62
    92
100
AcDbLine
 10
927.667191599875
 20
405.700386426625
 30
0.0
 11
955.1769361567499
 21
415.8706286208749
 31
0.0
  0
LINE
  5
339
330
A
100
AcDbEntity
  8
11
  6
Continuous
 62
    92
100
AcDbLine
 10
955.1769361567499
 20
415.8706286208749
 30
0.0
 11
975.9920064230001
 21
436.5710986166249
 31
0.0
  0
LINE
  5
33A
330
A
100
AcDbEntity
  8
11
  6
Continuous
 62
    92
100
AcDbLine
 10
975.9920064230001
 20
436.5710986166249
 30
0.0
 11
986.3326405545
 21
464.07393551925
 31
0.0
  0
LINE
  5
33B
330
A
100
AcDbEntity
  8
11
  6
Continuous
 62
    92
100
AcDbLine
 10
986.3326405545
 20
464.07393551925
 30
0.0
 11
984.308193817125
 21
493.4132592741249
 31
0.0
  0
LINE
  5
33C
330
A
100
AcDbEntity
  8
11
  6
Continuous
 62
    92
100
AcDbLine
 10
984.308193817125
 20
493.4132592741249
 30
0.0
 11
970.2627760981249
 21
519.2818019942499
 31
0.0
  0
LINE
  5
33D
330
A
100
AcDbEntity
  8
11
  6
Continuous
 62
    92
100
AcDbLine
 10
970.2627760981249
 20
519.2818019942499
 30
0.0
 11
946.7169999100001
 21
536.99095360575
 31
0.0
  0
LINE
  5
33E
330
A
100
AcDbEntity
  8
11
  6
Continuous
 62
    92
100
AcDbLine
 10
946.7169999100001
 20
536.99095360575
 30
0.0
 11
917.9156570435001
 21
543.3205566406249
 31
0.0
  0
LINE
  5
33F
330
A
100
AcDbEntity
  8
11
  6
Continuous
 62
    92
100
AcDbLine
 10
917.9156570435001
 20
543.3205566406249
 30
0.0
 11
904.1592771344999
 21
541.8793585451249
 31
0.0
  0
LINE
  5
340
330
A
100
AcDbEntity
  8
11
  6
Continuous
 62
    92
100
AcDbLine
 10
904.1592771344999
 20
541.8793585451249
 30
0.0
 11
890.974472639
 21
537.740294660125
 31
0.0
  0
LINE
  5
341
330
A
100
AcDbEntity
  8
11
  6
Continuous
 62
    92
100
AcDbLine
 10
890.974472639
 20
537.740294660125
 30
0.0
 11
878.884346437375
 21
531.0727583699999
 31
0.0
  0
LINE
  5
342
330
A
100
AcDbEntity
  8
11
  6
Continuous
 62
    92
100
AcDbLine
 10
878.884346437375
 20
531.0727583699999
 30
0.0
 11
868.3675446193751
 21
522.1463563386248
 31
0.0
  0
LINE
  5
343
330
A
100
AcDbEntity
  8
11
  6
Continuous
 62
    92
100
AcDbLine
 10
868.3675446193751
 20
522.1463563386248
 30
0.0
 11
859.8393043965
 21
511.3200095873748
 31
0.0
  0
LINE
  5
344
330
A
100
AcDbEntity
  8
11
  6
Continuous
 62
    92
100
AcDbLine
 10
859.8393043965
 20
511.3200095873748
 30
0.0
 11
853.6350601595001
 21
499.0275232677499
 31
0.0
  0
LINE
  5
345
330
A
100
AcDbEntity
  8
11
  6
Continuous
 62
    92
100
AcDbLine
 10
853.6350601595001
 20
499.0275232677499
 30
0.0
 11
849.997251860625
 21
485.7602052243749
 31
0.0
  0
LINE
  5
346
330
A
100
AcDbEntity
  8
11
  6
Continuous
 62
    92
100
AcDbLine
 10
849.997251860625
 20
485.7602052243749
 30
0.0
 11
849.0658544358749
 21
472.0472297426249
 31
0.0
  0
LINE
  5
347
330
A
100
AcDbEntity
  8
11
  6
Continuous
 62
    92
100
AcDbLine
 10
849.0658544358749
 20
472.0472297426249
 30
0.0
 11
850.8729980951249
 21
458.4345312747499
 31
0.0
  0
LINE
  5
348
330
A
100
AcDbEntity
  8
11
  6
Continuous
 62
    92
100
AcDbLine
 10
850.8729980951249
 20
458.4345312747499
 30
0.0
 11
855.3418807983751
 21
445.463081359875
 31
0.0
  0
LINE
  5
349
330
A
100
AcDbEntity
  8
11
  6
CENTERX2
 62
    92
100
AcDbLine
 10
917.9156570435001
 20
473.945556640625
 30
0.0
 11
958.9569168091252
 21
514.98681640625
 31
0.0
  0
LINE
  5
34A
330
A
100
AcDbEntity
  8
11
  6
CENTERX2
 62
    92
100
AcDbLine
 10
958.9569168091252
 20
514.98681640625
 30
0.0
 11
986.7794113158751
 21
542.8093109129999
 31
0.0
  0
LINE
  5
34B
330
A
100
AcDbEntity
  8
11
  6
CENTERX2
 62
    92
100
AcDbLine
 10
987.14440155025
 20
404.7155532836249
 30
0.0
 11
957.7769546508751
 21
434.0830764769999
 31
0.0
  0
LINE
  5
34C
330
A
100
AcDbEntity
  8
11
  6
CENTERX2
 62
    92
100
AcDbLine
 10
957.7769546508751
 20
434.0830764769999
 30
0.0
 11
917.9156570435001
 21
473.945556640625
 31
0.0
  0
LINE
  5
34D
330
A
100
AcDbEntity
  8
11
  6
CENTERX2
 62
    92
100
AcDbLine
 10
848.24944305425
 20
404.2793045043749
 30
0.0
 11
876.4581375122501
 21
432.4880752562499
 31
0.0
  0
LINE
  5
34E
330
A
100
AcDbEntity
  8
11
  6
CENTERX2
 62
    92
100
AcDbLine
 10
876.4581375122501
 20
432.4880752562499
 30
0.0
 11
917.9156570435001
 21
473.945556640625
 31
0.0
  0
LINE
  5
34F
330
A
100
AcDbEntity
  8
11
  6
CENTERX2
 62
    92
100
AcDbLine
 10
917.9156570435001
 20
473.945556640625
 30
0.0
 11
875.8569412231251
 21
516.0030517577499
 31
0.0
  0
LINE
  5
350
330
A
100
AcDbEntity
  8
11
  6
CENTERX2
 62
    92
100
AcDbLine
 10
875.8569412231251
 20
516.0030517577499
 30
0.0
 11
849.00063323975
 21
542.8593215942498
 31
0.0
  0
LINE
  5
351
330
A
100
AcDbEntity
  8
11
  6
CENTERX2
 62
    92
100
AcDbLine
 10
917.9156570435001
 20
389.5580825804999
 30
0.0
 11
917.9156570435001
 21
418.3218154906249
 31
0.0
  0
LINE
  5
352
330
A
100
AcDbEntity
  8
11
  6
CENTERX2
 62
    92
100
AcDbLine
 10
917.9156570435001
 20
429.47057342525
 30
0.0
 11
917.9156570435001
 21
552.3442993163748
 31
0.0
  0
LINE
  5
353
330
A
100
AcDbEntity
  8
11
  6
CENTERX2
 62
    92
100
AcDbLine
 10
999.3669204712501
 20
473.945556640625
 30
0.0
 11
838.21442413325
 21
473.945556640625
 31
0.0
  0
LINE
  5
354
330
A
100
AcDbEntity
  8
11
  6
Continuous
 62
    92
100
AcDbLine
 10
842.9156570435001
 20
450.589309692375
 30
0.0
 11
842.9156570435001
 21
531.528068542375
 31
0.0
  0
LINE
  5
355
330
A
100
AcDbEntity
  8
11
  6
Continuous
 62
    92
100
AcDbLine
 10
842.9156570435001
 20
531.528068542375
 30
0.0
 11
860.3318862915001
 21
548.945556640625
 31
0.0
  0
LINE
  5
356
330
A
100
AcDbEntity
  8
11
  6
Continuous
 62
    92
100
AcDbLine
 10
860.3318862915001
 20
548.945556640625
 30
0.0
 11
975.49691009525
 21
548.945556640625
 31
0.0
  0
LINE
  5
357
330
A
100
AcDbEntity
  8
11
  6
Continuous
 62
    92
100
AcDbLine
 10
975.49691009525
 20
548.945556640625
 30
0.0
 11
992.9156570435001
 21
531.528068542375
 31
0.0
  0
LINE
  5
358
330
A
100
AcDbEntity
  8
11
  6
Continuous
 62
    92
100
AcDbLine
 10
992.9156570435001
 20
531.528068542375
 30
0.0
 11
992.9156570435001
 21
416.3630828857499
 31
0.0
  0
LINE
  5
359
330
A
100
AcDbEntity
  8
11
  6
Continuous
 62
    92
100
AcDbLine
 10
992.9156570435001
 20
416.3630828857499
 30
0.0
 11
975.49691009525
 21
398.9455566406249
 31
0.0
  0
LINE
  5
35A
330
A
100
AcDbEntity
  8
11
  6
Continuous
 62
    92
100
AcDbLine
 10
975.49691009525
 20
398.9455566406249
 30
0.0
 11
901.2931900025
 21
398.9455566406249
 31
0.0
  0
LINE
  5
35B
330
A
100
AcDbEntity
  8
11
  6
Continuous
 62
    92
100
AcDbLine
 10
901.2931900025
 20
398.9455566406249
 30
0.0
 11
860.3318862915001
 21
398.9455566406249
 31
0.0
  0
LINE
  5
35C
330
A
100
AcDbEntity
  8
11
  6
Continuous
 62
    92
100
AcDbLine
 10
860.3318862915001
 20
398.9455566406249
 30
0.0
 11
842.9156570435001
 21
416.361824035625
 31
0.0
  0
LINE
  5
35D
330
A
100
AcDbEntity
  8
11
  6
Continuous
 62
    92
100
AcDbLine
 10
842.9156570435001
 20
416.361824035625
 30
0.0
 11
842.9156570435001
 21
450.589309692375
 31
0.0
  0
LINE
  5
35E
330
A
100
AcDbEntity
  8
11
  6
CENTERX2
 62
    92
100
AcDbLine
 10
39.37847137450012
 20
473.945556640625
 30
0.0
 11
82.40894317625009
 21
473.945556640625
 31
0.0
  0
LINE
  5
35F
330
A
100
AcDbEntity
  8
11
  6
CENTERX2
 62
    92
100
AcDbLine
 10
59.91565704350012
 20
497.2319564818749
 30
0.0
 11
59.91565704350012
 21
453.223548889125
 31
0.0
  0
LINE
  5
360
330
A
100
AcDbEntity
  8
11
  6
Continuous
 62
    92
100
AcDbLine
 10
74.05818939212508
 20
478.945556640625
 30
0.0
 11
78.66695404050005
 21
478.945556640625
 31
0.0
  0
LINE
  5
361
330
A
100
AcDbEntity
  8
11
  6
Continuous
 62
    92
100
AcDbLine
 10
78.66695404050005
 20
478.945556640625
 30
0.0
 11
78.66695404050005
 21
468.945556640625
 31
0.0
  0
LINE
  5
362
330
A
100
AcDbEntity
  8
11
  6
Continuous
 62
    92
100
AcDbLine
 10
78.66695404050005
 20
468.945556640625
 30
0.0
 11
74.05818939212508
 21
468.945556640625
 31
0.0
  0
LINE
  5
367
330
A
100
AcDbEntity
  8
1
  6
Continuous
 62
    92
100
AcDbLine
 10
187.1254081727
 20
755.82003784165
 30
0.0
 11
187.1254081727
 21
720.62002563465
 31
0.0
  0
LINE
  5
368
330
A
100
AcDbEntity
  8
1
  6
Continuous
 62
    92
100
AcDbLine
 10
187.1254081727
 20
755.82003784165
 30
0.0
 11
55.12540435800008
 21
755.82003784165
 31
0.0
  0
LINE
  5
369
330
A
100
AcDbEntity
  8
1
  6
Continuous
 62
    92
100
AcDbLine
 10
55.12540435800008
 20
755.82003784165
 30
0.0
 11
55.12540435800008
 21
738.2200622557499
 31
0.0
  0
LINE
  5
36A
330
A
100
AcDbEntity
  8
1
  6
Continuous
 62
    92
100
AcDbLine
 10
55.12540435800008
 20
738.2200622557499
 30
0.0
 11
187.1254081727
 21
738.2200622557499
 31
0.0
  0
LINE
  5
36B
330
A
100
AcDbEntity
  8
1
  6
Continuous
 62
    92
100
AcDbLine
 10
55.12540435800008
 20
738.2200622557499
 30
0.0
 11
55.12540435800008
 21
720.62002563465
 31
0.0
  0
LINE
  5
36C
330
A
100
AcDbEntity
  8
1
  6
Continuous
 62
    92
100
AcDbLine
 10
55.12540435800008
 20
720.62002563465
 30
0.0
 11
187.1254081727
 21
720.62002563465
 31
0.0
  0
LINE
  5
372
330
A
100
AcDbEntity
  8
1
  6
Continuous
 62
    92
100
AcDbLine
 10
58.7254409791002
 20
648.59999084475
 30
0.0
 11
177.125404358
 21
648.5999908447499
 31
0.0
  0
ARC
  5
37C
330
A
100
AcDbEntity
  8
11
  6
Continuous
 62
    92
100
AcDbCircle
 10
614.1780776977376
 20
508.948501586775
 30
0.0
 40
2.499962189499999
100
AcDbArc
 50
359.9702745658
 51
90.000885
  0
ARC
  5
37D
330
A
100
AcDbEntity
  8
11
  6
Continuous
 62
    92
100
AcDbCircle
 10
547.9259796142376
 20
513.947204589775
 30
0.0
 40
2.498741998999999
100
AcDbArc
 50
179.9527659904999
 51
270.0472340411
  0
ARC
  5
37E
330
A
100
AcDbEntity
  8
11
  6
Continuous
 62
    92
100
AcDbCircle
 10
544.1780395507377
 20
545.8233108519
 30
0.0
 40
1.249199403375
100
AcDbArc
 50
0.0
 51
90.05073550000002
  0
ARC
  5
37F
330
A
100
AcDbEntity
  8
11
  6
Continuous
 62
    92
100
AcDbCircle
 10
544.1772003173626
 20
534.654716491525
 30
0.0
 40
1.250038146999999
100
AcDbArc
 50
0.0
 51
89.96153259999998
  0
ARC
  5
380
330
A
100
AcDbEntity
  8
11
  6
Continuous
 62
    92
100
AcDbCircle
 10
546.6780395507377
 20
533.9478530882749
 30
0.0
 40
1.2508012545
100
AcDbArc
 50
180.0
 51
269.9702758999999
  0
ARC
  5
381
330
A
100
AcDbEntity
  8
11
  6
Continuous
 62
    92
100
AcDbCircle
 10
619.1770858763627
 20
535.1972045897749
 30
0.0
 40
2.500000181874999
100
AcDbArc
 50
179.9781433956999
 51
270.0218566043
  0
ARC
  5
382
330
A
100
AcDbEntity
  8
11
  6
Continuous
 62
    92
100
AcDbCircle
 10
614.1780776977376
 20
544.573463439775
 30
0.0
 40
2.49900849575
100
AcDbArc
 50
359.9711378329
 51
90.000885
  0
ARC
  5
383
330
A
100
AcDbEntity
  8
11
  6
Continuous
 62
    92
100
AcDbCircle
 10
639.4274063109877
 20
505.299705505275
 30
0.0
 40
1.500015399
100
AcDbArc
 50
179.9752294655
 51
270.0247705658999
  0
ARC
  5
384
330
A
100
AcDbEntity
  8
11
  6
Continuous
 62
    92
100
AcDbCircle
 10
700.4246063232377
 20
524.160217285025
 30
0.0
 40
2.503434013375
100
AcDbArc
 50
0.0453993917
 51
44.9765434
  0
ARC
  5
385
330
A
100
AcDbEntity
  8
11
  6
Continuous
 62
    92
100
AcDbCircle
 10
695.6418151854876
 20
528.9425125121499
 30
0.0
 40
2.503807231624999
100
AcDbArc
 50
45.0573196
 51
90.0011444
  0
ARC
  5
386
330
A
100
AcDbEntity
  8
11
  6
Continuous
 62
    92
100
AcDbCircle
 10
614.1780395507376
 20
441.447052001775
 30
0.0
 40
2.499961853
100
AcDbArc
 50
270.0
 51
0.0
  0
ARC
  5
387
330
A
100
AcDbEntity
  8
11
  6
Continuous
 62
    92
100
AcDbCircle
 10
547.9270858763627
 20
436.447204589775
 30
0.0
 40
2.499885740999999
100
AcDbArc
 50
90.0
 51
180.0218506024
  0
ARC
  5
388
330
A
100
AcDbEntity
  8
11
  6
Continuous
 62
    92
100
AcDbCircle
 10
544.1780395507377
 20
404.572204589775
 30
0.0
 40
1.249160766624999
100
AcDbArc
 50
270.0
 51
0.0
  0
ARC
  5
389
330
A
100
AcDbEntity
  8
11
  6
Continuous
 62
    92
100
AcDbCircle
 10
544.1772384643626
 20
415.7396926879
 30
0.0
 40
1.25000025675
100
AcDbArc
 50
270.0
 51
359.9632873964
  0
ARC
  5
38A
330
A
100
AcDbEntity
  8
11
  6
Continuous
 62
    92
100
AcDbCircle
 10
546.6780395507377
 20
416.447776794275
 30
0.0
 40
1.250762939499999
100
AcDbArc
 50
90.0
 51
180.0262146125
  0
ARC
  5
38B
330
A
100
AcDbEntity
  8
11
  6
Continuous
 62
    92
100
AcDbCircle
 10
619.1770858763627
 20
415.197204589775
 30
0.0
 40
2.500000181874999
100
AcDbArc
 50
90.0
 51
180.0218506017999
  0
ARC
  5
38C
330
A
100
AcDbEntity
  8
11
  6
Continuous
 62
    92
100
AcDbCircle
 10
614.1780395507376
 20
405.8220901487749
 30
0.0
 40
2.499046328249999
100
AcDbArc
 50
270.0
 51
0.0
  0
ARC
  5
38D
330
A
100
AcDbEntity
  8
11
  6
Continuous
 62
    92
100
AcDbCircle
 10
639.4273681639877
 20
445.0947036741499
 30
0.0
 40
1.500015416
100
AcDbArc
 50
90.0
 51
180.0262299
  0
ARC
  5
38E
330
A
100
AcDbEntity
  8
11
  6
Continuous
 62
    92
100
AcDbCircle
 10
700.4258270263627
 20
426.233657836775
 30
0.0
 40
2.5022146215
100
AcDbArc
 50
315.0112
 51
359.9656676969
  0
ARC
  5
38F
330
A
100
AcDbEntity
  8
11
  6
Continuous
 62
    92
100
AcDbCircle
 10
695.6418151854876
 20
421.4511337279
 30
0.0
 40
2.503242492625
100
AcDbArc
 50
270.0
 51
314.9561768
  0
ARC
  5
390
330
A
100
AcDbEntity
  8
1
  6
Continuous
 62
    92
100
AcDbCircle
 10
332.3030204772377
 20
489.572891235275
 30
0.0
 40
3.124923706125
100
AcDbArc
 50
90.0
 51
180.0129395
  0
ARC
  5
391
330
A
100
AcDbEntity
  8
1
  6
Continuous
 62
    92
100
AcDbCircle
 10
419.8024673461127
 20
489.5722045897749
 30
0.0
 40
3.125610403999999
100
AcDbArc
 50
0.0104891218
 51
89.9895108782
  0
ARC
  5
392
330
A
100
AcDbEntity
  8
1
  6
Continuous
 62
    92
100
AcDbCircle
 10
419.8030395507377
 20
460.822814941275
 30
0.0
 40
3.125038206624999
100
AcDbArc
 50
270.0
 51
359.9888095548
  0
ARC
  5
393
330
A
100
AcDbEntity
  8
1
  6
Continuous
 62
    92
100
AcDbCircle
 10
332.3025245666126
 20
460.822204589775
 30
0.0
 40
3.124427837875
100
AcDbArc
 50
179.9905562253
 51
270.0094437826
  0
ARC
  5
394
330
A
100
AcDbEntity
  8
11
  6
Continuous
 62
    92
100
AcDbCircle
 10
212.9280395507377
 20
475.1989212035249
 30
0.0
 40
5.001240071249998
100
AcDbArc
 50
180.0196660711
 51
270.0
  0
ARC
  5
395
330
A
100
AcDbEntity
  8
11
  6
Continuous
 62
    92
100
AcDbCircle
 10
252.9286689757377
 20
475.197204589775
 30
0.0
 40
4.999542275999999
100
AcDbArc
 50
270.0
 51
0.0
  0
ARC
  5
396
330
A
100
AcDbEntity
  8
11
  6
Continuous
 62
    92
100
AcDbCircle
 10
212.9280586242376
 20
475.196708679025
 30
0.0
 40
5.001220703125
100
AcDbArc
 50
90.0
 51
180.0
  0
ARC
  5
397
330
A
100
AcDbEntity
  8
11
  6
Continuous
 62
    92
100
AcDbCircle
 10
252.9275054931126
 20
475.197204589775
 30
0.0
 40
5.000724821
100
AcDbArc
 50
0.0
 51
89.9938810375
  0
ARC
  5
398
330
A
100
AcDbEntity
  8
11
  6
Continuous
 62
    92
100
AcDbCircle
 10
266.4280242919877
 20
490.8231582640249
 30
0.0
 40
0.6250000002500001
100
AcDbArc
 50
270.0
 51
359.9108275962999
  0
ARC
  5
399
330
A
100
AcDbEntity
  8
11
  6
Continuous
 62
    92
100
AcDbCircle
 10
266.4266510009877
 20
459.572204589775
 30
0.0
 40
0.6250381469999999
100
AcDbArc
 50
0.0
 51
89.8723602
  0
ARC
  5
39A
330
A
100
AcDbEntity
  8
11
  6
Continuous
 62
    92
100
AcDbCircle
 10
31.20996427536272
 20
458.1066741942749
 30
0.0
 40
238.304209551625
100
AcDbArc
 50
2.708157499999999
 51
4.1126971
  0
ARC
  5
39B
330
A
100
AcDbEntity
  8
11
  6
Continuous
 62
    92
100
AcDbCircle
 10
282.5516624449877
 20
445.7738342284
 30
0.0
 40
19.61280881875
100
AcDbArc
 50
142.90271
 51
149.8151245
  0
ARC
  5
39C
330
A
100
AcDbEntity
  8
11
  6
Continuous
 62
    92
100
AcDbCircle
 10
255.3667182922377
 20
458.9743652342749
 30
0.0
 40
10.6126335345
100
AcDbArc
 50
310.8116455
 51
328.1524962999999
  0
ARC
  5
39D
330
A
100
AcDbEntity
  8
11
  6
Continuous
 62
    92
100
AcDbCircle
 10
280.4278106688626
 20
445.09825134265
 30
0.0
 40
2.499787429625
100
AcDbArc
 50
86.52808380000001
 51
180.0
  0
ARC
  5
39E
330
A
100
AcDbEntity
  8
11
  6
Continuous
 62
    92
100
AcDbCircle
 10
317.9288787841127
 20
443.9609374999
 30
0.0
 40
2.49877943775
100
AcDbArc
 50
0.0192432081
 51
90.01924320809999
  0
ARC
  5
39F
330
A
100
AcDbEntity
  8
11
  6
Continuous
 62
    92
100
AcDbCircle
 10
322.9292984008626
 20
405.8246841428999
 30
0.0
 40
2.501641548624999
100
AcDbArc
 50
180.0567899052999
 51
270.0
  0
ARC
  5
3A0
330
A
100
AcDbEntity
  8
11
  6
Continuous
 62
    92
100
AcDbCircle
 10
321.4607353209877
 20
405.81533813465
 30
0.0
 40
2.493139901874999
100
AcDbArc
 50
224.9270629999999
 51
270.0541686999999
  0
ARC
  5
3A1
330
A
100
AcDbEntity
  8
11
  6
Continuous
 62
    92
100
AcDbCircle
 10
280.4271621703627
 20
406.0521926878999
 30
0.0
 40
2.500486070874999
100
AcDbArc
 50
81.6167145
 51
180.0
  0
ARC
  5
3A2
330
A
100
AcDbEntity
  8
11
  6
Continuous
 62
    92
100
AcDbCircle
 10
275.4280395507377
 20
402.6962890624
 30
0.0
 40
2.498664855999999
100
AcDbArc
 50
270.0
 51
0.0209961001
  0
ARC
  5
3A3
330
A
100
AcDbEntity
  8
11
  6
Continuous
 62
    92
100
AcDbCircle
 10
266.0530395507377
 20
405.82167053215
 30
0.0
 40
0.625000228125
100
AcDbArc
 50
0.0
 51
89.95104219999999
  0
ARC
  5
3A4
330
A
100
AcDbEntity
  8
11
  6
Continuous
 62
    92
100
AcDbCircle
 10
31.23853158948771
 20
492.2860946654
 30
0.0
 40
238.275596987375
100
AcDbArc
 50
355.8871765
 51
357.2918701
  0
ARC
  5
3A5
330
A
100
AcDbEntity
  8
11
  6
Continuous
 62
    92
100
AcDbCircle
 10
282.6533432006127
 20
504.688209533525
 30
0.0
 40
19.73470741725
100
AcDbArc
 50
210.2060089
 51
217.0756835999999
  0
ARC
  5
3A6
330
A
100
AcDbEntity
  8
11
  6
Continuous
 62
    92
100
AcDbCircle
 10
282.5193901061127
 20
504.6042480467749
 30
0.0
 40
19.57670174349999
100
AcDbArc
 50
206.4334716999999
 51
210.1907959
  0
ARC
  5
3A7
330
A
100
AcDbEntity
  8
11
  6
Continuous
 62
    92
100
AcDbCircle
 10
255.3600425719877
 20
491.414321899275
 30
0.0
 40
10.62132574775
100
AcDbArc
 50
31.85429
 51
49.1808357
  0
ARC
  5
3A8
330
A
100
AcDbEntity
  8
11
  6
Continuous
 62
    92
100
AcDbCircle
 10
280.4289360046127
 20
505.2973403929
 30
0.0
 40
2.500896830874999
100
AcDbArc
 50
180.0314622267999
 51
273.4467468
  0
ARC
  5
3A9
330
A
100
AcDbEntity
  8
11
  6
Continuous
 62
    92
100
AcDbCircle
 10
317.9288978576126
 20
506.4334716795249
 30
0.0
 40
2.49877944425
100
AcDbArc
 50
270.0
 51
0.0196838052
  0
ARC
  5
3AA
330
A
100
AcDbEntity
  8
11
  6
Continuous
 62
    92
100
AcDbCircle
 10
322.9292984008626
 20
544.5707931517749
 30
0.0
 40
2.501716613749999
100
AcDbArc
 50
90.0
 51
179.9676818994
  0
ARC
  5
3AB
330
A
100
AcDbEntity
  8
11
  6
Continuous
 62
    92
100
AcDbCircle
 10
321.4619178771128
 20
544.5762100219
 30
0.0
 40
2.4959948215
100
AcDbArc
 50
90.0
 51
135.0725860999999
  0
ARC
  5
3AC
330
A
100
AcDbEntity
  8
11
  6
Continuous
 62
    92
100
AcDbCircle
 10
316.8930168151126
 20
547.0691146849
 30
0.0
 40
2.497444152874999
100
AcDbArc
 50
270.0
 51
315.0499878
  0
ARC
  5
3AD
330
A
100
AcDbEntity
  8
11
  6
Continuous
 62
    92
100
AcDbCircle
 10
280.4288406371128
 20
544.342216491525
 30
0.0
 40
2.500247955375
100
AcDbArc
 50
180.0
 51
278.3472961663
  0
ARC
  5
3AE
330
A
100
AcDbEntity
  8
11
  6
Continuous
 62
    92
100
AcDbCircle
 10
275.4280395507377
 20
547.69735717765
 30
0.0
 40
2.500553135749999
100
AcDbArc
 50
0.0
 51
90.00350189999998
  0
ARC
  5
3AF
330
A
100
AcDbEntity
  8
11
  6
Continuous
 62
    92
100
AcDbCircle
 10
266.0530204772377
 20
544.5738830565249
 30
0.0
 40
0.6250000002500001
100
AcDbArc
 50
270.0
 51
359.8443909
  0
CIRCLE
  5
3B0
330
A
100
AcDbEntity
  8
11
  6
Continuous
 62
    92
100
AcDbCircle
 10
932.9191894532751
 20
220.27322387685
 30
0.0
 40
4.400001525899999
  0
CIRCLE
  5
3B1
330
A
100
AcDbEntity
  8
11
  6
Continuous
 62
    92
100
AcDbCircle
 10
932.9191894532751
 20
220.27322387685
 30
0.0
 40
8.800003051799999
  0
CIRCLE
  5
3B2
330
A
100
AcDbEntity
  8
11
  6
Continuous
 62
    92
100
AcDbCircle
 10
917.9156570435001
 20
570.1955566406249
 30
0.0
 40
14.375
  0
ARC
  5
3B3
330
A
100
AcDbEntity
  8
11
  6
Continuous
 62
    92
100
AcDbCircle
 10
910.4142074585
 20
585.3140029906248
 30
0.0
 40
1.251447250624999
100
AcDbArc
 50
296.3970641999999
 51
359.9547119
  0
ARC
  5
3B4
330
A
100
AcDbEntity
  8
11
  6
Continuous
 62
    92
100
AcDbCircle
 10
917.9156570435001
 20
570.1955566406249
 30
0.0
 40
15.62573161575
100
AcDbArc
 50
116.3872833
 51
63.6137695
  0
ARC
  5
3B5
330
A
100
AcDbEntity
  8
11
  6
Continuous
 62
    92
100
AcDbCircle
 10
925.4145889282501
 20
585.3130111693749
 30
0.0
 40
1.250000000625
100
AcDbArc
 50
180.0
 51
243.6329651
  0
ARC
  5
3B6
330
A
100
AcDbEntity
  8
11
  6
Continuous
 62
    92
100
AcDbCircle
 10
917.9156570435001
 20
570.1955566406249
 30
0.0
 40
13.43719940599999
100
AcDbArc
 50
70.8370438
 51
346.8548889
  0
CIRCLE
  5
3B7
330
A
100
AcDbEntity
  8
11
  6
Continuous
 62
    92
100
AcDbCircle
 10
917.9156570435001
 20
570.1955566406249
 30
0.0
 40
11.875
  0
CIRCLE
  5
3B8
330
A
100
AcDbEntity
  8
1
  6
Continuous
 62
    92
100
AcDbCircle
 10
917.9156570435001
 20
473.945556640625
 30
0.0
 40
15.00041961674999
  0
ARC
  5
3B9
330
A
100
AcDbEntity
  8
11
  6
Continuous
 62
    92
100
AcDbCircle
 10
907.915351867625
 20
516.5368041991248
 30
0.0
 40
2.499960814625
100
AcDbArc
 50
283.2151488999999
 51
0.0
  0
ARC
  5
3BA
330
A
100
AcDbEntity
  8
11
  6
Continuous
 62
    92
100
AcDbCircle
 10
907.914970398
 20
530.5682907103748
 30
0.0
 40
2.500305387874999
100
AcDbArc
 50
0.0
 51
99.97866059999999
  0
ARC
  5
3BB
330
A
100
AcDbEntity
  8
11
  6
Continuous
 62
    92
100
AcDbCircle
 10
927.9142837525
 20
530.569320678625
 30
0.0
 40
2.499406193874999
100
AcDbArc
 50
79.9767303
 51
180.0
  0
ARC
  5
3BC
330
A
100
AcDbEntity
  8
11
  6
Continuous
 62
    92
100
AcDbCircle
 10
927.9151229858751
 20
516.5369949339999
 30
0.0
 40
2.500228889125
100
AcDbArc
 50
180.0
 51
256.7710265999999
  0
ARC
  5
3BD
330
A
100
AcDbEntity
  8
11
  6
Continuous
 62
    92
100
AcDbCircle
 10
959.8032455445
 20
461.31070709225
 30
0.0
 40
2.502460169375
100
AcDbArc
 50
163.2521362
 51
239.9634856999999
  0
ARC
  5
3BE
330
A
100
AcDbEntity
  8
11
  6
Continuous
 62
    92
100
AcDbCircle
 10
971.951759338375
 20
454.295173645
 30
0.0
 40
2.501070503375
100
AcDbArc
 50
240.0519867
 51
339.9912415
  0
ARC
  5
3BF
330
A
100
AcDbEntity
  8
11
  6
Continuous
 62
    92
100
AcDbCircle
 10
961.9531326293751
 20
436.9747314452499
 30
0.0
 40
2.4995831195
100
AcDbArc
 50
319.9620972
 51
59.99334720000001
  0
ARC
  5
3C0
330
A
100
AcDbEntity
  8
11
  6
Continuous
 62
    92
100
AcDbCircle
 10
949.801109314
 20
443.9870605468749
 30
0.0
 40
2.502750532374999
100
AcDbArc
 50
60.04997629999999
 51
136.7537384
  0
ARC
  5
3C1
330
A
100
AcDbEntity
  8
11
  6
Continuous
 62
    92
100
AcDbCircle
 10
886.0301284790001
 20
443.98992156975
 30
0.0
 40
2.499055086874999
100
AcDbArc
 50
43.1980743
 51
119.9982985999999
  0
ARC
  5
3C2
330
A
100
AcDbEntity
  8
11
  6
Continuous
 62
    92
100
AcDbCircle
 10
873.8784866332501
 20
436.973205566375
 30
0.0
 40
2.5006085755
100
AcDbArc
 50
120.032814
 51
220.0075073
  0
ARC
  5
3C3
330
A
100
AcDbEntity
  8
11
  6
Continuous
 62
    92
100
AcDbCircle
 10
863.8789443970001
 20
454.2922744749999
 30
0.0
 40
2.500015604499999
100
AcDbArc
 50
199.9802399
 51
299.9808959999999
  0
ARC
  5
3C4
330
A
100
AcDbEntity
  8
11
  6
Continuous
 62
    92
100
AcDbCircle
 10
876.0278396606251
 20
461.3096008299999
 30
0.0
 40
2.502672661625
100
AcDbArc
 50
300.0377808
 51
16.7418823
  0
ARC
  5
3C5
330
A
100
AcDbEntity
  8
11
  6
Continuous
 62
    92
100
AcDbCircle
 10
896.664894104
 20
420.51557159425
 30
0.0
 40
2.499641524874999
100
AcDbArc
 50
248.3019714
 51
0.0
  0
ARC
  5
3C6
330
A
100
AcDbEntity
  8
11
  6
Continuous
 62
    92
100
AcDbCircle
 10
896.6642074585001
 20
435.702835083
 30
0.0
 40
2.500381480249999
100
AcDbArc
 50
0.0
 51
60.9160385
  0
ARC
  5
3C7
330
A
100
AcDbEntity
  8
11
  6
Continuous
 62
    92
100
AcDbCircle
 10
939.164360046375
 20
435.7030639647499
 30
0.0
 40
2.499435276499999
100
AcDbArc
 50
119.0491485999999
 51
180.0
  0
ARC
  5
3C8
330
A
100
AcDbEntity
  8
11
  6
Continuous
 62
    92
100
AcDbCircle
 10
939.165733337375
 20
420.5169448852499
 30
0.0
 40
2.500763316499999
100
AcDbArc
 50
180.0314639065
 51
291.6767578
  0
ARC
  5
3C9
330
A
100
AcDbEntity
  8
11
  6
Continuous
 62
    92
100
AcDbCircle
 10
917.9156570435001
 20
473.945556640625
 30
0.0
 40
60.000587406
100
AcDbArc
 50
259.9865723
 51
280.0163878999999
  0
ARC
  5
3CA
330
A
100
AcDbEntity
  8
11
  6
Continuous
 62
    92
100
AcDbCircle
 10
907.9164962768752
 20
417.3218307495
 30
0.0
 40
2.500762939499999
100
AcDbArc
 50
180.0
 51
259.9642334
  0
ARC
  5
3CB
330
A
100
AcDbEntity
  8
11
  6
Continuous
 62
    92
100
AcDbCircle
 10
907.915733337375
 20
431.352935791
 30
0.0
 40
2.500022173875
100
AcDbArc
 50
76.79417420000001
 51
180.0
  0
ARC
  5
3CC
330
A
100
AcDbEntity
  8
11
  6
Continuous
 62
    92
100
AcDbCircle
 10
917.9156570435001
 20
473.945556640625
 30
0.0
 40
41.250747257125
100
AcDbArc
 50
256.7890319999999
 51
283.2132568
  0
ARC
  5
3CD
330
A
100
AcDbEntity
  8
11
  6
Continuous
 62
    92
100
AcDbCircle
 10
927.915809631375
 20
431.353050231875
 30
0.0
 40
2.500228881875
100
AcDbArc
 50
0.0
 51
103.2407226999999
  0
ARC
  5
3CE
330
A
100
AcDbEntity
  8
11
  6
Continuous
 62
    92
100
AcDbCircle
 10
927.9147415161251
 20
417.322555542
 30
0.0
 40
2.501279985875
100
AcDbArc
 50
280.0050354
 51
359.9813843
  0
ARC
  5
3CF
330
A
100
AcDbEntity
  8
11
  6
Continuous
 62
    92
100
AcDbCircle
 10
974.8117141723751
 20
482.2549972533749
 30
0.0
 40
2.50030244175
100
AcDbArc
 50
8.3208199
 51
119.9899139
  0
ARC
  5
3D0
330
A
100
AcDbEntity
  8
11
  6
Continuous
 62
    92
100
AcDbCircle
 10
961.6579513550002
 20
474.6622238158749
 30
0.0
 40
2.498851197875
100
AcDbArc
 50
119.9753035999999
 51
180.9247741999999
  0
ARC
  5
3D1
330
A
100
AcDbEntity
  8
11
  6
Continuous
 62
    92
100
AcDbCircle
 10
940.4099349976251
 20
511.46909332275
 30
0.0
 40
2.500541528749999
100
AcDbArc
 50
239.0635223
 51
299.9799193999999
  0
ARC
  5
3D2
330
A
100
AcDbEntity
  8
11
  6
Continuous
 62
    92
100
AcDbCircle
 10
953.5604171752501
 20
519.0624008178749
 30
0.0
 40
2.50123092525
100
AcDbArc
 50
300.0225525
 51
51.6607361
  0
ARC
  5
3D3
330
A
100
AcDbEntity
  8
11
  6
Continuous
 62
    92
100
AcDbCircle
 10
917.9156570435001
 20
473.945556640625
 30
0.0
 40
60.00045264625
100
AcDbArc
 50
19.9851513
 51
40.01514429999999
  0
ARC
  5
3D4
330
A
100
AcDbEntity
  8
11
  6
Continuous
 62
    92
100
AcDbCircle
 10
971.951377868625
 20
493.5980758666249
 30
0.0
 40
2.501906932499999
100
AcDbArc
 50
300.0196533
 51
19.9502258
  0
ARC
  5
3D5
330
A
100
AcDbEntity
  8
11
  6
Continuous
 62
    92
100
AcDbCircle
 10
959.8021774292501
 20
486.58135986325
 30
0.0
 40
2.500543732
100
AcDbArc
 50
196.7838898
 51
299.9875183
  0
ARC
  5
3D6
330
A
100
AcDbEntity
  8
11
  6
Continuous
 62
    92
100
AcDbCircle
 10
917.9156570435001
 20
473.945556640625
 30
0.0
 40
41.25038898399999
100
AcDbArc
 50
16.7874908
 51
43.2125587
  0
ARC
  5
3D7
330
A
100
AcDbEntity
  8
11
  6
Continuous
 62
    92
100
AcDbCircle
 10
949.8012619018751
 20
503.9013442992499
 30
0.0
 40
2.499992421375
100
AcDbArc
 50
119.9804077
 51
223.2190247
  0
ARC
  5
3D8
330
A
100
AcDbEntity
  8
11
  6
Continuous
 62
    92
100
AcDbCircle
 10
961.9537429810002
 20
510.9184417723749
 30
0.0
 40
2.498784534874999
100
AcDbArc
 50
39.9916039
 51
120.0323180999999
  0
ARC
  5
3D9
330
A
100
AcDbEntity
  8
11
  6
Continuous
 62
    92
100
AcDbCircle
 10
882.26937103275
 20
519.0642700194998
 30
0.0
 40
2.499822903875
100
AcDbArc
 50
128.3176727
 51
239.9989623999999
  0
ARC
  5
3DA
330
A
100
AcDbEntity
  8
11
  6
Continuous
 62
    92
100
AcDbCircle
 10
895.4222946167501
 20
511.4712295531249
 30
0.0
 40
2.500724572249999
100
AcDbArc
 50
240.0010071
 51
300.9111632999999
  0
ARC
  5
3DB
330
A
100
AcDbEntity
  8
11
  6
Continuous
 62
    92
100
AcDbCircle
 10
874.1713790893751
 20
474.664932250875
 30
0.0
 40
2.499664303249999
100
AcDbArc
 50
359.039856
 51
59.9815674
  0
ARC
  5
3DC
330
A
100
AcDbEntity
  8
11
  6
Continuous
 62
    92
100
AcDbCircle
 10
861.020362854
 20
482.2563323973749
 30
0.0
 40
2.501001622999999
100
AcDbArc
 50
60.0389938
 51
171.6849364999999
  0
ARC
  5
3DD
330
A
100
AcDbEntity
  8
11
  6
Continuous
 62
    92
100
AcDbCircle
 10
917.9156570435001
 20
473.945556640625
 30
0.0
 40
60.00137426599999
100
AcDbArc
 50
139.9841614
 51
160.014328
  0
ARC
  5
3DE
330
A
100
AcDbEntity
  8
11
  6
Continuous
 62
    92
100
AcDbCircle
 10
873.876197815
 20
510.9159240722499
 30
0.0
 40
2.501075383374999
100
AcDbArc
 50
59.9975891
 51
139.9424133
  0
ARC
  5
3DF
330
A
100
AcDbEntity
  8
11
  6
Continuous
 62
    92
100
AcDbCircle
 10
886.0290603637501
 20
503.9023361205
 30
0.0
 40
2.499671785375
100
AcDbArc
 50
316.7792053
 51
59.98440550000001
  0
ARC
  5
3E0
330
A
100
AcDbEntity
  8
11
  6
Continuous
 62
    92
100
AcDbCircle
 10
917.9156570435001
 20
473.945556640625
 30
0.0
 40
41.25148461499999
100
AcDbArc
 50
136.7866515999999
 51
163.2101593
  0
ARC
  5
3E1
330
A
100
AcDbEntity
  8
11
  6
Continuous
 62
    92
100
AcDbCircle
 10
876.029289245625
 20
486.5802917479999
 30
0.0
 40
2.499631637375
100
AcDbArc
 50
240.0006866
 51
343.2680968999999
  0
ARC
  5
3E2
330
A
100
AcDbEntity
  8
11
  6
Continuous
 62
    92
100
AcDbCircle
 10
863.878105163625
 20
493.5968933105
 30
0.0
 40
2.500608786499999
100
AcDbArc
 50
160.0079498
 51
239.9753417999999
  0
ARC
  5
3E3
330
A
100
AcDbEntity
  8
11
  6
CENTERX2
 62
    92
100
AcDbCircle
 10
917.9156570435001
 20
473.945556640625
 30
0.0
 40
81.249739483
100
AcDbArc
 50
125.9475098
 51
144.17276
  0
ARC
  5
3E4
330
A
100
AcDbEntity
  8
11
  6
CENTERX2
 62
    92
100
AcDbCircle
 10
917.9156570435001
 20
473.945556640625
 30
0.0
 40
81.24940036599999
100
AcDbArc
 50
36.0993271
 51
53.56329350000001
  0
ARC
  5
3E5
330
A
100
AcDbEntity
  8
11
  6
CENTERX2
 62
    92
100
AcDbCircle
 10
917.9156570435001
 20
473.945556640625
 30
0.0
 40
81.249877143375
100
AcDbArc
 50
305.8092650999999
 51
324.0049743999999
  0
CIRCLE
  5
3E6
330
A
100
AcDbEntity
  8
11
  6
Continuous
 62
    92
100
AcDbCircle
 10
975.3669052123751
 20
531.398063659625
 30
0.0
 40
5.625
  0
CIRCLE
  5
3E7
330
A
100
AcDbEntity
  8
11
  6
Continuous
 62
    92
100
AcDbCircle
 10
975.3669052123751
 20
416.4930496214999
 30
0.0
 40
5.625
  0
CIRCLE
  5
3E8
330
A
100
AcDbEntity
  8
11
  6
Continuous
 62
    92
100
AcDbCircle
 10
860.463188171375
 20
531.398063659625
 30
0.0
 40
5.625
  0
CIRCLE
  5
3E9
330
A
100
AcDbEntity
  8
11
  6
Continuous
 62
    92
100
AcDbCircle
 10
917.9156570435001
 20
473.945556640625
 30
0.0
 40
32.5
  0
CIRCLE
  5
3EA
330
A
100
AcDbEntity
  8
11
  6
Continuous
 62
    92
100
AcDbCircle
 10
917.9156570435001
 20
473.945556640625
 30
0.0
 40
28.75
  0
ARC
  5
3EB
330
A
100
AcDbEntity
  8
11
  6
Continuous
 62
    92
100
AcDbCircle
 10
917.9156570435001
 20
473.945556640625
 30
0.0
 40
41.24883956687499
100
AcDbArc
 50
59.05982210000001
 51
120.9422913
  0
ARC
  5
3EC
330
A
100
AcDbEntity
  8
11
  6
Continuous
 62
    92
100
AcDbCircle
 10
917.9156570435001
 20
473.945556640625
 30
0.0
 40
41.24980045612499
100
AcDbArc
 50
299.0567626999999
 51
0.0
  0
ARC
  5
3ED
330
A
100
AcDbEntity
  8
11
  6
Continuous
 62
    92
100
AcDbCircle
 10
917.9156570435001
 20
473.945556640625
 30
0.0
 40
41.25052845575
100
AcDbArc
 50
179.0589452363
 51
240.9401855003
  0
CIRCLE
  5
3EE
330
A
100
AcDbEntity
  8
11
  6
Continuous
 62
    92
100
AcDbCircle
 10
917.9156570435001
 20
473.945556640625
 30
0.0
 40
19.0625
  0
CIRCLE
  5
3EF
330
A
100
AcDbEntity
  8
11
  6
Continuous
 62
    92
100
AcDbCircle
 10
917.9156570435001
 20
473.945556640625
 30
0.0
 40
60.0
  0
CIRCLE
  5
3F0
330
A
100
AcDbEntity
  8
1
  6
Continuous
 62
    92
100
AcDbCircle
 10
59.91573333737505
 20
473.945556640625
 30
0.0
 40
15.00125885012499
  0
ARC
  5
3F1
330
A
100
AcDbEntity
  8
11
  6
CENTERX2
 62
    92
100
AcDbCircle
 10
917.9156570435001
 20
473.945556640625
 30
0.0
 40
81.249739483
100
AcDbArc
 50
215.9497985999999
 51
234.1750793
  0
CIRCLE
  5
3F2
330
A
100
AcDbEntity
  8
11
  6
Continuous
 62
    92
100
AcDbCircle
 10
860.4631118775001
 20
416.4930114744999
 30
0.0
 40
5.625
  0
POINT
  5
3F3
330
A
100
AcDbEntity
  8
4
100
AcDbPoint
 10
631.6780395507377
 20
417.697204589775
 30
0.0
  0
POINT
  5
3F4
330
A
100
AcDbEntity
  8
4
100
AcDbPoint
 10
631.6780395507377
 20
349.3922080992749
 30
0.0
  0
POINT
  5
3F5
330
A
100
AcDbEntity
  8
4
100
AcDbPoint
 10
266.6780395507377
 20
363.55947875965
 30
0.0
  0
POINT
  5
3F6
330
A
100
AcDbEntity
  8
4
100
AcDbPoint
 10
266.6780395507377
 20
349.3922080992749
 30
0.0
  0
POINT
  5
3F7
330
A
100
AcDbEntity
  8
4
100
AcDbPoint
 10
616.6770858763627
 20
409.4883956907749
 30
0.0
  0
POINT
  5
3F8
330
A
100
AcDbEntity
  8
4
100
AcDbPoint
 10
616.6770858763627
 20
374.9259414671499
 30
0.0
  0
POINT
  5
3F9
330
A
100
AcDbEntity
  8
4
100
AcDbPoint
 10
631.6780395507377
 20
407.69312286365
 30
0.0
  0
POINT
  5
3FA
330
A
100
AcDbEntity
  8
4
100
AcDbPoint
 10
631.6780395507377
 20
374.9259414671499
 30
0.0
  0
POINT
  5
3FB
330
A
100
AcDbEntity
  8
4
100
AcDbPoint
 10
625.2798767089877
 20
532.697204589775
 30
0.0
  0
POINT
  5
3FC
330
A
100
AcDbEntity
  8
4
100
AcDbPoint
 10
621.8021316527377
 20
532.697204589775
 30
0.0
  0
POINT
  5
3FD
330
A
100
AcDbEntity
  8
4
100
AcDbPoint
 10
623.0667800902377
 20
417.697204589775
 30
0.0
  0
POINT
  5
3FE
330
A
100
AcDbEntity
  8
4
100
AcDbPoint
 10
621.8021316527377
 20
417.697204589775
 30
0.0
  0
POINT
  5
3FF
330
A
100
AcDbEntity
  8
4
100
AcDbPoint
 10
688.7555236816127
 20
571.4472045897749
 30
0.0
  0
POINT
  5
400
330
A
100
AcDbEntity
  8
4
100
AcDbPoint
 10
732.0780487059877
 20
571.4472045897749
 30
0.0
  0
POINT
  5
401
330
A
100
AcDbEntity
  8
4
100
AcDbPoint
 10
692.0055694579876
 20
475.197204589775
 30
0.0
  0
POINT
  5
402
330
A
100
AcDbEntity
  8
4
100
AcDbPoint
 10
732.0780487059877
 20
475.197204589775
 30
0.0
  0
POINT
  5
403
330
A
100
AcDbEntity
  8
4
100
AcDbPoint
 10
204.1767997741127
 20
368.88595962515
 30
0.0
  0
POINT
  5
404
330
A
100
AcDbEntity
  8
4
100
AcDbPoint
 10
204.1767997741127
 20
317.9822006224
 30
0.0
  0
POINT
  5
405
330
A
100
AcDbEntity
  8
4
100
AcDbPoint
 10
702.9280395507377
 20
449.1834487913999
 30
0.0
  0
POINT
  5
406
330
A
100
AcDbEntity
  8
4
100
AcDbPoint
 10
702.9280395507377
 20
317.9822006224
 30
0.0
  0
POINT
  5
407
330
A
100
AcDbEntity
  8
4
100
AcDbPoint
 10
684.4243164062377
 20
418.9484634397749
 30
0.0
  0
POINT
  5
408
330
A
100
AcDbEntity
  8
4
100
AcDbPoint
 10
766.7355651854876
 20
418.9484634397749
 30
0.0
  0
POINT
  5
409
330
A
100
AcDbEntity
  8
4
100
AcDbPoint
 10
688.7555236816127
 20
531.4472045897749
 30
0.0
  0
POINT
  5
40A
330
A
100
AcDbEntity
  8
4
100
AcDbPoint
 10
766.7355651854876
 20
531.4472045897749
 30
0.0
  0
POINT
  5
40B
330
A
100
AcDbEntity
  8
4
100
AcDbPoint
 10
452.4580307006127
 20
547.0722045897749
 30
0.0
  0
POINT
  5
40C
330
A
100
AcDbEntity
  8
4
100
AcDbPoint
 10
439.4618148803627
 20
547.0722045897749
 30
0.0
  0
POINT
  5
40D
330
A
100
AcDbEntity
  8
4
100
AcDbPoint
 10
454.6242828368626
 20
403.3222045897749
 30
0.0
  0
POINT
  5
40E
330
A
100
AcDbEntity
  8
4
100
AcDbPoint
 10
439.4618148803627
 20
403.3222045897749
 30
0.0
  0
POINT
  5
40F
330
A
100
AcDbEntity
  8
4
100
AcDbPoint
 10
211.0180397033626
 20
460.197204589775
 30
0.0
  0
POINT
  5
410
330
A
100
AcDbEntity
  8
4
100
AcDbPoint
 10
171.8992919921126
 20
460.197204589775
 30
0.0
  0
POINT
  5
411
330
A
100
AcDbEntity
  8
4
100
AcDbPoint
 10
215.9080429076126
 20
490.198463439775
 30
0.0
  0
POINT
  5
412
330
A
100
AcDbEntity
  8
4
100
AcDbPoint
 10
171.8992919921126
 20
490.198463439775
 30
0.0
  0
POINT
  5
413
330
A
100
AcDbEntity
  8
4
100
AcDbPoint
 10
204.1767997741127
 20
480.8796920775249
 30
0.0
  0
POINT
  5
414
330
A
100
AcDbEntity
  8
4
100
AcDbPoint
 10
204.1767997741127
 20
575.3471984861501
 30
0.0
  0
POINT
  5
415
330
A
100
AcDbEntity
  8
4
100
AcDbPoint
 10
207.9267997741127
 20
475.197204589775
 30
0.0
  0
POINT
  5
416
330
A
100
AcDbEntity
  8
4
100
AcDbPoint
 10
207.9267997741127
 20
575.3471984861501
 30
0.0
  0
POINT
  5
417
330
A
100
AcDbEntity
  8
4
100
AcDbPoint
 10
262.3030395507377
 20
414.914688110275
 30
0.0
  0
POINT
  5
418
330
A
100
AcDbEntity
  8
4
100
AcDbPoint
 10
262.3030395507377
 20
374.9259414671499
 30
0.0
  0
POINT
  5
419
330
A
100
AcDbEntity
  8
4
100
AcDbPoint
 10
266.6780395507377
 20
422.622207641525
 30
0.0
  0
POINT
  5
41A
330
A
100
AcDbEntity
  8
4
100
AcDbPoint
 10
266.6780395507377
 20
374.9259414671499
 30
0.0
  0
POINT
  5
41B
330
A
100
AcDbEntity
  8
4
100
AcDbPoint
 10
266.6780395507377
 20
382.153457641525
 30
0.0
  0
POINT
  5
41C
330
A
100
AcDbEntity
  8
4
100
AcDbPoint
 10
266.6780395507377
 20
349.3922080992749
 30
0.0
  0
POINT
  5
41D
330
A
100
AcDbEntity
  8
4
100
AcDbPoint
 10
204.1767997741127
 20
467.9097213743999
 30
0.0
  0
POINT
  5
41E
330
A
100
AcDbEntity
  8
4
100
AcDbPoint
 10
204.1767997741127
 20
349.3922080992749
 30
0.0
  0
POINT
  5
41F
330
A
100
AcDbEntity
  8
4
100
AcDbPoint
 10
277.9280395507377
 20
424.12096405015
 30
0.0
  0
POINT
  5
420
330
A
100
AcDbEntity
  8
4
100
AcDbPoint
 10
277.9280395507377
 20
374.9259414671499
 30
0.0
  0
POINT
  5
421
330
A
100
AcDbEntity
  8
4
100
AcDbPoint
 10
312.9280395507377
 20
423.03846740715
 30
0.0
  0
POINT
  5
422
330
A
100
AcDbEntity
  8
4
100
AcDbPoint
 10
312.9280395507377
 20
374.9259414671499
 30
0.0
  0
POINT
  5
423
330
A
100
AcDbEntity
  8
4
100
AcDbPoint
 10
266.6780395507377
 20
542.174705505275
 30
0.0
  0
POINT
  5
424
330
A
100
AcDbEntity
  8
4
100
AcDbPoint
 10
266.6780395507377
 20
617.9884567259001
 30
0.0
  0
POINT
  5
425
330
A
100
AcDbEntity
  8
4
100
AcDbPoint
 10
489.1780395507376
 20
582.247222900275
 30
0.0
  0
POINT
  5
426
330
A
100
AcDbEntity
  8
4
100
AcDbPoint
 10
489.1780395507376
 20
617.9884567259001
 30
0.0
  0
POINT
  5
427
330
A
100
AcDbEntity
  8
4
100
AcDbPoint
 10
266.6780395507377
 20
563.8347091673999
 30
0.0
  0
POINT
  5
428
330
A
100
AcDbEntity
  8
4
100
AcDbPoint
 10
266.6780395507377
 20
640.732215881275
 30
0.0
  0
POINT
  5
429
330
A
100
AcDbEntity
  8
4
100
AcDbPoint
 10
665.4268188476127
 20
564.9184646605249
 30
0.0
  0
POINT
  5
42A
330
A
100
AcDbEntity
  8
4
100
AcDbPoint
 10
665.4268188476127
 20
640.732215881275
 30
0.0
  0
POINT
  5
42B
330
A
100
AcDbEntity
  8
4
100
AcDbPoint
 10
277.9280395507377
 20
525.8659591674
 30
0.0
  0
POINT
  5
42C
330
A
100
AcDbEntity
  8
4
100
AcDbPoint
 10
277.9280395507377
 20
597.25721740715
 30
0.0
  0
POINT
  5
42D
330
A
100
AcDbEntity
  8
4
100
AcDbPoint
 10
266.6780395507377
 20
520.9759750365249
 30
0.0
  0
POINT
  5
42E
330
A
100
AcDbEntity
  8
4
100
AcDbPoint
 10
266.6780395507377
 20
597.25721740715
 30
0.0
  0
POINT
  5
42F
330
A
100
AcDbEntity
  8
4
100
AcDbPoint
 10
207.9267997741127
 20
475.197204589775
 30
0.0
  0
POINT
  5
430
330
A
100
AcDbEntity
  8
4
100
AcDbPoint
 10
207.9267997741127
 20
575.3471984861501
 30
0.0
  0
POINT
  5
431
330
A
100
AcDbEntity
  8
4
100
AcDbPoint
 10
257.9280395507377
 20
475.197204589775
 30
0.0
  0
POINT
  5
432
330
A
100
AcDbEntity
  8
4
100
AcDbPoint
 10
257.9280395507377
 20
575.3471984861501
 30
0.0
  0
POINT
  5
433
330
A
100
AcDbEntity
  8
4
100
AcDbPoint
 10
262.9280395507377
 20
543.9484634397749
 30
0.0
  0
POINT
  5
434
330
A
100
AcDbEntity
  8
4
100
AcDbPoint
 10
139.4567985533627
 20
543.9484634397749
 30
0.0
  0
POINT
  5
435
330
A
100
AcDbEntity
  8
4
100
AcDbPoint
 10
262.9280395507377
 20
406.44594573965
 30
0.0
  0
POINT
  5
436
330
A
100
AcDbEntity
  8
4
100
AcDbPoint
 10
139.4567985533627
 20
406.44594573965
 30
0.0
  0
POINT
  5
437
330
A
100
AcDbEntity
  8
4
100
AcDbPoint
 10
842.9156570435001
 20
512.7628860473748
 30
0.0
  0
POINT
  5
438
330
A
100
AcDbEntity
  8
4
100
AcDbPoint
 10
842.9156570435001
 20
616.735931396375
 30
0.0
  0
POINT
  5
439
330
A
100
AcDbEntity
  8
4
100
AcDbPoint
 10
992.9156570435001
 20
521.4272842406248
 30
0.0
  0
POINT
  5
43A
330
A
100
AcDbEntity
  8
4
100
AcDbPoint
 10
992.9156570435001
 20
616.735931396375
 30
0.0
  0
POINT
  5
43B
330
A
100
AcDbEntity
  8
4
100
AcDbPoint
 10
78.66695404050005
 20
478.945556640625
 30
0.0
  0
POINT
  5
43C
330
A
100
AcDbEntity
  8
4
100
AcDbPoint
 10
109.171409606875
 20
478.945556640625
 30
0.0
  0
POINT
  5
43D
330
A
100
AcDbEntity
  8
4
100
AcDbPoint
 10
77.7628707885001
 20
468.945556640625
 30
0.0
  0
POINT
  5
43E
330
A
100
AcDbEntity
  8
4
100
AcDbPoint
 10
109.171409606875
 20
468.945556640625
 30
0.0
  0
POINT
  5
43F
330
A
100
AcDbEntity
  8
4
100
AcDbPoint
 10
44.91443634037511
 20
473.945556640625
 30
0.0
  0
POINT
  5
440
330
A
100
AcDbEntity
  8
4
100
AcDbPoint
 10
44.91443634037511
 20
520.6003341673749
 30
0.0
  0
POINT
  5
441
330
A
100
AcDbEntity
  8
4
100
AcDbPoint
 10
78.66695404050005
 20
471.862998962375
 30
0.0
  0
POINT
  5
442
330
A
100
AcDbEntity
  8
4
100
AcDbPoint
 10
78.66695404050005
 20
520.6003341673749
 30
0.0
  0
POINT
  5
443
330
A
100
AcDbEntity
  8
4
100
AcDbPoint
 10
860.4633407592499
 20
416.4932022093749
 30
0.0
  0
POINT
  5
444
330
A
100
AcDbEntity
  8
4
100
AcDbPoint
 10
945.194480896
 20
331.7621002196249
 30
0.0
  0
POINT
  5
445
330
A
100
AcDbEntity
  8
4
100
AcDbPoint
 10
975.36743927
 20
531.3973388671249
 30
0.0
  0
POINT
  5
446
330
A
100
AcDbEntity
  8
4
100
AcDbPoint
 10
1060.09857940675
 20
446.6662368773749
 30
0.0
  0
POINT
  5
447
330
A
100
AcDbEntity
  8
4
100
AcDbPoint
 10
860.3318862915001
 20
398.9455566406249
 30
0.0
  0
POINT
  5
448
330
A
100
AcDbEntity
  8
4
100
AcDbPoint
 10
950.9753494262501
 20
308.3012161255
 30
0.0
  0
POINT
  5
449
330
A
100
AcDbEntity
  8
4
100
AcDbPoint
 10
992.9156570435001
 20
531.528068542375
 30
0.0
  0
POINT
  5
44A
330
A
100
AcDbEntity
  8
4
100
AcDbPoint
 10
1083.559120178249
 20
440.8837280272499
 30
0.0
  0
POINT
  5
44B
330
A
100
AcDbEntity
  8
4
100
AcDbPoint
 10
854.83979034425
 20
416.3568649291249
 30
0.0
  0
POINT
  5
44C
330
A
100
AcDbEntity
  8
4
100
AcDbPoint
 10
854.83979034425
 20
376.5334854124999
 30
0.0
  0
POINT
  5
44D
330
A
100
AcDbEntity
  8
4
100
AcDbPoint
 10
866.03401947025
 20
417.271057128875
 30
0.0
  0
POINT
  5
44E
330
A
100
AcDbEntity
  8
4
100
AcDbPoint
 10
866.03401947025
 20
376.5334854124999
 30
0.0
  0
POINT
  5
44F
330
A
100
AcDbEntity
  8
4
100
AcDbPoint
 10
917.9156570435001
 20
585.8205566406249
 30
0.0
  0
POINT
  5
450
330
A
100
AcDbEntity
  8
4
100
AcDbPoint
 10
1028.864906311
 20
585.8205566406249
 30
0.0
  0
POINT
  5
451
330
A
100
AcDbEntity
  8
4
100
AcDbPoint
 10
997.525642395
 20
473.945556640625
 30
0.0
  0
POINT
  5
452
330
A
100
AcDbEntity
  8
4
100
AcDbPoint
 10
1028.864906311
 20
473.945556640625
 30
0.0
  0
MTEXT
  5
454
330
A
100
AcDbEntity
  8
4
 62
    92
100
AcDbMText
 10
443.5530289459877
 20
357.72345832465
 30
0.0
 40
6.250000148999999
 41
0.0
 71
     1
 72
     1
  1
c
  7
SLDTEXTSTYLE0
 73
     1
 44
1.0
  0
MTEXT
  5
455
330
A
100
AcDbEntity
  8
4
 62
    92
100
AcDbMText
 10
598.8146027374877
 20
383.25719169265
 30
0.0
 40
6.250000148999999
 41
0.0
 71
     1
 72
     1
  1
12
  7
SLDTEXTSTYLE0
 73
     1
 44
1.0
  0
MTEXT
  5
456
330
A
100
AcDbEntity
  8
4
 62
    92
100
AcDbMText
 10
613.4708818016126
 20
471.6815693592749
 30
0.0
 40
6.250000148999999
 41
0.0
 71
     1
 72
     1
  1
92
  7
SLDTEXTSTYLE0
 11
0.0
 21
1.0
 31
0.0
 73
     1
 44
1.0
  0
MTEXT
  5
457
330
A
100
AcDbEntity
  8
6
 62
    92
100
AcDbMText
 10
238.9656662559747
 20
303.1484266225833
 30
0.0
 40
7.7000001669
 41
0.0
 71
     2
 72
     1
  1
center hole D M8 DIN 332 Bl.2
  7
SLDTEXTSTYLE0
 73
     1
 44
1.0
  0
MTEXT
  5
458
330
A
100
AcDbEntity
  8
4
 62
    92
100
AcDbMText
 10
723.7468071973628
 20
519.80595692365
 30
0.0
 40
6.249993890499999
 41
0.0
 71
     1
 72
     1
  1
77
  7
SLDTEXTSTYLE0
 11
0.0
 21
1.0
 31
0.0
 73
     1
 44
1.0
  0
MTEXT
  5
459
330
A
100
AcDbEntity
  8
4
 62
    92
100
AcDbMText
 10
447.9280650088626
 20
326.313442505275
 30
0.0
 40
6.249993890499999
 41
0.0
 71
     1
 72
     1
  1
d
  7
SLDTEXTSTYLE0
 73
     1
 44
1.0
  0
MTEXT
  5
45A
330
A
100
AcDbEntity
  8
4
 62
    92
100
AcDbMText
 10
758.4043236768626
 20
475.69668873515
 30
0.0
 40
6.249993890499999
 41
0.0
 71
     1
 72
     1
  1
90
  7
SLDTEXTSTYLE0
 11
0.0
 21
1.0
 31
0.0
 73
     1
 44
1.0
  0
MTEXT
  5
45B
330
A
100
AcDbEntity
  8
4
 62
    92
100
AcDbMText
 10
431.1305733716127
 20
473.1077681418999
 30
0.0
 40
6.249993890499999
 41
0.0
 71
     1
 72
     1
  1
115
  7
SLDTEXTSTYLE0
 11
0.0
 21
1.0
 31
0.0
 73
     1
 44
1.0
  0
MTEXT
  5
45C
330
A
100
AcDbEntity
  8
4
 62
    92
100
AcDbMText
 10
163.5680504834877
 20
430.2809630271499
 30
0.0
 40
6.249993890499999
 41
0.0
 71
     1
 72
     1
  1
%%c24
  7
SLDTEXTSTYLE0
 11
0.0
 21
1.0
 31
0.0
 73
     1
 44
1.0
  0
MTEXT
  5
45D
330
A
100
AcDbEntity
  8
4
 62
    92
100
AcDbMText
 10
166.0674172353627
 20
445.0690731566499
 30
0.0
 40
4.375
 41
0.0
 71
     1
 72
     1
  1
k6
  7
SLDTEXTSTYLE0
 11
0.0
 21
1.0
 31
0.0
 73
     1
 44
1.0
  0
MTEXT
  5
45E
330
A
100
AcDbEntity
  8
4
 62
    92
100
AcDbMText
 10
190.5330454776126
 20
583.6784403691499
 30
0.0
 40
6.249993890499999
 41
0.0
 71
     1
 72
     1
  1
3
  7
SLDTEXTSTYLE0
 73
     1
 44
1.0
  0
MTEXT
  5
45F
330
A
100
AcDbEntity
  8
4
 62
    92
100
AcDbMText
 10
240.2218043277377
 20
383.2571833500249
 30
0.0
 40
6.249993890499999
 41
0.0
 71
     1
 72
     1
  1
3.5
  7
SLDTEXTSTYLE0
 73
     1
 44
1.0
  0
MTEXT
  5
460
330
A
100
AcDbEntity
  8
4
 62
    92
100
AcDbMText
 10
231.9117915103627
 20
357.7234499821499
 30
0.0
 40
6.249993890499999
 41
0.0
 71
     1
 72
     1
  1
50
  7
SLDTEXTSTYLE0
 73
     1
 44
1.0
  0
MTEXT
  5
461
330
A
100
AcDbEntity
  8
4
 62
    92
100
AcDbMText
 10
291.9117915103626
 20
383.2571833500249
 30
0.0
 40
6.249993890499999
 41
0.0
 71
     1
 72
     1
  1
28
  7
SLDTEXTSTYLE0
 73
     1
 44
1.0
  0
MTEXT
  5
462
330
A
100
AcDbEntity
  8
4
 62
    92
100
AcDbMText
 10
372.3030650088626
 20
626.3196986088999
 30
0.0
 40
6.249993890499999
 41
0.0
 71
     1
 72
     1
  1
b
  7
SLDTEXTSTYLE0
 73
     1
 44
1.0
  0
MTEXT
  5
463
330
A
100
AcDbEntity
  8
4
 62
    92
100
AcDbMText
 10
460.4274185944877
 20
649.06346610665
 30
0.0
 40
6.250000148999999
 41
0.0
 71
     1
 72
     1
  1
a
  7
SLDTEXTSTYLE0
 73
     1
 44
1.0
  0
MTEXT
  5
464
330
A
100
AcDbEntity
  8
4
 62
    92
100
AcDbMText
 10
288.7592875431126
 20
605.5884592900249
 30
0.0
 40
6.249993890499999
 41
0.0
 71
     1
 72
     1
  1
9
  7
SLDTEXTSTYLE0
 73
     1
 44
1.0
  0
MTEXT
  5
465
330
A
100
AcDbEntity
  8
4
 62
    92
100
AcDbMText
 10
229.4117915103627
 20
583.6784403691499
 30
0.0
 40
6.249993890499999
 41
0.0
 71
     1
 72
     1
  1
40
  7
SLDTEXTSTYLE0
 73
     1
 44
1.0
  0
MTEXT
  5
466
330
A
100
AcDbEntity
  8
6
 62
    92
100
AcDbMText
 10
373.9080352782376
 20
478.94721401465
 30
0.0
 40
7.50001885
 41
0.0
 71
     2
 72
     1
  1
rating plate
  7
SLDTEXTSTYLE0
 73
     1
 44
1.0
  0
MTEXT
  5
467
330
A
100
AcDbEntity
  8
4
 62
    92
100
AcDbMText
 10
131.1255570447377
 20
463.54470356665
 30
0.0
 40
6.249993890499999
 41
0.0
 71
     1
 72
     1
  1
%%c110
  7
SLDTEXTSTYLE0
 11
0.0
 21
1.0
 31
0.0
 73
     1
 44
1.0
  0
MTEXT
  5
468
330
A
100
AcDbEntity
  8
4
 62
    92
100
AcDbMText
 10
133.6249237966127
 20
482.55156369615
 30
0.0
 40
4.375
 41
0.0
 71
     1
 72
     1
  1
j6
  7
SLDTEXTSTYLE0
 11
0.0
 21
1.0
 31
0.0
 73
     1
 44
1.0
  0
MTEXT
  5
469
330
A
100
AcDbEntity
  8
6
 62
    92
100
AcDbMText
 10
278.4679249486752
 20
231.7353060204499
 30
0.0
 40
6.428574919699999
 41
0.0
 71
     1
 72
     1
  1
Typ
  7
SLDTEXTSTYLE0
 73
     1
 44
1.0
  0
MTEXT
  5
46A
330
A
100
AcDbEntity
  8
6
 62
    92
100
AcDbMText
 10
278.4679249486752
 20
218.4013063866499
 30
0.0
 40
6.428574919699999
 41
0.0
 71
     1
 72
     1
  1
LSM 130-78-454-E2/S/M-2KA
  7
SLDTEXTSTYLE0
 73
     1
 44
1.0
  0
MTEXT
  5
46D
330
A
100
AcDbEntity
  8
6
 62
    92
100
AcDbMText
 10
406.0254200657751
 20
231.7353060204499
 30
0.0
 40
6.428574919699999
 41
0.0
 71
     1
 72
     1
  1
a [mm]
  7
SLDTEXTSTYLE0
 73
     1
 44
1.0
  0
MTEXT
  5
46E
330
A
100
AcDbEntity
  8
6
 62
    92
100
AcDbMText
 10
406.0254200657751
 20
218.40229820795
 30
0.0
 40
6.428574919699999
 41
0.0
 71
     1
 72
     1
  1
319
  7
SLDTEXTSTYLE0
 73
     1
 44
1.0
  0
MTEXT
  5
46F
330
A
100
AcDbEntity
  8
6
 62
    92
100
AcDbMText
 10
506.5014027318752
 20
231.7353060204499
 30
0.0
 40
6.428574919699999
 41
0.0
 71
     1
 72
     1
  1
c [mm]
  7
SLDTEXTSTYLE0
 73
     1
 44
1.0
  0
MTEXT
  5
470
330
A
100
AcDbEntity
  8
6
 62
    92
100
AcDbMText
 10
506.5014027318752
 20
218.40229820795
 30
0.0
 40
6.428574919699999
 41
0.0
 71
     1
 72
     1
  1
292
  7
SLDTEXTSTYLE0
 73
     1
 44
1.0
  0
MTEXT
  5
471
330
A
100
AcDbEntity
  8
6
 62
    92
100
AcDbMText
 10
456.2634266575752
 20
231.7353060204499
 30
0.0
 40
6.428574919699999
 41
0.0
 71
     1
 72
     1
  1
b [mm]
  7
SLDTEXTSTYLE0
 73
     1
 44
1.0
  0
MTEXT
  5
472
330
A
100
AcDbEntity
  8
6
 62
    92
100
AcDbMText
 10
556.7394398411752
 20
231.73529839105
 30
0.0
 40
6.428574919699999
 41
0.0
 71
     1
 72
     1
  1
d [mm]
  7
SLDTEXTSTYLE0
 73
     1
 44
1.0
  0
MTEXT
  5
473
330
A
100
AcDbEntity
  8
6
 62
    92
100
AcDbMText
 10
556.7394398411752
 20
218.40229820795
 30
0.0
 40
6.428574919699999
 41
0.0
 71
     1
 72
     1
  1
399
  7
SLDTEXTSTYLE0
 73
     1
 44
1.0
  0
MTEXT
  5
474
330
A
100
AcDbEntity
  8
6
 62
    92
100
AcDbMText
 10
278.4678333959751
 20
205.06829857415
 30
0.0
 40
6.428574919699999
 41
0.0
 71
     1
 72
     1
  1
LSM 130-102-304-E2/S/M-2KA
  7
SLDTEXTSTYLE0
 73
     1
 44
1.0
  0
MTEXT
  5
476
330
A
100
AcDbEntity
  8
6
 62
    92
100
AcDbMText
 10
406.0254200657751
 20
205.06929802485
 30
0.0
 40
6.428574919699999
 41
0.0
 71
     1
 72
     1
  1
357
  7
SLDTEXTSTYLE0
 73
     1
 44
1.0
  0
MTEXT
  5
477
330
A
100
AcDbEntity
  8
6
 62
    92
100
AcDbMText
 10
506.5014332493752
 20
205.06929802485
 30
0.0
 40
6.428574919699999
 41
0.0
 71
     1
 72
     1
  1
330
  7
SLDTEXTSTYLE0
 73
     1
 44
1.0
  0
MTEXT
  5
478
330
A
100
AcDbEntity
  8
6
 62
    92
100
AcDbMText
 10
556.7394093236751
 20
205.06929802485
 30
0.0
 40
6.428574919699999
 41
0.0
 71
     1
 72
     1
  1
437
  7
SLDTEXTSTYLE0
 73
     1
 44
1.0
  0
MTEXT
  5
479
330
A
100
AcDbEntity
  8
6
 62
    92
100
AcDbMText
 10
456.263457175175
 20
205.06929802485
 30
0.0
 40
6.428574919699999
 41
0.0
 71
     1
 72
     1
  1
216
  7
SLDTEXTSTYLE0
 73
     1
 44
1.0
  0
MTEXT
  5
47A
330
A
100
AcDbEntity
  8
6
 62
    92
100
AcDbMText
 10
456.2634266575752
 20
218.40229820795
 30
0.0
 40
6.428574919699999
 41
0.0
 71
     1
 72
     1
  1
178
  7
SLDTEXTSTYLE0
 73
     1
 44
1.0
  0
MTEXT
  5
47B
330
A
100
AcDbEntity
  8
6
 62
    92
100
AcDbMText
 10
766.9844970704
 20
657.6776733397999
 30
0.0
 40
8.75
 41
0.0
 71
     2
 72
     1
  1
encoder
  7
SLDTEXTSTYLE0
 73
     1
 44
1.0
  0
MTEXT
  5
47C
330
A
100
AcDbEntity
  8
6
 62
    92
100
AcDbMText
 10
767.9174804688
 20
671.6616821289
 30
0.0
 40
8.75
 41
0.0
 71
     2
 72
     1
  1
connector for
  7
SLDTEXTSTYLE0
 73
     1
 44
1.0
  0
MTEXT
  5
47D
330
A
100
AcDbEntity
  8
6
 62
    92
100
AcDbMText
 10
159.3014297486
 20
634.4560089707499
 30
0.0
 40
8.000000119199999
 41
0.0
 71
     2
 72
     1
  1
+0.002
  7
SLDTEXTSTYLE0
 73
     1
 44
1.0
  0
MTEXT
  5
47E
330
A
100
AcDbEntity
  8
6
 62
    92
100
AcDbMText
 10
159.3014297486
 20
619.9459992051499
 30
0.0
 40
8.000000119199999
 41
0.0
 71
     2
 72
     1
  1
+0.013
  7
SLDTEXTSTYLE0
 73
     1
 44
1.0
  0
MTEXT
  5
47F
330
A
100
AcDbEntity
  8
6
 62
    92
100
AcDbMText
 10
159.3014297486
 20
608.44001775975
 30
0.0
 40
8.000000119199999
 41
0.0
 71
     2
 72
     1
  1
-0.009
  7
SLDTEXTSTYLE0
 73
     1
 44
1.0
  0
MTEXT
  5
480
330
A
100
AcDbEntity
  8
6
 62
    92
100
AcDbMText
 10
91.01444244390007
 20
614.2000275254499
 30
0.0
 40
8.000000119199999
 41
0.0
 71
     2
 72
     1
  1
110
  7
SLDTEXTSTYLE0
 73
     1
 44
1.0
  0
MTEXT
  5
481
330
A
100
AcDbEntity
  8
6
 62
    92
100
AcDbMText
 10
104.0113906861
 20
609.7340241670499
 30
0.0
 40
6.0000002384
 41
0.0
 71
     2
 72
     1
  1
j6
  7
SLDTEXTSTYLE0
 73
     1
 44
1.0
  0
MTEXT
  5
482
330
A
100
AcDbEntity
  8
6
 62
    92
100
AcDbMText
 10
91.01444244390007
 20
639.8000031113499
 30
0.0
 40
8.000000119199999
 41
0.0
 71
     2
 72
     1
  1
24
  7
SLDTEXTSTYLE0
 73
     1
 44
1.0
  0
MTEXT
  5
483
330
A
100
AcDbEntity
  8
6
 62
    92
100
AcDbMText
 10
104.0113906861
 20
635.33399975295
 30
0.0
 40
6.0000002384
 41
0.0
 71
     2
 72
     1
  1
k6
  7
SLDTEXTSTYLE0
 73
     1
 44
1.0
  0
MTEXT
  5
484
330
A
100
AcDbEntity
  8
6
 62
    92
100
AcDbMText
 10
159.3014297486
 20
644.4619904160499
 30
0.0
 40
8.000000119199999
 41
0.0
 71
     2
 72
     1
  1
+0.015
  7
SLDTEXTSTYLE0
 73
     1
 44
1.0
  0
MTEXT
  5
485
330
A
100
AcDbEntity
  8
6
 62
    92
100
AcDbMText
 10
594.8497314454751
 20
750.20751225935
 30
0.0
 40
7.9749000072
 41
0.0
 71
     2
 72
     1
  1
Three phase current synchronous motor
  7
SLDTEXTSTYLE0
 73
     1
 44
1.0
  0
MTEXT
  5
486
330
A
100
AcDbEntity
  8
6
 62
    92
100
AcDbMText
 10
471.9417114258751
 20
748.55984491095
 30
0.0
 40
5.4374998808
 41
0.0
 71
     2
 72
     1
  1
motortyp :
  7
SLDTEXTSTYLE0
 73
     1
 44
1.0
  0
MTEXT
  5
487
330
A
100
AcDbEntity
  8
6
 62
    92
100
AcDbMText
 10
169.6694145203
 20
732.51929312935
 30
0.0
 40
7.612499833099999
 41
0.0
 71
     2
 72
     1
  1
IP 65
  7
SLDTEXTSTYLE0
 73
     1
 44
1.0
  0
MTEXT
  5
488
330
A
100
AcDbEntity
  8
6
 62
    92
100
AcDbMText
 10
58.61149543660002
 20
749.9004026041498
 30
0.0
 40
5.4374998808
 41
0.0
 71
     1
 72
     1
  1
mounting of motor :
  7
SLDTEXTSTYLE0
 73
     1
 44
1.0
  0
MTEXT
  5
489
330
A
100
AcDbEntity
  8
6
 62
    92
100
AcDbMText
 10
58.61149543660002
 20
732.50037819005
 30
0.0
 40
5.4374998808
 41
0.0
 71
     1
 72
     1
  1
class of protection:
  7
SLDTEXTSTYLE0
 73
     1
 44
1.0
  0
MTEXT
  5
48A
330
A
100
AcDbEntity
  8
6
 62
    92
100
AcDbMText
 10
169.9264030456999
 20
749.9793151019501
 30
0.0
 40
7.612499833099999
 41
0.0
 71
     2
 72
     1
  1
B 5
  7
SLDTEXTSTYLE0
 73
     1
 44
1.0
  0
MTEXT
  5
48B
330
A
100
AcDbEntity
  8
6
 62
    92
100
AcDbMText
 10
121.6594047547
 20
693.6790634988499
 30
0.0
 40
7.8299897909
 41
0.0
 71
     2
 72
     1
  1
     all dimensions in millimeter
  7
SLDTEXTSTYLE0
 73
     1
 44
1.0
  0
MTEXT
  5
495
330
A
100
AcDbEntity
  8
6
 62
    92
100
AcDbMText
 10
922.7772216797751
 20
246.76634055365
 30
0.0
 40
7.920010209099999
 41
0.0
 71
     2
 72
     1
  1
projection
  7
SLDTEXTSTYLE0
 73
     1
 44
1.0
  0
MTEXT
  5
499
330
A
100
AcDbEntity
  8
6
 62
    92
100
AcDbMText
 10
452.2077026368751
 20
186.17361986625
 30
0.0
 40
7.650019884099999
 41
0.0
 71
     2
 72
     1
  1
subject to alterations
  7
SLDTEXTSTYLE0
 73
     1
 44
1.0
  0
MTEXT
  5
49B
330
A
100
AcDbEntity
  8
4
 62
    92
100
AcDbMText
 10
914.1715592195001
 20
625.0671816218748
 30
0.0
 40
6.250000148999999
 41
0.0
 71
     1
 72
     1
  1
120
  7
SLDTEXTSTYLE0
 73
     1
 44
1.0
  0
MTEXT
  5
49C
330
A
100
AcDbEntity
  8
4
 62
    92
100
AcDbMText
 10
100.8401597556251
 20
489.7768070912499
 30
0.0
 40
6.250000148999999
 41
0.0
 71
     1
 72
     1
  1
8
  7
SLDTEXTSTYLE0
 11
0.0
 21
1.0
 31
0.0
 73
     1
 44
1.0
  0
MTEXT
  5
49D
330
A
100
AcDbEntity
  8
4
 62
    92
100
AcDbMText
 10
58.27505958575
 20
528.9315843928748
 30
0.0
 40
6.250000148999999
 41
0.0
 71
     1
 72
     1
  1
27
  7
SLDTEXTSTYLE0
 73
     1
 44
1.0
  0
MTEXT
  5
49E
330
A
100
AcDbEntity
  8
4
 62
    92
100
AcDbMText
 10
991.2863842271251
 20
389.636209081375
 30
0.0
 40
6.250000148999999
 41
0.0
 71
     1
 72
     1
  1
%%c130
  7
SLDTEXTSTYLE0
 11
0.7071066404865335
 21
0.7071069218865337
 31
0.0
 73
     1
 44
1.0
  0
MTEXT
  5
49F
330
A
100
AcDbEntity
  8
4
 62
    92
100
AcDbMText
 10
1006.98847738025
 20
376.0959629039999
 30
0.0
 40
6.250000148999999
 41
0.0
 71
     1
 72
     1
  1
150
  7
SLDTEXTSTYLE0
 11
0.7071101232286499
 21
0.7071034391286496
 31
0.0
 73
     1
 44
1.0
  0
MTEXT
  5
4A0
330
A
100
AcDbEntity
  8
4
 62
    92
100
AcDbMText
 10
836.9772690583749
 20
384.8647356379999
 30
0.0
 40
6.250000148999999
 41
0.0
 71
     1
 72
     1
  1
%%c9
  7
SLDTEXTSTYLE0
 73
     1
 44
1.0
  0
MTEXT
  5
4A1
330
A
100
AcDbEntity
  8
4
 62
    92
100
AcDbMText
 10
1020.53365645975
 20
526.3674214101249
 30
0.0
 40
6.250000148999999
 41
0.0
 71
     1
 72
     1
  1
90
  7
SLDTEXTSTYLE0
 11
0.0
 21
1.0
 31
0.0
 73
     1
 44
1.0
  0
MTEXT
  5
4A2
330
A
100
AcDbEntity
  8
6
 62
    92
100
AcDbMText
 10
597.3419189454752
 20
735.2073270081499
 30
0.0
 40
18.3330500126
 41
0.0
 71
     2
 72
     1
  1
LSM130
  7
SLDTEXTSTYLE0
 73
     1
 44
1.0
  0
INSERT
  5
5EE
330
A
100
AcDbEntity
  8
0
  6
Continuous
100
AcDbBlockReference
 66
     1
  2
BM_Emetric
 10
0.0
 20
0.0
 30
0.0
  0
ATTRIB
  5
5F0
330
5EE
100
AcDbEntity
  8
TITLE BLOCK
  6
Continuous
100
AcDbText
 10
897.8899999999997
 20
82.55174299761829
 30
0.0
 40
5.133906008519999
  1
G. MUMM
100
AcDbAttribute
  2
GEN-TITLE-NAME{5}
 70
     0
  0
ATTRIB
  5
5F1
330
5EE
100
AcDbEntity
  8
TITLE BLOCK
  6
Continuous
100
AcDbText
 10
897.8899999999997
 20
69.8517429976183
 30
0.0
 40
5.133906008519999
  1

100
AcDbAttribute
  2
GEN-TITLE-CHKM{5}
 70
     0
  0
ATTRIB
  5
5F2
330
5EE
100
AcDbEntity
  8
TITLE BLOCK
  6
Continuous
100
AcDbText
 10
897.8899999999997
 20
57.1517429976183
 30
0.0
 40
5.133906008519999
  1

100
AcDbAttribute
  2
GEN-TITLE-APPM{5}
 70
     0
  0
ATTRIB
  5
5F3
330
5EE
100
AcDbEntity
  8
TITLE BLOCK
  6
Continuous
100
AcDbText
 10
812.8
 20
31.75
 30
0.0
 40
7.62
  1
SERVO MOTOR, LSM130
 41
0.8
100
AcDbAttribute
  2
GEN-TITLE-DES1{15.54}
 70
     0
  0
ATTRIB
  5
5F4
330
5EE
100
AcDbEntity
  8
TITLE BLOCK
  6
Continuous
100
AcDbText
 10
1074.42
 20
57.15174299761829
 30
0.0
 40
5.998969170955619
  1
1
 41
0.8
100
AcDbAttribute
  2
GEN-TITLE-SHEET-OF{2.62}
 70
     0
  0
ATTRIB
  5
5F5
330
5EE
100
AcDbEntity
  8
TITLE BLOCK
  6
Continuous
100
AcDbText
 10
1054.099999999999
 20
57.15174299761829
 30
0.0
 40
5.998969170955619
  1
1
 41
0.8
100
AcDbAttribute
  2
GEN-TITLE-SHEET{2.62}
 70
     0
  0
ATTRIB
  5
5F6
330
5EE
100
AcDbEntity
  8
TITLE BLOCK
  6
Continuous
100
AcDbText
 10
975.3600000000002
 20
57.1517429976183
 30
0.0
 40
5.133906008519999
  1

 41
0.8
100
AcDbAttribute
  2
GEN-TITLE-MAT{11.15}
 70
     0
  0
ATTRIB
  5
5F7
330
5EE
100
AcDbEntity
  8
TITLE BLOCK
  6
Continuous
100
AcDbText
 10
975.3600000000002
 20
69.8517429976183
 30
0.0
 40
5.133906008519999
  1

100
AcDbAttribute
  2
GEN-TITLE-MACH{5}
 70
     0
  0
ATTRIB
  5
5F8
330
5EE
100
AcDbEntity
  8
TITLE BLOCK
  6
Continuous
100
AcDbText
 10
975.3600000000002
 20
82.55174299761829
 30
0.0
 40
5.133906008519999
  1
70503201
100
AcDbAttribute
  2
GEN-TITLE-REF{5}
 70
     0
  0
ATTRIB
  5
5F9
330
5EE
100
AcDbEntity
  8
TITLE BLOCK
  6
Continuous
100
AcDbText
 10
1049.39
 20
69.85174299761829
 30
0.0
 40
5.133906008519999
  1
14.01.03
100
AcDbAttribute
  2
GEN-TITLE-PLOT{5}
 70
     0
  0
ATTRIB
  5
5FA
330
5EE
100
AcDbEntity
  8
TITLE BLOCK
  6
Continuous
100
AcDbText
 10
965.2000000000001
 20
31.75
 30
0.0
 40
7.62
  1
LSM130-xxx-xxx-xxx-2KA
 41
0.8
100
AcDbAttribute
  2
GEN-TITLE-NR{13.37}
 70
     0
  0
SEQEND
  5
5EF
330
5EE
100
AcDbEntity
  8
0
  6
Continuous
  0
ENDSEC
  0
SECTION
  2
OBJECTS
  0
DICTIONARY
  5
19
330
0
100
AcDbDictionary
281
     1
  3
ACAD_GROUP
350
1A
  3
ACAD_LAYOUT
350
4A7
  3
ACAD_MLINESTYLE
350
1B
  3
ACAD_PLOTSETTINGS
350
4A8
  3
ACAD_PLOTSTYLENAME
350
4A5
  3
AcDbVariableDictionary
350
4B6
  3
AcmDictionary
350
4C9
  3
AMG
350
4AD
  3
AMGSNAPSETTINGS
350
4FC
  3
ASE_INDEX_DICTIONARY
350
5FF
  3
DWGPROPS
350
622
  0
DICTIONARY
  5
602
330
A
100
AcDbDictionary
280
     1
281
     1
  3
ACAD_INDEX
360
603
  0
DICTIONARY
  5
1A
102
{ACAD_REACTORS
330
19
102
}
330
19
100
AcDbDictionary
281
     1
  0
DICTIONARY
  5
4A7
102
{ACAD_REACTORS
330
19
102
}
330
19
100
AcDbDictionary
281
     1
  3
Layout1
350
4AA
  3
Model
350
4A9
  0
DICTIONARY
  5
1B
102
{ACAD_REACTORS
330
19
102
}
330
19
100
AcDbDictionary
281
     1
  3
STANDARD
350
1C
  0
DICTIONARY
  5
4A8
102
{ACAD_REACTORS
330
19
102
}
330
19
100
AcDbDictionary
281
     1
  0
ACDBDICTIONARYWDFLT
  5
4A5
102
{ACAD_REACTORS
330
19
102
}
330
19
100
AcDbDictionary
281
     1
  3
Normal
350
4A6
100
AcDbDictionaryWithDefault
340
4A6
  0
DICTIONARY
  5
4B6
102
{ACAD_REACTORS
330
19
102
}
330
19
100
AcDbDictionary
281
     1
  3
INDEXCTL
350
4B7
  0
DICTIONARY
  5
4C9
102
{ACAD_REACTORS
330
19
102
}
330
19
100
AcDbDictionary
281
     1
  3
AcmBOMDATA
350
4CA
  3
AcmStdDictionary
350
4CF
  0
DICTIONARY
  5
4AD
102
{ACAD_REACTORS
330
19
102
}
330
19
100
AcDbDictionary
281
     1
  3
AcMgSettings
350
4AE
  3
AMGLAYCFG
350
4D1
  0
DICTIONARY
  5
4FC
102
{ACAD_REACTORS
330
19
102
}
330
19
100
AcDbDictionary
281
     1
  3
DIMENSION
350
501
  3
FEA
350
500
  3
HATCH (1)
350
4FD
  3
HATCH (2)
350
4FE
  3
SIMPLE WELD
350
502
  3
SYMBOLS
350
4FF
  0
DICTIONARY
  5
5FF
102
{ACAD_REACTORS
330
19
102
}
330
19
100
AcDbDictionary
281
     1
  3
ASEBlockHierarchyIndexRecord
350
601
1001
DCO15
1040
1456023924.986
  0
XRECORD
  5
622
102
{ACAD_REACTORS
330
19
102
}
330
19
100
AcDbXrecord
280
     1
  1
DWGPROPS COOKIE
  2

  3

  4

  6

  7

  8

  9

300
AmdtFileType=84
301
=
302
=
303
=
304
=
305
=
306
=
307
=
308
=
309
=
 40
0.0173549421296296
 41
2311942.262191597
 42
2452655.334216343
  1

 90
        1
  0
DICTIONARY
  5
603
102
{ACAD_REACTORS
330
602
102
}
330
602
100
AcDbDictionary
281
     1
  3
*A1
350
604
  0
LAYOUT
  5
4AA
102
{ACAD_REACTORS
330
4A7
102
}
330
4A7
100
AcDbPlotSettings
  1

  2
\\CONTROLSFS1\HP LaserJet 5Si MX
  4

  6

 40
0.0
 41
0.0
 42
0.0
 43
0.0
 44
0.0
 45
0.0
 46
0.0
 47
0.0
 48
0.0
 49
0.0
140
0.0
141
0.0
142
1.0
143
1.0
 70
   688
 72
     0
 73
     0
 74
     5
  7
monochrome.ctb
 75
    16
147
1.0
148
0.0
149
0.0
100
AcDbLayout
  1
Layout1
 70
     1
 71
     1
 10
0.0
 20
0.0
 11
12.0
 21
9.0
 12
0.0
 22
0.0
 32
0.0
 14
1.000000000000000E+20
 24
1.000000000000000E+20
 34
1.000000000000000E+20
 15
-1.000000000000000E+20
 25
-1.000000000000000E+20
 35
-1.000000000000000E+20
146
0.0
 13
0.0
 23
0.0
 33
0.0
 16
1.0
 26
0.0
 36
0.0
 17
0.0
 27
1.0
 37
0.0
 76
     0
330
B
  0
LAYOUT
  5
4A9
102
{ACAD_REACTORS
330
4A7
102
}
330
4A7
100
AcDbPlotSettings
  1

  2
\\Fdlfs06\Engineering - Digital PrintServer 17/600 C
  4
Letter
  6

 40
6.085416793823242
 41
3.630082130432128
 42
6.085418701171875
 43
5.027069091796875
 44
215.8999938964843
 45
279.3999938964843
 46
0.0
 47
3.556
 48
0.0
 49
0.0
140
0.0
141
0.0
142
1.0
143
107.6713562919231
 70
 11956
 72
     0
 73
     1
 74
     1
  7
monochrome.ctb
 75
     0
147
0.0092875211610482
148
0.3255366854427166
149
0.2302009418498301
100
AcDbLayout
  1
Model
 70
     1
 71
     0
 10
0.0
 20
0.0
 11
12.0
 21
9.0
 12
0.0
 22
0.0
 32
0.0
 14
0.0
 24
0.0
 34
0.0
 15
0.0
 25
0.0
 35
0.0
146
0.0
 13
0.0
 23
0.0
 33
0.0
 16
1.0
 26
0.0
 36
0.0
 17
0.0
 27
1.0
 37
0.0
 76
     0
330
A
  0
MLINESTYLE
  5
1C
102
{ACAD_REACTORS
330
1B
102
}
330
1B
100
AcDbMlineStyle
  2
STANDARD
 70
     0
  3

 62
     0
 51
90.0
 52
90.0
 71
     2
 49
0.5
 62
   256
  6
BYLAYER
 49
-0.5
 62
   256
  6
BYLAYER
  0
ACDBPLACEHOLDER
  5
4A6
102
{ACAD_REACTORS
330
4A5
102
}
330
4A5
  0
DICTIONARYVAR
  5
4B7
102
{ACAD_REACTORS
330
4B6
102
}
330
4B6
100
DictionaryVariables
280
     0
  1
1
  0
ACMDATADICTIONARY
  5
4CA
102
{ACAD_REACTORS
330
4C9
102
}
330
4C9
100
AcDbDictionary
281
     1
  3
*A1
350
4CB
100
AcmDataDictionary
  0
DICTIONARY
  5
4CF
102
{ACAD_REACTORS
330
4C9
102
}
330
4C9
100
AcDbDictionary
281
     1
  3
ANSI
350
4D0
  0
DICTIONARY
  5
4AE
102
{ACAD_REACTORS
330
4AD
102
}
330
4AD
100
AcDbDictionary
281
     1
  3
DWGSETTINGS
350
4AF
  3
TRANSSETTINGS
350
4B0
  0
ACAMGFILTERDAT
  5
501
102
{ACAD_REACTORS
330
4FC
102
}
330
4FC
100
AcAmgFilterDat
 70
    15
  1
DIMENSION,AMDT_*_DIM
  2
*
  3
*
  4
*
  5
*
290
     1
  0
ACAMGFILTERDAT
  5
500
102
{ACAD_REACTORS
330
4FC
102
}
330
4FC
100
AcAmgFilterDat
 70
    15
  1
*
  2
AM_FEA-AM_*
  3
*
  4
*
  5
*
290
     1
  0
ACAMGFILTERDAT
  5
4FD
102
{ACAD_REACTORS
330
4FC
102
}
330
4FC
100
AcAmgFilterDat
 70
    15
  1
HATCH
  2
*
  3
*
  4
*
  5
*
290
     1
  0
ACAMGFILTERDAT
  5
4FE
102
{ACAD_REACTORS
330
4FC
102
}
330
4FC
100
AcAmgFilterDat
 70
    15
  1
LINE
  2
8,8N,*-8,*-8N,AM_8,AM_8N,*-AM_8,*-AM_8N
  3
*
  4
*
  5
INSERT,STDPART2D
290
     1
  0
ACAMGFILTERDAT
  5
502
102
{ACAD_REACTORS
330
4FC
102
}
330
4FC
100
AcAmgFilterDat
 70
    15
  1
ARC
  2
AM_5
  3
*
  4
2
  5
INSERT
290
     0
  0
ACAMGFILTERDAT
  5
4FF
102
{ACAD_REACTORS
330
4FC
102
}
330
4FC
100
AcAmgFilterDat
 70
    15
  1
ACMFCFRAME,ACMDATUMTARGET,ACMDATUMID,ACMWELDSYM,ACMSURFSYM,ACMFEATID,ACMPARTREF,ACMBALLOON,AMDTEDGESYM
  2
*
  3
*
  4
*
  5
*
290
     1
  0
XRECORD
  5
601
102
{ACAD_REACTORS
330
5FF
102
}
330
5FF
100
AcDbXrecord
280
     1
330
5EE
  0
LAYER_INDEX
  5
604
102
{ACAD_REACTORS
330
603
102
}
330
603
100
AcDbIndex
 40
2452655.340613263
100
AcDbLayerIndex
  8
0
360
605
 90
        1
  8
DEFPOINTS
360
606
 90
        0
  8
1
360
607
 90
       56
  8
5
360
608
 90
        0
  8
6
360
609
 90
       37
  8
11
360
60A
 90
      645
  8
2
360
60B
 90
        0
  8
4
360
60C
 90
      354
  8
90
360
60D
 90
        0
  8
10
360
60E
 90
        4
  8
BORDER
360
60F
 90
        0
  8
TITLE BLOCK
360
610
 90
        0
  0
ACMDATAENTRYBLOCK
  5
4CB
102
{ACAD_REACTORS
330
4CA
102
}
330
4CA
100
AcmDataEntry
100
AcmDataEntryBlock
  0
IDBUFFER
  5
605
330
0
100
AcDbIdBuffer
330
5EE
  0
IDBUFFER
  5
606
330
0
100
AcDbIdBuffer
  0
IDBUFFER
  5
607
330
0
100
AcDbIdBuffer
330
B1
330
B2
330
B3
330
132
330
133
330
134
330
135
330
296
330
297
330
298
330
299
330
29A
330
29B
330
29C
330
29D
330
29E
330
2A0
330
2A1
330
2A2
330
2A3
330
2A4
330
2A5
330
2A6
330
2A7
330
2A8
330
2A9
330
2AA
330
2AB
330
2AC
330
2AD
330
2AE
330
2AF
330
2B0
330
2B1
330
2B2
330
2B3
330
2B4
330
2B5
330
2B6
330
2B7
330
2B8
330
2CE
330
2CF
330
367
330
368
330
369
330
36A
330
36B
330
36C
330
372
330
390
330
391
330
392
330
393
330
3B8
330
3F0
  0
IDBUFFER
  5
608
330
0
100
AcDbIdBuffer
  0
IDBUFFER
  5
609
330
0
100
AcDbIdBuffer
330
457
330
466
330
469
330
46A
330
46D
330
46E
330
46F
330
470
330
471
330
472
330
473
330
474
330
476
330
477
330
478
330
479
330
47A
330
47B
330
47C
330
47D
330
47E
330
47F
330
480
330
481
330
482
330
483
330
484
330
485
330
486
330
487
330
488
330
489
330
48A
330
48B
330
495
330
499
330
4A2
  0
IDBUFFER
  5
60A
330
0
100
AcDbIdBuffer
330
4D
330
4E
330
4F
330
50
330
51
330
52
330
53
330
54
330
55
330
56
330
57
330
58
330
59
330
5A
330
5B
330
5C
330
5D
330
5E
330
5F
330
60
330
61
330
62
330
63
330
64
330
65
330
67
330
68
330
69
330
6A
330
6B
330
6C
330
6D
330
6E
330
6F
330
70
330
72
330
73
330
74
330
75
330
76
330
77
330
78
330
79
330
7A
330
7B
330
7C
330
7D
330
7E
330
7F
330
80
330
81
330
82
330
83
330
84
330
85
330
86
330
87
330
88
330
89
330
8A
330
8B
330
8C
330
8D
330
8E
330
8F
330
90
330
91
330
92
330
93
330
94
330
95
330
96
330
97
330
99
330
9A
330
9B
330
9C
330
9D
330
9E
330
9F
330
A0
330
A1
330
A2
330
A4
330
A5
330
A6
330
A7
330
A8
330
A9
330
AA
330
AB
330
AC
330
AD
330
AE
330
AF
330
B0
330
136
330
137
330
138
330
139
330
13A
330
13B
330
13C
330
13D
330
13E
330
13F
330
140
330
141
330
142
330
143
330
144
330
145
330
146
330
147
330
148
330
149
330
14A
330
14B
330
14C
330
14D
330
14E
330
14F
330
150
330
151
330
152
330
153
330
154
330
155
330
156
330
157
330
158
330
159
330
15A
330
15B
330
15C
330
15D
330
15E
330
15F
330
160
330
161
330
162
330
163
330
164
330
165
330
166
330
167
330
168
330
169
330
16A
330
16B
330
16C
330
16D
330
16E
330
16F
330
170
330
171
330
172
330
173
330
174
330
175
330
176
330
177
330
178
330
179
330
17A
330
17B
330
17C
330
17D
330
17E
330
17F
330
180
330
181
330
182
330
183
330
184
330
185
330
186
330
187
330
188
330
189
330
18A
330
18B
330
18C
330
18D
330
18E
330
18F
330
190
330
191
330
192
330
193
330
194
330
195
330
196
330
197
330
198
330
199
330
19A
330
19B
330
19C
330
19D
330
19E
330
19F
330
1A0
330
1A1
330
1A2
330
1A3
330
1A4
330
1A5
330
1A6
330
1A7
330
1A8
330
1A9
330
1AA
330
1AB
330
1AC
330
1AD
330
1AE
330
1AF
330
1B0
330
1B1
330
1B2
330
1B3
330
1B4
330
1B5
330
1B6
330
1B7
330
1B8
330
1B9
330
1BA
330
1BB
330
1BC
330
1BD
330
1BE
330
1BF
330
1C0
330
1C1
330
1C2
330
1C3
330
1C4
330
1C5
330
1C6
330
1C7
330
1C8
330
1C9
330
1CA
330
1CB
330
1CC
330
1CD
330
1CE
330
1CF
330
1D0
330
1D1
330
1D2
330
1D3
330
1D4
330
1D5
330
1D6
330
1D7
330
1D8
330
1D9
330
1DA
330
1DB
330
1DC
330
1DD
330
1DE
330
1DF
330
1E0
330
1E1
330
1E2
330
1E3
330
1E4
330
1E5
330
1E6
330
1E7
330
1E8
330
1E9
330
1EA
330
1EB
330
1EC
330
1ED
330
1EE
330
1EF
330
1F0
330
1F1
330
1F2
330
1F3
330
1F4
330
1F5
330
1F6
330
1F7
330
1F8
330
1F9
330
1FA
330
1FB
330
1FC
330
1FD
330
1FE
330
1FF
330
200
330
201
330
202
330
203
330
204
330
205
330
206
330
207
330
208
330
209
330
20A
330
20B
330
20C
330
20D
330
20E
330
20F
330
210
330
211
330
212
330
213
330
214
330
215
330
216
330
217
330
218
330
219
330
21A
330
21B
330
21C
330
21D
330
21E
330
21F
330
220
330
221
330
222
330
223
330
224
330
225
330
226
330
227
330
228
330
229
330
22A
330
22B
330
235
330
236
330
237
330
238
330
239
330
23A
330
23B
330
23C
330
23D
330
23E
330
23F
330
240
330
241
330
242
330
243
330
244
330
245
330
246
330
247
330
248
330
249
330
24A
330
24B
330
24C
330
24D
330
24E
330
24F
330
250
330
251
330
252
330
253
330
254
330
255
330
256
330
257
330
258
330
259
330
25A
330
25B
330
25C
330
25D
330
25E
330
25F
330
260
330
261
330
262
330
263
330
264
330
265
330
266
330
267
330
268
330
269
330
26A
330
26B
330
26C
330
26D
330
26E
330
26F
330
270
330
271
330
272
330
273
330
274
330
275
330
276
330
277
330
278
330
279
330
27A
330
27B
330
27C
330
27D
330
27E
330
27F
330
280
330
281
330
282
330
283
330
284
330
285
330
286
330
287
330
288
330
289
330
28A
330
28B
330
28C
330
28D
330
28E
330
28F
330
290
330
291
330
292
330
293
330
294
330
295
330
2B9
330
2BA
330
2BB
330
2BC
330
2BD
330
2BE
330
2BF
330
2C0
330
2C1
330
2C2
330
2C3
330
2C4
330
2C5
330
2C6
330
314
330
315
330
316
330
317
330
318
330
319
330
31A
330
31B
330
31C
330
31D
330
31E
330
31F
330
320
330
321
330
322
330
323
330
324
330
325
330
326
330
327
330
328
330
329
330
32A
330
32B
330
32C
330
32D
330
32E
330
32F
330
330
330
331
330
332
330
333
330
334
330
335
330
336
330
337
330
338
330
339
330
33A
330
33B
330
33C
330
33D
330
33E
330
33F
330
340
330
341
330
342
330
343
330
344
330
345
330
346
330
347
330
348
330
349
330
34A
330
34B
330
34C
330
34D
330
34E
330
34F
330
350
330
351
330
352
330
353
330
354
330
355
330
356
330
357
330
358
330
359
330
35A
330
35B
330
35C
330
35D
330
35E
330
35F
330
360
330
361
330
362
330
37C
330
37D
330
37E
330
37F
330
380
330
381
330
382
330
383
330
384
330
385
330
386
330
387
330
388
330
389
330
38A
330
38B
330
38C
330
38D
330
38E
330
38F
330
394
330
395
330
396
330
397
330
398
330
399
330
39A
330
39B
330
39C
330
39D
330
39E
330
39F
330
3A0
330
3A1
330
3A2
330
3A3
330
3A4
330
3A5
330
3A6
330
3A7
330
3A8
330
3A9
330
3AA
330
3AB
330
3AC
330
3AD
330
3AE
330
3AF
330
3B0
330
3B1
330
3B2
330
3B3
330
3B4
330
3B5
330
3B6
330
3B7
330
3B9
330
3BA
330
3BB
330
3BC
330
3BD
330
3BE
330
3BF
330
3C0
330
3C1
330
3C2
330
3C3
330
3C4
330
3C5
330
3C6
330
3C7
330
3C8
330
3C9
330
3CA
330
3CB
330
3CC
330
3CD
330
3CE
330
3CF
330
3D0
330
3D1
330
3D2
330
3D3
330
3D4
330
3D5
330
3D6
330
3D7
330
3D8
330
3D9
330
3DA
330
3DB
330
3DC
330
3DD
330
3DE
330
3DF
330
3E0
330
3E1
330
3E2
330
3E3
330
3E4
330
3E5
330
3E6
330
3E7
330
3E8
330
3E9
330
3EA
330
3EB
330
3EC
330
3ED
330
3EE
330
3EF
330
3F1
330
3F2
  0
IDBUFFER
  5
60B
330
0
100
AcDbIdBuffer
  0
IDBUFFER
  5
60C
330
0
100
AcDbIdBuffer
330
30
330
31
330
32
330
33
330
34
330
35
330
36
330
37
330
38
330
39
330
3A
330
3B
330
3C
330
3D
330
3E
330
3F
330
40
330
41
330
42
330
43
330
44
330
45
330
46
330
47
330
48
330
49
330
4A
330
4B
330
4C
330
B4
330
B5
330
B6
330
B7
330
B8
330
B9
330
BA
330
BB
330
BC
330
BD
330
BE
330
BF
330
C0
330
C1
330
C2
330
C3
330
C4
330
C5
330
C6
330
C7
330
C8
330
C9
330
CA
330
CB
330
CC
330
CD
330
CE
330
CF
330
D0
330
D1
330
D2
330
D3
330
D4
330
D5
330
D6
330
D7
330
D8
330
D9
330
DA
330
DB
330
DC
330
DD
330
DE
330
DF
330
E0
330
E1
330
E2
330
E3
330
E4
330
E5
330
E6
330
E7
330
E8
330
E9
330
EA
330
EB
330
EC
330
ED
330
EE
330
EF
330
F0
330
F1
330
F2
330
F3
330
F4
330
F5
330
F6
330
F7
330
F8
330
F9
330
FA
330
FB
330
FC
330
FD
330
FE
330
FF
330
100
330
101
330
102
330
103
330
104
330
105
330
106
330
107
330
108
330
109
330
10A
330
10B
330
10C
330
10D
330
10E
330
10F
330
110
330
111
330
112
330
113
330
114
330
115
330
116
330
117
330
118
330
119
330
11A
330
11B
330
11C
330
11D
330
11E
330
11F
330
120
330
121
330
122
330
123
330
124
330
125
330
126
330
127
330
128
330
129
330
12A
330
12B
330
12C
330
12D
330
12E
330
12F
330
130
330
131
330
22C
330
22D
330
22E
330
22F
330
230
330
231
330
232
330
233
330
234
330
2D0
330
2D1
330
2D2
330
2D3
330
2D4
330
2D5
330
2D6
330
2D7
330
2D8
330
2D9
330
2DA
330
2DB
330
2DC
330
2DD
330
2DE
330
2DF
330
2E0
330
2E1
330
2E2
330
2E3
330
2E4
330
2E5
330
2E6
330
2E7
330
2E8
330
2E9
330
2EA
330
2EB
330
2EC
330
2ED
330
2EE
330
2EF
330
2F0
330
2F1
330
2F2
330
2F3
330
2F4
330
2F5
330
2F6
330
2F7
330
2F8
330
2F9
330
2FA
330
2FB
330
2FC
330
2FD
330
2FE
330
2FF
330
300
330
301
330
302
330
303
330
304
330
305
330
306
330
307
330
308
330
309
330
30A
330
30B
330
30C
330
30D
330
30E
330
30F
330
310
330
311
330
312
330
313
330
3F3
330
3F4
330
3F5
330
3F6
330
3F7
330
3F8
330
3F9
330
3FA
330
3FB
330
3FC
330
3FD
330
3FE
330
3FF
330
400
330
401
330
402
330
403
330
404
330
405
330
406
330
407
330
408
330
409
330
40A
330
40B
330
40C
330
40D
330
40E
330
40F
330
410
330
411
330
412
330
413
330
414
330
415
330
416
330
417
330
418
330
419
330
41A
330
41B
330
41C
330
41D
330
41E
330
41F
330
420
330
421
330
422
330
423
330
424
330
425
330
426
330
427
330
428
330
429
330
42A
330
42B
330
42C
330
42D
330
42E
330
42F
330
430
330
431
330
432
330
433
330
434
330
435
330
436
330
437
330
438
330
439
330
43A
330
43B
330
43C
330
43D
330
43E
330
43F
330
440
330
441
330
442
330
443
330
444
330
445
330
446
330
447
330
448
330
449
330
44A
330
44B
330
44C
330
44D
330
44E
330
44F
330
450
330
451
330
452
330
454
330
455
330
456
330
458
330
459
330
45A
330
45B
330
45C
330
45D
330
45E
330
45F
330
460
330
461
330
462
330
463
330
464
330
465
330
467
330
468
330
49B
330
49C
330
49D
330
49E
330
49F
330
4A0
330
4A1
  0
IDBUFFER
  5
60D
330
0
100
AcDbIdBuffer
  0
IDBUFFER
  5
60E
330
0
100
AcDbIdBuffer
330
66
330
71
330
98
330
A3
  0
IDBUFFER
  5
60F
330
0
100
AcDbIdBuffer
  0
IDBUFFER
  5
610
330
0
100
AcDbIdBuffer
  0
ENDSEC
  0
EOF
