  0
SECTION
  2
HEADER
  9
$ACADVER
  1
AC1015
  9
$ACADMAINTVER
 70
    11
  9
$DWGCODEPAGE
  3
ANSI_1252
  9
$INSBASE
 10
0.0
 20
0.0
 30
0.0
  9
$EXTMIN
 10
8.331719253324912
 20
7.722130541272768
 30
-0.0000000000000081
  9
$EXTMAX
 10
25.33301881864656
 20
18.71092092384008
 30
0.0000000000000071
  9
$LIMMIN
 10
0.0
 20
0.0
  9
$LIMMAX
 10
12.0
 20
9.0
  9
$ORTHOMODE
 70
     0
  9
$REGENMODE
 70
     1
  9
$FILLMODE
 70
     1
  9
$QTEXTMODE
 70
     0
  9
$MIRRTEXT
 70
     0
  9
$LTSCALE
 40
0.25
  9
$ATTMODE
 70
     1
  9
$TEXTSIZE
 40
0.1
  9
$TRACEWID
 40
0.05
  9
$TEXTSTYLE
  7
STANDARD
  9
$CLAYER
  8
0
  9
$CELTYPE
  6
BYLAYER
  9
$CECOLOR
 62
   256
  9
$CELTSCALE
 40
1.0
  9
$DISPSILH
 70
     0
  9
$DIMSCALE
 40
1.0
  9
$DIMASZ
 40
0.18
  9
$DIMEXO
 40
0.0625
  9
$DIMDLI
 40
0.38
  9
$DIMRND
 40
0.0
  9
$DIMDLE
 40
0.0
  9
$DIMEXE
 40
0.125
  9
$DIMTP
 40
0.0
  9
$DIMTM
 40
0.0
  9
$DIMTXT
 40
0.125
  9
$DIMCEN
 40
0.09
  9
$DIMTSZ
 40
0.0
  9
$DIMTOL
 70
     0
  9
$DIMLIM
 70
     0
  9
$DIMTIH
 70
     1
  9
$DIMTOH
 70
     1
  9
$DIMSE1
 70
     0
  9
$DIMSE2
 70
     0
  9
$DIMTAD
 70
     0
  9
$DIMZIN
 70
     0
  9
$DIMBLK
  1

  9
$DIMASO
 70
     0
  9
$DIMSHO
 70
     1
  9
$DIMPOST
  1

  9
$DIMAPOST
  1

  9
$DIMALT
 70
     0
  9
$DIMALTD
 70
     2
  9
$DIMALTF
 40
25.4
  9
$DIMLFAC
 40
1.0
  9
$DIMTOFL
 70
     0
  9
$DIMTVP
 40
0.0
  9
$DIMTIX
 70
     0
  9
$DIMSOXD
 70
     0
  9
$DIMSAH
 70
     0
  9
$DIMBLK1
  1

  9
$DIMBLK2
  1

  9
$DIMSTYLE
  2
STANDARD
  9
$DIMCLRD
 70
     0
  9
$DIMCLRE
 70
     0
  9
$DIMCLRT
 70
     0
  9
$DIMTFAC
 40
1.0
  9
$DIMGAP
 40
0.09
  9
$DIMJUST
 70
     0
  9
$DIMSD1
 70
     0
  9
$DIMSD2
 70
     0
  9
$DIMTOLJ
 70
     1
  9
$DIMTZIN
 70
     0
  9
$DIMALTZ
 70
     0
  9
$DIMALTTZ
 70
     0
  9
$DIMUPT
 70
     0
  9
$DIMDEC
 70
     4
  9
$DIMTDEC
 70
     4
  9
$DIMALTU
 70
     2
  9
$DIMALTTD
 70
     2
  9
$DIMTXSTY
  7
STANDARD
  9
$DIMAUNIT
 70
     0
  9
$DIMADEC
 70
     0
  9
$DIMALTRND
 40
0.0
  9
$DIMAZIN
 70
     0
  9
$DIMDSEP
 70
    46
  9
$DIMATFIT
 70
     3
  9
$DIMFRAC
 70
     0
  9
$DIMLDRBLK
  1

  9
$DIMLUNIT
 70
     2
  9
$DIMLWD
 70
    -2
  9
$DIMLWE
 70
    -2
  9
$DIMTMOVE
 70
     0
  9
$LUNITS
 70
     2
  9
$LUPREC
 70
     4
  9
$SKETCHINC
 40
0.1
  9
$FILLETRAD
 40
0.0
  9
$AUNITS
 70
     0
  9
$AUPREC
 70
     0
  9
$MENU
  1
.
  9
$ELEVATION
 40
0.0
  9
$PELEVATION
 40
0.0
  9
$THICKNESS
 40
0.0
  9
$LIMCHECK
 70
     0
  9
$CHAMFERA
 40
0.5
  9
$CHAMFERB
 40
0.5
  9
$CHAMFERC
 40
1.0
  9
$CHAMFERD
 40
0.0
  9
$SKPOLY
 70
     0
  9
$TDCREATE
 40
2450708.349033448
  9
$TDUCREATE
 40
2450708.557366782
  9
$TDUPDATE
 40
2452891.549317674
  9
$TDUUPDATE
 40
2452891.757651006
  9
$TDINDWG
 40
1.8217970255
  9
$TDUSRTIMER
 40
1.8217968403
  9
$USRTIMER
 70
     1
  9
$ANGBASE
 50
0.0
  9
$ANGDIR
 70
     0
  9
$PDMODE
 70
    35
  9
$PDSIZE
 40
0.0
  9
$PLINEWID
 40
0.0
  9
$SPLFRAME
 70
     0
  9
$SPLINETYPE
 70
     6
  9
$SPLINESEGS
 70
     8
  9
$HANDSEED
  5
518D
  9
$SURFTAB1
 70
     6
  9
$SURFTAB2
 70
     6
  9
$SURFTYPE
 70
     6
  9
$SURFU
 70
     6
  9
$SURFV
 70
     6
  9
$UCSBASE
  2

  9
$UCSNAME
  2

  9
$UCSORG
 10
8.333017992887789
 20
7.689530864144758
 30
0.0
  9
$UCSXDIR
 10
1.0
 20
0.0
 30
0.0
  9
$UCSYDIR
 10
0.0
 20
1.0
 30
0.0
  9
$UCSORTHOREF
  2

  9
$UCSORTHOVIEW
 70
     0
  9
$UCSORGTOP
 10
0.0
 20
0.0
 30
0.0
  9
$UCSORGBOTTOM
 10
0.0
 20
0.0
 30
0.0
  9
$UCSORGLEFT
 10
0.0
 20
0.0
 30
0.0
  9
$UCSORGRIGHT
 10
0.0
 20
0.0
 30
0.0
  9
$UCSORGFRONT
 10
0.0
 20
0.0
 30
0.0
  9
$UCSORGBACK
 10
0.0
 20
0.0
 30
0.0
  9
$PUCSBASE
  2

  9
$PUCSNAME
  2

  9
$PUCSORG
 10
0.0
 20
0.0
 30
0.0
  9
$PUCSXDIR
 10
1.0
 20
0.0
 30
0.0
  9
$PUCSYDIR
 10
0.0
 20
1.0
 30
0.0
  9
$PUCSORTHOREF
  2

  9
$PUCSORTHOVIEW
 70
     0
  9
$PUCSORGTOP
 10
0.0
 20
0.0
 30
0.0
  9
$PUCSORGBOTTOM
 10
0.0
 20
0.0
 30
0.0
  9
$PUCSORGLEFT
 10
0.0
 20
0.0
 30
0.0
  9
$PUCSORGRIGHT
 10
0.0
 20
0.0
 30
0.0
  9
$PUCSORGFRONT
 10
0.0
 20
0.0
 30
0.0
  9
$PUCSORGBACK
 10
0.0
 20
0.0
 30
0.0
  9
$USERI1
 70
     0
  9
$USERI2
 70
     0
  9
$USERI3
 70
     0
  9
$USERI4
 70
     0
  9
$USERI5
 70
     0
  9
$USERR1
 40
0.0
  9
$USERR2
 40
0.0
  9
$USERR3
 40
0.0
  9
$USERR4
 40
0.0
  9
$USERR5
 40
0.0
  9
$WORLDVIEW
 70
     1
  9
$SHADEDGE
 70
     3
  9
$SHADEDIF
 70
    70
  9
$TILEMODE
 70
     1
  9
$MAXACTVP
 70
    48
  9
$PINSBASE
 10
0.0
 20
0.0
 30
0.0
  9
$PLIMCHECK
 70
     0
  9
$PEXTMIN
 10
1.000000000000000E+20
 20
1.000000000000000E+20
 30
1.000000000000000E+20
  9
$PEXTMAX
 10
-1.000000000000000E+20
 20
-1.000000000000000E+20
 30
-1.000000000000000E+20
  9
$PLIMMIN
 10
0.0
 20
0.0
  9
$PLIMMAX
 10
12.0
 20
9.0
  9
$UNITMODE
 70
     0
  9
$VISRETAIN
 70
     1
  9
$PLINEGEN
 70
     0
  9
$PSLTSCALE
 70
     1
  9
$TREEDEPTH
 70
  3020
  9
$CMLSTYLE
  2
STANDARD
  9
$CMLJUST
 70
     0
  9
$CMLSCALE
 40
1.0
  9
$PROXYGRAPHICS
 70
     1
  9
$MEASUREMENT
 70
     0
  9
$CELWEIGHT
370
    -1
  9
$ENDCAPS
280
     0
  9
$JOINSTYLE
280
     0
  9
$LWDISPLAY
290
     0
  9
$INSUNITS
 70
     0
  9
$HYPERLINKBASE
  1

  9
$STYLESHEET
  1
monochrome.ctb
  9
$XEDIT
290
     1
  9
$CEPSNTYPE
380
     0
  9
$PSTYLEMODE
290
     1
  9
$FINGERPRINTGUID
  2
{21BBB917-79A7-48EA-B0E7-997A5F90763C}
  9
$VERSIONGUID
  2
{93362D83-DF7B-4475-8043-FD11E3DC8B7B}
  9
$EXTNAMES
290
     1
  9
$PSVPSCALE
 40
0.0
  9
$OLESTARTUP
290
     0
  0
ENDSEC
  0
SECTION
  2
CLASSES
  0
CLASS
  1
LWPOLYLINE
  2
AcDbPolyline
  3
AutoCAD 2000
 90
    32768
280
     0
281
     1
  0
CLASS
  1
DICTIONARYVAR
  2
AcDbDictionaryVar
  3
AutoCAD 2000
 90
        0
280
     0
281
     0
  0
CLASS
  1
HATCH
  2
AcDbHatch
  3
AutoCAD 2000
 90
    32768
280
     0
281
     1
  0
CLASS
  1
ACDBDICTIONARYWDFLT
  2
AcDbDictionaryWithDefault
  3
AutoCAD 2000
 90
        0
280
     0
281
     0
  0
CLASS
  1
ACDBPLACEHOLDER
  2
AcDbPlaceHolder
  3
AutoCAD 2000
 90
        0
280
     0
281
     0
  0
CLASS
  1
LAYOUT
  2
AcDbLayout
  3
AutoCAD 2000
 90
        0
280
     0
281
     0
  0
CLASS
  1
ACME_DOCUMENT
  2
AcMeDbDoc
  3
AcMeServices
 90
        0
280
     0
281
     0
  0
CLASS
  1
AMGSETTINGSOBJ
  2
AmgSettingsObj
  3
"AcadM|Product Description: AutoCAD Mechanical 2000|Company: Autodesk"
 90
        0
280
     0
281
     0
  0
CLASS
  1
ACMESCOPE
  2
AcMeScope
  3
AcMeServices
 90
        0
280
     0
281
     0
  0
CLASS
  1
ACMECOMMANDHISTORY
  2
AcMeCommandHistory
  3
AcMeServices
 90
        0
280
     0
281
     0
  0
CLASS
  1
ACIMSYSVARMAN
  2
AcImSysVarManager
  3
AcMeServices
 90
        0
280
     0
281
     0
  0
CLASS
  1
ACIMREALSYSVAR
  2
AcImRealSysVar
  3
AcMeServices
 90
        0
280
     0
281
     0
  0
CLASS
  1
ACIMINTSYSVAR
  2
AcImIntSysVar
  3
AcMeServices
 90
        0
280
     0
281
     0
  0
CLASS
  1
ACMEDRAWINGMAN
  2
AcMeDrawingMan
  3
AcMeServices
 90
        0
280
     0
281
     0
  0
CLASS
  1
ACMEVIEW
  2
AcMeView
  3
AcMeServices
 90
        0
280
     0
281
     0
  0
CLASS
  1
ACDBENTITYCACHE
  2
AcMeEntityCache
  3
AcMeServices
 90
        0
280
     0
281
     0
  0
CLASS
  1
GSMANAGER
  2
AcMeGSManager
  3
AcMeServices
 90
        0
280
     0
281
     0
  0
CLASS
  1
AMDTINTERNALREACTOR
  2
AmdtInternalReactor
  3
AcMeServices
 90
        0
280
     0
281
     0
  0
CLASS
  1
ACMESTATEMGR
  2
AcMeStateMgr
  3
AcMeServices
 90
        0
280
     0
281
     0
  0
CLASS
  1
ACGREFMASTER
  2
AcGrefMaster
  3
AcAttribServices
 90
        0
280
     0
281
     0
  0
CLASS
  1
ACME_DATABASE
  2
AcMeDbDatabase
  3
AcMeServices
 90
        0
280
     0
281
     0
  0
CLASS
  1
ACRFINSADJUSTERMGR
  2
AcRfInsAdjusterMgr
  3
AcMeServices
 90
        0
280
     0
281
     0
  0
CLASS
  1
ACGREFMASTER
  2
AcGrefacadMaster
  3
AcGrefServices
 90
        0
280
     0
281
     0
  0
CLASS
  1
AMIMASTER
  2
AmiMaster
  3
AmiServices
 90
        0
280
     0
281
     0
  0
CLASS
  1
ACMDATADICTIONARY
  2
AcmDataDictionary
  3
"AcmSymBB|Product Description: AutoCAD Mechanical 2000|Company: Autodesk"
 90
        0
280
     0
281
     0
  0
CLASS
  1
ACMDATAENTRYBLOCK
  2
AcmDataEntryBlock
  3
"AcmSymBB|Product Description: AutoCAD Mechanical 2000|Company: Autodesk"
 90
        0
280
     0
281
     0
  0
CLASS
  1
ACIMSTRSYSVAR
  2
AcImStrSysVar
  3
AcMeServices
 90
        0
280
     0
281
     0
  0
CLASS
  1
ACMSTANDARDANSI
  2
AcmStandardANSI
  3
"Amdt_StdImp|Product Description: AutoCAD Mechanical 2000|Company: Autodesk"
 90
        0
280
     0
281
     0
  0
CLASS
  1
AMGOBJPROPCFG
  2
AmgObjPropCfg
  3
"AmgLay|Product Description: AutoCAD Mechanical 2000|Company: Autodesk"
 90
        1
280
     0
281
     0
  0
CLASS
  1
ACMSURFSTANDARDANSI
  2
AcmSurfTextStdANSI
  3
"Amdt_StdImp|Product Description: AutoCAD Mechanical 2000|Company: Autodesk"
 90
        0
280
     0
281
     0
  0
CLASS
  1
ACMFCFSTANDARDANSI
  2
AcmFCFStdANSI
  3
"Amdt_StdImp|Product Description: AutoCAD Mechanical 2000|Company: Autodesk"
 90
        0
280
     0
281
     0
  0
CLASS
  1
ACMWELDSTANDARDANSI
  2
AcmWeldingStdANSI
  3
"Amdt_StdImp|Product Description: AutoCAD Mechanical 2000|Company: Autodesk"
 90
        0
280
     0
281
     0
  0
CLASS
  1
ACMIDSTANDARDANSI
  2
AcmIdStdANSI
  3
"Amdt_StdImp|Product Description: AutoCAD Mechanical 2000|Company: Autodesk"
 90
        0
280
     0
281
     0
  0
CLASS
  1
ACMDATUMSTANDARDANSI
  2
AcmDatumStdANSI
  3
"Amdt_StdImp|Product Description: AutoCAD Mechanical 2000|Company: Autodesk"
 90
        0
280
     0
281
     0
  0
CLASS
  1
ACMBOMSTANDARDANSI
  2
AcmBOMStdANSI
  3
"Amdt_StdImp|Product Description: AutoCAD Mechanical 2000|Company: Autodesk"
 90
        0
280
     0
281
     0
  0
CLASS
  1
ACMDETAILSTANDARDANSI
  2
AmdtDetailSymStdANSI
  3
"Amdt_StdImp|Product Description: AutoCAD Mechanical 2000|Company: Autodesk"
 90
        0
280
     0
281
     0
  0
CLASS
  1
ACMSECTIONSTANDARDANSI
  2
AmdtSectionSymStdANSI
  3
"Amdt_StdImp|Product Description: AutoCAD Mechanical 2000|Company: Autodesk"
 90
        0
280
     0
281
     0
  0
CLASS
  1
ACMCENTERLINESTANDARDANSI
  2
AmdtCenterLineStdANSI
  3
"Amdt_StdImp|Product Description: AutoCAD Mechanical 2000|Company: Autodesk"
 90
        0
280
     0
281
     0
  0
CLASS
  1
ACMTHREADLINESTANDARDANSI
  2
AmdtThreadLineStdANSI
  3
"Amdt_StdImp|Product Description: AutoCAD Mechanical 2000|Company: Autodesk"
 90
        0
280
     0
281
     0
  0
CLASS
  1
"AcAmgLayStd"
  2
AcAmgLayStd
  3
"AcAmgLayStd|Product Description: AutoCAD Mechanical 2000|Company: Autodesk"
 90
        0
280
     0
281
     0
  0
CLASS
  1
"AcAmgDimStd"
  2
AcAmgDimStd
  3
"AcAmgDimStd|Product Description: AutoCAD Mechanical 2000|Company: Autodesk"
 90
        0
280
     0
281
     0
  0
CLASS
  1
AcAmgTitleStd
  2
AcAmgTitleStd
  3
"TITLEAPP"
 90
        0
280
     0
281
     0
  0
CLASS
  1
ACAMGFILTERDAT
  2
AcAmgFilterDat
  3
"AcadM|Product Description: AutoCAD Mechanical 2000|Company: Autodesk"
 90
        0
280
     0
281
     0
  0
CLASS
  1
AMDTFORMULAUPDATEDISPATCHER
  2
AmdtFormulaUpdateDispatcher
  3
AcMeServices
 90
        0
280
     0
281
     0
  0
CLASS
  1
LAYER_INDEX
  2
AcDbLayerIndex
  3
AutoCAD 2000
 90
        0
280
     0
281
     0
  0
CLASS
  1
IDBUFFER
  2
AcDbIdBuffer
  3
AutoCAD 2000
 90
        0
280
     0
281
     0
  0
ENDSEC
  0
SECTION
  2
TABLES
  0
TABLE
  2
VPORT
  5
8
330
0
100
AcDbSymbolTable
 70
     6
  0
VPORT
  5
516C
330
8
100
AcDbSymbolTableRecord
100
AcDbViewportTableRecord
  2
*Active
 70
     0
 10
0.0
 20
0.0
 11
1.0
 21
1.0
 12
16.83236903598573
 22
13.21652573255642
 13
0.0
 23
0.0
 14
0.03125
 24
0.03125
 15
0.5
 25
0.5
 16
0.0
 26
0.0
 36
1.0
 17
0.0
 27
0.0
 37
0.0
 40
11.10527932655212
 41
1.607079646017698
 42
50.0
 43
0.0
 44
0.0
 50
0.0
 51
0.0
 71
     0
 72
  2000
 73
     1
 74
     0
 75
     0
 76
     0
 77
     0
 78
     0
281
     0
 65
     1
110
8.333017992887789
120
7.689530864144758
130
0.0
111
1.0
121
0.0
131
0.0
112
0.0
122
1.0
132
0.0
 79
     0
146
0.0
  0
ENDTAB
  0
TABLE
  2
LTYPE
  5
5
330
0
100
AcDbSymbolTable
 70
    25
  0
LTYPE
  5
12
330
5
100
AcDbSymbolTableRecord
100
AcDbLinetypeTableRecord
  2
BYBLOCK
 70
     0
  3

 72
    65
 73
     0
 40
0.0
  0
LTYPE
  5
13
330
5
100
AcDbSymbolTableRecord
100
AcDbLinetypeTableRecord
  2
BYLAYER
 70
     0
  3

 72
    65
 73
     0
 40
0.0
  0
LTYPE
  5
14
330
5
100
AcDbSymbolTableRecord
100
AcDbLinetypeTableRecord
  2
CONTINUOUS
 70
     0
  3
Solid line
 72
    65
 73
     0
 40
0.0
  0
LTYPE
  5
5B3
330
5
100
AcDbSymbolTableRecord
100
AcDbLinetypeTableRecord
  2
HIDDEN
 70
     0
  3
_ _ _ _ _ _ _ _ _ _ _ _ _ _ _ _ _ _ _ _ _ _ _
 72
    65
 73
     2
 40
0.375
 49
0.25
 74
     0
 49
-0.125
 74
     0
  0
LTYPE
  5
3B68
330
5
100
AcDbSymbolTableRecord
100
AcDbLinetypeTableRecord
  2
CENTER
 70
     0
  3
____ _ ____ _ ____ _ ____ _ ____ _ ____ _ ____ 
 72
    65
 73
     4
 40
2.0
 49
1.25
 74
     0
 49
-0.25
 74
     0
 49
0.25
 74
     0
 49
-0.25
 74
     0
  0
LTYPE
  5
41BF
330
5
100
AcDbSymbolTableRecord
100
AcDbLinetypeTableRecord
  2
L10
 70
     0
  3
L10
 72
    65
 73
     0
 40
0.0
  0
LTYPE
  5
41C0
330
5
100
AcDbSymbolTableRecord
100
AcDbLinetypeTableRecord
  2
LDM
 70
     0
  3
LDM
 72
    65
 73
     0
 40
0.0
  0
LTYPE
  5
4523
330
5
100
AcDbSymbolTableRecord
100
AcDbLinetypeTableRecord
  2
MS
 70
     0
  3
MEDIUM_SOLID
 72
    65
 73
     0
 40
0.0
  0
LTYPE
  5
47B5
330
5
100
AcDbSymbolTableRecord
100
AcDbLinetypeTableRecord
  2
AM_ISO02W050
 70
     0
  3
__ __ __ __ __ __ __ __ __ __ __ __ __ __ __
 72
    65
 73
     2
 40
7.5
 49
6.0
 74
     0
 49
-1.5
 74
     0
  0
LTYPE
  5
47B6
330
5
100
AcDbSymbolTableRecord
100
AcDbLinetypeTableRecord
  2
AM_ISO08W050
 70
     0
  3
____ . ____ . ____ . ____ . ____ . ____ . ____
 72
    65
 73
     4
 40
18.0
 49
12.0
 74
     0
 49
-1.5
 74
     0
 49
3.0
 74
     0
 49
-1.5
 74
     0
  0
LTYPE
  5
47B7
330
5
100
AcDbSymbolTableRecord
100
AcDbLinetypeTableRecord
  2
AM_ISO09W050
 70
     0
  3
_____ . . _____ . . _____ . . ____ .. ____
 72
    65
 73
     6
 40
22.5
 49
12.0
 74
     0
 49
-1.5
 74
     0
 49
3.0
 74
     0
 49
-1.5
 74
     0
 49
3.0
 74
     0
 49
-1.5
 74
     0
  0
LTYPE
  5
47B8
330
5
100
AcDbSymbolTableRecord
100
AcDbLinetypeTableRecord
  2
Amconstr
 70
     0
  3
_______________________
 72
    65
 73
     2
 40
9999.0
 49
9999.0
 74
     0
 49
0.0
 74
     0
  0
LTYPE
  5
47B9
330
5
100
AcDbSymbolTableRecord
100
AcDbLinetypeTableRecord
  2
AM_ISO08W050x2
 70
     0
  3
__ . __ . __ . __ . __ . __
 72
    65
 73
     4
 40
9.0
 49
6.0
 74
     0
 49
-0.75
 74
     0
 49
1.5
 74
     0
 49
-0.75
 74
     0
  0
LTYPE
  5
47BA
330
5
100
AcDbSymbolTableRecord
100
AcDbLinetypeTableRecord
  2
AM_ISO02W050x2
 70
     0
  3
 _ _ _ _ _ _ _ _ _ _ _ _
 72
    65
 73
     2
 40
3.75
 49
3.0
 74
     0
 49
-0.75
 74
     0
  0
LTYPE
  5
47BD
330
5
100
AcDbSymbolTableRecord
100
AcDbLinetypeTableRecord
  2
Amzigzag
 70
     0
  3
/\/-/\/-/\/-/\/-/\/-/\/
 72
    65
 73
     2
 40
11.00009999999999
 49
0.0001
 74
     4
 75
   135
340
47BC
 46
0.04
 50
0.0
 44
0.0
 45
0.0
 49
-11.0
 74
     0
  0
LTYPE
  5
47BE
330
5
100
AcDbSymbolTableRecord
100
AcDbLinetypeTableRecord
  2
PHANTOM2
 70
     0
  3
Phantom (.5x) ___ _ _ ___ _ _ ___ _ _ ___ _ _
 72
    65
 73
     6
 40
1.25
 49
0.625
 74
     0
 49
-0.125
 74
     0
 49
0.125
 74
     0
 49
-0.125
 74
     0
 49
0.125
 74
     0
 49
-0.125
 74
     0
  0
LTYPE
  5
47BF
330
5
100
AcDbSymbolTableRecord
100
AcDbLinetypeTableRecord
  2
CENTER2
 70
     0
  3
Center (.5x) ___ _ ___ _ ___ _ ___ _ ___ _ ___
 72
    65
 73
     4
 40
1.125
 49
0.75
 74
     0
 49
-0.125
 74
     0
 49
0.125
 74
     0
 49
-0.125
 74
     0
  0
LTYPE
  5
47C0
330
5
100
AcDbSymbolTableRecord
100
AcDbLinetypeTableRecord
  2
HIDDEN2
 70
     0
  3
Hidden (.5x) _ _ _ _ _ _ _ _ _ _ _ _ _ _ _ _ _
 72
    65
 73
     2
 40
0.1875
 49
0.125
 74
     0
 49
-0.0625
 74
     0
  0
LTYPE
  5
47C1
330
5
100
AcDbSymbolTableRecord
100
AcDbLinetypeTableRecord
  2
Amzigzag2
 70
     0
  3
/\/-/\/-/\/-/\/-/\/-/\/
 72
    65
 73
     2
 40
0.4401
 49
0.0001
 74
     4
 75
   135
340
47BC
 46
0.0016
 50
0.0
 44
0.0
 45
0.0
 49
-0.4400000000000001
 74
     0
  0
LTYPE
  5
47CE
330
5
100
AcDbSymbolTableRecord
100
AcDbLinetypeTableRecord
  2
ACANSTGB
 70
     0
  3
__ . . __ . .
 72
    65
 73
     6
 40
0.35433070866
 49
0.15748031496
 74
     0
 49
-0.03937007874
 74
     0
 49
0.03937007874
 74
     0
 49
-0.03937007874
 74
     0
 49
0.03937007874
 74
     0
 49
-0.03937007874
 74
     0
  0
LTYPE
  5
47CF
330
5
100
AcDbSymbolTableRecord
100
AcDbLinetypeTableRecord
  2
ACANSTGL
 70
     0
  3
_ _ _ _ _
 72
    65
 73
     2
 40
0.11811023622
 49
0.07874015748
 74
     0
 49
-0.03937007874
 74
     0
  0
LTYPE
  5
47E7
330
5
100
AcDbSymbolTableRecord
100
AcDbLinetypeTableRecord
  2
gen3
 70
     0
  3
-- -- -- -- -- -- -- -- -- -- -- -- -- -- --
 72
    65
 73
     2
 40
6.25
 49
4.75
 74
     0
 49
-1.5
 74
     0
  0
LTYPE
  5
47E8
330
5
100
AcDbSymbolTableRecord
100
AcDbLinetypeTableRecord
  2
gen7
 70
     0
  3
____ . ____ . ____ . ____ . ____ . ____ . ____
 72
    65
 73
     4
 40
13.75
 49
9.75
 74
     0
 49
-1.5
 74
     0
 49
1.0
 74
     0
 49
-1.5
 74
     0
  0
LTYPE
  5
47E9
330
5
100
AcDbSymbolTableRecord
100
AcDbLinetypeTableRecord
  2
gen3a
 70
     0
  3
 - - - - -
 72
    65
 73
     2
 40
3.125
 49
2.25
 74
     0
 49
-0.875
 74
     0
  0
LTYPE
  5
47EA
330
5
100
AcDbSymbolTableRecord
100
AcDbLinetypeTableRecord
  2
gen7a
 70
     0
  3
__ . __ . __
 72
    65
 73
     4
 40
6.875
 49
4.75
 74
     0
 49
-0.875
 74
     0
 49
0.375
 74
     0
 49
-0.875
 74
     0
  0
LTYPE
  5
47EB
330
5
100
AcDbSymbolTableRecord
100
AcDbLinetypeTableRecord
  2
gen4a
 70
     0
  3
_____ . . _____ . . _____ . . ____ .. ____
 72
    65
 73
     6
 40
16.25
 49
9.75
 74
     0
 49
-1.5
 74
     0
 49
1.0
 74
     0
 49
-1.5
 74
     0
 49
1.0
 74
     0
 49
-1.5
 74
     0
  0
LTYPE
  5
47EC
330
5
100
AcDbSymbolTableRecord
100
AcDbLinetypeTableRecord
  2
genzigzag
 70
     0
  3
/\/-/\/-/\/-/\/-/\/-/\/
 72
    65
 73
     2
 40
12.0001
 49
0.0001
 74
     4
 75
   135
340
47EE
 46
2.0
 50
0.0
 44
0.0
 45
0.0
 49
-12.0
 74
     0
  0
ENDTAB
  0
TABLE
  2
LAYER
  5
2
330
0
100
AcDbSymbolTable
 70
     7
  0
LAYER
  5
E
330
2
100
AcDbSymbolTableRecord
100
AcDbLayerTableRecord
  2
0
 70
     0
 62
     7
  6
CONTINUOUS
370
    -3
390
4189
  0
LAYER
  5
3B6A
330
2
100
AcDbSymbolTableRecord
100
AcDbLayerTableRecord
  2
DEFPOINTS
 70
     0
 62
     7
  6
CONTINUOUS
290
     0
370
    -3
390
4189
  0
LAYER
  5
41C1
330
2
100
AcDbSymbolTableRecord
100
AcDbLayerTableRecord
  2
500
 70
     0
 62
     7
  6
CONTINUOUS
370
    -3
390
4189
  0
LAYER
  5
41C2
330
2
100
AcDbSymbolTableRecord
100
AcDbLayerTableRecord
  2
4
 70
     0
 62
     7
  6
CONTINUOUS
370
    -3
390
4189
  0
LAYER
  5
4524
330
2
100
AcDbSymbolTableRecord
100
AcDbLayerTableRecord
  2
BORDER
 70
     0
 62
    15
  6
CONTINUOUS
370
    -3
390
4189
  0
LAYER
  5
4525
330
2
100
AcDbSymbolTableRecord
100
AcDbLayerTableRecord
  2
Title Block
 70
     0
 62
     2
  6
CONTINUOUS
370
    -3
390
4189
  0
LAYER
  5
47ED
330
2
100
AcDbSymbolTableRecord
100
AcDbLayerTableRecord
  2
L0
 70
     0
 62
    20
  6
CONTINUOUS
370
    -3
390
4189
  0
ENDTAB
  0
TABLE
  2
STYLE
  5
3
330
0
100
AcDbSymbolTable
 70
    15
  0
STYLE
  5
F
330
3
100
AcDbSymbolTableRecord
100
AcDbTextStyleTableRecord
  2
STANDARD
 70
     0
 40
0.0
 41
1.0
 50
0.0
 71
     0
 42
0.1
  3
romans.shx
  4

  0
STYLE
  5
E3
330
3
100
AcDbSymbolTableRecord
100
AcDbTextStyleTableRecord
  2
ROMANS
 70
     0
 40
0.0
 41
1.0
 50
0.0
 71
     0
 42
0.09375
  3
romans
  4

  0
STYLE
  5
E5
330
3
100
AcDbSymbolTableRecord
100
AcDbTextStyleTableRecord
  2
ROMANS_HLF
 70
     0
 40
0.0
 41
0.5
 50
0.0
 71
     0
 42
0.062
  3
C:\ACADWIN\FONTS\ROMANS.SHX
  4

  0
STYLE
  5
EB6
330
3
100
AcDbSymbolTableRecord
100
AcDbTextStyleTableRecord
  2
ARIEL_B
 70
     0
 40
0.0
 41
1.0
 50
0.0
 71
     0
 42
0.125
  3
ARIALBD.TTF
  4

1001
ACAD
1000
Arial
1071
 33554466
  0
STYLE
  5
EB7
330
3
100
AcDbSymbolTableRecord
100
AcDbTextStyleTableRecord
  2
ARIEL_SP
 70
     0
 40
0.0
 41
1.12
 50
0.0
 71
     0
 42
0.18
  3

  4

1001
ACAD
1000
Arial Narrow Special G1
1071
 33554978
  0
STYLE
  5
EB8
330
3
100
AcDbSymbolTableRecord
100
AcDbTextStyleTableRecord
  2
TIMES_NEW
 70
     0
 40
0.0
 41
1.0
 50
0.0
 71
     0
 42
0.1
  3
TIMESBD.TTF
  4

1001
ACAD
1000
Times New Roman
1071
 33554450
  0
STYLE
  5
EB9
330
3
100
AcDbSymbolTableRecord
100
AcDbTextStyleTableRecord
  2
ARIEL
 70
     0
 40
0.0
 41
1.0
 50
0.0
 71
     0
 42
0.1
  3
ARIAL.TTF
  4

1001
ACAD
1000
Arial
1071
       34
  0
STYLE
  5
41C3
330
3
100
AcDbSymbolTableRecord
100
AcDbTextStyleTableRecord
  2
T1
 70
     0
 40
4.0
 41
0.9
 50
0.0
 71
     0
 42
0.0
  3
medtext
  4

  0
STYLE
  5
41C4
330
3
100
AcDbSymbolTableRecord
100
AcDbTextStyleTableRecord
  2
TDM
 70
     0
 40
4.0
 41
0.9
 50
0.0
 71
     0
 42
0.0
  3
medtext
  4

  0
STYLE
  5
4526
330
3
100
AcDbSymbolTableRecord
100
AcDbTextStyleTableRecord
  2
AE
 70
     0
 40
0.0
 41
1.0
 50
0.0
 71
     0
 42
0.16408998
  3
MIGRATOR
  4

  0
STYLE
  5
4527
330
3
100
AcDbSymbolTableRecord
100
AcDbTextStyleTableRecord
  2

 70
     1
 40
0.0
 41
1.0
 50
0.0
 71
     0
 42
1.0
  3
symtb128
  4

  0
STYLE
  5
47BC
330
3
100
AcDbSymbolTableRecord
100
AcDbTextStyleTableRecord
  2

 70
     1
 40
0.0
 41
1.0
 50
0.0
 71
     0
 42
0.125
  3
ltypeshp.shx
  4

  0
STYLE
  5
47C2
330
3
100
AcDbSymbolTableRecord
100
AcDbTextStyleTableRecord
  2
ACANSTS
 70
     0
 40
1.0
 41
1.0
 50
0.0
 71
     0
 42
0.125
  3
romans.shx
  4

  0
STYLE
  5
47CD
330
3
100
AcDbSymbolTableRecord
100
AcDbTextStyleTableRecord
  2
ACANSGDT
 70
     0
 40
0.0
 41
1.0
 50
0.0
 71
     0
 42
0.125
  3
amgdtans.shx
  4

  0
STYLE
  5
47EE
330
3
100
AcDbSymbolTableRecord
100
AcDbTextStyleTableRecord
  2

 70
     1
 40
0.0
 41
1.0
 50
0.0
 71
     0
 42
2.5
  3
genltshp.shx
  4

  0
ENDTAB
  0
TABLE
  2
VIEW
  5
6
330
0
100
AcDbSymbolTable
 70
     0
  0
ENDTAB
  0
TABLE
  2
UCS
  5
7
330
0
100
AcDbSymbolTable
 70
     0
  0
ENDTAB
  0
TABLE
  2
APPID
  5
9
330
0
100
AcDbSymbolTable
 70
     7
  0
APPID
  5
10
330
9
100
AcDbSymbolTableRecord
100
AcDbRegAppTableRecord
  2
ACAD
 70
     0
  0
APPID
  5
4529
330
9
100
AcDbSymbolTableRecord
100
AcDbRegAppTableRecord
  2
GENIUS_GENBLLY_14
 70
     0
  0
APPID
  5
452A
330
9
100
AcDbSymbolTableRecord
100
AcDbRegAppTableRecord
  2
GENIUS_GENTRA_14
 70
     0
  0
APPID
  5
4796
330
9
100
AcDbSymbolTableRecord
100
AcDbRegAppTableRecord
  2
MCAD_NO_VIS
 70
     0
  0
APPID
  5
4797
330
9
100
AcDbSymbolTableRecord
100
AcDbRegAppTableRecord
  2
ACAD_TEMP_GRAPHIC
 70
     0
  0
APPID
  5
47A9
330
9
100
AcDbSymbolTableRecord
100
AcDbRegAppTableRecord
  2
ACATTRIBSERVICES
 70
     0
  0
APPID
  5
4946
330
9
100
AcDbSymbolTableRecord
100
AcDbRegAppTableRecord
  2
DCO15
 70
     0
  0
ENDTAB
  0
TABLE
  2
DIMSTYLE
  5
A
330
0
100
AcDbSymbolTable
 70
    15
100
AcDbDimStyleTable
 71
     1
340
1D
  0
DIMSTYLE
105
1D
330
A
100
AcDbSymbolTableRecord
100
AcDbDimStyleTableRecord
  2
STANDARD
 70
     0
340
F
  0
DIMSTYLE
105
41C5
330
A
100
AcDbSymbolTableRecord
100
AcDbDimStyleTableRecord
  2
MEDDIM
 70
     0
 45
0.01
 78
    12
146
0.7
172
     1
176
     7
177
     7
178
     7
273
     4
277
     4
279
     2
340
F
  0
DIMSTYLE
105
4528
330
A
100
AcDbSymbolTableRecord
100
AcDbDimStyleTableRecord
  2
GEN-ANSI
 70
     0
  3
<>
  4
mm
 41
0.14
 42
0.125
 43
0.5
 44
0.125
 47
0.1
 48
0.1
 73
     0
 74
     0
 77
     1
 78
     7
140
0.12
141
0.0
146
0.71
147
0.06
176
   256
177
   256
178
     2
274
     4
340
F
  0
DIMSTYLE
105
47D2
330
A
100
AcDbSymbolTableRecord
100
AcDbDimStyleTableRecord
  2
AM_ANSI
 70
     0
  4
mm
 41
0.1
 42
0.05
 43
0.5
 44
0.1
 47
0.1
 48
0.1
 78
     7
 79
     2
140
0.12
141
0.0
146
0.71
147
0.06
176
   256
177
   256
178
     2
274
     4
284
     7
340
F
371
    -1
372
    -1
  0
DIMSTYLE
105
47D3
330
A
100
AcDbSymbolTableRecord
100
AcDbDimStyleTableRecord
  2
AM_ANSI$3
 70
     0
  4
mm
 41
0.1
 42
0.05
 43
0.5
 44
0.1
 47
0.1
 48
0.1
 78
     7
 79
     2
140
0.12
141
0.0
146
0.71
147
0.06
176
   256
177
   256
178
     2
274
     4
284
     7
288
     1
289
     0
340
F
371
    -1
372
    -1
  0
DIMSTYLE
105
47D4
330
A
100
AcDbSymbolTableRecord
100
AcDbDimStyleTableRecord
  2
AM_ANSI$4
 70
     0
  4
mm
 41
0.1
 42
0.05
 43
0.5
 44
0.1
 47
0.1
 48
0.1
 78
     7
 79
     2
140
0.12
141
0.0
146
0.71
147
0.06
176
   256
177
   256
178
     2
274
     4
284
     7
288
     1
289
     0
340
F
371
    -1
372
    -1
  0
DIMSTYLE
105
47D5
330
A
100
AcDbSymbolTableRecord
100
AcDbDimStyleTableRecord
  2
AM_ANSI$7
 70
     0
  4
mm
 41
0.1
 42
0.05
 43
0.5
 44
0.1
 47
0.1
 48
0.1
 78
     7
 79
     2
140
0.24
141
0.0
146
0.71
147
0.06
176
   256
177
   256
178
     2
274
     4
284
     7
340
F
371
    -1
372
    -1
  0
DIMSTYLE
105
47D6
330
A
100
AcDbSymbolTableRecord
100
AcDbDimStyleTableRecord
  2
AM_ANSI$SF
 70
     0
  4
mm
 41
0.1
 42
0.05
 43
0.5
 44
0.1
 47
0.1
 48
0.1
 75
     1
 76
     1
 78
     7
 79
     2
140
0.12
141
0.0
146
0.71
147
0.06
176
   256
177
   256
178
     2
274
     4
284
     7
340
F
371
    -1
372
    -1
  0
DIMSTYLE
105
47DB
330
A
100
AcDbSymbolTableRecord
100
AcDbDimStyleTableRecord
  2
AM_ANSI$SH
 70
     0
  4
mm
 41
0.1
 42
0.05
 43
0.5
 44
0.1
 47
0.1
 48
0.1
 75
     1
 76
     1
 78
     7
 79
     2
140
0.12
141
0.0
146
0.71
147
0.06
173
     1
176
   256
177
   256
178
     2
274
     4
284
     7
340
F
343
47D7
371
    -1
372
    -1
  0
DIMSTYLE
105
47EF
330
A
100
AcDbSymbolTableRecord
100
AcDbDimStyleTableRecord
  2
GEN-ANSI$3
 70
     0
  3
<>
  4
mm
 41
0.14
 42
0.125
 43
0.5
 44
0.125
 47
0.1
 48
0.1
 78
     7
140
0.12
141
0.0
146
0.71
147
0.06
176
   256
177
   256
178
     2
274
     4
288
     1
289
     0
340
F
  0
DIMSTYLE
105
47F0
330
A
100
AcDbSymbolTableRecord
100
AcDbDimStyleTableRecord
  2
GEN-ANSI$4
 70
     0
  3
<>
  4
mm
 41
0.14
 42
0.125
 43
0.5
 44
0.125
 47
0.1
 48
0.1
 78
     7
140
0.12
141
0.0
146
0.71
147
0.06
176
   256
177
   256
178
     2
274
     4
288
     1
289
     0
340
F
  0
DIMSTYLE
105
47F1
330
A
100
AcDbSymbolTableRecord
100
AcDbDimStyleTableRecord
  2
GEN-ANSI$6
 70
     0
  3
<>
  4
mm
 41
0.14
 42
0.125
 43
0.5
 44
0.125
 47
0.1
 48
0.1
 78
     7
140
0.12
141
0.0
146
0.71
147
0.06
176
   256
177
   256
178
     2
274
     4
340
F
  0
DIMSTYLE
105
47F2
330
A
100
AcDbSymbolTableRecord
100
AcDbDimStyleTableRecord
  2
GEN-ANSI-POS
 70
     0
  3
<>
  4
mm
 41
0.1
 42
0.125
 43
0.5
 44
0.125
 47
0.1
 48
0.1
 73
     0
 74
     0
 78
     7
140
0.2
141
0.0
146
0.71
147
0.06
176
   256
177
   256
178
     2
274
     4
340
F
  0
DIMSTYLE
105
47F3
330
A
100
AcDbSymbolTableRecord
100
AcDbDimStyleTableRecord
  2
GEN-ANSI-AXE-F
 70
     0
  3
<>
  4
mm
 41
0.14
 42
0.125
 43
0.5
 44
0.125
 47
0.1
 48
0.1
 75
     1
 76
     1
 78
     7
140
0.12
141
0.0
146
0.71
147
0.06
173
     1
176
   256
177
   256
178
     2
274
     4
340
F
343
47D7
  0
DIMSTYLE
105
47F4
330
A
100
AcDbSymbolTableRecord
100
AcDbDimStyleTableRecord
  2
GEN-ANSI-AXE-H
 70
     0
  3
<>
  4
mm
 41
0.14
 42
0.125
 43
0.5
 44
0.125
 47
0.1
 48
0.1
 73
     0
 74
     0
 75
     1
 76
     1
 78
     7
140
0.12
141
0.0
144
2.0
146
0.71
147
0.06
172
     1
173
     1
176
   256
177
   256
178
     2
274
     4
340
F
343
47D7
  0
ENDTAB
  0
TABLE
  2
BLOCK_RECORD
  5
1
330
0
100
AcDbSymbolTable
 70
    13
  0
BLOCK_RECORD
  5
18
102
{ACAD_XDICTIONARY
360
488B
102
}
330
1
100
AcDbSymbolTableRecord
100
AcDbBlockTableRecord
  2
*MODEL_SPACE
340
418C
  0
BLOCK_RECORD
  5
15
330
1
100
AcDbSymbolTableRecord
100
AcDbBlockTableRecord
  2
*PAPER_SPACE
340
418D
  0
BLOCK_RECORD
  5
1747
330
1
100
AcDbSymbolTableRecord
100
AcDbBlockTableRecord
  2
TBSINE98_U
340
0
  0
BLOCK_RECORD
  5
35CE
330
1
100
AcDbSymbolTableRecord
100
AcDbBlockTableRecord
  2
BORD-B
340
0
  0
BLOCK_RECORD
  5
419E
330
1
100
AcDbSymbolTableRecord
100
AcDbBlockTableRecord
  2
MEDCLUMP_NTE_659_
340
0
  0
BLOCK_RECORD
  5
41A4
330
1
100
AcDbSymbolTableRecord
100
AcDbBlockTableRecord
  2
MEDFUNV_6
340
0
102
{BLKREFS
331
41A0
331
41AF
331
41B5
331
41BB
102
}
  0
BLOCK_RECORD
  5
41AD
330
1
100
AcDbSymbolTableRecord
100
AcDbBlockTableRecord
  2
MEDCLUMP_NTE_655_
340
0
  0
BLOCK_RECORD
  5
41B3
330
1
100
AcDbSymbolTableRecord
100
AcDbBlockTableRecord
  2
MEDCLUMP_NTE_651_
340
0
  0
BLOCK_RECORD
  5
41B9
330
1
100
AcDbSymbolTableRecord
100
AcDbBlockTableRecord
  2
MEDCLUMP_NTE_647_
340
0
  0
BLOCK_RECORD
  5
452B
330
1
100
AcDbSymbolTableRecord
100
AcDbBlockTableRecord
  2
ASSEMBLY_B
340
0
102
{BLKREFS
331
49EB
102
}
  0
BLOCK_RECORD
  5
45E9
330
1
100
AcDbSymbolTableRecord
100
AcDbBlockTableRecord
  2
A$C6BD72E2A
340
0
  0
BLOCK_RECORD
  5
45EE
330
1
100
AcDbSymbolTableRecord
100
AcDbBlockTableRecord
  2
A$C64DF1C68
340
0
  0
BLOCK_RECORD
  5
46C3
330
1
100
AcDbSymbolTableRecord
100
AcDbBlockTableRecord
  2
A$C4856593E
340
0
  0
BLOCK_RECORD
  5
474F
330
1
100
AcDbSymbolTableRecord
100
AcDbBlockTableRecord
  2
A$C274720C3
340
0
  0
BLOCK_RECORD
  5
47D7
330
1
100
AcDbSymbolTableRecord
100
AcDbBlockTableRecord
  2
GENAXEH
340
0
  0
ENDTAB
  0
ENDSEC
  0
SECTION
  2
BLOCKS
  0
BLOCK
  5
19
330
18
100
AcDbEntity
  8
0
100
AcDbBlockBegin
  2
*MODEL_SPACE
 70
     0
 10
0.0
 20
0.0
 30
0.0
  3
*MODEL_SPACE
  1

  0
ENDBLK
  5
1A
330
18
100
AcDbEntity
  8
0
100
AcDbBlockEnd
  0
BLOCK
  5
16
330
15
100
AcDbEntity
 67
     1
  8
0
100
AcDbBlockBegin
  2
*PAPER_SPACE
 70
     0
 10
0.0
 20
0.0
 30
0.0
  3
*PAPER_SPACE
  1

  0
ENDBLK
  5
17
330
15
100
AcDbEntity
 67
     1
  8
0
100
AcDbBlockEnd
  0
BLOCK
  5
17A9
330
1747
100
AcDbEntity
  8
0
100
AcDbBlockBegin
  2
TBSINE98_U
 70
     2
 10
0.0
 20
0.0
 30
0.0
  3
TBSINE98_U
  1

  0
LINE
  5
1748
330
1747
100
AcDbEntity
  8
0
 62
     4
100
AcDbLine
 10
0.0
 20
1.374999999999999
 30
0.0
 11
-4.0
 21
1.375
 31
0.0
  0
TEXT
  5
1749
330
1747
100
AcDbEntity
  8
0
 62
     4
100
AcDbText
 10
-5.420391657898547
 20
2.562348232292053
 30
0.0
 40
0.125
  1
MATERIALS LIST
 41
1.968078602400067
  7
ROMANS
 72
     5
 11
-2.585421290155593
 21
2.562348232292053
 31
0.0
100
AcDbText
  0
TEXT
  5
174A
330
1747
100
AcDbEntity
  8
0
 62
     7
100
AcDbText
 10
-3.969435524660248
 20
0.6553540019688049
 30
0.0
 40
0.063
  1
SIZE
 41
1.977647930413569
  7
ROMANS
 72
     5
 11
-3.583794178229601
 21
0.6553540019688049
 31
0.0
100
AcDbText
  0
LINE
  5
174B
330
1747
100
AcDbEntity
  8
0
 62
     4
100
AcDbLine
 10
0.0
 20
2.999999999999998
 30
0.0
 11
-8.000000000000001
 21
3.0
 31
0.0
  0
LINE
  5
174C
330
1747
100
AcDbEntity
  8
0
 62
     4
100
AcDbLine
 10
0.0
 20
2.749999999999998
 30
0.0
 11
-8.000000000000001
 21
2.75
 31
0.0
  0
LINE
  5
174D
330
1747
100
AcDbEntity
  8
0
 62
     4
100
AcDbLine
 10
0.0
 20
2.499999999999999
 30
0.0
 11
-8.0
 21
2.5
 31
0.0
  0
LINE
  5
174E
330
1747
100
AcDbEntity
  8
0
 62
     4
100
AcDbLine
 10
0.0
 20
0.7499999999999993
 30
0.0
 11
-4.0
 21
0.75
 31
0.0
  0
LINE
  5
174F
330
1747
100
AcDbEntity
  8
0
 62
     4
100
AcDbLine
 10
0.0
 20
0.2499999999999992
 30
0.0
 11
-4.0
 21
0.2499999999999996
 31
0.0
  0
LINE
  5
1750
330
1747
100
AcDbEntity
  8
0
 62
     4
100
AcDbLine
 10
-7.0
 20
3.0
 30
0.0
 11
-7.0
 21
2.5
 31
0.0
  0
LINE
  5
1751
330
1747
100
AcDbEntity
  8
0
 62
     4
100
AcDbLine
 10
-8.0
 20
0.0000000000000008
 30
0.0
 11
-8.000000000000008
 21
3.0
 31
0.0
  0
TEXT
  5
1752
330
1747
100
AcDbEntity
  8
0
100
AcDbText
 10
-7.523808085300968
 20
1.535654825308041
 30
0.0
 40
0.084
  1
S5-20020
  7
ROMANS
 72
     1
 11
-7.191808085300968
 21
1.535654825308041
 31
0.0
100
AcDbText
  0
TEXT
  5
1753
330
1747
100
AcDbEntity
  8
0
 62
     7
100
AcDbText
 10
-7.937867400239865
 20
1.671353367048056
 30
0.0
 40
0.0625
  1
3) Fabrication Standards Per:
  7
ROMANS
100
AcDbText
  0
TEXT
  5
1754
330
1747
100
AcDbEntity
  8
0
 62
     7
100
AcDbText
 10
-7.91485043418524
 20
0.7187500000000006
 30
0.0
 40
0.0625
  1
PROCESS SPECIFICATIONS:
  7
ROMANS
100
AcDbText
  0
LINE
  5
1755
330
1747
100
AcDbEntity
  8
0
 62
     4
100
AcDbLine
 10
-6.0
 20
0.8125
 30
0.0
 11
-7.999999999999997
 21
0.8124999999999996
 31
0.0
  0
TEXT
  5
1756
330
1747
100
AcDbEntity
  8
0
 62
     7
100
AcDbText
 10
-7.91485043418524
 20
1.28125
 30
0.0
 40
0.0625
  1
MATERIAL SPECIFICATIONS:
  7
ROMANS
100
AcDbText
  0
LINE
  5
1757
330
1747
100
AcDbEntity
  8
0
 62
     4
100
AcDbLine
 10
-6.0
 20
1.374999999999999
 30
0.0
 11
-7.999999999999997
 21
1.374999999999999
 31
0.0
  0
TEXT
  5
1758
330
1747
100
AcDbEntity
  8
0
 62
     7
100
AcDbText
 10
-7.918167783944689
 20
2.38454662786736
 30
0.0
 40
0.063
  1
%%UUNLESS OTHERWISE SPECIFIED
 41
1.271494138093697
  7
ROMANS
 72
     5
 11
-6.068143813018359
 21
2.38454662786736
 31
0.0
100
AcDbText
  0
TEXT
  5
1759
330
1747
100
AcDbEntity
  8
0
 62
     7
100
AcDbText
 10
-7.895003595128808
 20
1.786679721223629
 30
0.0
 40
0.0625
  1
3 PL DEC %%P0.005
  7
ROMANS
100
AcDbText
  0
TEXT
  5
175A
330
1747
100
AcDbEntity
  8
0
 62
     7
100
AcDbText
 10
-7.937372251514232
 20
2.230086754058263
 30
0.0
 40
0.0625
  1
1) All dimensions are in inches.
  7
ROMANS
100
AcDbText
  0
TEXT
  5
175B
330
1747
100
AcDbEntity
  8
0
 62
     7
100
AcDbText
 10
-7.935001329560299
 20
2.111228873760972
 30
0.0
 40
0.0625
  1
2) Tolerances are as follows:
  7
ROMANS
100
AcDbText
  0
TEXT
  5
175C
330
1747
100
AcDbEntity
  8
0
 62
     7
100
AcDbText
 10
-7.895003595128808
 20
1.989060673604581
 30
0.0
 40
0.0625
  1
1 PL DEC %%P0.05
  7
ROMANS
100
AcDbText
  0
TEXT
  5
175D
330
1747
100
AcDbEntity
  8
0
 62
     7
100
AcDbText
 10
-7.895003595128808
 20
1.887870197414105
 30
0.0
 40
0.0625
  1
2 PL DEC %%P0.01
  7
ROMANS
100
AcDbText
  0
TEXT
  5
175E
330
1747
100
AcDbEntity
  8
0
100
AcDbText
 10
-7.928571428571428
 20
2.5625
 30
0.0
 40
0.125
  1
QUANTITY
  7
ROMANS
 72
     1
 11
-7.5
 21
2.5625
 31
0.0
100
AcDbText
  0
LINE
  5
175F
330
1747
100
AcDbEntity
  8
0
 62
     4
100
AcDbLine
 10
-4.0
 20
1.75
 30
0.0
 11
-6.0
 21
1.749999999999999
 31
0.0
  0
TEXT
  5
1760
330
1747
100
AcDbEntity
  8
0
 62
     7
100
AcDbText
 10
-5.732160063336098
 20
2.334239652357628
 30
0.0
 40
0.063
  1
SIGNATURES    
 41
1.488772902752936
  7
ROMANS
 72
     5
 11
-4.521787693397961
 21
2.334239652357628
 31
0.0
100
AcDbText
  0
LINE
  5
1761
330
1747
100
AcDbEntity
  8
0
 62
     4
100
AcDbLine
 10
-4.0
 20
1.0
 30
0.0
 11
-6.0
 21
0.9999999999999996
 31
0.0
  0
LINE
  5
1762
330
1747
100
AcDbEntity
  8
0
 62
     4
100
AcDbLine
 10
-4.0
 20
1.5
 30
0.0
 11
-6.0
 21
1.5
 31
0.0
  0
LINE
  5
1763
330
1747
100
AcDbEntity
  8
0
 62
     4
100
AcDbLine
 10
-4.629993325288353
 20
2.0
 30
0.0
 11
-6.0
 21
2.0
 31
0.0
  0
LINE
  5
1764
330
1747
100
AcDbEntity
  8
0
 62
     4
100
AcDbLine
 10
-4.0
 20
2.25
 30
0.0
 11
-6.0
 21
2.25
 31
0.0
  0
LINE
  5
1765
330
1747
100
AcDbEntity
  8
0
 62
     4
100
AcDbLine
 10
-6.0
 20
0.0000000000000006
 30
0.0
 11
-6.0
 21
2.5
 31
0.0
  0
TEXT
  5
1766
330
1747
100
AcDbEntity
  8
0
 62
     7
100
AcDbText
 10
-6.861816199145001
 20
1.979848532971896
 30
0.0
 40
0.0625
  1
Fractions %%P1/64
  7
ROMANS
100
AcDbText
  0
LINE
  5
1767
330
1747
100
AcDbEntity
  8
0
 62
     7
100
AcDbLine
 10
-6.940909897136906
 20
2.046954603288238
 30
0.0
 11
-6.940909897136906
 21
1.788259346073721
 31
0.0
  0
TEXT
  5
1768
330
1747
100
AcDbEntity
  8
0
 62
     7
100
AcDbText
 10
-6.861816199145001
 20
1.878658056781419
 30
0.0
 40
0.0625
  1
Angles %%P1%%D
  7
ROMANS
100
AcDbText
  0
TEXT
  5
1769
330
1747
100
AcDbEntity
  8
0
 62
     7
100
AcDbText
 10
-5.963333000415435
 20
1.40625
 30
0.0
 40
0.0625
  1
APPROVAL:
  7
ROMANS
100
AcDbText
  0
TEXT
  5
176A
330
1747
100
AcDbEntity
  8
0
 62
     7
100
AcDbText
 10
-5.963333000415435
 20
1.65625
 30
0.0
 40
0.0625
  1
ENGINEER:
  7
ROMANS
100
AcDbText
  0
TEXT
  5
176B
330
1747
100
AcDbEntity
  8
0
 62
     7
100
AcDbText
 10
-5.963333000415435
 20
1.90625
 30
0.0
 40
0.0625
  1
CHECKED:
  7
ROMANS
100
AcDbText
  0
TEXT
  5
176C
330
1747
100
AcDbEntity
  8
0
 62
     7
100
AcDbText
 10
-5.963333000415435
 20
2.15625
 30
0.0
 40
0.0625
  1
DRAWN:
  7
ROMANS
100
AcDbText
  0
LINE
  5
176D
330
1747
100
AcDbEntity
  8
0
 62
     4
100
AcDbLine
 10
-4.625
 20
1.25
 30
0.0
 11
-4.625
 21
2.5
 31
0.0
  0
LINE
  5
176E
330
1747
100
AcDbEntity
  8
0
 62
     4
100
AcDbLine
 10
-4.0
 20
-0.0000000000000002
 30
0.0
 11
-4.0
 21
2.499999999999999
 31
0.0
  0
TEXT
  5
176F
330
1747
100
AcDbEntity
  8
0
 62
     7
100
AcDbText
 10
-3.96875
 20
0.1562499999999998
 30
0.0
 40
0.0625
  1
SCALE:
  7
ROMANS
100
AcDbText
  0
TEXT
  5
1770
330
1747
100
AcDbEntity
  8
0
 62
     7
100
AcDbText
 10
-4.523788562182197
 20
2.330709001405228
 30
0.0
 40
0.063
  1
DATE 
 41
1.629632321826135
  7
ROMANS
 72
     5
 11
-4.059343350461748
 21
2.330709001405228
 31
0.0
100
AcDbText
  0
LINE
  5
1771
330
1747
100
AcDbEntity
  8
0
 62
     4
100
AcDbLine
 10
-4.0
 20
2.0
 30
0.0
 11
-4.629993325288353
 21
2.0
 31
0.0
  0
TEXT
  5
1772
330
1747
100
AcDbEntity
  8
0
 62
     7
100
AcDbText
 10
-6.62182461425405
 20
2.809752012300165
 30
0.0
 40
0.125
  1
PART NUMBER
  7
ROMANS
100
AcDbText
  0
LINE
  5
1773
330
1747
100
AcDbEntity
  8
0
 62
     4
100
AcDbLine
 10
-4.875
 20
2.75
 30
0.0
 11
-4.875
 21
3.0
 31
0.0
  0
TEXT
  5
1774
330
1747
100
AcDbEntity
  8
0
 62
     7
100
AcDbText
 10
-0.4670598567034113
 20
0.6522025548911583
 30
0.0
 40
0.063
  1
REVISION
 41
1.009853945519423
  7
ROMANS
 72
     5
 11
-0.061098570604603
 21
0.6522025548911583
 31
0.0
100
AcDbText
  0
TEXT
  5
1775
330
1747
100
AcDbEntity
  8
0
 62
     7
100
AcDbText
 10
-2.96875
 20
0.65625
 30
0.0
 40
0.0625
  1
DWG NO:
  7
ROMANS
100
AcDbText
  0
TEXT
  5
1776
330
1747
100
AcDbEntity
  8
0
 62
     7
100
AcDbText
 10
-3.484095684822441
 20
0.3371060842089175
 30
0.0
 40
0.125
  1
1GK44
 41
0.7013009593496522
  7
ROMANS
 72
     5
 11
-3.066654637590505
 21
0.3371060842089175
 31
0.0
100
AcDbText
  0
LINE
  5
1777
330
1747
100
AcDbEntity
  8
0
 62
     4
100
AcDbLine
 10
-3.0
 20
0.2499999999999996
 30
0.0
 11
-3.0
 21
0.7499999999999993
 31
0.0
  0
LINE
  5
1778
330
1747
100
AcDbEntity
  8
0
 62
     4
100
AcDbLine
 10
-3.5
 20
0.2499999999999996
 30
0.0
 11
-3.5
 21
0.7499999999999996
 31
0.0
  0
LINE
  5
1779
330
1747
100
AcDbEntity
  8
0
 62
     4
100
AcDbLine
 10
-3.0
 20
-0.0000000000000004
 30
0.0
 11
-3.0
 21
0.2499999999999996
 31
0.0
  0
TEXT
  5
177A
330
1747
100
AcDbEntity
  8
0
 62
     7
100
AcDbText
 10
-3.48024114584756
 20
0.65625
 30
0.0
 40
0.0625
  1
FSCM NO.
  7
ROMANS
100
AcDbText
  0
LINE
  5
177B
330
1747
100
AcDbEntity
  8
0
 62
     4
100
AcDbLine
 10
-1.5
 20
0.2499999999999995
 30
0.0
 11
-1.5
 21
0.0
 31
0.0
  0
TEXT
  5
177C
330
1747
100
AcDbEntity
  8
0
 62
     7
100
AcDbText
 10
-1.468749999999995
 20
0.0937499999999998
 30
0.0
 40
0.0625
  1
SHEET
  7
ROMANS
100
AcDbText
  0
LINE
  5
177D
330
1747
100
AcDbEntity
  8
0
 62
     4
100
AcDbLine
 10
-0.5
 20
0.7499999999999992
 30
0.0
 11
-0.5
 21
0.2499999999999993
 31
0.0
  0
TEXT
  5
177E
330
1747
100
AcDbEntity
  8
0
 62
     7
100
AcDbText
 10
-0.6435443161433945
 20
0.0937499999999998
 30
0.0
 40
0.0625
  1
OF
  7
ROMANS
100
AcDbText
  0
TEXT
  5
177F
330
1747
100
AcDbEntity
  8
0
 62
     7
100
AcDbText
 10
-0.3125000000000071
 20
2.8125
 30
0.0
 40
0.125
  1
ITEM
 41
0.6666666666666668
  7
ROMANS
 72
     5
 11
-0.0625000000000071
 21
2.8125
 31
0.0
100
AcDbText
  0
TEXT
  5
1780
330
1747
100
AcDbEntity
  8
0
 62
     7
100
AcDbText
 10
-3.243361572958096
 20
2.8125
 30
0.0
 40
0.125
  1
DESCRIPTION
  7
ROMANS
 72
     4
 11
-2.651099668196191
 21
2.875
 31
0.0
100
AcDbText
  0
LINE
  5
1781
330
1747
100
AcDbEntity
  8
0
 62
     4
100
AcDbLine
 10
-0.3750000000000071
 20
2.75
 30
0.0
 11
-0.3750000000000071
 21
3.0
 31
0.0
  0
TEXT
  5
1782
330
1747
100
AcDbEntity
  8
0
 62
     7
100
AcDbText
 10
-7.937867400239865
 20
1.422071028625071
 30
0.0
 40
0.0625
  1
4) Note Reference =
  7
ROMANS
100
AcDbText
  0
LWPOLYLINE
  5
1783
330
1747
100
AcDbEntity
  8
0
100
AcDbPolyline
 90
        3
 70
     1
 43
0.0
 10
-6.715282350570625
 20
1.538977047231945
 10
-6.794993665800288
 20
1.400912999316027
 10
-6.63557103534096
 20
1.400912999316027
  0
TEXT
  5
1784
330
1747
100
AcDbEntity
  8
0
100
AcDbText
 10
-6.764944016577074
 20
1.414762344628339
 30
0.0
 40
0.062
  1
xx
  7
ROMANS
 72
     4
 11
-6.714753540386598
 21
1.435429011295005
 31
0.0
100
AcDbText
  0
ATTDEF
  5
1785
330
1747
100
AcDbEntity
  8
0
100
AcDbText
 10
-2.0
 20
1.1624
 30
0.0
 40
0.125
  1

  7
ROMANS
 72
     4
 11
-2.0
 21
1.1624
 31
0.0
100
AcDbAttributeDefinition
  3
Part Name
  2
PART_NAME_1
 70
     0
  0
ATTDEF
  5
1786
330
1747
100
AcDbEntity
  8
0
100
AcDbText
 10
-2.0
 20
0.9488999999999998
 30
0.0
 40
0.125
  1

  7
ROMANS
 72
     4
 11
-2.0
 21
0.9488999999999998
 31
0.0
100
AcDbAttributeDefinition
  3
Part Name (Cont'd.)
  2
PART_NAME_2
 70
     0
  0
ATTDEF
  5
1787
330
1747
100
AcDbEntity
  8
0
 62
     4
100
AcDbText
 10
-3.75
 20
0.4613000000000002
 30
0.0
 40
0.25
  1

  7
ROMANS
 72
     4
 11
-3.75
 21
0.4613000000000002
 31
0.0
100
AcDbAttributeDefinition
  3
Drawing Size
  2
SIZE
 70
     0
  0
ATTDEF
  5
1788
330
1747
100
AcDbEntity
  8
0
 62
     4
100
AcDbText
 10
-1.751599999999999
 20
0.3466
 30
0.0
 40
0.25
  1

 41
0.5
  7
ROMANS_HLF
 72
     1
 11
-1.751599999999999
 21
0.3466
 31
0.0
100
AcDbAttributeDefinition
  3
Part Number
  2
PART_NO
 70
     0
  0
ATTDEF
  5
1789
330
1747
100
AcDbEntity
  8
0
 62
     1
100
AcDbText
 10
-0.3571428571428572
 20
0.3355999999999999
 30
0.0
 40
0.25
  1
A
  7
ROMANS
 72
     4
 11
-0.25
 21
0.4605999999999999
 31
0.0
100
AcDbAttributeDefinition
  3
Revision Level
  2
REV
 70
     0
  0
ATTDEF
  5
178A
330
1747
100
AcDbEntity
  8
0
100
AcDbText
 10
-2.25
 20
0.1284999999999999
 30
0.0
 40
0.125
  1

  7
ROMANS
 72
     4
 11
-2.25
 21
0.1284999999999999
 31
0.0
100
AcDbAttributeDefinition
  3
Drawing Number
  2
DWG_NO
 70
     0
  0
ATTDEF
  5
178B
330
1747
100
AcDbEntity
  8
0
100
AcDbText
 10
-0.9880952380952381
 20
0.0659999999999999
 30
0.0
 40
0.125
  1
1
  7
ROMANS
 72
     4
 11
-0.9375
 21
0.1284999999999999
 31
0.0
100
AcDbAttributeDefinition
  3
Sheet
  2
SHT
 70
     0
  0
ATTDEF
  5
178C
330
1747
100
AcDbEntity
  8
0
100
AcDbText
 10
-0.3005952380952381
 20
0.0659999999999999
 30
0.0
 40
0.125
  1
1
  7
ROMANS
 72
     4
 11
-0.25
 21
0.1284999999999999
 31
0.0
100
AcDbAttributeDefinition
  3
of
  2
SHTS
 70
     0
  0
ATTDEF
  5
178D
330
1747
100
AcDbEntity
  8
0
100
AcDbText
 10
-5.082599999999998
 20
2.066399999999998
 30
0.0
 40
0.125
  1

 41
0.5
  7
ROMANS_HLF
 72
     1
 11
-5.082599999999998
 21
2.066399999999998
 31
0.0
100
AcDbAttributeDefinition
  3
Drawn By
  2
DWN_BY
 70
     0
  0
ATTDEF
  5
178E
330
1747
100
AcDbEntity
  8
0
100
AcDbText
 10
-4.580599999999999
 20
2.0628
 30
0.0
 40
0.125
  1

 41
0.9909999999999994
  7
ROMANS
 72
     5
 11
-4.085099999999999
 21
2.0628
 31
0.0
100
AcDbAttributeDefinition
  3
Date Drawn
  2
DDWN
 70
     0
  0
ATTDEF
  5
178F
330
1747
100
AcDbEntity
  8
0
100
AcDbText
 10
-5.082599999999998
 20
1.811999999999999
 30
0.0
 40
0.125
  1

 41
0.5
  7
ROMANS_HLF
 72
     1
 11
-5.082599999999998
 21
1.811999999999999
 31
0.0
100
AcDbAttributeDefinition
  3
Checked By
  2
CKD_BY
 70
     0
  0
ATTDEF
  5
1790
330
1747
100
AcDbEntity
  8
0
100
AcDbText
 10
-4.580599999999999
 20
1.8128
 30
0.0
 40
0.125
  1

 41
1.027703703703702
  7
ROMANS
 72
     5
 11
-4.085099999999999
 21
1.8128
 31
0.0
100
AcDbAttributeDefinition
  3
Date Checked
  2
DCKD
 70
     0
  0
ATTDEF
  5
1791
330
1747
100
AcDbEntity
  8
0
100
AcDbText
 10
-5.082599999999998
 20
1.560299999999999
 30
0.0
 40
0.125
  1

 41
0.5
  7
ROMANS_HLF
 72
     1
 11
-5.082599999999998
 21
1.560299999999999
 31
0.0
100
AcDbAttributeDefinition
  3
Engineer
  2
ENGINEER
 70
     0
  0
ATTDEF
  5
1792
330
1747
100
AcDbEntity
  8
0
100
AcDbText
 10
-5.082599999999998
 20
1.3119
 30
0.0
 40
0.125
  1

 41
0.5
  7
ROMANS_HLF
 72
     1
 11
-5.082599999999998
 21
1.3119
 31
0.0
100
AcDbAttributeDefinition
  3
Approved By
  2
APPROVED
 70
     0
  0
ATTDEF
  5
1793
330
1747
100
AcDbEntity
  8
0
100
AcDbText
 10
-4.580599999999999
 20
1.3104
 30
0.0
 40
0.125
  1

 41
1.067230769230767
  7
ROMANS
 72
     5
 11
-4.085099999999999
 21
1.3104
 31
0.0
100
AcDbAttributeDefinition
  3
Date Approved
  2
DAPP
 70
     0
  0
ATTDEF
  5
1794
330
1747
100
AcDbEntity
  8
0
100
AcDbText
 10
-7.150297619047618
 20
0.9713
 30
0.0
 40
0.125
  1
NOTED
 41
0.5
  7
ROMANS_HLF
 72
     1
 11
-7.0
 21
0.9713
 31
0.0
100
AcDbAttributeDefinition
  3
Material Specifications
  2
MATL
 70
     0
  0
ATTDEF
  5
1795
330
1747
100
AcDbEntity
  8
0
 62
     4
100
AcDbText
 10
-7.494047619047618
 20
0.4043000000000001
 30
0.0
 40
0.125
  1
S3-20003
  7
ROMANS
 72
     1
 11
-7.0
 21
0.4043000000000001
 31
0.0
100
AcDbAttributeDefinition
  3
Process Specifications
  2
PROSPEC
 70
     0
  0
ATTDEF
  5
1796
330
1747
100
AcDbEntity
  8
0
100
AcDbText
 10
-3.399999999999998
 20
0.1284999999999999
 30
0.0
 40
0.125
  1

  7
ROMANS
 72
     4
 11
-3.399999999999998
 21
0.1284999999999999
 31
0.0
100
AcDbAttributeDefinition
  3
Drawing Scale
  2
SCALEINF
 70
     0
  0
ATTDEF
  5
1797
330
1747
100
AcDbEntity
  8
0
100
AcDbText
 10
-2.0
 20
1.062499999999998
 30
0.0
 40
0.125
  1

  7
ROMANS
 72
     4
 11
-2.0
 21
1.062499999999998
 31
0.0
100
AcDbAttributeDefinition
  3
PART NAME (SINGLE)
  2
PART_NAME
 70
     0
  0
TEXT
  5
1798
330
1747
100
AcDbEntity
  8
0
100
AcDbText
 10
-3.754758353666758
 20
2.033974249143326
 30
0.0
 40
0.4
  1
Amphenol
 41
1.274999999999999
  7
ARIEL_B
100
AcDbText
  0
LWPOLYLINE
  5
1799
330
1747
100
AcDbEntity
  8
0
100
AcDbPolyline
 90
        2
 70
     0
 43
0.01
 10
-3.792532404425073
 20
1.869382651091297
 10
-0.3055336094780969
 20
1.869382651091297
  0
TEXT
  5
179A
330
1747
100
AcDbEntity
  8
0
100
AcDbText
 10
-3.765666804133456
 20
1.678026171289234
 30
0.0
 40
0.138
  1
SINE
  7
TIMES_NEW
100
AcDbText
  0
TEXT
  5
179B
330
1747
100
AcDbEntity
  8
0
100
AcDbText
 10
-3.236722618441723
 20
1.678026171289234
 30
0.0
 40
0.138
  1
Systems
  7
ARIEL
100
AcDbText
  0
TEXT
  5
179C
330
1747
100
AcDbEntity
  8
0
100
AcDbText
 10
-2.488256459700579
 20
1.678026171289234
 30
0.0
 40
0.138
  1
* PYLE
  7
ARIEL_B
100
AcDbText
  0
TEXT
  5
179D
330
1747
100
AcDbEntity
  8
0
100
AcDbText
 10
-1.79294388352306
 20
1.678026171289234
 30
0.0
 40
0.138
  1
Connectors Corp.
  7
ARIEL
100
AcDbText
  0
TEXT
  5
179E
330
1747
100
AcDbEntity
  8
0
100
AcDbText
 10
-3.765666804133456
 20
1.466964199677793
 30
0.0
 40
0.1
  1
25325 Joy Blvd. * Mt. Clemens, Mi. 48045
  7
ARIEL
100
AcDbText
  0
LINE
  5
179F
330
1747
100
AcDbEntity
  8
0
 62
     4
100
AcDbLine
 10
-6.0
 20
1.749999999999999
 30
0.0
 11
-6.360547003696745
 21
1.749999999999999
 31
0.0
  0
LINE
  5
17A0
330
1747
100
AcDbEntity
  8
0
 62
     4
100
AcDbLine
 10
-6.360547003696745
 20
1.749999999999999
 30
0.0
 11
-6.360547003696745
 21
1.374999999999999
 31
0.0
  0
TEXT
  5
17A1
330
1747
100
AcDbEntity
  8
0
100
AcDbText
 10
-6.242559626317676
 20
1.46139203230111
 30
0.0
 40
0.18
  1
U
 41
1.12
  7
ARIEL_SP
 72
     4
 11
-6.175359626317677
 21
1.551392032301111
 31
0.0
100
AcDbText
  0
LINE
  5
17A2
330
1747
100
AcDbEntity
  8
0
 62
     4
100
AcDbLine
 10
-4.0
 20
1.25
 30
0.0
 11
-6.0
 21
1.25
 31
0.0
  0
TEXT
  5
17A3
330
1747
100
AcDbEntity
  8
0
 62
     7
100
AcDbText
 10
-5.963333000415435
 20
1.15625
 30
0.0
 40
0.0625
  1
CUSTOMER:
  7
ROMANS
100
AcDbText
  0
ATTDEF
  5
17A4
330
1747
100
AcDbEntity
  8
0
100
AcDbText
 10
-4.83957001919628
 20
1.0619
 30
0.0
 40
0.125
  1

 41
0.5
  7
ROMANS_HLF
 72
     1
 11
-4.83957001919628
 21
1.0619
 31
0.0
100
AcDbAttributeDefinition
  3
CUSTOMER
  2
CUSTOMER
 70
     0
  0
TEXT
  5
17A5
330
1747
100
AcDbEntity
  8
0
 62
     7
100
AcDbText
 10
-7.914850434185237
 20
0.1562500000000018
 30
0.0
 40
0.0625
  1
NEXT ASS'Y:
  7
ROMANS
100
AcDbText
  0
LINE
  5
17A6
330
1747
100
AcDbEntity
  8
0
 62
     4
100
AcDbLine
 10
-5.999999999999997
 20
0.2500000000000013
 30
0.0
 11
-7.999999999999996
 21
0.2500000000000009
 31
0.0
  0
ATTDEF
  5
17A7
330
1747
100
AcDbEntity
  8
0
100
AcDbText
 10
-6.752715026732418
 20
0.061900000000001
 30
0.0
 40
0.125
  1

 41
0.5
  7
ROMANS_HLF
 72
     1
 11
-6.752715026732418
 21
0.061900000000001
 31
0.0
100
AcDbAttributeDefinition
  3
NEXT ASSEMBLY
  2
NXT_ASSY
 70
     0
  0
MTEXT
  5
17A8
330
1747
100
AcDbEntity
  8
0
100
AcDbMText
 10
-4.99344211614258
 20
0.9448050576824812
 30
0.0
 40
0.063
 41
1.928099999999998
 71
     2
 72
     5
  3
THE USE OF THIS DOCUMENT IS UNLIMITED. DESIGN FEATURES, SPECIFICATIONS AND PERFORMANCE DATA SHOWN HEREON ARE THE PROPERTY OF AMPHENOL CORP. ALL DIMENSIONS ARE SUBJECT TO NORMAL MANUFACTURING VARIATIONS. DOCUMENTS REFERENCED HEREON MAY CONTAIN LIMITED
  1
 RIGHTS DATA.
  7
ROMANS
 73
     1
 44
1.0
  0
ENDBLK
  5
17AA
330
1747
100
AcDbEntity
  8
0
100
AcDbBlockEnd
  0
BLOCK
  5
35FB
330
35CE
100
AcDbEntity
  8
0
100
AcDbBlockBegin
  2
BORD-B
 70
     2
 10
0.0
 20
0.0
 30
0.0
  3
BORD-B
  1

  0
ATTDEF
  5
35CF
330
35CE
100
AcDbEntity
  8
0
 62
     7
100
AcDbText
 10
16.12524999999687
 20
2.166416666740623
 30
0.0
 40
0.124999999996875
  1

 50
270.0
 41
0.5
  7
ROMANS
 72
     4
 11
16.12524999999687
 21
2.166416666740623
 31
0.0
100
AcDbAttributeDefinition
  3

  2
NOSHEETS
 70
     0
  0
ATTDEF
  5
35D0
330
35CE
100
AcDbEntity
  8
0
 62
     7
100
AcDbText
 10
16.12524999999687
 20
2.666416666728121
 30
0.0
 40
0.124999999996875
  1

 50
270.0
 41
0.5
  7
ROMANS
 72
     4
 11
16.12524999999687
 21
2.666416666728121
 31
0.0
100
AcDbAttributeDefinition
  3

  2
SHEETNO
 70
     0
  0
ATTDEF
  5
35D1
330
35CE
100
AcDbEntity
  8
0
 62
     7
100
AcDbText
 10
16.12524999999687
 20
3.124750000049997
 30
0.0
 40
0.124999999996875
  1

 50
270.0
 41
0.5
  7
ROMANS
 72
     4
 11
16.12524999999687
 21
3.124750000049997
 31
0.0
100
AcDbAttributeDefinition
  3

  2
REV
 70
     0
  0
ATTDEF
  5
35D2
330
35CE
100
AcDbEntity
  8
0
 62
     7
100
AcDbText
 10
16.12524999999687
 20
4.124750000024998
 30
0.0
 40
0.124999999996875
  1

 50
270.0
 41
0.5
  7
ROMANS
 72
     4
 11
16.12524999999687
 21
4.124750000024998
 31
0.0
100
AcDbAttributeDefinition
  3

  2
PARTNO
 70
     0
  0
ATTDEF
  5
35D3
330
35CE
100
AcDbEntity
  8
0
 62
     7
100
AcDbText
 10
16.12524999999687
 20
6.624749999962496
 30
0.0
 40
0.124999999996875
  1

 50
270.0
 41
0.5
  7
ROMANS
 72
     4
 11
16.12524999999687
 21
6.624749999962496
 31
0.0
100
AcDbAttributeDefinition
  3

  2
TITLE
 70
     0
  0
TEXT
  5
35D4
330
35CE
100
AcDbEntity
  8
0
 62
     7
100
AcDbText
 10
16.12524999999687
 20
2.437250000067184
 30
0.0
 40
0.0624999999984375
  1
OF:
 50
270.0
  7
ROMANS
100
AcDbText
  0
TEXT
  5
35D5
330
35CE
100
AcDbEntity
  8
0
 62
     7
100
AcDbText
 10
16.12524999999687
 20
2.937250000054683
 30
0.0
 40
0.0624999999984375
  1
SH:
 50
270.0
  7
ROMANS
100
AcDbText
  0
LINE
  5
35D6
330
35CE
100
AcDbEntity
  8
0
 62
     4
100
AcDbLine
 10
16.25024999999373
 20
1.999750000078122
 30
0.0
 11
16.00024999999999
 21
1.999750000078121
 31
0.0
  0
LINE
  5
35D7
330
35CE
100
AcDbEntity
  8
0
 62
     4
100
AcDbLine
 10
16.25024999999373
 20
2.499750000065621
 30
0.0
 11
16.00024999999999
 21
2.499750000065621
 31
0.0
  0
LINE
  5
35D8
330
35CE
100
AcDbEntity
  8
0
 62
     4
100
AcDbLine
 10
16.25024999999373
 20
2.99975000005312
 30
0.0
 11
16.00024999999999
 21
2.99975000005312
 31
0.0
  0
LINE
  5
35D9
330
35CE
100
AcDbEntity
  8
0
 62
     4
100
AcDbLine
 10
16.25024999999373
 20
3.49975000004062
 30
0.0
 11
16.00024999999999
 21
3.49975000004062
 31
0.0
  0
LINE
  5
35DA
330
35CE
100
AcDbEntity
  8
0
 62
     4
100
AcDbLine
 10
16.25024999999373
 20
5.249749999996871
 30
0.0
 11
16.00025
 21
5.249749999996871
 31
0.0
  0
TEXT
  5
35DB
330
35CE
100
AcDbEntity
  8
0
 62
     7
100
AcDbText
 10
16.12524999999687
 20
3.437250000042183
 30
0.0
 40
0.0624999999984375
  1
REV:
 50
270.0
  7
ROMANS
100
AcDbText
  0
TEXT
  5
35DC
330
35CE
100
AcDbEntity
  8
0
 62
     7
100
AcDbText
 10
16.12524999999687
 20
5.187249999998433
 30
0.0
 40
0.0624999999984375
  1
DWG NO:
 50
270.0
  7
ROMANS
100
AcDbText
  0
TEXT
  5
35DD
330
35CE
100
AcDbEntity
  8
0
 62
     7
100
AcDbText
 10
16.12524999999687
 20
8.187249999923432
 30
0.0
 40
0.0624999999984375
  1
TITLE:
 50
270.0
  7
ROMANS
100
AcDbText
  0
LINE
  5
35DE
330
35CE
100
AcDbEntity
  8
0
 62
     4
100
AcDbLine
 10
16.25024999999373
 20
8.249749999921871
 30
0.0
 11
16.00025
 21
8.249749999921871
 31
0.0
  0
LINE
  5
35DF
330
35CE
100
AcDbEntity
  8
0
 62
     4
100
AcDbLine
 10
16.25024999999373
 20
8.249749999921871
 30
0.0
 11
16.25024999999373
 21
1.999750000078122
 31
0.0
  0
LINE
  5
35E0
330
35CE
100
AcDbEntity
  8
0
 62
     4
100
AcDbLine
 10
10.93774999999999
 20
9.749749999999997
 30
0.0
 11
10.93774999999999
 21
10.24974999999999
 31
0.0
  0
TEXT
  5
35E1
330
35CE
100
AcDbEntity
  8
0
100
AcDbText
 10
11.05158928571428
 20
9.827874999999997
 30
0.0
 40
0.09375
  1
REV
  7
ROMANS
 72
     4
 11
11.18775
 21
9.874749999999997
 31
0.0
100
AcDbText
  0
LINE
  5
35E2
330
35CE
100
AcDbEntity
  8
0
 62
     4
100
AcDbLine
 10
15.00024999999999
 20
9.999749999999997
 30
0.0
 11
15.00024999999999
 21
9.749749999999997
 31
0.0
  0
LINE
  5
35E3
330
35CE
100
AcDbEntity
  8
0
 62
     4
100
AcDbLine
 10
14.25024999999999
 20
9.999749999999997
 30
0.0
 11
14.25024999999999
 21
9.749749999999997
 31
0.0
  0
TEXT
  5
35E4
330
35CE
100
AcDbEntity
  8
0
100
AcDbText
 10
12.77480357142857
 20
9.827874999999997
 30
0.0
 40
0.09375
  1
DESCRIPTION
  7
ROMANS
 72
     4
 11
13.219
 21
9.874749999999997
 31
0.0
100
AcDbText
  0
TEXT
  5
35E5
330
35CE
100
AcDbEntity
  8
0
100
AcDbText
 10
14.45560714285714
 20
9.827874999999997
 30
0.0
 40
0.09375
  1
DATE
  7
ROMANS
 72
     4
 11
14.62525
 21
9.874749999999997
 31
0.0
100
AcDbText
  0
TEXT
  5
35E6
330
35CE
100
AcDbEntity
  8
0
 62
     4
100
AcDbText
 10
13.11408928571427
 20
10.077875
 30
0.0
 40
0.09375
  1
REVISIONS
  7
ROMANS
 72
     4
 11
13.46899999999999
 21
10.12475
 31
0.0
100
AcDbText
  0
LINE
  5
35E7
330
35CE
100
AcDbEntity
  8
0
 62
     1
100
AcDbLine
 10
0.2502499999999994
 20
-0.0002500000000003
 30
0.0
 11
16.00025
 21
-0.0002500000000003
 31
0.0
  0
LINE
  5
35E8
330
35CE
100
AcDbEntity
  8
0
 62
     1
100
AcDbLine
 10
0.2502499999999994
 20
10.24974999999999
 30
0.0
 11
0.2502499999999994
 21
-0.0002500000000003
 31
0.0
  0
LINE
  5
35E9
330
35CE
100
AcDbEntity
  8
0
 62
     1
100
AcDbLine
 10
16.00025
 20
10.24974999999999
 30
0.0
 11
16.00025
 21
-0.0002500000000039
 31
0.0
  0
LINE
  5
35EA
330
35CE
100
AcDbEntity
  8
0
 62
     1
100
AcDbLine
 10
0.2502500000000012
 20
10.24974999999999
 30
0.0
 11
16.00025
 21
10.24974999999999
 31
0.0
  0
LINE
  5
35EB
330
35CE
100
AcDbEntity
  8
0
 62
     4
100
AcDbLine
 10
10.93774999999999
 20
9.999749999999997
 30
0.0
 11
16.00025
 21
9.999749999999997
 31
0.0
  0
LINE
  5
35EC
330
35CE
100
AcDbEntity
  8
0
 62
     4
100
AcDbLine
 10
10.93774999999999
 20
9.749749999999997
 30
0.0
 11
16.00025
 21
9.749749999999997
 31
0.0
  0
LINE
  5
35ED
330
35CE
100
AcDbEntity
  8
0
 62
     4
100
AcDbLine
 10
11.43774999999999
 20
9.749749999999997
 30
0.0
 11
11.43774999999999
 21
9.999749999999997
 31
0.0
  0
LINE
  5
35EE
330
35CE
100
AcDbEntity
  8
0
 62
     4
100
AcDbLine
 10
11.93775
 20
9.749749999999997
 30
0.0
 11
11.93775
 21
9.999749999999997
 31
0.0
  0
TEXT
  5
35EF
330
35CE
100
AcDbEntity
  8
0
100
AcDbText
 10
11.54712499999999
 20
9.827874999999997
 30
0.0
 40
0.09375
  1
ECO
  7
ROMANS
 72
     4
 11
11.68774999999999
 21
9.874749999999997
 31
0.0
100
AcDbText
  0
LINE
  5
35F0
330
35CE
100
AcDbEntity
  8
0
 62
     4
100
AcDbLine
 10
15.50024999999999
 20
9.999749999999997
 30
0.0
 11
15.50024999999999
 21
9.749749999999997
 31
0.0
  0
TEXT
  5
35F1
330
35CE
100
AcDbEntity
  8
0
100
AcDbText
 10
15.57391071428571
 20
9.827874999999997
 30
0.0
 40
0.09375
  1
APPR
  7
ROMANS
 72
     4
 11
15.75025
 21
9.874749999999997
 31
0.0
100
AcDbText
  0
TEXT
  5
35F2
330
35CE
100
AcDbEntity
  8
0
100
AcDbText
 10
15.15649999999999
 20
9.827874999999997
 30
0.0
 40
0.09375
  1
BY
  7
ROMANS
 72
     4
 11
15.25025
 21
9.874749999999997
 31
0.0
100
AcDbText
  0
LINE
  5
35F3
330
35CE
100
AcDbEntity
  8
0
100
AcDbLine
 10
-0.3747500000000006
 20
-0.3752500000000003
 30
0.0
 11
-0.3747500000000006
 21
-0.1252500000000003
 31
0.0
  0
LINE
  5
35F4
330
35CE
100
AcDbEntity
  8
0
100
AcDbLine
 10
-0.3747500000000006
 20
-0.3752500000000003
 30
0.0
 11
-0.1247500000000006
 21
-0.3752500000000003
 31
0.0
  0
LINE
  5
35F5
330
35CE
100
AcDbEntity
  8
0
100
AcDbLine
 10
-0.3747500000000006
 20
10.62474999999998
 30
0.0
 11
-0.3747500000000006
 21
10.37474999999999
 31
0.0
  0
LINE
  5
35F6
330
35CE
100
AcDbEntity
  8
0
100
AcDbLine
 10
-0.3747500000000006
 20
10.62474999999998
 30
0.0
 11
-0.1247500000000006
 21
10.62474999999998
 31
0.0
  0
LINE
  5
35F7
330
35CE
100
AcDbEntity
  8
0
100
AcDbLine
 10
16.62525
 20
10.62474999999998
 30
0.0
 11
16.37525
 21
10.62474999999998
 31
0.0
  0
LINE
  5
35F8
330
35CE
100
AcDbEntity
  8
0
100
AcDbLine
 10
16.62525
 20
10.62474999999998
 30
0.0
 11
16.62525
 21
10.37474999999999
 31
0.0
  0
LINE
  5
35F9
330
35CE
100
AcDbEntity
  8
0
100
AcDbLine
 10
16.62525
 20
-0.3752500000000003
 30
0.0
 11
16.62525
 21
-0.1252500000000003
 31
0.0
  0
LINE
  5
35FA
330
35CE
100
AcDbEntity
  8
0
100
AcDbLine
 10
16.62525
 20
-0.3752500000000003
 30
0.0
 11
16.37525
 21
-0.3752500000000003
 31
0.0
  0
ENDBLK
  5
35FC
330
35CE
100
AcDbEntity
  8
0
100
AcDbBlockEnd
  0
BLOCK
  5
41A2
330
419E
100
AcDbEntity
  8
0
100
AcDbBlockBegin
  2
MEDCLUMP_NTE_659_
 70
     0
 10
0.0
 20
0.0
 30
0.0
  3
MEDCLUMP_NTE_659_
  1

  0
TEXT
  5
419F
330
419E
100
AcDbEntity
  8
4
 62
     1
100
AcDbText
 10
2.482552
 20
10.60499999999999
 30
0.0
 40
0.13
  1
PIN 15
 41
1.092
  7
TDM
 72
     5
 11
3.158552
 21
10.60499999999999
 31
0.0
100
AcDbText
  0
INSERT
  5
41A0
330
419E
100
AcDbEntity
  8
4
100
AcDbBlockReference
  2
MEDFUNV_6
 10
1.794118999999999
 20
11.12060099999999
 30
0.0
 41
0.03937
 42
0.03937
 50
317.0326379999999
  0
LWPOLYLINE
  5
41A1
330
419E
100
AcDbEntity
  8
4
  6
LDM
 62
     1
100
AcDbPolyline
 90
        3
 70
     0
 43
0.0
 10
1.794118999999999
 20
11.12060099999999
 10
2.273952999999999
 20
10.67366
 10
2.398952999999999
 20
10.67366
  0
ENDBLK
  5
41A3
330
419E
100
AcDbEntity
  8
0
100
AcDbBlockEnd
  0
BLOCK
  5
41AB
330
41A4
100
AcDbEntity
  8
0
100
AcDbBlockBegin
  2
MEDFUNV_6
 70
     0
 10
0.0
 20
0.0
 30
0.0
  3
MEDFUNV_6
  1

  0
LWPOLYLINE
  5
41A5
330
41A4
100
AcDbEntity
  8
4
  6
LDM
 62
     1
100
AcDbPolyline
 90
        4
 70
     0
 43
0.0
 10
3.500002999999999
 20
0.583334
 10
0.0
 20
0.0
 10
3.500002999999999
 20
-0.583334
 10
3.500002999999999
 20
0.583334
  0
LWPOLYLINE
  5
41A6
330
41A4
100
AcDbEntity
  8
4
  6
LDM
 62
     1
100
AcDbPolyline
 90
        3
 70
     0
 43
0.0
 38
7.978631459979119E+99
 10
3.500002999999999
 20
0.486111
 10
0.583334
 20
0.0
 10
3.500002999999999
 20
-0.486111
  0
LWPOLYLINE
  5
41A7
330
41A4
100
AcDbEntity
  8
4
  6
LDM
 62
     1
100
AcDbPolyline
 90
        3
 70
     0
 43
0.0
 38
7.978631459979119E+99
 10
3.500002999999999
 20
0.388889
 10
1.166668
 20
0.0
 10
3.500002999999999
 20
-0.388889
  0
LWPOLYLINE
  5
41A8
330
41A4
100
AcDbEntity
  8
4
  6
LDM
 62
     1
100
AcDbPolyline
 90
        3
 70
     0
 43
0.0
 38
7.978631459979119E+99
 10
3.500002999999999
 20
0.291667
 10
1.750000999999999
 20
0.0
 10
3.500002999999999
 20
-0.291667
  0
LWPOLYLINE
  5
41A9
330
41A4
100
AcDbEntity
  8
4
  6
LDM
 62
     1
100
AcDbPolyline
 90
        3
 70
     0
 43
0.0
 38
7.978631459979119E+99
 10
3.500002999999999
 20
0.194445
 10
2.333334999999999
 20
0.0
 10
3.500002999999999
 20
-0.194445
  0
LWPOLYLINE
  5
41AA
330
41A4
100
AcDbEntity
  8
4
  6
LDM
 62
     1
100
AcDbPolyline
 90
        3
 70
     0
 43
0.0
 38
7.978631459979119E+99
 10
3.500002999999999
 20
0.097222
 10
2.916668999999999
 20
0.0
 10
3.500002999999999
 20
-0.097222
  0
ENDBLK
  5
41AC
330
41A4
100
AcDbEntity
  8
0
100
AcDbBlockEnd
  0
BLOCK
  5
41B1
330
41AD
100
AcDbEntity
  8
0
100
AcDbBlockBegin
  2
MEDCLUMP_NTE_655_
 70
     0
 10
0.0
 20
0.0
 30
0.0
  3
MEDCLUMP_NTE_655_
  1

  0
TEXT
  5
41AE
330
41AD
100
AcDbEntity
  8
4
 62
     1
100
AcDbText
 10
3.895414
 20
12.525
 30
0.0
 40
0.13
  1
PIN 1
 41
1.203999999999999
  7
TDM
 72
     5
 11
4.454413999999999
 21
12.525
 31
0.0
100
AcDbText
  0
INSERT
  5
41AF
330
41AD
100
AcDbEntity
  8
4
100
AcDbBlockReference
  2
MEDFUNV_6
 10
2.688340999999999
 20
12.035542
 30
0.0
 41
0.03937
 42
0.03937
 50
28.70065999999999
  0
LWPOLYLINE
  5
41B0
330
41AD
100
AcDbEntity
  8
4
  6
LDM
 62
     1
100
AcDbPolyline
 90
        3
 70
     0
 43
0.0
 10
2.688340999999999
 20
12.035542
 10
3.697272
 20
12.58793
 10
3.822272
 20
12.58793
  0
ENDBLK
  5
41B2
330
41AD
100
AcDbEntity
  8
0
100
AcDbBlockEnd
  0
BLOCK
  5
41B7
330
41B3
100
AcDbEntity
  8
0
100
AcDbBlockBegin
  2
MEDCLUMP_NTE_651_
 70
     0
 10
0.0
 20
0.0
 30
0.0
  3
MEDCLUMP_NTE_651_
  1

  0
TEXT
  5
41B4
330
41B3
100
AcDbEntity
  8
4
 62
     1
100
AcDbText
 10
0.9290229999999999
 20
12.13846
 30
0.0
 40
0.13
  1
PIN 44
 41
1.039999999999999
  7
TDM
 72
     5
 11
1.605022999999999
 21
12.13846
 31
0.0
100
AcDbText
  0
INSERT
  5
41B5
330
41B3
100
AcDbEntity
  8
4
100
AcDbBlockReference
  2
MEDFUNV_6
 10
1.719165999999999
 20
11.322834
 30
0.0
 41
0.03937
 42
0.03937
 50
83.58203399999998
  0
LWPOLYLINE
  5
41B6
330
41B3
100
AcDbEntity
  8
4
  6
LDM
 62
     1
100
AcDbPolyline
 90
        3
 70
     0
 43
0.0
 10
1.719165999999999
 20
11.322834
 10
1.818222999999999
 20
12.20346
 10
1.693222999999999
 20
12.20346
  0
ENDBLK
  5
41B8
330
41B3
100
AcDbEntity
  8
0
100
AcDbBlockEnd
  0
BLOCK
  5
41BD
330
41B9
100
AcDbEntity
  8
0
100
AcDbBlockBegin
  2
MEDCLUMP_NTE_647_
 70
     0
 10
0.0
 20
0.0
 30
0.0
  3
MEDCLUMP_NTE_647_
  1

  0
TEXT
  5
41BA
330
41B9
100
AcDbEntity
  8
4
 62
     1
100
AcDbText
 10
0.9371889999999998
 20
12.522241
 30
0.0
 40
0.13
  1
PIN 31
 41
1.149473684210526
  7
TDM
 72
     5
 11
1.613189
 21
12.522241
 31
0.0
100
AcDbText
  0
INSERT
  5
41BB
330
41B9
100
AcDbEntity
  8
4
100
AcDbBlockReference
  2
MEDFUNV_6
 10
2.546480999999999
 20
12.150149
 30
0.0
 41
0.03937
 42
0.03937
 50
148.7424679999999
  0
LWPOLYLINE
  5
41BC
330
41B9
100
AcDbEntity
  8
4
  6
LDM
 62
     1
100
AcDbPolyline
 90
        3
 70
     0
 43
0.0
 10
2.546480999999999
 20
12.150149
 10
1.826388999999999
 20
12.587241
 10
1.701388999999999
 20
12.587241
  0
ENDBLK
  5
41BE
330
41B9
100
AcDbEntity
  8
0
100
AcDbBlockEnd
  0
BLOCK
  5
45C4
330
452B
100
AcDbEntity
  8
0
100
AcDbBlockBegin
  2
ASSEMBLY_B
 70
     2
 10
0.0
 20
0.0
 30
0.0
  3
ASSEMBLY_B
  1

  0
LINE
  5
4961
330
452B
100
AcDbEntity
  8
BORDER
 62
    15
100
AcDbLine
 10
16.6
 20
0.3999656890232617
 30
0.0
 11
16.6
 21
10.63996597902324
 31
0.0
  0
LINE
  5
4962
330
452B
100
AcDbEntity
  8
BORDER
 62
    15
100
AcDbLine
 10
0.400011260000019
 20
0.3999656890232617
 30
0.0
 11
0.400011260000019
 21
10.63996597902324
 31
0.0
  0
LINE
  5
4963
330
452B
100
AcDbEntity
  8
BORDER
 62
    15
100
AcDbLine
 10
0.400011260000019
 20
0.3999656890232617
 30
0.0
 11
16.6
 21
0.3999656890232617
 31
0.0
  0
LINE
  5
4964
330
452B
100
AcDbEntity
  8
BORDER
 62
    15
100
AcDbLine
 10
0.0000022600000076
 20
5.519965834023253
 30
0.0
 11
0.400011260000019
 21
5.519965834023253
 31
0.0
  0
TEXT
  5
4965
330
452B
100
AcDbEntity
  8
Title Block
  6
Continuous
 62
     2
100
AcDbText
 10
12.30669482722675
 20
2.205546537751305
 30
0.0
 40
0.1010611419
  1
DO NOT SCALE
 50
0.09999996
  7
AE
100
AcDbText
  0
TEXT
  5
4966
330
452B
100
AcDbEntity
  8
Title Block
  6
Continuous
 62
     2
100
AcDbText
 10
12.30669482722675
 20
1.996163262564665
 30
0.0
 40
0.1010611419
  1
  DRAWING
 50
0.09999996
  7
AE
100
AcDbText
  0
ATTDEF
  5
4967
330
452B
100
AcDbEntity
  8
Title Block
  6
Continuous
 62
     2
100
AcDbText
 10
10.79999999999999
 20
0.6000000000000001
 30
0.0
 40
0.126326427375
  1

 41
0.8
100
AcDbAttributeDefinition
  3
Drawing Name
  2
GEN-TITLE-DES1{15.54}
 70
     0
1001
GENIUS_GENBLLY_14
1000
BOR5
  0
LINE
  5
4968
330
452B
100
AcDbEntity
  8
Title Block
  6
Continuous
 62
     2
100
AcDbLine
 10
7.849999999999999
 20
2.4
 30
0.0
 11
16.6
 21
2.4
 31
0.0
  0
LINE
  5
4969
330
452B
100
AcDbEntity
  8
Title Block
  6
Continuous
 62
     2
100
AcDbLine
 10
12.17518995515351
 20
1.7
 30
0.0
 11
16.6
 21
1.7
 31
0.0
  0
LINE
  5
496A
330
452B
100
AcDbEntity
  8
Title Block
  6
Continuous
 62
     2
100
AcDbLine
 10
12.17518995515351
 20
1.45
 30
0.0
 11
16.6
 21
1.45
 31
0.0
  0
LINE
  5
496B
330
452B
100
AcDbEntity
  8
Title Block
  6
Continuous
 62
     2
100
AcDbLine
 10
12.17518995515351
 20
1.199999999999999
 30
0.0
 11
16.6
 21
1.199999999999999
 31
0.0
  0
LINE
  5
496C
330
452B
100
AcDbEntity
  8
Title Block
  6
Continuous
 62
     2
100
AcDbLine
 10
10.69965639031853
 20
0.95
 30
0.0
 11
16.6
 21
0.95
 31
0.0
  0
ATTDEF
  5
496D
330
452B
100
AcDbEntity
  8
Title Block
  6
Continuous
 62
     2
100
AcDbText
 10
12.52499999999999
 20
1.024999999999999
 30
0.0
 40
0.1010611419
  1

100
AcDbAttributeDefinition
  3
Approved by
  2
GEN-TITLE-APPM{5}
 70
     0
1001
GENIUS_GENBLLY_14
1000
BOR2
1001
GENIUS_GENTRA_14
1002
{
1070
     3
1000
GENTRAPR,%s,(GENMSG gentitus 73)
1000
Approved by
1000
gb
1070
     0
1002
}
  0
ATTDEF
  5
496E
330
452B
100
AcDbEntity
  8
Title Block
  6
Continuous
 62
     2
100
AcDbText
 10
12.52499999999999
 20
1.274999999999999
 30
0.0
 40
0.1010611419
  1

100
AcDbAttributeDefinition
  3
Check by
  2
GEN-TITLE-CHKM{5}
 70
     0
1001
GENIUS_GENBLLY_14
1000
BOR2
  0
ATTDEF
  5
496F
330
452B
100
AcDbEntity
  8
Title Block
  6
Continuous
 62
     2
100
AcDbText
 10
12.52499999999999
 20
1.524999999999999
 30
0.0
 40
0.1010611419
  1

100
AcDbAttributeDefinition
  3
Drawn by
  2
GEN-TITLE-NAME{5}
 70
     0
1001
GENIUS_GENBLLY_14
1000
BOR2
  0
LINE
  5
4970
330
452B
100
AcDbEntity
  8
Title Block
  6
Continuous
 62
     2
100
AcDbLine
 10
7.849999999999999
 20
0.9
 30
0.0
 11
10.69965639031853
 21
0.9
 31
0.0
  0
LINE
  5
4971
330
452B
100
AcDbEntity
  8
Title Block
  6
Continuous
 62
     2
100
AcDbLine
 10
7.849999999999999
 20
1.149999999999999
 30
0.0
 11
10.69965639031853
 21
1.149999999999999
 31
0.0
  0
LINE
  5
4972
330
452B
100
AcDbEntity
  8
Title Block
  6
Continuous
 62
     2
100
AcDbLine
 10
7.849999999999999
 20
2.149999999999999
 30
0.0
 11
10.69965639031853
 21
2.149999999999999
 31
0.0
  0
LINE
  5
4973
330
452B
100
AcDbEntity
  8
Title Block
  6
Continuous
 62
     2
100
AcDbLine
 10
7.849999999999999
 20
1.9
 30
0.0
 11
10.69965639031853
 21
1.9
 31
0.0
  0
LINE
  5
4974
330
452B
100
AcDbEntity
  8
Title Block
  6
Continuous
 62
     2
100
AcDbLine
 10
7.849999999999999
 20
1.649999999999999
 30
0.0
 11
10.69965639031853
 21
1.649999999999999
 31
0.0
  0
LINE
  5
4975
330
452B
100
AcDbEntity
  8
Title Block
  6
Continuous
 62
     2
100
AcDbLine
 10
7.849999999999999
 20
1.399999999999999
 30
0.0
 11
10.69965639031853
 21
1.399999999999999
 31
0.0
  0
LINE
  5
4976
330
452B
100
AcDbEntity
  8
Title Block
  6
Continuous
 62
     2
100
AcDbLine
 10
7.849999999999999
 20
0.65
 30
0.0
 11
10.69965639031853
 21
0.65
 31
0.0
  0
TEXT
  5
4977
330
452B
100
AcDbEntity
  8
Title Block
  6
Continuous
 62
     2
100
AcDbText
 10
8.501374022347393
 20
0.7409580908741999
 30
0.0
 40
0.075937067150492
  1
DATE
 50
0.09999996
  7
AE
100
AcDbText
  0
LINE
  5
4978
330
452B
100
AcDbEntity
  8
BORDER
 62
    15
100
AcDbLine
 10
8.50000126000001
 20
0.2
 30
0.0
 11
8.50000126000001
 21
0.3999656890232617
 31
0.0
  0
TEXT
  5
4979
330
452B
100
AcDbEntity
  8
BORDER
  6
Continuous
 62
    15
100
AcDbText
 10
8.471503396695657
 20
0.0599741912456094
 30
0.0
 40
0.0799862356161777
  1
0
 50
0.09999996
  7
AE
100
AcDbText
  0
LINE
  5
497A
330
452B
100
AcDbEntity
  8
BORDER
  6
Continuous
 62
    15
100
AcDbLine
 10
8.57998715545812
 20
0.3399759973137096
 30
0.0
 11
8.57998715545812
 21
0.3999656890232617
 31
0.0
  0
LINE
  5
497B
330
452B
100
AcDbEntity
  8
BORDER
  6
Continuous
 62
    15
100
AcDbLine
 10
8.559991091469045
 20
0.2999828395124904
 30
0.0
 11
8.559991091469045
 21
0.3999656890232617
 31
0.0
  0
LINE
  5
497C
330
452B
100
AcDbEntity
  8
BORDER
  6
Continuous
 62
    15
100
AcDbLine
 10
8.539994027651742
 20
0.2999828395124904
 30
0.0
 11
8.539994027651742
 21
0.3999656890232617
 31
0.0
  0
LINE
  5
497D
330
452B
100
AcDbEntity
  8
BORDER
  6
Continuous
 62
    15
100
AcDbLine
 10
8.519997063817303
 20
0.3399759973137096
 30
0.0
 11
8.519997063817303
 21
0.3999656890232617
 31
0.0
  0
LINE
  5
497E
330
452B
100
AcDbEntity
  8
BORDER
  6
Continuous
 62
    15
100
AcDbLine
 10
8.599983219447194
 20
0.2599896917095521
 30
0.0
 11
8.599983219447194
 21
0.3999656890232617
 31
0.0
  0
LINE
  5
497F
330
452B
100
AcDbEntity
  8
Title Block
  6
Continuous
 62
     2
100
AcDbLine
 10
8.199999999999999
 20
0.65
 30
0.0
 11
8.199999999999999
 21
2.4
 31
0.0
  0
LINE
  5
4980
330
452B
100
AcDbEntity
  8
Title Block
  6
Continuous
 62
     2
100
AcDbLine
 10
7.849999999999999
 20
0.3999656890232617
 30
0.0
 11
7.849999999999999
 21
2.4
 31
0.0
  0
TEXT
  5
4981
330
452B
100
AcDbEntity
  8
Title Block
  6
Continuous
 62
     2
100
AcDbText
 10
7.938242132245035
 20
0.7403498140978244
 30
0.0
 40
0.0771520776612738
  1
NO.
 50
0.09999996
  7
AE
100
AcDbText
  0
LINE
  5
4982
330
452B
100
AcDbEntity
  8
BORDER
  6
Continuous
 62
    15
100
AcDbLine
 10
9.499828195159265
 20
0.2
 30
0.0
 11
9.499828195159265
 21
0.3999656890232617
 31
0.0
  0
TEXT
  5
4983
330
452B
100
AcDbEntity
  8
BORDER
  6
Continuous
 62
    15
100
AcDbText
 10
9.271369052290525
 20
0.1199638829551611
 30
0.0
 40
0.0799862356161777
  1
8
 50
0.09999996
  7
AE
100
AcDbText
  0
TEXT
  5
4984
330
452B
100
AcDbEntity
  8
BORDER
  6
Continuous
 62
    15
100
AcDbText
 10
10.0712336080743
 20
0.1199638829551611
 30
0.0
 40
0.0799862356161777
  1
6
 50
0.09999996
  7
AE
100
AcDbText
  0
TEXT
  5
4985
330
452B
100
AcDbEntity
  8
BORDER
  6
Continuous
 62
    15
100
AcDbText
 10
9.671301830096499
 20
0.1199638829551611
 30
0.0
 40
0.0799862356161777
  1
2
 50
0.09999996
  7
AE
100
AcDbText
  0
TEXT
  5
4986
330
452B
100
AcDbEntity
  8
BORDER
  6
Continuous
 62
    15
100
AcDbText
 10
9.471331591854921
 20
0.0599741912456094
 30
0.0
 40
0.0799862356161777
  1
1
 50
0.09999996
  7
AE
100
AcDbText
  0
TEXT
  5
4987
330
452B
100
AcDbEntity
  8
BORDER
  6
Continuous
 62
    15
100
AcDbText
 10
9.871267269162689
 20
0.1199638829551611
 30
0.0
 40
0.0799862356161777
  1
4
 50
0.09999996
  7
AE
100
AcDbText
  0
TEXT
  5
4988
330
452B
100
AcDbEntity
  8
BORDER
  6
Continuous
 62
    15
100
AcDbText
 10
10.27120004696869
 20
0.1199638829551611
 30
0.0
 40
0.0799862356161777
  1
8
 50
0.09999996
  7
AE
100
AcDbText
  0
LINE
  5
4989
330
452B
100
AcDbEntity
  8
BORDER
  6
Continuous
 62
    15
100
AcDbLine
 10
9.379852711070126
 20
0.3399759973137096
 30
0.0
 11
9.379852711070126
 21
0.3999656890232617
 31
0.0
  0
LINE
  5
498A
330
452B
100
AcDbEntity
  8
BORDER
  6
Continuous
 62
    15
100
AcDbLine
 10
9.359856647081052
 20
0.2999828395124904
 30
0.0
 11
9.359856647081052
 21
0.3999656890232617
 31
0.0
  0
LINE
  5
498B
330
452B
100
AcDbEntity
  8
BORDER
  6
Continuous
 62
    15
100
AcDbLine
 10
9.339859683246583
 20
0.2999828395124904
 30
0.0
 11
9.339859683246583
 21
0.3999656890232617
 31
0.0
  0
LINE
  5
498C
330
452B
100
AcDbEntity
  8
BORDER
  6
Continuous
 62
    15
100
AcDbLine
 10
9.319862619429308
 20
0.3399759973137096
 30
0.0
 11
9.319862619429308
 21
0.3999656890232617
 31
0.0
  0
LINE
  5
498D
330
452B
100
AcDbEntity
  8
BORDER
  6
Continuous
 62
    15
100
AcDbLine
 10
9.279869591605736
 20
0.3399759973137096
 30
0.0
 11
9.279869591605736
 21
0.3999656890232617
 31
0.0
  0
LINE
  5
498E
330
452B
100
AcDbEntity
  8
BORDER
  6
Continuous
 62
    15
100
AcDbLine
 10
9.459839866528247
 20
0.2999828395124904
 30
0.0
 11
9.459839866528247
 21
0.3999656890232617
 31
0.0
  0
LINE
  5
498F
330
452B
100
AcDbEntity
  8
BORDER
  6
Continuous
 62
    15
100
AcDbLine
 10
9.439842902693806
 20
0.2999828395124904
 30
0.0
 11
9.439842902693806
 21
0.3999656890232617
 31
0.0
  0
LINE
  5
4990
330
452B
100
AcDbEntity
  8
BORDER
  6
Continuous
 62
    15
100
AcDbLine
 10
9.419845838876504
 20
0.3399759973137096
 30
0.0
 11
9.419845838876504
 21
0.3999656890232617
 31
0.0
  0
LINE
  5
4991
330
452B
100
AcDbEntity
  8
BORDER
  6
Continuous
 62
    15
100
AcDbLine
 10
9.399848775059201
 20
0.2599896917095521
 30
0.0
 11
9.399848775059201
 21
0.3999656890232617
 31
0.0
  0
LINE
  5
4992
330
452B
100
AcDbEntity
  8
BORDER
  6
Continuous
 62
    15
100
AcDbLine
 10
9.29986565559481
 20
0.2599896917095521
 30
0.0
 11
9.29986565559481
 21
0.3999656890232617
 31
0.0
  0
LINE
  5
4993
330
452B
100
AcDbEntity
  8
BORDER
  6
Continuous
 62
    15
100
AcDbLine
 10
9.479835930517349
 20
0.3399759973137096
 30
0.0
 11
9.479835930517349
 21
0.3999656890232617
 31
0.0
  0
LINE
  5
4994
330
452B
100
AcDbEntity
  8
BORDER
  6
Continuous
 62
    15
100
AcDbLine
 10
9.699798433400815
 20
0.2599896917095521
 30
0.0
 11
9.699798433400815
 21
0.3999656890232617
 31
0.0
  0
LINE
  5
4995
330
452B
100
AcDbEntity
  8
BORDER
  6
Continuous
 62
    15
100
AcDbLine
 10
9.899763872467033
 20
0.2599896917095521
 30
0.0
 11
9.899763872467033
 21
0.3999656890232617
 31
0.0
  0
LINE
  5
4996
330
452B
100
AcDbEntity
  8
BORDER
  6
Continuous
 62
    15
100
AcDbLine
 10
10.09973031136145
 20
0.2599896917095521
 30
0.0
 11
10.09973031136145
 21
0.3999656890232617
 31
0.0
  0
LINE
  5
4997
330
452B
100
AcDbEntity
  8
BORDER
  6
Continuous
 62
    15
100
AcDbLine
 10
10.29969665027303
 20
0.2599896917095521
 30
0.0
 11
10.29969665027303
 21
0.3999656890232617
 31
0.0
  0
LINE
  5
4998
330
452B
100
AcDbEntity
  8
BORDER
  6
Continuous
 62
    15
100
AcDbLine
 10
10.49965928982029
 20
0.2
 30
0.0
 11
10.49965928982029
 21
0.3999656890232617
 31
0.0
  0
TEXT
  5
4999
330
452B
100
AcDbEntity
  8
BORDER
  6
Continuous
 62
    15
100
AcDbText
 10
10.47115978701421
 20
0.0599741912456095
 30
0.0
 40
0.0799862356161777
  1
2
 50
0.09999996
  7
AE
100
AcDbText
  0
TEXT
  5
499A
330
452B
100
AcDbEntity
  8
BORDER
  6
Continuous
 62
    15
100
AcDbText
 10
8.671469835590103
 20
0.1199638829551611
 30
0.0
 40
0.0799862356161777
  1
2
 50
0.09999996
  7
AE
100
AcDbText
  0
LINE
  5
499B
330
452B
100
AcDbEntity
  8
BORDER
  6
Continuous
 62
    15
100
AcDbLine
 10
8.679970374905344
 20
0.3399759973137096
 30
0.0
 11
8.679970374905344
 21
0.3999656890232617
 31
0.0
  0
LINE
  5
499C
330
452B
100
AcDbEntity
  8
BORDER
  6
Continuous
 62
    15
100
AcDbLine
 10
8.65997431091624
 20
0.2999828395124904
 30
0.0
 11
8.65997431091624
 21
0.3999656890232617
 31
0.0
  0
LINE
  5
499D
330
452B
100
AcDbEntity
  8
BORDER
  6
Continuous
 62
    15
100
AcDbLine
 10
8.639977247098967
 20
0.2999828395124904
 30
0.0
 11
8.639977247098967
 21
0.3999656890232617
 31
0.0
  0
LINE
  5
499E
330
452B
100
AcDbEntity
  8
BORDER
  6
Continuous
 62
    15
100
AcDbLine
 10
8.619980183281692
 20
0.3399759973137096
 30
0.0
 11
8.619980183281692
 21
0.3999656890232617
 31
0.0
  0
LINE
  5
499F
330
452B
100
AcDbEntity
  8
BORDER
  6
Continuous
 62
    15
100
AcDbLine
 10
8.699966438894419
 20
0.2599896917095521
 30
0.0
 11
8.699966438894419
 21
0.3999656890232617
 31
0.0
  0
TEXT
  5
49A0
330
452B
100
AcDbEntity
  8
BORDER
  6
Continuous
 62
    15
100
AcDbText
 10
9.071402613396108
 20
0.1199638829551611
 30
0.0
 40
0.0799862356161777
  1
6
 50
0.09999996
  7
AE
100
AcDbText
  0
TEXT
  5
49A1
330
452B
100
AcDbEntity
  8
BORDER
  6
Continuous
 62
    15
100
AcDbText
 10
8.87143617450166
 20
0.1199638829551611
 30
0.0
 40
0.0799862356161777
  1
4
 50
0.09999996
  7
AE
100
AcDbText
  0
LINE
  5
49A2
330
452B
100
AcDbEntity
  8
BORDER
  6
Continuous
 62
    15
100
AcDbLine
 10
8.779953494369733
 20
0.3399759973137096
 30
0.0
 11
8.779953494369733
 21
0.3999656890232617
 31
0.0
  0
LINE
  5
49A3
330
452B
100
AcDbEntity
  8
BORDER
  6
Continuous
 62
    15
100
AcDbLine
 10
8.75995743038063
 20
0.2999828395124904
 30
0.0
 11
8.75995743038063
 21
0.3999656890232617
 31
0.0
  0
LINE
  5
49A4
330
452B
100
AcDbEntity
  8
BORDER
  6
Continuous
 62
    15
100
AcDbLine
 10
8.73996046654619
 20
0.2999828395124904
 30
0.0
 11
8.73996046654619
 21
0.3999656890232617
 31
0.0
  0
LINE
  5
49A5
330
452B
100
AcDbEntity
  8
BORDER
  6
Continuous
 62
    15
100
AcDbLine
 10
8.719963402728886
 20
0.3399759973137096
 30
0.0
 11
8.719963402728886
 21
0.3999656890232617
 31
0.0
  0
LINE
  5
49A6
330
452B
100
AcDbEntity
  8
BORDER
  6
Continuous
 62
    15
100
AcDbLine
 10
9.119896280517695
 20
0.3399759973137096
 30
0.0
 11
9.119896280517695
 21
0.3999656890232617
 31
0.0
  0
LINE
  5
49A7
330
452B
100
AcDbEntity
  8
BORDER
  6
Continuous
 62
    15
100
AcDbLine
 10
9.079903152711347
 20
0.3399759973137096
 30
0.0
 11
9.079903152711347
 21
0.3999656890232617
 31
0.0
  0
LINE
  5
49A8
330
452B
100
AcDbEntity
  8
BORDER
  6
Continuous
 62
    15
100
AcDbLine
 10
9.059907088722244
 20
0.2999828395124904
 30
0.0
 11
9.059907088722244
 21
0.3999656890232617
 31
0.0
  0
LINE
  5
49A9
330
452B
100
AcDbEntity
  8
BORDER
  6
Continuous
 62
    15
100
AcDbLine
 10
9.039910024904969
 20
0.2999828395124904
 30
0.0
 11
9.039910024904969
 21
0.3999656890232617
 31
0.0
  0
LINE
  5
49AA
330
452B
100
AcDbEntity
  8
BORDER
  6
Continuous
 62
    15
100
AcDbLine
 10
9.0199130610705
 20
0.3399759973137096
 30
0.0
 11
9.0199130610705
 21
0.3999656890232617
 31
0.0
  0
LINE
  5
49AB
330
452B
100
AcDbEntity
  8
BORDER
  6
Continuous
 62
    15
100
AcDbLine
 10
8.979919933264122
 20
0.3399759973137096
 30
0.0
 11
8.979919933264122
 21
0.3999656890232617
 31
0.0
  0
LINE
  5
49AC
330
452B
100
AcDbEntity
  8
BORDER
  6
Continuous
 62
    15
100
AcDbLine
 10
8.959923869275048
 20
0.2999828395124904
 30
0.0
 11
8.959923869275048
 21
0.3999656890232617
 31
0.0
  0
LINE
  5
49AD
330
452B
100
AcDbEntity
  8
BORDER
  6
Continuous
 62
    15
100
AcDbLine
 10
8.93992690544058
 20
0.2999828395124904
 30
0.0
 11
8.93992690544058
 21
0.3999656890232617
 31
0.0
  0
LINE
  5
49AE
330
452B
100
AcDbEntity
  8
BORDER
  6
Continuous
 62
    15
100
AcDbLine
 10
8.919929841623305
 20
0.3399759973137096
 30
0.0
 11
8.919929841623305
 21
0.3999656890232617
 31
0.0
  0
LINE
  5
49AF
330
452B
100
AcDbEntity
  8
BORDER
  6
Continuous
 62
    15
100
AcDbLine
 10
8.879936713816928
 20
0.3399759973137096
 30
0.0
 11
8.879936713816928
 21
0.3999656890232617
 31
0.0
  0
LINE
  5
49B0
330
452B
100
AcDbEntity
  8
BORDER
  6
Continuous
 62
    15
100
AcDbLine
 10
8.859940649827825
 20
0.2999828395124904
 30
0.0
 11
8.859940649827825
 21
0.3999656890232617
 31
0.0
  0
LINE
  5
49B1
330
452B
100
AcDbEntity
  8
BORDER
  6
Continuous
 62
    15
100
AcDbLine
 10
8.839943685993384
 20
0.2999828395124904
 30
0.0
 11
8.839943685993384
 21
0.3999656890232617
 31
0.0
  0
LINE
  5
49B2
330
452B
100
AcDbEntity
  8
BORDER
  6
Continuous
 62
    15
100
AcDbLine
 10
8.819946622176082
 20
0.3399759973137096
 30
0.0
 11
8.819946622176082
 21
0.3999656890232617
 31
0.0
  0
LINE
  5
49B3
330
452B
100
AcDbEntity
  8
BORDER
  6
Continuous
 62
    15
100
AcDbLine
 10
9.099899216700421
 20
0.2599896917095521
 30
0.0
 11
9.099899216700421
 21
0.3999656890232617
 31
0.0
  0
LINE
  5
49B4
330
452B
100
AcDbEntity
  8
BORDER
  6
Continuous
 62
    15
100
AcDbLine
 10
8.999915997253197
 20
0.2599896917095521
 30
0.0
 11
8.999915997253197
 21
0.3999656890232617
 31
0.0
  0
LINE
  5
49B5
330
452B
100
AcDbEntity
  8
BORDER
  6
Continuous
 62
    15
100
AcDbLine
 10
8.899932777806002
 20
0.2599896917095521
 30
0.0
 11
8.899932777806002
 21
0.3999656890232617
 31
0.0
  0
LINE
  5
49B6
330
452B
100
AcDbEntity
  8
BORDER
  6
Continuous
 62
    15
100
AcDbLine
 10
8.799949658341613
 20
0.2599896917095521
 30
0.0
 11
8.799949658341613
 21
0.3999656890232617
 31
0.0
  0
LINE
  5
49B7
330
452B
100
AcDbEntity
  8
BORDER
  6
Continuous
 62
    15
100
AcDbLine
 10
9.259873527616662
 20
0.2999828395124904
 30
0.0
 11
9.259873527616662
 21
0.3999656890232617
 31
0.0
  0
LINE
  5
49B8
330
452B
100
AcDbEntity
  8
BORDER
  6
Continuous
 62
    15
100
AcDbLine
 10
9.239876463799388
 20
0.2999828395124904
 30
0.0
 11
9.239876463799388
 21
0.3999656890232617
 31
0.0
  0
LINE
  5
49B9
330
452B
100
AcDbEntity
  8
BORDER
  6
Continuous
 62
    15
100
AcDbLine
 10
9.219879399982085
 20
0.3399759973137096
 30
0.0
 11
9.219879399982085
 21
0.3999656890232617
 31
0.0
  0
LINE
  5
49BA
330
452B
100
AcDbEntity
  8
BORDER
  6
Continuous
 62
    15
100
AcDbLine
 10
9.179886372158541
 20
0.3399759973137096
 30
0.0
 11
9.179886372158541
 21
0.3999656890232617
 31
0.0
  0
LINE
  5
49BB
330
452B
100
AcDbEntity
  8
BORDER
  6
Continuous
 62
    15
100
AcDbLine
 10
9.159890308169439
 20
0.2999828395124904
 30
0.0
 11
9.159890308169439
 21
0.3999656890232617
 31
0.0
  0
LINE
  5
49BC
330
452B
100
AcDbEntity
  8
BORDER
  6
Continuous
 62
    15
100
AcDbLine
 10
9.139893244352192
 20
0.2999828395124904
 30
0.0
 11
9.139893244352192
 21
0.3999656890232617
 31
0.0
  0
LINE
  5
49BD
330
452B
100
AcDbEntity
  8
BORDER
  6
Continuous
 62
    15
100
AcDbLine
 10
9.199882436147616
 20
0.2599896917095521
 30
0.0
 11
9.199882436147616
 21
0.3999656890232617
 31
0.0
  0
TEXT
  5
49BE
330
452B
100
AcDbEntity
  8
BORDER
  6
Continuous
 62
    15
100
AcDbText
 10
8.702946126881657
 20
0.0329812595588271
 30
0.0
 40
0.0399931278063708
  1
FULL SIZE   50   02
 50
0.09999996
 41
0.7749084200000001
  7
AE
100
AcDbText
  0
TEXT
  5
49BF
330
452B
100
AcDbEntity
  8
Title Block
  6
Continuous
 62
     2
100
AcDbText
 10
8.973543078500011
 20
0.4900242034427523
 30
0.0
 40
0.075937067150492
  1
REVISION
 50
0.09999996
  7
AE
100
AcDbText
  0
LINE
  5
49C0
330
452B
100
AcDbEntity
  8
BORDER
  6
Continuous
 62
    15
100
AcDbLine
 10
10.69965639031853
 20
0.3999656890232617
 30
0.0
 11
10.69965639031853
 21
2.4
 31
0.0
  0
LINE
  5
49C1
330
452B
100
AcDbEntity
  8
Title Block
  6
Continuous
 62
     2
100
AcDbLine
 10
12.17518995515351
 20
1.0
 30
0.0
 11
12.17518995515351
 21
2.4
 31
0.0
  0
TEXT
  5
49C2
330
452B
100
AcDbEntity
  8
Title Block
  6
Continuous
 62
     2
100
AcDbText
 10
10.74999999999999
 20
0.8
 30
0.0
 40
0.075937067150492
  1
DRAWING NAME
 50
0.09999996
  7
AE
100
AcDbText
  0
TEXT
  5
49C3
330
452B
100
AcDbEntity
  8
Title Block
  6
Continuous
 62
     2
100
AcDbText
 10
12.19999999999999
 20
0.975
 30
0.0
 40
0.075937067150492
  1
BY
 50
0.09999996
  7
AE
100
AcDbText
  0
TEXT
  5
49C4
330
452B
100
AcDbEntity
  8
Title Block
  6
Continuous
 62
     2
100
AcDbText
 10
12.21
 20
1.1
 30
0.0
 40
0.075937067150492
  1
APPD
 50
0.09999996
  7
AE
100
AcDbText
  0
TEXT
  5
49C5
330
452B
100
AcDbEntity
  8
Title Block
  6
Continuous
 62
     2
100
AcDbText
 10
12.19999999999999
 20
1.349999999999999
 30
0.0
 40
0.075937067150492
  1
CHK
 50
0.09999996
  7
AE
100
AcDbText
  0
TEXT
  5
49C6
330
452B
100
AcDbEntity
  8
Title Block
  6
Continuous
 62
     2
100
AcDbText
 10
12.20620037256117
 20
1.224999999999999
 30
0.0
 40
0.075937067150492
  1
BY
 50
0.09999996
  7
AE
100
AcDbText
  0
TEXT
  5
49C7
330
452B
100
AcDbEntity
  8
Title Block
  6
Continuous
 62
     2
100
AcDbText
 10
12.19999999999999
 20
1.474999999999999
 30
0.0
 40
0.075937067150492
  1
BY
 50
0.09999996
  7
AE
100
AcDbText
  0
TEXT
  5
49C8
330
452B
100
AcDbEntity
  8
Title Block
  6
Continuous
 62
     2
100
AcDbText
 10
12.19999999999999
 20
1.599999999999999
 30
0.0
 40
0.075937067150492
  1
DR
 50
0.09999996
  7
AE
100
AcDbText
  0
LINE
  5
49C9
330
452B
100
AcDbEntity
  8
Title Block
  6
Continuous
 62
     2
100
AcDbLine
 10
9.0
 20
0.65
 30
0.0
 11
9.0
 21
2.4
 31
0.0
  0
ATTDEF
  5
49CA
330
452B
100
AcDbEntity
  8
Title Block
  6
Continuous
 62
     2
100
AcDbText
 10
14.0
 20
0.5
 30
0.0
 40
0.196816573850279
  1

 41
0.8
100
AcDbAttributeDefinition
  3
Drawing Number
  2
GEN-TITLE-NR{13.37}
 70
     0
1001
GENIUS_GENBLLY_14
1000
BOR5
  0
ATTDEF
  5
49CB
330
452B
100
AcDbEntity
  8
Title Block
  6
Continuous
 62
     2
100
AcDbText
 10
15.6
 20
1.024999999999999
 30
0.0
 40
0.11808994431015
  1

 41
0.8
100
AcDbAttributeDefinition
  3
Sheet
  2
GEN-TITLE-SHEET{2.62}
 70
     0
1001
GENIUS_GENBLLY_14
1000
BOR3
  0
ATTDEF
  5
49CC
330
452B
100
AcDbEntity
  8
Title Block
  6
Continuous
 62
     2
100
AcDbText
 10
15.525
 20
1.274999999999999
 30
0.0
 40
0.1010611419
  1

100
AcDbAttributeDefinition
  3
Date
  2
GEN-TITLE-PLOT{5}
 70
     0
1001
GENIUS_GENBLLY_14
1000
BOR2
  0
ATTDEF
  5
49CD
330
452B
100
AcDbEntity
  8
Title Block
  6
Continuous
 62
     2
100
AcDbText
 10
15.99999999999999
 20
1.024999999999999
 30
0.0
 40
0.11808994431015
  1

 41
0.8
100
AcDbAttributeDefinition
  3
Sheet of
  2
GEN-TITLE-SHEET-OF{2.62}
 70
     0
1001
GENIUS_GENBLLY_14
1000
BOR3
  0
LINE
  5
49CE
330
452B
100
AcDbEntity
  8
Title Block
  6
Continuous
 62
     2
100
AcDbLine
 10
15.12625718126357
 20
0.95
 30
0.0
 11
15.12625718126354
 21
1.45
 31
0.0
  0
LINE
  5
49CF
330
452B
100
AcDbEntity
  8
BORDER
  6
Continuous
 62
    15
100
AcDbLine
 10
13.64999999999999
 20
0.3999656890232617
 30
0.0
 11
13.64999999999999
 21
2.4
 31
0.0
  0
TEXT
  5
49D0
330
452B
100
AcDbEntity
  8
Title Block
  6
Continuous
 62
     2
100
AcDbText
 10
13.7
 20
0.8
 30
0.0
 40
0.075937067150492
  1
DRAWING NUMBER
 50
0.09999996
  7
AE
100
AcDbText
  0
TEXT
  5
49D1
330
452B
100
AcDbEntity
  8
Title Block
  6
Continuous
 62
     2
100
AcDbText
 10
13.7
 20
1.599999999999999
 30
0.0
 40
0.075937067150492
  1
REF
 50
0.09999996
  7
AE
100
AcDbText
  0
TEXT
  5
49D2
330
452B
100
AcDbEntity
  8
Title Block
  6
Continuous
 62
     2
100
AcDbText
 10
13.7
 20
1.349999999999999
 30
0.0
 40
0.075937067150492
  1
MACH
 50
0.09999996
  7
AE
100
AcDbText
  0
TEXT
  5
49D3
330
452B
100
AcDbEntity
  8
Title Block
  6
Continuous
 62
     2
100
AcDbText
 10
13.7
 20
1.1
 30
0.0
 40
0.075937067150492
  1
MATL
 50
0.09999996
  7
AE
100
AcDbText
  0
ATTDEF
  5
49D4
330
452B
100
AcDbEntity
  8
Title Block
  6
Continuous
 62
     2
100
AcDbText
 10
14.05
 20
1.524999999999999
 30
0.0
 40
0.1010611419
  1

100
AcDbAttributeDefinition
  3
Ref. No.
  2
GEN-TITLE-REF{5}
 70
     0
1001
GENIUS_GENBLLY_14
1000
BOR2
  0
ATTDEF
  5
49D5
330
452B
100
AcDbEntity
  8
Title Block
  6
Continuous
 62
     2
100
AcDbText
 10
14.05
 20
1.274999999999999
 30
0.0
 40
0.1010611419
  1

100
AcDbAttributeDefinition
  3
Machine
  2
GEN-TITLE-MACH{5}
 70
     0
1001
GENIUS_GENBLLY_14
1000
BOR2
  0
ATTDEF
  5
49D6
330
452B
100
AcDbEntity
  8
Title Block
  6
Continuous
 62
     2
100
AcDbText
 10
14.05
 20
1.024999999999999
 30
0.0
 40
0.1010611419
  1

 41
0.8
100
AcDbAttributeDefinition
  3
Material
  2
GEN-TITLE-MAT{11.15}
 70
     0
1001
GENIUS_GENBLLY_14
1000
BOR3
  0
TEXT
  5
49D7
330
452B
100
AcDbEntity
  8
Title Block
  6
Continuous
 62
     2
100
AcDbText
 10
15.175
 20
1.1
 30
0.0
 40
0.075937067150492
  1
SHEET   OF
 50
0.09999996
  7
AE
100
AcDbText
  0
TEXT
  5
49D8
330
452B
100
AcDbEntity
  8
Title Block
  6
Continuous
 62
     2
100
AcDbText
 10
15.175
 20
1.349999999999999
 30
0.0
 40
0.075937067150492
  1
DATE
 50
0.09999996
  7
AE
100
AcDbText
  0
LINE
  5
49D9
330
452B
100
AcDbEntity
  8
BORDER
 62
    15
100
AcDbLine
 10
16.6
 20
5.519965979023269
 30
0.0
 11
16.99999962000001
 21
5.519965979023269
 31
0.0
  0
LINE
  5
49DA
330
452B
100
AcDbEntity
  8
BORDER
 62
    15
100
AcDbLine
 10
0.400011260000019
 20
10.63996597902324
 30
0.0
 11
16.6
 21
10.63996597902324
 31
0.0
  0
LINE
  5
49DB
330
452B
100
AcDbEntity
  8
BORDER
 62
    15
100
AcDbLine
 10
8.50000126000001
 20
10.63996597902324
 30
0.0
 11
8.50000126000001
 21
11.01996597902326
 31
0.0
  0
MTEXT
  5
49DC
330
452B
100
AcDbEntity
  8
BORDER
  6
Continuous
100
AcDbMText
 10
15.10308979335871
 20
2.25
 30
0.0
 40
0.125
 41
2.663
 71
     2
 72
     5
  1
{\fArial|b0|i0|c0|p34;\C1;G & L Motion Control Inc.}
 73
     1
 44
1.0
  0
MTEXT
  5
49DD
330
452B
100
AcDbEntity
  8
BORDER
  6
Continuous
100
AcDbMText
 10
15.10412857763948
 20
1.928264837305509
 30
0.0
 40
0.07874
 41
2.862
 71
     5
 72
     1
  1
{\Fromans.shx;\C9;672 South Military Road\PFond du Lac, Wisconsin 54936 U.S.A.}
 73
     1
 44
1.0
  0
TEXT
  5
49DE
330
452B
100
AcDbEntity
  8
Title Block
  6
Continuous
 62
     2
100
AcDbText
 10
10.71881861560131
 20
2.036049281269597
 30
0.0
 40
0.0645465051491158
  1
of G&L Motion Control, is
 50
0.0999999600000013
 41
0.6799434399999999
  7
AE
100
AcDbText
  0
TEXT
  5
49DF
330
452B
100
AcDbEntity
  8
Title Block
  6
Continuous
 62
     2
100
AcDbText
 10
10.71741487412047
 20
2.144627598463487
 30
0.0
 40
0.0645465051491158
  1
contains proprietary information
 50
0.0999999600000013
 41
0.7005041199999999
  7
AE
100
AcDbText
  0
TEXT
  5
49E0
330
452B
100
AcDbEntity
  8
Title Block
  6
Continuous
 62
     2
100
AcDbText
 10
10.72248667991201
 20
1.924616885729644
 30
0.0
 40
0.0645465051491158
  1
submitted in confidence on
 50
0.0999999600000013
 41
0.6605569100000001
  7
AE
100
AcDbText
  0
TEXT
  5
49E1
330
452B
100
AcDbEntity
  8
Title Block
  6
Continuous
 62
     2
100
AcDbText
 10
10.71679449751522
 20
1.81708586876793
 30
0.0
 40
0.0645465051491158
  1
condition that it will not be
 50
0.0999999600000013
 41
0.72234601
  7
AE
100
AcDbText
  0
TEXT
  5
49E2
330
452B
100
AcDbEntity
  8
Title Block
  6
Continuous
 62
     2
100
AcDbText
 10
10.71416899531685
 20
1.597796107226088
 30
0.0
 40
0.0645465051491158
  1
will be used only for your
 50
0.0999999600000013
 41
0.6799434399999999
  7
AE
100
AcDbText
  0
TEXT
  5
49E3
330
452B
100
AcDbEntity
  8
Title Block
  6
Continuous
 62
     2
100
AcDbText
 10
10.71948721212293
 20
1.489000640399515
 30
0.0
 40
0.0645465051491158
  1
information, and will not be used
 50
0.0999999600000013
 41
0.6605569100000001
  7
AE
100
AcDbText
  0
TEXT
  5
49E4
330
452B
100
AcDbEntity
  8
Title Block
  6
Continuous
 62
     2
100
AcDbText
 10
10.71739723193344
 20
1.378476657741246
 30
0.0
 40
0.0645465051491158
  1
or disclosed to anyone except as
 50
0.0999999600000013
 41
0.6799434399999999
  7
AE
100
AcDbText
  0
TEXT
  5
49E5
330
452B
100
AcDbEntity
  8
Title Block
  6
Continuous
 62
     2
100
AcDbText
 10
10.71540499165808
 20
1.267047562975569
 30
0.0
 40
0.0645465051491158
  1
authorized by specific
 50
0.0999999600000013
 41
0.79688752
  7
AE
100
AcDbText
  0
TEXT
  5
49E6
330
452B
100
AcDbEntity
  8
Title Block
  6
Continuous
 62
     2
100
AcDbText
 10
10.71777124306261
 20
1.705466828073234
 30
0.0
 40
0.0645465051491158
  1
copied or otherwise reproduced,
 50
0.0999999600000013
 41
0.6799434399999999
  7
AE
100
AcDbText
  0
TEXT
  5
49E7
330
452B
100
AcDbEntity
  8
Title Block
  6
Continuous
 62
     2
100
AcDbText
 10
10.72050994356058
 20
2.252555955563673
 30
0.0
 40
0.0645465051491158
  1
NOTICE: This drawing or material
 50
0.0999999600000013
 41
0.7005041199999999
  7
AE
100
AcDbText
  0
TEXT
  5
49E8
330
452B
100
AcDbEntity
  8
Title Block
  6
Continuous
 62
     2
100
AcDbText
 10
10.72096632443385
 20
1.159697406318199
 30
0.0
 40
0.0645465051491158
  1
written consent of G&L Motion Control
 50
0.0999999600000013
 41
0.79688752
  7
AE
100
AcDbText
  0
TEXT
  5
49E9
330
452B
100
AcDbEntity
  8
Title Block
  6
Continuous
 62
     2
100
AcDbText
 10
10.71875
 20
1.046875
 30
0.0
 40
0.0645465051491158
  1
Automation, LLC
 50
0.0999999600000013
 41
0.79688752
  7
AE
100
AcDbText
  0
ENDBLK
  5
45C5
330
452B
100
AcDbEntity
  8
0
100
AcDbBlockEnd
  0
BLOCK
  5
45EB
330
45E9
100
AcDbEntity
  8
0
100
AcDbBlockBegin
  2
A$C6BD72E2A
 70
     0
 10
0.0
 20
0.0
 30
0.0
  3
A$C6BD72E2A
  1

  0
TEXT
  5
45EA
330
45E9
100
AcDbEntity
  8
0
 62
     2
100
AcDbText
 10
-8.35206561818045
 20
-7.689530854375729
 30
0.0
 40
0.10000005
  1
P1
  7
ROMANS
 72
     2
 11
-8.199684589609022
 21
-7.639530829375729
 31
0.0
100
AcDbText
 73
     2
  0
ENDBLK
  5
45EC
330
45E9
100
AcDbEntity
  8
0
100
AcDbBlockEnd
  0
BLOCK
  5
45F0
330
45EE
100
AcDbEntity
  8
0
100
AcDbBlockBegin
  2
A$C64DF1C68
 70
     0
 10
0.0
 20
0.0
 30
0.0
  3
A$C64DF1C68
  1

  0
TEXT
  5
45EF
330
45EE
100
AcDbEntity
  8
0
 62
     2
100
AcDbText
 10
-8.35206561818045
 20
-7.689530854375729
 30
0.0
 40
0.10000005
  1
P1
  7
ROMANS
 72
     2
 11
-8.199684589609022
 21
-7.639530829375729
 31
0.0
100
AcDbText
 73
     2
  0
ENDBLK
  5
45F1
330
45EE
100
AcDbEntity
  8
0
100
AcDbBlockEnd
  0
BLOCK
  5
46C5
330
46C3
100
AcDbEntity
  8
0
100
AcDbBlockBegin
  2
A$C4856593E
 70
     0
 10
0.0
 20
0.0
 30
0.0
  3
A$C4856593E
  1

  0
TEXT
  5
46C4
330
46C3
100
AcDbEntity
  8
0
100
AcDbText
 10
-8.356827496309385
 20
-7.689530864144758
 30
0.0
 40
0.125
  1
FACE VIEW
100
AcDbText
  0
ENDBLK
  5
46C6
330
46C3
100
AcDbEntity
  8
0
100
AcDbBlockEnd
  0
BLOCK
  5
475F
330
474F
100
AcDbEntity
  8
0
100
AcDbBlockBegin
  2
A$C274720C3
 70
     0
 10
0.0
 20
0.0
 30
0.0
  3
A$C274720C3
  1

  0
TEXT
  5
4750
330
474F
100
AcDbEntity
  8
0
100
AcDbText
 10
-0.7429938410886461
 20
-2.061129803614648
 30
0.0
 40
0.08
  1
IOCOM
  7
ROMANS
 11
-0.7429938410886461
 21
-2.021129803614648
 31
0.0
100
AcDbText
 73
     2
  0
TEXT
  5
4751
330
474F
100
AcDbEntity
  8
0
100
AcDbText
 10
-0.7429938410886461
 20
-3.461133003614647
 30
0.0
 40
0.08
  1
IOPWR
  7
ROMANS
 11
-0.7429938410886461
 21
-3.421133003614647
 31
0.0
100
AcDbText
 73
     2
  0
TEXT
  5
4752
330
474F
100
AcDbEntity
  8
0
100
AcDbText
 10
-0.7429938410886461
 20
-3.261133003614648
 30
0.0
 40
0.08
  1
IOCOM
  7
ROMANS
 11
-0.7429938410886461
 21
-3.221133003614648
 31
0.0
100
AcDbText
 73
     2
  0
TEXT
  5
4753
330
474F
100
AcDbEntity
  8
0
100
AcDbText
 10
-0.7429938410886461
 20
-2.461134603614676
 30
0.0
 40
0.08
  1
RESET
  7
ROMANS
 11
-0.7429938410886461
 21
-2.421134603614676
 31
0.0
100
AcDbText
 73
     2
  0
TEXT
  5
4754
330
474F
100
AcDbEntity
  8
0
100
AcDbText
 10
-0.742993841088655
 20
-2.66112980361465
 30
0.0
 40
0.08
  1
IOPWR
  7
ROMANS
 11
-0.742993841088655
 21
-2.62112980361465
 31
0.0
100
AcDbText
 73
     2
  0
TEXT
  5
4755
330
474F
100
AcDbEntity
  8
0
100
AcDbText
 10
-0.7429938410886461
 20
-2.261129803614651
 30
0.0
 40
0.08
  1
ENABLE
  7
ROMANS
 11
-0.7429938410886461
 21
-2.221129803614651
 31
0.0
100
AcDbText
 73
     2
  0
TEXT
  5
4756
330
474F
100
AcDbEntity
  8
0
100
AcDbText
 10
-0.7429938410886461
 20
-1.461131403614646
 30
0.0
 40
0.08
  1
COMMAND-
  7
ROMANS
 11
-0.7429938410886461
 21
-1.421131403614646
 31
0.0
100
AcDbText
 73
     2
  0
TEXT
  5
4757
330
474F
100
AcDbEntity
  8
0
100
AcDbText
 10
-0.7429938410886461
 20
-1.661131403614636
 30
0.0
 40
0.08
  1
READY
  7
ROMANS
 11
-0.7429938410886461
 21
-1.621131403614636
 31
0.0
100
AcDbText
 73
     2
  0
TEXT
  5
4758
330
474F
100
AcDbEntity
  8
0
100
AcDbText
 10
-0.7429938410886461
 20
-0.6611330036146575
 30
0.0
 40
0.08
  1
BMOUT-
  7
ROMANS
 11
-0.7429938410886461
 21
-0.6211330036146574
 31
0.0
100
AcDbText
 73
     2
  0
TEXT
  5
4759
330
474F
100
AcDbEntity
  8
0
100
AcDbText
 10
-0.7429938410886461
 20
-1.261133003614667
 30
0.0
 40
0.08
  1
COMMAND+
  7
ROMANS
 11
-0.7429938410886461
 21
-1.221133003614667
 31
0.0
100
AcDbText
 73
     2
  0
TEXT
  5
475A
330
474F
100
AcDbEntity
  8
0
100
AcDbText
 10
-0.7429938410886461
 20
-1.061133003614657
 30
0.0
 40
0.08
  1
IMOUT-
  7
ROMANS
 11
-0.7429938410886461
 21
-1.021133003614657
 31
0.0
100
AcDbText
 73
     2
  0
TEXT
  5
475B
330
474F
100
AcDbEntity
  8
0
100
AcDbText
 10
-0.7429938410886461
 20
-0.8611330036146567
 30
0.0
 40
0.08
  1
IMOUT+
  7
ROMANS
 11
-0.7429938410886461
 21
-0.8211330036146566
 31
0.0
100
AcDbText
 73
     2
  0
TEXT
  5
475C
330
474F
100
AcDbEntity
  8
0
100
AcDbText
 10
-0.7429938410886461
 20
-0.4611330036146581
 30
0.0
 40
0.08
  1
BMOUT+
  7
ROMANS
 11
-0.7429938410886461
 21
-0.4211330036146581
 31
0.0
100
AcDbText
 73
     2
  0
TEXT
  5
475D
330
474F
100
AcDbEntity
  8
0
100
AcDbText
 10
-0.7429938410886461
 20
-0.2611330036146677
 30
0.0
 40
0.08
  1
AMOUT-
  7
ROMANS
 11
-0.7429938410886461
 21
-0.2211330036146677
 31
0.0
100
AcDbText
 73
     2
  0
TEXT
  5
475E
330
474F
100
AcDbEntity
  8
0
100
AcDbText
 10
-0.7429938410886461
 20
-0.0611330036146578
 30
0.0
 40
0.08
  1
AMOUT+
  7
ROMANS
 11
-0.7429938410886461
 21
-0.0211330036146578
 31
0.0
100
AcDbText
 73
     2
  0
ENDBLK
  5
4760
330
474F
100
AcDbEntity
  8
0
100
AcDbBlockEnd
  0
BLOCK
  5
47D9
330
47D7
100
AcDbEntity
  8
0
100
AcDbBlockBegin
  2
GENAXEH
 70
     0
 10
0.0
 20
0.0
 30
0.0
  3
GENAXEH
  1

  0
LINE
  5
47D8
330
47D7
100
AcDbEntity
  8
0
100
AcDbLine
 10
-1.0
 20
0.0
 30
0.0
 11
1.0
 21
0.0
 31
0.0
  0
ENDBLK
  5
47DA
330
47D7
100
AcDbEntity
  8
0
100
AcDbBlockEnd
  0
ENDSEC
  0
SECTION
  2
ENTITIES
  0
LINE
  5
3E42
330
18
100
AcDbEntity
  8
0
 62
     2
100
AcDbLine
 10
12.51373708737632
 20
15.37341173574191
 30
0.0
 11
12.3153936352535
 21
15.57175518786475
 31
0.0
  0
LINE
  5
3E43
330
18
100
AcDbEntity
  8
0
 62
     2
100
AcDbLine
 10
12.46954291355216
 20
15.41760590956608
 30
0.0
 11
12.81001482869348
 21
15.75807782470741
 31
0.0
  0
LINE
  5
3E44
330
18
100
AcDbEntity
  8
0
 62
     2
100
AcDbLine
 10
12.2050849773884
 20
15.46144652999965
 30
0.0
 11
12.6781394140022
 21
15.93450096661345
 31
0.0
  0
LINE
  5
3E45
330
18
100
AcDbEntity
  8
0
 62
     2
100
AcDbLine
 10
12.79529263855299
 20
15.53379792280684
 30
0.0
 11
12.61851594325634
 21
15.35702122751019
 31
0.0
  0
LINE
  5
3E46
330
18
100
AcDbEntity
  8
0
 62
     2
100
AcDbLine
 10
13.29700876681823
 20
15.42947580556845
 30
0.0
 11
13.53388953851573
 21
15.66635657726592
 31
0.0
  0
LINE
  5
3E47
330
18
100
AcDbEntity
  8
0
 62
     2
100
AcDbLine
 10
13.3723156390146
 20
15.28416536203461
 30
0.0
 11
13.7568006343583
 21
15.6686503573783
 31
0.0
  0
LINE
  5
3E48
330
18
100
AcDbEntity
  8
0
100
AcDbLine
 10
13.42555128171638
 20
15.23092971933284
 30
0.0
 11
13.77910467230966
 21
15.58448310992611
 31
0.0
  0
LINE
  5
3E49
330
18
100
AcDbEntity
  8
0
100
AcDbLine
 10
13.43615788343417
 20
15.22032311761503
 30
0.0
 11
13.78971127402745
 21
15.57387650820832
 31
0.0
  0
LINE
  5
3E4A
330
18
100
AcDbEntity
  8
0
100
AcDbLine
 10
13.44676448515198
 20
15.20971651589723
 30
0.0
 11
13.80031787574525
 21
15.56326990649052
 31
0.0
  0
LINE
  5
3E4B
330
18
100
AcDbEntity
  8
0
100
AcDbLine
 10
13.46090662077571
 20
15.19557438027351
 30
0.0
 11
13.81446001136898
 21
15.54912777086679
 31
0.0
  0
LINE
  5
3E4C
330
18
100
AcDbEntity
  8
0
100
AcDbLine
 10
13.41140914609264
 20
15.24507185495657
 30
0.0
 11
13.76435593496784
 21
15.59801864383178
 31
0.0
  0
LINE
  5
3E4D
330
18
100
AcDbEntity
  8
0
100
AcDbLine
 10
13.41848021390452
 20
15.23800078714471
 30
0.0
 11
13.77203360449778
 21
15.59155417773799
 31
0.0
  0
LINE
  5
3E4E
330
18
100
AcDbEntity
  8
0
100
AcDbLine
 10
13.40433807828079
 20
15.25214292276845
 30
0.0
 11
13.74728486715625
 21
15.59508971164392
 31
0.0
  0
LINE
  5
3E4F
330
18
100
AcDbEntity
  8
0
100
AcDbLine
 10
13.47504875639943
 20
15.18143224464979
 30
0.0
 11
13.82860214699271
 21
15.53498563524306
 31
0.0
  0
LINE
  5
3E50
330
18
100
AcDbEntity
  8
0
100
AcDbLine
 10
13.49272642592911
 20
15.16375457512012
 30
0.0
 11
13.84627981652236
 21
15.5173079657134
 31
0.0
  0
LINE
  5
3E51
330
18
100
AcDbEntity
  8
0
100
AcDbLine
 10
13.51040409545877
 20
15.14607690559047
 30
0.0
 11
13.86395748605202
 21
15.49963029618374
 31
0.0
  0
LINE
  5
3E52
330
18
100
AcDbEntity
  8
0
100
AcDbLine
 10
13.51040409545877
 20
15.14607690559047
 30
0.0
 11
13.86395748605202
 21
15.49963029618374
 31
0.0
  0
LINE
  5
3E53
330
18
100
AcDbEntity
  8
0
100
AcDbLine
 10
13.76849807059185
 20
15.59508971164392
 30
0.0
 11
13.95941690151222
 21
15.40417088072356
 31
0.0
  0
LINE
  5
3E54
330
18
100
AcDbEntity
  8
0
 62
     2
100
AcDbLine
 10
13.20862041916992
 20
15.42947580556845
 30
0.0
 11
13.10093099461422
 21
15.53716523012414
 31
0.0
  0
LINE
  5
3E55
330
18
100
AcDbEntity
  8
0
 62
     7
100
AcDbLine
 10
13.28377361407639
 20
15.41937643453113
 30
0.0
 11
13.09083162357691
 21
15.61231842503061
 31
0.0
  0
LINE
  5
3E56
330
18
100
AcDbEntity
  8
0
 62
     7
100
AcDbLine
 10
13.31786841686324
 20
15.45033545561344
 30
0.0
 11
13.12179064465923
 21
15.64641322781746
 31
0.0
  0
LINE
  5
3E57
330
18
100
AcDbEntity
  8
0
 62
     7
100
AcDbLine
 10
13.35039532879782
 20
15.48286236754803
 30
0.0
 11
13.15431755659379
 21
15.67894013975204
 31
0.0
  0
LINE
  5
3E58
330
18
100
AcDbEntity
  8
0
 62
     2
100
AcDbLine
 10
13.20516046711234
 20
15.21231844189583
 30
0.0
 11
12.88368098620131
 21
15.53379792280684
 31
0.0
  0
LINE
  5
3E59
330
18
100
AcDbEntity
  8
0
 62
     7
100
AcDbLine
 10
12.49782718479961
 20
15.06405251897282
 30
0.0
 11
12.54308201879555
 21
15.01879768497688
 31
0.0
  0
LINE
  5
3E5A
330
18
100
AcDbEntity
  8
0
100
AcDbLine
 10
12.487927689863
 20
14.96364335604432
 30
0.0
 11
12.54308201879555
 21
15.01879768497688
 31
0.0
  0
LINE
  5
3E5B
330
18
100
AcDbEntity
  8
0
 62
     2
100
AcDbLine
 10
12.25386730422192
 20
15.0873950838203
 30
0.0
 11
12.75875762812578
 21
14.58250475991643
 31
0.0
  0
LINE
  5
3E5C
330
18
100
AcDbEntity
  8
0
100
AcDbLine
 10
12.4906836345373
 20
13.51303987069493
 30
0.0
 11
12.60835409549311
 21
13.67931463710728
 31
0.0
  0
LINE
  5
3E5D
330
18
100
AcDbEntity
  8
0
 62
     2
100
AcDbLine
 10
12.2050849773884
 20
15.46144652999965
 30
0.0
 11
13.13280907430515
 21
14.5337224330829
 31
0.0
  0
ARC
  5
3E5E
330
18
100
AcDbEntity
  8
0
 62
     2
100
AcDbCircle
 10
11.97599322246775
 20
13.97418881662535
 30
0.0
 40
0.1333536907072424
100
AcDbArc
 50
224.9999999999998
 51
325.0000000000001
  0
ARC
  5
3E5F
330
18
100
AcDbEntity
  8
0
 62
     2
100
AcDbCircle
 10
11.97599322246775
 20
13.97418881662535
 30
0.0
 40
0.1233536907072424
100
AcDbArc
 50
224.9999999999998
 51
325.0000000000001
  0
LINE
  5
3E60
330
18
100
AcDbEntity
  8
0
 62
     2
100
AcDbLine
 10
12.41062600680924
 20
13.89335884988563
 30
0.0
 11
12.1454609638643
 21
13.62819380694067
 31
0.0
  0
LINE
  5
3E61
330
18
100
AcDbEntity
  8
0
 62
     2
100
AcDbLine
 10
12.47359748053157
 20
13.87451083930933
 30
0.0
 11
12.16430897444058
 21
13.56522233321834
 31
0.0
  0
CIRCLE
  5
3E62
330
18
100
AcDbEntity
  8
0
 62
     2
100
AcDbCircle
 10
12.19622400103816
 20
13.84259581271175
 30
0.0
 40
0.060265741854928
  0
CIRCLE
  5
3E63
330
18
100
AcDbEntity
  8
0
 62
     7
100
AcDbCircle
 10
12.19622400103816
 20
13.84259581271175
 30
0.0
 40
0.047265741854928
  0
LINE
  5
3E64
330
18
100
AcDbEntity
  8
0
 62
     2
100
AcDbLine
 10
12.05707261621598
 20
13.62819380694067
 30
0.0
 11
11.29955635124615
 21
14.38571007191051
 31
0.0
  0
LINE
  5
3E65
330
18
100
AcDbEntity
  8
0
 62
     2
100
AcDbLine
 10
12.03165574228997
 20
13.56522233321835
 30
0.0
 11
11.23658487752382
 21
14.36029319798452
 31
0.0
  0
LINE
  5
3E66
330
18
100
AcDbEntity
  8
0
100
AcDbLine
 10
12.39198652778872
 20
13.41130506563716
 30
0.0
 11
12.49446890823205
 21
13.58821265046451
 31
0.0
  0
LINE
  5
3E67
330
18
100
AcDbEntity
  8
0
 62
     2
100
AcDbLine
 10
12.23056487983776
 20
13.63147823861552
 30
0.0
 11
12.41353703742729
 21
13.44850608102599
 31
0.0
  0
ARC
  5
3E68
330
18
100
AcDbEntity
  8
0
 62
     2
100
AcDbCircle
 10
12.10126679004013
 20
13.67238798076483
 30
0.0
 40
0.0625
100
AcDbArc
 50
224.9999999999998
 51
314.9999999999998
  0
ARC
  5
3E69
330
18
100
AcDbEntity
  8
0
 62
     2
100
AcDbCircle
 10
12.09798235836528
 20
13.63154894929365
 30
0.0
 40
0.0938
100
AcDbArc
 50
224.9999999999998
 51
315.0000000000001
  0
LINE
  5
3E6A
330
18
100
AcDbEntity
  8
0
 62
     2
100
AcDbLine
 10
12.4073415751344
 20
13.80825493391217
 30
0.0
 11
12.57848646275881
 21
13.63711004628775
 31
0.0
  0
LINE
  5
3E6B
330
18
100
AcDbEntity
  8
0
100
AcDbLine
 10
12.49446890823205
 20
13.58821265046451
 30
0.0
 11
12.4906836345373
 21
13.51303987069493
 31
0.0
  0
LINE
  5
3E6C
330
18
100
AcDbEntity
  8
0
 62
     2
100
AcDbLine
 10
11.54587338361483
 20
14.80223493622611
 30
0.0
 11
11.23658487752382
 21
14.4929464301351
 31
0.0
  0
LINE
  5
3E6D
330
18
100
AcDbEntity
  8
0
 62
     2
100
AcDbLine
 10
11.56472139419111
 20
14.73926346250379
 30
0.0
 11
11.29955635124615
 21
14.47409841955883
 31
0.0
  0
ARC
  5
3E6E
330
18
100
AcDbEntity
  8
0
 62
     2
100
AcDbCircle
 10
11.34375052507031
 20
14.42990424573467
 30
0.0
 40
0.0625
100
AcDbArc
 50
134.9999999999999
 51
224.9999999999998
  0
ARC
  5
3E6F
330
18
100
AcDbEntity
  8
0
 62
     2
100
AcDbCircle
 10
11.30291149359914
 20
14.42661981405982
 30
0.0
 40
0.0938
100
AcDbArc
 50
134.9999999999998
 51
224.9999999999998
  0
LINE
  5
3E70
330
18
100
AcDbEntity
  8
0
 62
     2
100
AcDbLine
 10
12.47359748053158
 20
14.00716407145994
 30
0.0
 11
11.67852661576542
 21
14.80223493622611
 31
0.0
  0
LINE
  5
3E71
330
18
100
AcDbEntity
  8
0
 62
     2
100
AcDbLine
 10
12.41062600680924
 20
13.98174719753394
 30
0.0
 11
11.65310974183944
 21
14.73926346250379
 31
0.0
  0
LINE
  5
3E72
330
18
100
AcDbEntity
  8
0
 62
     2
100
AcDbLine
 10
11.84411366576496
 20
14.4719345206325
 30
0.0
 11
12.14329706493797
 21
14.17275112145947
 31
0.0
  0
CIRCLE
  5
3E73
330
18
100
AcDbEntity
  8
0
 62
     2
100
AcDbCircle
 10
11.974286886933
 20
14.2074378177043
 30
0.0
 40
0.0235025
  0
CIRCLE
  5
3E74
330
18
100
AcDbEntity
  8
0
 62
     2
100
AcDbCircle
 10
11.96374215705856
 20
14.07609450086584
 30
0.0
 40
0.0235025
  0
LINE
  5
3E75
330
18
100
AcDbEntity
  8
0
 62
     2
100
AcDbLine
 10
11.8370425979531
 20
14.46486345282063
 30
0.0
 11
12.1362259971261
 21
14.1656800536476
 31
0.0
  0
ARC
  5
3E76
330
18
100
AcDbEntity
  8
0
 62
     2
100
AcDbCircle
 10
11.64555136093084
 20
14.30463067816228
 30
0.0
 40
0.1333536907072424
100
AcDbArc
 50
125.0000000000001
 51
224.9999999999998
  0
ARC
  5
3E77
330
18
100
AcDbEntity
  8
0
 62
     2
100
AcDbCircle
 10
11.64555136093084
 20
14.30463067816228
 30
0.0
 40
0.1233536907072424
100
AcDbArc
 50
125.0000000000001
 51
224.9999999999998
  0
CIRCLE
  5
3E78
330
18
100
AcDbEntity
  8
0
 62
     2
100
AcDbCircle
 10
11.89615158761188
 20
14.28557311702541
 30
0.0
 40
0.0235025
  0
CIRCLE
  5
3E79
330
18
100
AcDbEntity
  8
0
 62
     2
100
AcDbCircle
 10
11.72933625909521
 20
14.3105003988292
 30
0.0
 40
0.0235025
  0
CIRCLE
  5
3E7A
330
18
100
AcDbEntity
  8
0
 62
     2
100
AcDbCircle
 10
11.59799294225676
 20
14.29995566895476
 30
0.0
 40
0.0235025
  0
LINE
  5
3E7B
330
18
100
AcDbEntity
  8
0
 62
     2
100
AcDbLine
 10
11.5512560619355
 20
14.21033537916693
 30
0.0
 11
11.8816979234724
 21
13.87989351763001
 31
0.0
  0
LINE
  5
3E7C
330
18
100
AcDbEntity
  8
0
 62
     2
100
AcDbLine
 10
11.55832712974736
 20
14.21740644697881
 30
0.0
 11
11.88876899128427
 21
13.88696458544188
 31
0.0
  0
CIRCLE
  5
3E7D
330
18
100
AcDbEntity
  8
0
 62
     2
100
AcDbCircle
 10
11.88560685773744
 20
14.15422980018696
 30
0.0
 40
0.0235025
  0
CIRCLE
  5
3E7E
330
18
100
AcDbEntity
  8
0
 62
     2
100
AcDbCircle
 10
11.80747155841634
 20
14.23236509950807
 30
0.0
 40
0.0235025
  0
CIRCLE
  5
3E7F
330
18
100
AcDbEntity
  8
0
 62
     2
100
AcDbCircle
 10
11.754263540899
 20
14.14368507031252
 30
0.0
 40
0.0235025
  0
CIRCLE
  5
3E80
330
18
100
AcDbEntity
  8
0
 62
     2
100
AcDbCircle
 10
11.91053413954124
 20
13.98741447167028
 30
0.0
 40
0.0235025
  0
CIRCLE
  5
3E81
330
18
100
AcDbEntity
  8
0
 62
     2
100
AcDbCircle
 10
11.83239884022012
 20
14.06554977099141
 30
0.0
 40
0.0235025
  0
CIRCLE
  5
3E82
330
18
100
AcDbEntity
  8
0
 62
     2
100
AcDbCircle
 10
11.67612824157788
 20
14.22182036963364
 30
0.0
 40
0.0235025
  0
LINE
  5
3E83
330
18
100
AcDbEntity
  8
0
 62
     2
100
AcDbLine
 10
11.56906282624072
 20
14.41386762651861
 30
0.0
 11
11.67332983207948
 21
14.48687616999348
 31
0.0
  0
LINE
  5
3E84
330
18
100
AcDbEntity
  8
0
 62
     2
100
AcDbLine
 10
11.57479859060423
 20
14.40567610607572
 30
0.0
 11
11.67906559644301
 21
14.47868464955059
 31
0.0
  0
CIRCLE
  5
3E85
330
18
100
AcDbEntity
  8
0
 62
     2
100
AcDbCircle
 10
11.51395835701724
 20
14.5248614567327
 30
0.0
 40
0.060265741854928
  0
CIRCLE
  5
3E86
330
18
100
AcDbEntity
  8
0
 62
     7
100
AcDbCircle
 10
11.51395835701724
 20
14.5248614567327
 30
0.0
 40
0.047265741854928
  0
ARC
  5
3E87
330
18
100
AcDbEntity
  8
0
 62
     2
100
AcDbCircle
 10
11.74981836676961
 20
14.37763922163716
 30
0.0
 40
0.1333536907072424
100
AcDbArc
 50
44.99999999999992
 51
125.0000000000001
  0
CIRCLE
  5
3E88
330
18
100
AcDbEntity
  8
0
 62
     2
100
AcDbCircle
 10
11.73988098896965
 20
14.44184371566765
 30
0.0
 40
0.0235025
  0
CIRCLE
  5
3E89
330
18
100
AcDbEntity
  8
0
 62
     2
100
AcDbCircle
 10
11.81801628829078
 20
14.36370841634652
 30
0.0
 40
0.0235025
  0
ARC
  5
3E8A
330
18
100
AcDbEntity
  8
0
 62
     2
100
AcDbCircle
 10
11.74981836676961
 20
14.37763922163716
 30
0.0
 40
0.1233536907072424
100
AcDbArc
 50
44.99999999999992
 51
125.0000000000001
  0
LINE
  5
3E8B
330
18
100
AcDbEntity
  8
0
 62
     2
100
AcDbLine
 10
12.08523017082407
 20
13.89770028193524
 30
0.0
 11
12.15823871429893
 21
14.00196728777401
 31
0.0
  0
ARC
  5
3E8C
330
18
100
AcDbEntity
  8
0
 62
     2
100
AcDbCircle
 10
12.04900176594261
 20
14.07845582246413
 30
0.0
 40
0.1333536907072424
100
AcDbArc
 50
325.0000000000001
 51
44.99999999999992
  0
CIRCLE
  5
3E8D
330
18
100
AcDbEntity
  8
0
 62
     2
100
AcDbCircle
 10
12.05242218625413
 20
14.12930251838317
 30
0.0
 40
0.0235025
  0
CIRCLE
  5
3E8E
330
18
100
AcDbEntity
  8
0
 62
     2
100
AcDbCircle
 10
12.04187745637968
 20
13.99795920154474
 30
0.0
 40
0.0235025
  0
ARC
  5
3E8F
330
18
100
AcDbEntity
  8
0
 62
     2
100
AcDbCircle
 10
12.04900176594261
 20
14.07845582246413
 30
0.0
 40
0.1233536907072424
100
AcDbArc
 50
325.0000000000001
 51
44.99999999999992
  0
LINE
  5
3E90
330
18
100
AcDbEntity
  8
0
 62
     2
100
AcDbLine
 10
12.07703865038117
 20
13.90343604629874
 30
0.0
 11
12.15004719385605
 21
14.00770305213752
 31
0.0
  0
ARC
  5
3E91
330
18
100
AcDbEntity
  8
0
 62
     2
100
AcDbCircle
 10
12.36643183298508
 20
13.93755302370977
 30
0.0
 40
0.0625
100
AcDbArc
 50
314.9999999999998
 51
44.99999999999984
  0
ARC
  5
3E92
330
18
100
AcDbEntity
  8
0
 62
     2
100
AcDbCircle
 10
12.40727086445628
 20
13.94083745538464
 30
0.0
 40
0.0938
100
AcDbArc
 50
315.0
 51
44.99999999999984
  0
ARC
  5
3E94
330
18
100
AcDbEntity
  8
0
 62
     2
100
AcDbCircle
 10
11.60891556801527
 20
14.69506928867962
 30
0.0
 40
0.0625
100
AcDbArc
 50
44.99999999999984
 51
134.9999999999999
  0
ARC
  5
3E95
330
18
100
AcDbEntity
  8
0
 62
     2
100
AcDbCircle
 10
11.61219999969013
 20
14.73590832015081
 30
0.0
 40
0.0938
100
AcDbArc
 50
44.99999999999984
 51
134.9999999999998
  0
LINE
  5
3E96
330
18
100
AcDbEntity
  8
0
100
AcDbLine
 10
12.44267285586706
 20
15.00889819004027
 30
0.0
 11
12.49782718479961
 21
15.06405251897282
 31
0.0
  0
LINE
  5
3E97
330
18
100
AcDbEntity
  8
0
100
AcDbLine
 10
12.32635379036189
 20
15.30340816440445
 30
0.0
 11
12.28180606314713
 21
15.3479558916192
 31
0.0
  0
LINE
  5
3E98
330
18
100
AcDbEntity
  8
0
100
AcDbLine
 10
12.21180249180966
 20
15.30340816440446
 30
0.0
 11
12.28746291739661
 21
15.37906858999142
 31
0.0
  0
LINE
  5
3E99
330
18
100
AcDbEntity
  8
0
100
AcDbLine
 10
12.28817002417782
 20
15.26522439822039
 30
0.0
 11
12.24362229696306
 21
15.30977212543514
 31
0.0
  0
LINE
  5
3E9A
330
18
100
AcDbEntity
  8
0
100
AcDbLine
 10
12.30726190726985
 20
15.28431628131242
 30
0.0
 11
12.26271418005509
 21
15.32886400852717
 31
0.0
  0
LINE
  5
3E9B
330
18
100
AcDbEntity
  8
0
100
AcDbLine
 10
12.28180606314714
 20
15.23340459306699
 30
0.0
 11
12.35746648873409
 21
15.30906501865394
 31
0.0
  0
LINE
  5
3E9C
330
18
100
AcDbEntity
  8
0
100
AcDbLine
 10
12.25635021902442
 20
15.23340459306698
 30
0.0
 11
12.21180249180966
 21
15.27795232028173
 31
0.0
  0
LINE
  5
3E9D
330
18
100
AcDbEntity
  8
0
100
AcDbLine
 10
12.28180606314714
 20
15.23340459306699
 30
0.0
 11
12.25635021902442
 21
15.23340459306698
 31
0.0
  0
LINE
  5
3E9E
330
18
100
AcDbEntity
  8
0
100
AcDbLine
 10
12.28180606314714
 20
15.23340459306699
 30
0.0
 11
12.21180249180966
 21
15.30340816440446
 31
0.0
  0
LINE
  5
3E9F
330
18
100
AcDbEntity
  8
0
100
AcDbLine
 10
12.21180249180966
 20
15.30340816440446
 30
0.0
 11
12.21180249180966
 21
15.27795232028173
 31
0.0
  0
LINE
  5
3EA0
330
18
100
AcDbEntity
  8
0
 62
     2
100
AcDbLine
 10
12.25386730422191
 20
15.0873950838203
 30
0.0
 11
12.41650186389482
 21
15.25002964349322
 31
0.0
  0
LINE
  5
3EA1
330
18
100
AcDbEntity
  8
0
100
AcDbLine
 10
13.57404370576555
 20
15.08243729528368
 30
0.0
 11
13.92759709635882
 21
15.43599068587695
 31
0.0
  0
LINE
  5
3EA2
330
18
100
AcDbEntity
  8
0
100
AcDbLine
 10
13.61647011263674
 20
15.04001088841248
 30
0.0
 11
13.95941690151222
 21
15.38295767728796
 31
0.0
  0
LINE
  5
3EA3
330
18
100
AcDbEntity
  8
0
100
AcDbLine
 10
13.58465030748335
 20
15.07183069356587
 30
0.0
 11
13.93820369807662
 21
15.42538408415915
 31
0.0
  0
LINE
  5
3EA4
330
18
100
AcDbEntity
  8
0
100
AcDbLine
 10
13.59525690920115
 20
15.06122409184808
 30
0.0
 11
13.94881029979441
 21
15.41477748244134
 31
0.0
  0
LINE
  5
3EA5
330
18
100
AcDbEntity
  8
0
100
AcDbLine
 10
13.602327977013
 20
15.05415302403621
 30
0.0
 11
13.95588136760627
 21
15.4077064146295
 31
0.0
  0
LINE
  5
3EA6
330
18
100
AcDbEntity
  8
0
100
AcDbLine
 10
13.60939904482488
 20
15.04708195622434
 30
0.0
 11
13.96234583370052
 21
15.40002874509998
 31
0.0
  0
LINE
  5
3EA7
330
18
100
AcDbEntity
  8
0
100
AcDbLine
 10
13.54575943451808
 20
15.11072156653114
 30
0.0
 11
13.89931282511136
 21
15.46427495712442
 31
0.0
  0
LINE
  5
3EA8
330
18
100
AcDbEntity
  8
0
100
AcDbLine
 10
13.55990157014182
 20
15.09657943090742
 30
0.0
 11
13.91345496073508
 21
15.45013282150068
 31
0.0
  0
LINE
  5
3EA9
330
18
100
AcDbEntity
  8
0
100
AcDbLine
 10
13.52808176498843
 20
15.1283992360608
 30
0.0
 11
13.88163515558169
 21
15.48195262665406
 31
0.0
  0
LINE
  5
3EAA
330
18
100
AcDbEntity
  8
0
 62
     2
100
AcDbLine
 10
12.75875762812578
 20
14.58250475991643
 30
0.0
 11
12.9213921877987
 21
14.74513931958935
 31
0.0
  0
LINE
  5
3EAB
330
18
100
AcDbEntity
  8
0
100
AcDbLine
 10
12.97477070870995
 20
14.65499124605639
 30
0.0
 11
13.0193184359247
 21
14.61044351884164
 31
0.0
  0
LINE
  5
3EAC
330
18
100
AcDbEntity
  8
0
 62
     2
100
AcDbLine
 10
13.13280907430515
 20
14.5337224330829
 30
0.0
 11
13.60586351091894
 21
15.0067768696967
 31
0.0
  0
LINE
  5
3EAD
330
18
100
AcDbEntity
  8
0
100
AcDbLine
 10
12.90476713737249
 20
14.61044351884164
 30
0.0
 11
12.98042756295944
 21
14.68610394442861
 31
0.0
  0
LINE
  5
3EAE
330
18
100
AcDbEntity
  8
0
100
AcDbLine
 10
12.90476713737249
 20
14.61044351884164
 30
0.0
 11
12.90476713737249
 21
14.58498767471893
 31
0.0
  0
LINE
  5
3EAF
330
18
100
AcDbEntity
  8
0
100
AcDbLine
 10
12.90476713737249
 20
14.58498767471893
 30
0.0
 11
12.94931486458724
 21
14.54043994750417
 31
0.0
  0
LINE
  5
3EB0
330
18
100
AcDbEntity
  8
0
100
AcDbLine
 10
12.97477070870995
 20
14.54043994750418
 30
0.0
 11
13.05043113429691
 21
14.61610037309114
 31
0.0
  0
LINE
  5
3EB1
330
18
100
AcDbEntity
  8
0
100
AcDbLine
 10
12.93658694252588
 20
14.61680747987232
 30
0.0
 11
12.98113466974064
 21
14.57225975265758
 31
0.0
  0
LINE
  5
3EB2
330
18
100
AcDbEntity
  8
0
100
AcDbLine
 10
12.90476713737249
 20
14.61044351884164
 30
0.0
 11
12.97477070870995
 21
14.54043994750418
 31
0.0
  0
LINE
  5
3EB3
330
18
100
AcDbEntity
  8
0
100
AcDbLine
 10
12.97477070870995
 20
14.54043994750418
 30
0.0
 11
12.94931486458724
 21
14.54043994750417
 31
0.0
  0
LINE
  5
3EB4
330
18
100
AcDbEntity
  8
0
100
AcDbLine
 10
12.9556788256179
 20
14.63589936296435
 30
0.0
 11
13.00022655283266
 21
14.5913516357496
 31
0.0
  0
LINE
  5
3EB5
330
18
100
AcDbEntity
  8
0
 62
     2
100
AcDbLine
 10
13.08896845387158
 20
14.79818036924668
 30
0.0
 11
13.4294403690129
 21
15.13865228438801
 31
0.0
  0
LINE
  5
3EB6
330
18
100
AcDbEntity
  8
0
 62
     2
100
AcDbLine
 10
13.20516046711234
 20
15.12393009424751
 30
0.0
 11
13.02838377181569
 21
14.94715339895087
 31
0.0
  0
LINE
  5
3EB7
330
18
100
AcDbEntity
  8
0
 62
     2
100
AcDbLine
 10
13.04477428004741
 20
14.84237454307082
 30
0.0
 11
13.24311773217025
 21
14.64403109094801
 31
0.0
  0
LINE
  5
3EB8
330
18
100
AcDbEntity
  8
0
 62
     2
100
AcDbLine
 10
12.93999542416738
 20
14.94715339895087
 30
0.0
 11
12.61851594325635
 21
15.26863287986188
 31
0.0
  0
LINE
  5
3EB9
330
18
100
AcDbEntity
  8
0
 62
     7
100
AcDbLine
 10
12.69016022928235
 20
14.87171947449007
 30
0.0
 11
12.7354150632783
 21
14.82646464049413
 31
0.0
  0
LINE
  5
3EBA
330
18
100
AcDbEntity
  8
0
100
AcDbLine
 10
12.68026073434575
 20
14.77131031156158
 30
0.0
 11
12.7354150632783
 21
14.82646464049413
 31
0.0
  0
LINE
  5
3EBB
330
18
100
AcDbEntity
  8
0
100
AcDbLine
 10
12.53883937810843
 20
14.9127316677989
 30
0.0
 11
12.59399370704098
 21
14.96788599673144
 31
0.0
  0
LINE
  5
3EBC
330
18
100
AcDbEntity
  8
0
 62
     7
100
AcDbLine
 10
12.59399370704098
 20
14.96788599673144
 30
0.0
 11
12.63924854103692
 21
14.9226311627355
 31
0.0
  0
LINE
  5
3EBD
330
18
100
AcDbEntity
  8
0
100
AcDbLine
 10
12.63500590034981
 20
14.81656514555752
 30
0.0
 11
12.69016022928235
 21
14.87171947449007
 31
0.0
  0
LINE
  5
3EBE
330
18
100
AcDbEntity
  8
0
100
AcDbLine
 10
12.58409421210436
 20
14.86747683380295
 30
0.0
 11
12.63924854103692
 21
14.9226311627355
 31
0.0
  0
ARC
  5
3EBF
330
18
100
AcDbEntity
  8
0
 62
     2
100
AcDbCircle
 10
12.98418959799153
 20
14.99134757277503
 30
0.0
 40
0.0625
100
AcDbArc
 50
225.0000000000007
 51
314.9999999999999
  0
ARC
  5
3EC0
330
18
100
AcDbEntity
  8
0
 62
     2
100
AcDbCircle
 10
12.66271011708052
 20
15.31282705368604
 30
0.0
 40
0.0625
100
AcDbArc
 50
135.0
 51
225.0000000000009
  0
LINE
  5
3EC1
330
18
100
AcDbEntity
  8
0
 62
     2
100
AcDbLine
 10
13.60586351091894
 20
15.05061749013028
 30
0.0
 11
13.37222299427432
 21
15.2842580067749
 31
0.0
  0
ARC
  5
3EC2
330
18
100
AcDbEntity
  8
0
 62
     2
100
AcDbCircle
 10
13.58394320070217
 20
15.02869717991349
 30
0.0
 40
0.031
100
AcDbArc
 50
315.0000000000003
 51
45.00000000000055
  0
ARC
  5
3EC3
330
18
100
AcDbEntity
  8
0
 62
     2
100
AcDbCircle
 10
13.38524619518874
 20
15.18284645821216
 30
0.0
 40
0.0625
100
AcDbArc
 50
315.0000000000006
 51
45.00000000000055
  0
ARC
  5
3EC4
330
18
100
AcDbEntity
  8
0
 62
     2
100
AcDbCircle
 10
13.16096629328818
 20
15.16812426807167
 30
0.0
 40
0.0625
100
AcDbArc
 50
314.9999999999997
 51
45.00000000000108
  0
ARC
  5
3EC5
330
18
100
AcDbEntity
  8
0
 62
     2
100
AcDbCircle
 10
13.25281459299407
 20
15.4736699793926
 30
0.0
 40
0.0625
100
AcDbArc
 50
225.0000000000011
 51
314.9999999999995
  0
ARC
  5
3EC9
330
18
100
AcDbEntity
  8
0
100
AcDbCircle
 10
13.94881029979441
 20
15.39356427900576
 30
0.0
 40
0.015
100
AcDbArc
 50
315.0000000000006
 51
45.00000000000044
  0
LINE
  5
3EF3
330
18
100
AcDbEntity
  8
0
 62
     2
100
AcDbLine
 10
14.76773700628398
 20
16.1296503678602
 30
0.0
 11
16.66773700628398
 21
16.1296503678602
 31
0.0
  0
LINE
  5
3EF4
330
18
100
AcDbEntity
  8
0
 62
     2
100
AcDbLine
 10
14.76773700628398
 20
15.76965036786019
 30
0.0
 11
16.66773700628398
 21
15.76965036786019
 31
0.0
  0
TEXT
  5
3EF5
330
18
100
AcDbEntity
  8
0
100
AcDbText
 10
15.28678462533159
 20
15.98378418816275
 30
0.0
 40
0.1
  1
M.xxxx.xxxx
 72
     4
 11
15.71773700628398
 21
16.03378418816275
 31
0.0
100
AcDbText
  0
LINE
  5
3EF6
330
18
100
AcDbEntity
  8
0
  6
ByBlock
 62
     0
100
AcDbLine
 10
14.44773699860054
 20
17.92709227497367
 30
0.0
 11
15.93134199939839
 21
17.92709227497367
 31
0.0
  0
LINE
  5
3EF7
330
18
100
AcDbEntity
  8
0
  6
ByBlock
 62
     0
100
AcDbLine
 10
14.26773699860055
 20
16.2931503573783
 30
0.0
 11
14.26773699860055
 21
18.06453086414475
 31
0.0
  0
LINE
  5
3EF8
330
18
100
AcDbEntity
  8
0
 62
     2
100
AcDbLine
 10
13.5371871537865
 20
16.2306503573783
 30
0.0
 11
13.86173699860054
 21
16.2306503573783
 31
0.0
  0
LINE
  5
3EF9
330
18
100
AcDbEntity
  8
0
 62
     2
100
AcDbLine
 10
13.7568006343583
 20
15.6686503573783
 30
0.0
 11
13.86173699860054
 21
15.6686503573783
 31
0.0
  0
LINE
  5
3EFA
330
18
100
AcDbEntity
  8
0
100
AcDbLine
 10
13.2664522559494
 20
16.09713552628637
 30
0.0
 11
13.07553342502904
 21
16.28805435720674
 31
0.0
  0
LINE
  5
3EFB
330
18
100
AcDbEntity
  8
0
 62
     2
100
AcDbLine
 10
13.10093099461422
 20
15.62555357777244
 30
0.0
 11
13.33781176631171
 21
15.86243434946995
 31
0.0
  0
LINE
  5
3EFC
330
18
100
AcDbEntity
  8
0
 62
     2
100
AcDbLine
 10
12.95562055108039
 20
15.70086044996882
 30
0.0
 11
13.44879880613818
 21
16.19403870502662
 31
0.0
  0
LINE
  5
3EFD
330
18
100
AcDbEntity
  8
0
100
AcDbLine
 10
12.81743944989593
 20
15.83904155115327
 30
0.0
 11
13.17099284048922
 21
16.19259494174654
 31
0.0
  0
LINE
  5
3EFE
330
18
100
AcDbEntity
  8
0
100
AcDbLine
 10
12.81743944989593
 20
15.83904155115327
 30
0.0
 11
13.17099284048922
 21
16.19259494174654
 31
0.0
  0
LINE
  5
3EFF
330
18
100
AcDbEntity
  8
0
100
AcDbLine
 10
12.92350546707392
 20
15.73297553397528
 30
0.0
 11
13.2664522559494
 21
16.07592232285076
 31
0.0
  0
LINE
  5
3F00
330
18
100
AcDbEntity
  8
0
100
AcDbLine
 10
12.90936333145019
 20
15.74711766959902
 30
0.0
 11
13.26291672204347
 21
16.1006710601923
 31
0.0
  0
LINE
  5
3F01
330
18
100
AcDbEntity
  8
0
100
AcDbLine
 10
12.91643439926206
 20
15.74004660178716
 30
0.0
 11
13.26938118813726
 21
16.09299339066235
 31
0.0
  0
LINE
  5
3F02
330
18
100
AcDbEntity
  8
0
100
AcDbLine
 10
12.8351171194256
 20
15.82136388162362
 30
0.0
 11
13.18867051001888
 21
16.17491727221689
 31
0.0
  0
LINE
  5
3F03
330
18
100
AcDbEntity
  8
0
100
AcDbLine
 10
12.85279478895526
 20
15.80368621209395
 30
0.0
 11
13.20634817954854
 21
16.15723960268722
 31
0.0
  0
LINE
  5
3F04
330
18
100
AcDbEntity
  8
0
100
AcDbLine
 10
12.866936924579
 20
15.78954407647022
 30
0.0
 11
13.22049031517226
 21
16.14309746706349
 31
0.0
  0
LINE
  5
3F05
330
18
100
AcDbEntity
  8
0
100
AcDbLine
 10
12.88107906020273
 20
15.77540194084649
 30
0.0
 11
13.234632450796
 21
16.12895533143976
 31
0.0
  0
LINE
  5
3F06
330
18
100
AcDbEntity
  8
0
100
AcDbLine
 10
12.89168566192052
 20
15.76479533912868
 30
0.0
 11
13.24523905251379
 21
16.11834872972196
 31
0.0
  0
LINE
  5
3F07
330
18
100
AcDbEntity
  8
0
100
AcDbLine
 10
12.90229226363831
 20
15.7541887374109
 30
0.0
 11
13.2558456542316
 21
16.10774212800415
 31
0.0
  0
LINE
  5
3F08
330
18
100
AcDbEntity
  8
0
 62
     2
100
AcDbLine
 10
12.72198003443576
 20
15.93450096661345
 30
0.0
 11
12.95562055108039
 21
15.70086044996882
 31
0.0
  0
LINE
  5
3F09
330
18
100
AcDbEntity
  8
0
100
AcDbLine
 10
12.76794197521289
 20
15.88853902583633
 30
0.0
 11
13.12149536580616
 21
16.2420924164296
 31
0.0
  0
LINE
  5
3F0A
330
18
100
AcDbEntity
  8
0
100
AcDbLine
 10
12.78208411083662
 20
15.8743968902126
 30
0.0
 11
13.1356375014299
 21
16.22795028080587
 31
0.0
  0
LINE
  5
3F0B
330
18
100
AcDbEntity
  8
0
100
AcDbLine
 10
12.79976178036628
 20
15.85671922068294
 30
0.0
 11
13.15331517095955
 21
16.21027261127621
 31
0.0
  0
LINE
  5
3F0C
330
18
100
AcDbEntity
  8
0
100
AcDbLine
 10
12.73258663615356
 20
15.92389436489566
 30
0.0
 11
13.08614002674683
 21
16.27744775548894
 31
0.0
  0
LINE
  5
3F0D
330
18
100
AcDbEntity
  8
0
100
AcDbLine
 10
12.74319323787135
 20
15.91328776317785
 30
0.0
 11
13.09674662846463
 21
16.26684115377114
 31
0.0
  0
LINE
  5
3F0E
330
18
100
AcDbEntity
  8
0
100
AcDbLine
 10
12.75379983958916
 20
15.90268116146005
 30
0.0
 11
13.10735323018243
 21
16.25623455205333
 31
0.0
  0
ARC
  5
3F0F
330
18
100
AcDbEntity
  8
0
 62
     2
100
AcDbCircle
 10
12.85420900251765
 20
15.71388365088325
 30
0.0
 40
0.0625
100
AcDbArc
 50
45.00000000000016
 51
135.0
  0
ARC
  5
3F10
330
18
100
AcDbEntity
  8
0
 62
     2
100
AcDbCircle
 10
12.83948681237716
 20
15.48960374898268
 30
0.0
 40
0.0625
100
AcDbArc
 50
45.00000000000096
 51
135.0
  0
ARC
  5
3F11
330
18
100
AcDbEntity
  8
0
 62
     2
100
AcDbCircle
 10
13.14512516843838
 20
15.5813594039483
 30
0.0
 40
0.0625
100
AcDbArc
 50
135.0
 51
225.0000000000009
  0
LINE
  5
3F12
330
18
100
AcDbEntity
  8
0
100
AcDbLine
 10
12.71844450052983
 20
15.93803650051938
 30
0.0
 11
13.07139128940547
 21
16.29098328939503
 31
0.0
  0
LINE
  5
3F13
330
18
100
AcDbEntity
  8
0
100
AcDbLine
 10
12.72551556834169
 20
15.93096543270752
 30
0.0
 11
13.07906895893497
 21
16.2845188233008
 31
0.0
  0
LINE
  5
3F14
330
18
100
AcDbEntity
  8
0
100
AcDbLine
 10
12.71137343271796
 20
15.94510756833126
 30
0.0
 11
13.05432022159344
 21
16.28805435720674
 31
0.0
  0
ARC
  5
3F15
330
18
100
AcDbEntity
  8
0
 62
     2
100
AcDbCircle
 10
12.70005972421897
 20
15.91258065639667
 30
0.0
 40
0.031
100
AcDbArc
 50
45.00000000000016
 51
135.0000000000004
  0
ARC
  5
3F16
330
18
100
AcDbEntity
  8
0
100
AcDbCircle
 10
13.06492682331123
 20
16.27744775548894
 30
0.0
 40
0.015
100
AcDbArc
 50
45.00000000000031
 51
135.0
  0
LINE
  5
3F17
330
18
100
AcDbEntity
  8
0
100
AcDbLine
 10
13.7568006343583
 20
15.76216262737771
 30
0.0
 11
13.75680063435832
 21
16.13713808737889
 31
0.0
  0
LINE
  5
3F18
330
18
100
AcDbEntity
  8
0
 62
     7
100
AcDbLine
 10
13.51302988847073
 20
15.64549692722092
 30
0.0
 11
13.31695211626669
 21
15.84157469942494
 31
0.0
  0
LINE
  5
3F19
330
18
100
AcDbEntity
  8
0
 62
     2
100
AcDbLine
 10
13.53388953851573
 20
15.75474492491425
 30
0.0
 11
13.42620011396003
 21
15.86243434946995
 31
0.0
  0
LINE
  5
3F1A
330
18
100
AcDbEntity
  8
0
 62
     7
100
AcDbLine
 10
13.54398890955297
 20
15.67959173000784
 30
0.0
 11
13.35104691905327
 21
15.87253372050755
 31
0.0
  0
ARC
  5
3F1B
330
18
100
AcDbEntity
  8
0
 62
     2
100
AcDbCircle
 10
13.38200594013587
 20
15.81824017564579
 30
0.0
 40
0.0625
100
AcDbArc
 50
45.00000000000119
 51
135.0
  0
LINE
  5
3F1C
330
18
100
AcDbEntity
  8
0
 62
     7
100
AcDbLine
 10
13.41544915266698
 20
15.54791619141719
 30
0.0
 11
13.33950735347705
 21
15.62385799060711
 31
0.0
  0
LINE
  5
3F1D
330
18
100
AcDbEntity
  8
0
 62
     7
100
AcDbLine
 10
13.44797606460156
 20
15.58044310335176
 30
0.0
 11
13.25189829239755
 21
15.77652087555579
 31
0.0
  0
LINE
  5
3F1E
330
18
100
AcDbEntity
  8
0
 62
     7
100
AcDbLine
 10
13.48050297653614
 20
15.61297001528635
 30
0.0
 11
13.28442520433211
 21
15.80904778749036
 31
0.0
  0
CIRCLE
  5
3F1F
330
18
100
AcDbEntity
  8
0
100
AcDbCircle
 10
13.31741026656497
 20
15.64595507751919
 30
0.0
 40
0.03125
  0
LINE
  5
3F20
330
18
100
AcDbEntity
  8
0
 62
     7
100
AcDbLine
 10
13.38292224073239
 20
15.51538927948261
 30
0.0
 11
13.18684446852838
 21
15.71146705168661
 31
0.0
  0
LINE
  5
3F21
330
18
100
AcDbEntity
  8
0
 62
     7
100
AcDbLine
 10
13.29531317965289
 20
15.66805216443127
 30
0.0
 11
13.21937138046297
 21
15.74399396362119
 31
0.0
  0
ARC
  5
3F22
330
18
100
AcDbEntity
  8
0
100
AcDbCircle
 10
13.75789146887406
 20
15.58448310992611
 30
0.0
 40
0.015
100
AcDbArc
 50
45.00000000000044
 51
135.0000000000006
  0
ARC
  5
3F23
330
18
100
AcDbEntity
  8
0
 62
     2
100
AcDbCircle
 10
13.48969536469157
 20
15.71055075109009
 30
0.0
 40
0.0625
100
AcDbArc
 50
314.9999999999995
 51
45.00000000000105
  0
ARC
  5
3F24
330
18
100
AcDbEntity
  8
0
 62
     2
100
AcDbCircle
 10
13.5371871537865
 20
16.1056503573783
 30
0.0
 40
0.125
100
AcDbArc
 50
90.00000000000062
 51
135.0
  0
ARC
  5
3F25
330
18
100
AcDbEntity
  8
0
100
AcDbCircle
 10
13.2558456542316
 20
16.08652892456857
 30
0.0
 40
0.015
100
AcDbArc
 50
315.0000000000001
 51
45.00000000000031
  0
LINE
  5
3F26
330
18
100
AcDbEntity
  8
0
 62
     2
100
AcDbLine
 10
13.53718715378649
 20
16.2306503573783
 30
0.0
 11
13.75680063435829
 21
16.2306503573783
 31
0.0
  0
LINE
  5
3F27
330
18
100
AcDbEntity
  8
0
 62
     2
100
AcDbLine
 10
14.26773699860055
 20
15.7846503573783
 30
0.0
 11
14.76773700628398
 21
15.7846503573783
 31
0.0
  0
LINE
  5
3F28
330
18
100
AcDbEntity
  8
0
 62
     2
100
AcDbLine
 10
14.26773699860055
 20
16.1146503573783
 30
0.0
 11
14.76773700628398
 21
16.1146503573783
 31
0.0
  0
LINE
  5
3F29
330
18
100
AcDbEntity
  8
0
 62
     2
100
AcDbLine
 10
14.26773699860055
 20
15.6686503573783
 30
0.0
 11
14.26773699860055
 21
16.2306503573783
 31
0.0
  0
LINE
  5
3F2A
330
18
100
AcDbEntity
  8
0
 62
     2
100
AcDbLine
 10
14.11173699860055
 20
15.6686503573783
 30
0.0
 11
14.26773699860055
 21
15.6686503573783
 31
0.0
  0
LINE
  5
3F2B
330
18
100
AcDbEntity
  8
0
 62
     2
100
AcDbLine
 10
13.86173699860054
 20
15.6686503573783
 30
0.0
 11
13.86173699860054
 21
15.8326503573783
 31
0.0
  0
LINE
  5
3F2C
330
18
100
AcDbEntity
  8
0
 62
     2
100
AcDbLine
 10
14.03373699860055
 20
15.6686503573783
 30
0.0
 11
14.03373699860055
 21
15.8481503573783
 31
0.0
  0
LINE
  5
3F2D
330
18
100
AcDbEntity
  8
0
 62
     2
100
AcDbLine
 10
13.93973699860054
 20
15.6686503573783
 30
0.0
 11
13.93973699860054
 21
15.83265035737831
 31
0.0
  0
ARC
  5
3F2E
330
18
100
AcDbEntity
  8
0
 62
     2
100
AcDbCircle
 10
13.90073699860054
 20
15.8326503573783
 30
0.0
 40
0.0389999999999986
100
AcDbArc
 50
0.0000000000000833
 51
180.0000000000019
  0
LINE
  5
3F2F
330
18
100
AcDbEntity
  8
0
 62
     2
100
AcDbLine
 10
13.86173699860055
 20
15.6686503573783
 30
0.0
 11
13.86173699860055
 21
15.8326503573783
 31
0.0
  0
LINE
  5
3F30
330
18
100
AcDbEntity
  8
0
 62
     2
100
AcDbLine
 10
13.93973699860054
 20
15.6686503573783
 30
0.0
 11
14.03373699860055
 21
15.6686503573783
 31
0.0
  0
LINE
  5
3F31
330
18
100
AcDbEntity
  8
0
  6
CENTER
 62
     2
100
AcDbLine
 10
13.86173699860055
 20
15.7496503573783
 30
0.0
 11
13.93973699860054
 21
15.7496503573783
 31
0.0
  0
LINE
  5
3F32
330
18
100
AcDbEntity
  8
0
 62
     2
100
AcDbLine
 10
14.11173699860055
 20
15.6686503573783
 30
0.0
 11
14.11173699860055
 21
15.8481503573783
 31
0.0
  0
ARC
  5
3F33
330
18
100
AcDbEntity
  8
0
 62
     2
100
AcDbCircle
 10
14.07273699860055
 20
15.8481503573783
 30
0.0
 40
0.0390000000000024
100
AcDbArc
 50
0.0000000000000833
 51
180.0000000000001
  0
LINE
  5
3F34
330
18
100
AcDbEntity
  8
0
  6
CENTER
 62
     2
100
AcDbLine
 10
14.03373699860055
 20
15.7496503573783
 30
0.0
 11
14.11173699860055
 21
15.7496503573783
 31
0.0
  0
LINE
  5
3F35
330
18
100
AcDbEntity
  8
0
 62
     2
100
AcDbLine
 10
14.11173699860055
 20
16.2306503573783
 30
0.0
 11
14.26773699860055
 21
16.2306503573783
 31
0.0
  0
LINE
  5
3F36
330
18
100
AcDbEntity
  8
0
 62
     2
100
AcDbLine
 10
13.93973699860054
 20
16.0666503573783
 30
0.0
 11
13.93973699860054
 21
16.2306503573783
 31
0.0
  0
LINE
  5
3F37
330
18
100
AcDbEntity
  8
0
 62
     2
100
AcDbLine
 10
14.03373699860055
 20
16.05115035737831
 30
0.0
 11
14.03373699860055
 21
16.2306503573783
 31
0.0
  0
ARC
  5
3F38
330
18
100
AcDbEntity
  8
0
 62
     2
100
AcDbCircle
 10
13.90073699860055
 20
16.0666503573783
 30
0.0
 40
0.0390000000000011
100
AcDbArc
 50
180.0000000000001
 51
0.0000000000019153
  0
LINE
  5
3F39
330
18
100
AcDbEntity
  8
0
 62
     2
100
AcDbLine
 10
13.86173699860055
 20
16.0666503573783
 30
0.0
 11
13.86173699860055
 21
16.2306503573783
 31
0.0
  0
LINE
  5
3F3A
330
18
100
AcDbEntity
  8
0
 62
     2
100
AcDbLine
 10
13.93973699860054
 20
16.2306503573783
 30
0.0
 11
14.03373699860055
 21
16.2306503573783
 31
0.0
  0
LINE
  5
3F3B
330
18
100
AcDbEntity
  8
0
  6
CENTER
 62
     2
100
AcDbLine
 10
13.86173699860055
 20
16.1496503573783
 30
0.0
 11
13.93973699860054
 21
16.1496503573783
 31
0.0
  0
LINE
  5
3F3C
330
18
100
AcDbEntity
  8
0
 62
     2
100
AcDbLine
 10
14.11173699860055
 20
16.05115035737831
 30
0.0
 11
14.11173699860055
 21
16.2306503573783
 31
0.0
  0
ARC
  5
3F3D
330
18
100
AcDbEntity
  8
0
 62
     2
100
AcDbCircle
 10
14.07273699860055
 20
16.05115035737831
 30
0.0
 40
0.0390000000000011
100
AcDbArc
 50
180.0000000000001
 51
0.0000000000000833
  0
LINE
  5
3F3E
330
18
100
AcDbEntity
  8
0
  6
CENTER
 62
     2
100
AcDbLine
 10
14.03373699860055
 20
16.1496503573783
 30
0.0
 11
14.11173699860055
 21
16.1496503573783
 31
0.0
  0
POINT
  5
3F3F
330
18
100
AcDbEntity
  8
DEFPOINTS
  6
ByBlock
 62
     0
100
AcDbPoint
 10
14.26773699860055
 20
16.2306503573783
 30
0.0
  0
LINE
  5
3F41
330
18
100
AcDbEntity
  8
0
 62
     2
100
AcDbLine
 10
14.76773700628398
 20
15.76965036786019
 30
0.0
 11
14.76773700628398
 21
16.1296503678602
 31
0.0
  0
SOLID
  5
3F42
330
18
100
AcDbEntity
  8
0
  6
ByBlock
 62
     0
100
AcDbTrace
 10
14.44773699860054
 20
17.95709227497368
 30
0.0
 11
14.44773699860054
 21
17.89709227497368
 31
0.0
 12
14.26773699860055
 22
17.92709227497367
 32
0.0
 13
14.26773699860055
 23
17.92709227497367
 33
0.0
  0
LINE
  5
3F44
330
18
100
AcDbEntity
  8
0
 62
     2
100
AcDbLine
 10
17.56299509339949
 20
15.7846503573783
 30
0.0
 11
19.20791807235452
 21
15.7846503573783
 31
0.0
  0
LINE
  5
3F45
330
18
100
AcDbEntity
  8
0
 62
     2
100
AcDbLine
 10
17.56299509339949
 20
16.1146503573783
 30
0.0
 11
19.20791807235452
 21
16.1146503573783
 31
0.0
  0
LINE
  5
3F46
330
18
100
AcDbEntity
  8
0
  6
ByBlock
 62
     0
100
AcDbLine
 10
19.02791807235452
 20
17.92709227497367
 30
0.0
 11
17.57443380396178
 21
17.92709227497367
 31
0.0
  0
LINE
  5
3F49
330
18
100
AcDbEntity
  8
0
 62
     2
100
AcDbLine
 10
16.66773700628398
 20
15.7846503573783
 30
0.0
 11
17.39708245889245
 21
15.7846503573783
 31
0.0
  0
LINE
  5
3F4A
330
18
100
AcDbEntity
  8
0
 62
     2
100
AcDbLine
 10
16.66773700628398
 20
16.1146503573783
 30
0.0
 11
17.39708245889243
 21
16.1146503573783
 31
0.0
  0
LINE
  5
3F4B
330
18
100
AcDbEntity
  8
0
 62
     2
100
AcDbLine
 10
16.66773700628398
 20
15.76965036786019
 30
0.0
 11
16.66773700628398
 21
16.1296503678602
 31
0.0
  0
ELLIPSE
  5
3F4C
330
18
100
AcDbEntity
  8
0
 62
     2
100
AcDbEllipse
 10
17.56299509339949
 20
15.8671503573783
 30
0.0
 11
0.0
 21
0.0824999999999996
 31
0.0
210
0.0
220
0.0
230
1.0
 40
0.689531859510577
 41
0.0
 42
6.283185307179585
  0
ELLIPSE
  5
3F4D
330
18
100
AcDbEntity
  8
0
 62
     2
100
AcDbEllipse
 10
17.39708245889243
 20
15.8671503573783
 30
0.0
 11
0.0
 21
0.0824999999999996
 31
0.0
210
0.0
220
0.0
230
1.0
 40
0.689531859510577
 41
3.141592653589792
 42
6.283185307179585
  0
ELLIPSE
  5
3F4E
330
18
100
AcDbEntity
  8
0
 62
     2
100
AcDbEllipse
 10
17.39708245889243
 20
16.0321503573783
 30
0.0
 11
0.0
 21
0.0824999999999996
 31
0.0
210
0.0
220
0.0
230
1.0
 40
0.689531859510577
 41
0.0
 42
6.283185307179585
  0
ELLIPSE
  5
3F4F
330
18
100
AcDbEntity
  8
0
 62
     2
100
AcDbEllipse
 10
17.56299509339949
 20
16.0321503573783
 30
0.0
 11
0.0
 21
-0.0824999999999996
 31
0.0
210
0.0
220
0.0
230
1.0
 40
0.689531859510577
 41
3.141592653589792
 42
6.283185307179585
  0
MTEXT
  5
3F50
330
18
100
AcDbEntity
  8
0
  6
ByBlock
 62
     4
100
AcDbMText
 10
16.77278194718624
 20
17.92709227497367
 30
0.0
 40
0.156
 41
0.0
 71
     5
 72
     1
  1
L (METERS)
 73
     1
 44
1.0
  0
LINE
  5
3F53
330
18
100
AcDbEntity
  8
0
  6
ByBlock
 62
     0
100
AcDbLine
 10
19.20791807235452
 20
16.34963535650504
 30
0.0
 11
19.20791807235452
 21
18.06453086414475
 31
0.0
  0
POINT
  5
3F6E
330
18
100
AcDbEntity
  8
DEFPOINTS
  6
ByBlock
 62
     0
100
AcDbPoint
 10
19.20791807235452
 20
16.86459227497367
 30
0.0
  0
SOLID
  5
3F6F
330
18
100
AcDbEntity
  8
0
  6
ByBlock
 62
     0
100
AcDbTrace
 10
19.02791807235452
 20
17.95709227497368
 30
0.0
 11
19.02791807235452
 21
17.89709227497368
 31
0.0
 12
19.20791807235452
 22
17.92709227497367
 32
0.0
 13
19.20791807235452
 23
17.92709227497367
 33
0.0
  0
TEXT
  5
4038
330
18
100
AcDbEntity
  8
0
 62
     2
100
AcDbText
 10
11.41314265266708
 20
8.265260820099447
 30
0.0
 40
0.1250000625
  1
%%UWIRING DIAGRAM
  7
ROMANS
 72
     4
 11
12.15629778614923
 21
8.315260845099446
 31
0.0
100
AcDbText
  0
TEXT
  5
4131
330
18
100
AcDbEntity
  8
0
100
AcDbText
 10
23.82697514106515
 20
11.4594958057686
 30
0.0
 40
0.125
  1
1.0
  7
ROMANS
 72
     1
 11
23.98471323630325
 21
11.4594958057686
 31
0.0
100
AcDbText
  0
TEXT
  5
4132
330
18
100
AcDbEntity
  8
0
100
AcDbText
 10
23.82697514106515
 20
11.19699580576861
 30
0.0
 40
0.125
  1
1.5
  7
ROMANS
 72
     1
 11
23.98471323630325
 21
11.19699580576861
 31
0.0
100
AcDbText
  0
TEXT
  5
4134
330
18
100
AcDbEntity
  8
0
100
AcDbText
 10
23.70352334870199
 20
11.962907692668
 30
0.0
 40
0.125
  1
METERS
  7
ROMANS
 72
     1
 11
24.06066620584484
 21
11.962907692668
 31
0.0
100
AcDbText
  0
TEXT
  5
4135
330
18
100
AcDbEntity
  8
0
100
AcDbText
 10
23.71245192013056
 20
12.14817134228536
 30
0.0
 40
0.125
  1
LENGTH
  7
ROMANS
 72
     1
 11
24.06066620584484
 21
12.14817134228536
 31
0.0
100
AcDbText
  0
TEXT
  5
4136
330
18
100
AcDbEntity
  8
0
100
AcDbText
 10
23.83590371249372
 20
11.69074580576859
 30
0.0
 40
0.125
  1
0.5
  7
ROMANS
 72
     1
 11
23.98471323630325
 21
11.69074580576859
 31
0.0
100
AcDbText
  0
TEXT
  5
4137
330
18
100
AcDbEntity
  8
0
100
AcDbText
 10
21.83507096774961
 20
12.15040769266801
 30
0.0
 40
0.125
  1
PART NUMBER
  7
ROMANS
 72
     1
 11
22.51066620584484
 21
12.15040769266801
 31
0.0
100
AcDbText
  0
TEXT
  5
4138
330
18
100
AcDbEntity
  8
0
100
AcDbText
 10
21.80352334870199
 20
11.96067134228536
 30
0.0
 40
0.125
  1
/ LABEL TEXT
 41
0.95
  7
ROMANS
 72
     1
 11
22.44816620584484
 21
11.96067134228536
 31
0.0
100
AcDbText
  0
TEXT
  5
4139
330
18
100
AcDbEntity
  8
0
100
AcDbText
 10
21.8870941886842
 20
11.69074580576859
 30
0.0
 40
0.125
  1
M.1302.5990
  7
ROMANS
 72
     1
 11
22.49721323630325
 21
11.69074580576859
 31
0.0
100
AcDbText
  0
TEXT
  5
413F
330
18
100
AcDbEntity
  8
0
100
AcDbText
 10
21.90495133154134
 20
11.42824580576859
 30
0.0
 40
0.125
  1
M.1302.5991
  7
ROMANS
 72
     1
 11
22.49721323630325
 21
11.42824580576859
 31
0.0
100
AcDbText
  0
TEXT
  5
4140
330
18
100
AcDbEntity
  8
0
100
AcDbText
 10
21.8870941886842
 20
11.19699580576859
 30
0.0
 40
0.125
  1
M.1302.5992
  7
ROMANS
 72
     1
 11
22.49721323630325
 21
11.19699580576859
 31
0.0
100
AcDbText
  0
LEADER
  5
4151
330
18
100
AcDbEntity
  8
0
100
AcDbLeader
  3
STANDARD
 73
     0
 40
0.1488095238095238
 41
1.744047619047619
 76
     3
 10
12.76495785654053
 20
15.99875721947449
 30
0.0
 10
12.21050778524767
 20
16.61448038503503
 30
0.0
 10
12.01689031698049
 20
16.61448038503503
 30
0.0
340
4152
1001
ACAD
1000
DSTYLE
1002
{
1070
   140
1040
0.125
1070
    44
1040
0.125
1002
}
  0
MTEXT
  5
4152
102
{ACAD_REACTORS
330
4151
102
}
330
18
100
AcDbEntity
  8
0
100
AcDbMText
 10
11.92689031698048
 20
16.61448038503503
 30
0.0
 40
0.125
 41
0.0
 71
     6
 72
     1
  1
\A1;JACKSCREW, 4-40
 73
     1
 44
1.0
  0
LINE
  5
4159
330
18
100
AcDbEntity
  8
0
100
AcDbLine
 10
11.91053413954124
 20
13.98741447167028
 30
0.0
 11
11.67161052404132
 21
13.74849085617039
 31
0.0
  0
TEXT
  5
415C
330
18
100
AcDbEntity
  8
0
100
AcDbText
 10
11.54698920322748
 20
13.63061527716822
 30
0.0
 40
0.125
  1
1
 72
     4
 11
11.59758444132272
 21
13.69311527716822
 31
0.0
100
AcDbText
  0
TEXT
  5
415D
330
18
100
AcDbEntity
  8
0
100
AcDbText
 10
11.19941645250961
 20
13.95061074457136
 30
0.0
 40
0.125
  1
5
 72
     4
 11
11.25894026203342
 21
14.01311074457136
 31
0.0
100
AcDbText
  0
LINE
  5
415E
330
18
100
AcDbEntity
  8
0
100
AcDbLine
 10
11.59799294225676
 20
14.29995566895476
 30
0.0
 11
11.35906932675686
 21
14.06103205345485
 31
0.0
  0
LINE
  5
415F
330
18
100
AcDbEntity
  8
0
100
AcDbLine
 10
12.2754275248821
 20
14.35230785701117
 30
0.0
 11
12.05242218625413
 21
14.12930251838317
 31
0.0
  0
LINE
  5
4160
330
18
100
AcDbEntity
  8
0
100
AcDbLine
 10
11.95709406462867
 20
14.65905679132665
 30
0.0
 11
11.73988098896965
 21
14.44184371566764
 31
0.0
  0
TEXT
  5
4163
330
18
100
AcDbEntity
  8
0
100
AcDbText
 10
12.26915198827445
 20
14.36381200377008
 30
0.0
 40
0.125
  1
11
 72
     4
 11
12.37927103589349
 21
14.42631200377008
 31
0.0
100
AcDbText
  0
TEXT
  5
4164
330
18
100
AcDbEntity
  8
0
100
AcDbText
 10
11.94621162535646
 20
14.66517177005947
 30
0.0
 40
0.125
  1
15
 72
     4
 11
12.07418781583265
 21
14.72767177005947
 31
0.0
100
AcDbText
  0
LEADER
  5
4601
330
18
100
AcDbEntity
  8
0
100
AcDbLeader
  3
STANDARD
 73
     0
 40
0.125
 41
2.547619047619046
 76
     3
 10
13.44879880613818
 20
16.19403870502662
 30
0.0
 10
12.72926662207443
 20
17.01353243069053
 30
0.0
 10
12.54926662207443
 20
17.01353243069053
 30
0.0
340
4602
213
0.0
223
0.0625
233
0.0
1001
ACAD
1000
DSTYLE
1002
{
1070
   147
1040
0.09
1070
    77
1070
     0
1070
    44
1040
0.125
1070
   140
1040
0.125
1002
}
  0
MTEXT
  5
4602
102
{ACAD_REACTORS
330
4601
102
}
330
18
100
AcDbEntity
  8
0
100
AcDbMText
 10
12.45926662207444
 20
16.95103243069052
 30
0.0
 40
0.125
 41
0.0
 71
     9
 72
     1
  1
45° PVC BLACK OVERMOLD
 73
     1
 44
1.0
  0
LEADER
  5
462E
330
18
100
AcDbEntity
  8
0
100
AcDbLeader
  3
STANDARD
 73
     0
 40
0.3333333333333333
 41
1.660714285714285
 76
     3
 10
18.72099000878535
 20
15.78476914646929
 30
0.0
 10
18.45801799288778
 20
15.12703086414475
 30
0.0
 10
18.14551799288778
 20
15.12703086414475
 30
0.0
340
462F
213
0.0
223
-0.0625
233
0.0
1001
ACAD
1000
DSTYLE
1002
{
1070
   147
1040
0.09
1070
    77
1070
     0
1070
    44
1040
0.125
1070
   140
1040
0.125
1002
}
  0
MTEXT
  5
462F
102
{ACAD_REACTORS
330
462E
102
}
330
18
100
AcDbEntity
  8
0
100
AcDbMText
 10
18.05551799288778
 20
15.18953086414476
 30
0.0
 40
0.125
 41
0.0
 71
     3
 72
     1
  1
CABLE, FEEDBACK\PSINE KA-51054
 73
     1
 44
1.0
  0
LINE
  5
4634
330
18
100
AcDbEntity
  8
0
100
AcDbLine
 10
21.64732537263696
 20
12.32575023864874
 30
0.0
 11
24.64732537263696
 21
12.32575023864874
 31
0.0
  0
LINE
  5
4635
330
18
100
AcDbEntity
  8
0
100
AcDbLine
 10
21.64732537263696
 20
11.88825023864873
 30
0.0
 11
24.64732537263696
 21
11.88825023864874
 31
0.0
  0
LINE
  5
4636
330
18
100
AcDbEntity
  8
0
100
AcDbLine
 10
21.64732537263696
 20
11.63825023864873
 30
0.0
 11
24.64732537263696
 21
11.63825023864874
 31
0.0
  0
LINE
  5
4637
330
18
100
AcDbEntity
  8
0
100
AcDbLine
 10
21.64732537263696
 20
11.38825023864874
 30
0.0
 11
24.64732537263696
 21
11.38825023864874
 31
0.0
  0
LINE
  5
4638
330
18
100
AcDbEntity
  8
0
100
AcDbLine
 10
21.64732537263696
 20
11.13825023864873
 30
0.0
 11
24.64732537263696
 21
11.13825023864874
 31
0.0
  0
LINE
  5
4639
330
18
100
AcDbEntity
  8
0
100
AcDbLine
 10
21.64732537263696
 20
12.32575023864874
 30
0.0
 11
21.64732537263696
 21
10.88825023864874
 31
0.0
  0
LINE
  5
463A
330
18
100
AcDbEntity
  8
0
100
AcDbLine
 10
23.45982537263696
 20
12.32575023864874
 30
0.0
 11
23.45982537263696
 21
10.88825023864874
 31
0.0
  0
LINE
  5
463B
330
18
100
AcDbEntity
  8
0
100
AcDbLine
 10
24.64732537263696
 20
12.32575023864874
 30
0.0
 11
24.64732537263696
 21
10.88825023864874
 31
0.0
  0
LEADER
  5
4643
330
18
100
AcDbEntity
  8
0
100
AcDbLeader
  3
STANDARD
 73
     0
 40
0.3333333333333333
 41
1.898809523809523
 76
     3
 10
12.36426799288778
 20
15.06453086414476
 30
0.0
 10
11.48926799288779
 20
15.90828086414475
 30
0.0
 10
11.23926799288778
 20
15.90828086414475
 30
0.0
340
4644
213
0.0
223
-0.0625
233
0.0
1001
ACAD
1000
DSTYLE
1002
{
1070
   147
1040
0.09
1070
    77
1070
     0
1070
    44
1040
0.125
1070
   140
1040
0.125
1002
}
  0
MTEXT
  5
4644
102
{ACAD_REACTORS
330
4643
102
}
330
18
100
AcDbEntity
  8
0
100
AcDbMText
 10
11.14926799288779
 20
15.97078086414476
 30
0.0
 40
0.125
 41
0.0
 71
     3
 72
     1
  1
D-SUB CONNECTOR,\P15 PIN HD MALE
 73
     1
 44
1.0
  0
LEADER
  5
464B
330
18
100
AcDbEntity
  8
0
100
AcDbLeader
  3
STANDARD
 73
     0
 40
0.3333333333333333
 41
1.738095238095237
 76
     3
 10
13.08524756926155
 20
15.1445763592987
 30
0.0
 10
13.71024756926155
 20
14.5195763592987
 30
0.0
 10
13.86649756926155
 20
14.5195763592987
 30
0.0
340
464C
213
0.0
223
-0.0625
233
0.0
1001
ACAD
1000
DSTYLE
1002
{
1070
   147
1040
0.09
1070
    77
1070
     0
1070
    44
1040
0.125
1070
   140
1040
0.125
1002
}
  0
MTEXT
  5
464C
102
{ACAD_REACTORS
330
464B
102
}
330
18
100
AcDbEntity
  8
0
100
AcDbMText
 10
13.95649756926155
 20
14.5820763592987
 30
0.0
 40
0.125
 41
0.0
 71
     1
 72
     1
  1
LABEL CONNECTOR\PAS SHOWN
 73
     1
 44
1.0
  0
TEXT
  5
466B
330
18
100
AcDbEntity
  8
0
100
AcDbText
 10
13.09080759577317
 20
15.26317161225373
 30
0.0
 40
0.125
  1
An
 50
135.0
 72
     1
 11
12.97506095004323
 21
15.29052991033535
 31
0.0
100
AcDbText
 73
     2
  0
TEXT
  5
466C
330
18
100
AcDbEntity
  8
0
100
AcDbText
 10
13.04113869378263
 20
15.0827986160942
 30
0.0
 40
0.125
  1
MMC
 50
135.0
 72
     1
 11
12.84963060721128
 21
15.18591835501723
 31
0.0
100
AcDbText
 73
     2
  0
TEXT
  5
46CF
330
18
100
AcDbEntity
  8
0
100
AcDbText
 10
10.28303140170766
 20
14.74365849094263
 30
0.0
 40
0.125
  1
FACE VIEW
100
AcDbText
  0
MTEXT
  5
46D1
330
18
100
AcDbEntity
  8
0
100
AcDbMText
 10
15.5942810452574
 20
12.8604398453242
 30
0.0
 40
0.1
 41
5.652499999999999
 71
     1
 72
     5
  3
SPECIFICATIONS:\P\P1. LABEL CABLE AND CONNECTORS AS SHOWN.\P\P2. INSPECT FOR SHORTS. CONNECTIVITY MUST CONFORM TO WIRING DIAGRAM.\P\P3. PACKAGE PER MD.1000.5034 PACKAGING SPECIFICATION.\P\P4. WIRING DIAGRAM SHOWING PIN ORIENTATION AND COLOR CODE MUST
  1
 BE INCLUDED IN BOX.\P\P5. CHANGES TO THESE SPECIFICATIONS MUST BE APPROVED, IN WRITING, BY THE G&L Motion Control ENGINEERING DEPARTMENT.
 73
     1
 44
1.0
  0
LINE
  5
46D8
330
18
100
AcDbEntity
  8
0
100
AcDbLine
 10
21.64732537263696
 20
10.88825023864874
 30
0.0
 11
24.64732537263696
 21
10.88825023864874
 31
0.0
  0
TEXT
  5
4725
330
18
100
AcDbEntity
  8
0
100
AcDbText
 10
15.30583224437921
 20
15.83317612901452
 30
0.0
 40
0.1
  1
MM/DD/YY
 72
     4
 11
15.71773700628398
 21
15.87603327187166
 31
0.0
100
AcDbText
  0
LINE
  5
4726
330
18
100
AcDbEntity
  8
0
100
AcDbLine
 10
14.26773699860055
 20
15.6061503573783
 30
0.0
 11
14.26773699860055
 21
15.00328068600158
 31
0.0
  0
LINE
  5
4727
330
18
100
AcDbEntity
  8
0
100
AcDbLine
 10
14.76773700628398
 20
15.7071503678602
 30
0.0
 11
14.76773700628398
 21
15.00328068600158
 31
0.0
  0
LINE
  5
4728
330
18
100
AcDbEntity
  8
0
100
AcDbLine
 10
14.08773699860055
 20
15.12828068600158
 30
0.0
 11
13.90773699860055
 21
15.12828068600158
 31
0.0
  0
LINE
  5
4729
330
18
100
AcDbEntity
  8
0
100
AcDbLine
 10
14.94773700628398
 20
15.12828068600158
 30
0.0
 11
15.12773700628398
 21
15.12828068600158
 31
0.0
  0
SOLID
  5
472A
330
18
100
AcDbEntity
  8
0
100
AcDbTrace
 10
14.08773699860055
 20
15.15828068600158
 30
0.0
 11
14.08773699860055
 21
15.09828068600158
 31
0.0
 12
14.26773699860055
 22
15.12828068600158
 32
0.0
 13
14.26773699860055
 23
15.12828068600158
 33
0.0
  0
SOLID
  5
472B
330
18
100
AcDbEntity
  8
0
100
AcDbTrace
 10
14.94773700628398
 20
15.15828068600158
 30
0.0
 11
14.94773700628398
 21
15.09828068600158
 31
0.0
 12
14.76773700628398
 22
15.12828068600158
 32
0.0
 13
14.76773700628398
 23
15.12828068600158
 33
0.0
  0
MTEXT
  5
472C
330
18
100
AcDbEntity
  8
0
100
AcDbMText
 10
15.39928462533159
 20
15.12828068600158
 30
0.0
 40
0.125
 41
0.0
 71
     5
 72
     1
  1
12mm
 73
     1
 44
1.0
  0
TEXT
  5
4735
330
18
100
AcDbEntity
  8
0
100
AcDbText
 10
21.8870941886842
 20
10.9469958057686
 30
0.0
 40
0.125
  1
M.1302.5993
  7
ROMANS
 72
     1
 11
22.49721323630325
 21
10.9469958057686
 31
0.0
100
AcDbText
  0
TEXT
  5
4736
330
18
100
AcDbEntity
  8
0
100
AcDbText
 10
23.83590371249372
 20
10.94699580576861
 30
0.0
 40
0.125
  1
3.0
  7
ROMANS
 72
     1
 11
23.98471323630325
 21
10.94699580576861
 31
0.0
100
AcDbText
  0
INSERT
  5
49EB
330
18
100
AcDbEntity
  8
0
100
AcDbBlockReference
 66
     1
  2
ASSEMBLY_B
 10
8.333017992887789
 20
7.689530864144758
 30
0.0
  0
ATTRIB
  5
49ED
330
49EB
100
AcDbEntity
  8
Title Block
  6
Continuous
 62
     2
100
AcDbText
 10
19.13301799288778
 20
8.289530864144758
 30
0.0
 40
0.126326427375
  1
MMC An to MMC Smart Drive I/O
 41
0.8
100
AcDbAttribute
  2
GEN-TITLE-DES1{15.54}
 70
     0
  0
ATTRIB
  5
49EE
330
49EB
100
AcDbEntity
  8
Title Block
  6
Continuous
 62
     2
100
AcDbText
 10
20.85801799288778
 20
8.714530864144759
 30
0.0
 40
0.1010611419
  1

100
AcDbAttribute
  2
GEN-TITLE-APPM{5}
 70
     0
  0
ATTRIB
  5
49EF
330
49EB
100
AcDbEntity
  8
Title Block
  6
Continuous
 62
     2
100
AcDbText
 10
20.85801799288778
 20
8.964530864144759
 30
0.0
 40
0.1010611419
  1

100
AcDbAttribute
  2
GEN-TITLE-CHKM{5}
 70
     0
  0
ATTRIB
  5
49F0
330
49EB
100
AcDbEntity
  8
Title Block
  6
Continuous
 62
     2
100
AcDbText
 10
20.85801799288778
 20
9.214530864144759
 30
0.0
 40
0.1010611419
  1
G. MUMM
100
AcDbAttribute
  2
GEN-TITLE-NAME{5}
 70
     0
  0
ATTRIB
  5
49F1
330
49EB
100
AcDbEntity
  8
Title Block
  6
Continuous
 62
     2
100
AcDbText
 10
22.33301799288779
 20
8.189530864144758
 30
0.0
 40
0.196816573850279
  1
MD.1000.8161
 41
0.8
100
AcDbAttribute
  2
GEN-TITLE-NR{13.37}
 70
     0
  0
ATTRIB
  5
49F2
330
49EB
100
AcDbEntity
  8
Title Block
  6
Continuous
 62
     2
100
AcDbText
 10
23.93301799288779
 20
8.714530864144759
 30
0.0
 40
0.11808994431015
  1
1
 41
0.8
100
AcDbAttribute
  2
GEN-TITLE-SHEET{2.62}
 70
     0
  0
ATTRIB
  5
49F3
330
49EB
100
AcDbEntity
  8
Title Block
  6
Continuous
 62
     2
100
AcDbText
 10
23.85801799288779
 20
8.964530864144759
 30
0.0
 40
0.1010611419
  1
27.03.03
100
AcDbAttribute
  2
GEN-TITLE-PLOT{5}
 70
     0
  0
ATTRIB
  5
49F4
330
49EB
100
AcDbEntity
  8
Title Block
  6
Continuous
 62
     2
100
AcDbText
 10
24.33301799288779
 20
8.714530864144759
 30
0.0
 40
0.11808994431015
  1
1
 41
0.8
100
AcDbAttribute
  2
GEN-TITLE-SHEET-OF{2.62}
 70
     0
  0
ATTRIB
  5
49F5
330
49EB
100
AcDbEntity
  8
Title Block
  6
Continuous
 62
     2
100
AcDbText
 10
22.38301799288778
 20
9.214530864144759
 30
0.0
 40
0.1010611419
  1

100
AcDbAttribute
  2
GEN-TITLE-REF{5}
 70
     0
  0
ATTRIB
  5
49F6
330
49EB
100
AcDbEntity
  8
Title Block
  6
Continuous
 62
     2
100
AcDbText
 10
22.38301799288778
 20
8.964530864144759
 30
0.0
 40
0.1010611419
  1

100
AcDbAttribute
  2
GEN-TITLE-MACH{5}
 70
     0
  0
ATTRIB
  5
49F7
330
49EB
100
AcDbEntity
  8
Title Block
  6
Continuous
 62
     2
100
AcDbText
 10
22.38301799288778
 20
8.714530864144759
 30
0.0
 40
0.1010611419
  1

 41
0.8
100
AcDbAttribute
  2
GEN-TITLE-MAT{11.15}
 70
     0
  0
SEQEND
  5
49EC
330
49EB
100
AcDbEntity
  8
0
  0
TEXT
  5
4CCF
330
18
100
AcDbEntity
  8
0
100
AcDbText
 10
14.83426797163778
 20
12.78385791260765
 30
0.0
 40
0.1050000525
  1
1
  7
ROMANS
 72
     1
 11
14.87676799288777
 21
12.83635793885765
 31
0.0
100
AcDbText
 73
     2
  0
LINE
  5
4CD0
330
18
100
AcDbEntity
  8
0
 62
     4
100
AcDbLine
 10
14.71926799288777
 20
8.939530864144758
 30
0.0
 11
14.71926799288777
 21
12.92953243914477
 31
0.0
  0
LINE
  5
4CD1
330
18
100
AcDbEntity
  8
0
 62
     4
100
AcDbLine
 10
15.03426799288778
 20
8.939530864144758
 30
0.0
 11
15.03426799288778
 21
12.92953243914477
 31
0.0
  0
ARC
  5
4CD2
330
18
100
AcDbEntity
  8
0
100
AcDbCircle
 10
11.28051799288777
 20
12.82453243914477
 30
0.0
 40
0.065625
100
AcDbArc
 50
321.3178125465103
 51
218.68218745349
  0
TEXT
  5
4CD3
330
18
100
AcDbEntity
  8
0
100
AcDbText
 10
9.479267971637773
 20
12.78385791260765
 30
0.0
 40
0.1050000525
  1
1
  7
ROMANS
 72
     4
 11
9.521767992887772
 21
12.83635793885765
 31
0.0
100
AcDbText
  0
LINE
  5
4CD4
330
18
100
AcDbEntity
  8
0
  6
HIDDEN
100
AcDbLine
 10
13.64301799288777
 20
9.044527399144737
 30
0.0
 11
13.64301799288777
 21
12.82453243914477
 31
0.0
  0
LINE
  5
4CD5
330
18
100
AcDbEntity
  8
0
  6
HIDDEN
100
AcDbLine
 10
13.95801799288777
 20
9.044527399144737
 30
0.0
 11
13.95801799288777
 21
12.82453243914477
 31
0.0
  0
LINE
  5
4CD6
330
18
100
AcDbEntity
  8
0
  6
HIDDEN
100
AcDbLine
 10
10.70301799288776
 20
9.04452739914473
 30
0.0
 11
10.70301799288777
 21
12.82453243914477
 31
0.0
  0
LINE
  5
4CD7
330
18
100
AcDbEntity
  8
0
  6
HIDDEN
100
AcDbLine
 10
11.01801799288777
 20
9.04452739914473
 30
0.0
 11
11.01801799288777
 21
12.82453243914477
 31
0.0
  0
LINE
  5
4CD8
330
18
100
AcDbEntity
  8
0
 62
     4
100
AcDbLine
 10
9.364267992887789
 20
8.939530864144758
 30
0.0
 11
9.364267992887764
 21
12.92953243914477
 31
0.0
  0
LINE
  5
4CD9
330
18
100
AcDbEntity
  8
0
 62
     4
100
AcDbLine
 10
9.679267992887787
 20
8.939530864144758
 30
0.0
 11
9.679267992887764
 21
12.92953243914477
 31
0.0
  0
LINE
  5
4CDA
330
18
100
AcDbEntity
  8
0
  6
HIDDEN
100
AcDbLine
 10
10.75551799288777
 20
9.044527399144737
 30
0.0
 11
10.75551799288778
 21
12.82453243914477
 31
0.0
  0
LINE
  5
4CDB
330
18
100
AcDbEntity
  8
0
  6
HIDDEN
100
AcDbLine
 10
10.96551799288777
 20
9.044527399144737
 30
0.0
 11
10.96551799288777
 21
12.82453243914477
 31
0.0
  0
LINE
  5
4CDC
330
18
100
AcDbEntity
  8
0
  6
HIDDEN
100
AcDbLine
 10
13.90551799288777
 20
9.044527399144742
 30
0.0
 11
13.90551799288777
 21
12.82453243914477
 31
0.0
  0
LINE
  5
4CDD
330
18
100
AcDbEntity
  8
0
  6
HIDDEN
100
AcDbLine
 10
13.69551799288778
 20
9.044527399144742
 30
0.0
 11
13.69551799288778
 21
12.82453243914477
 31
0.0
  0
TEXT
  5
4CDE
330
18
100
AcDbEntity
  8
0
100
AcDbText
 10
12.76083504724023
 20
12.44534278534939
 30
0.0
 40
0.084
  1
28AWG
  7
ROMANS
 72
     4
 11
12.96683504724023
 21
12.48734278534939
 31
0.0
100
AcDbText
  0
TEXT
  5
4CDF
330
18
100
AcDbEntity
  8
0
100
AcDbText
 10
12.76083504724023
 20
12.23534278534938
 30
0.0
 40
0.084
  1
28AWG
  7
ROMANS
 72
     4
 11
12.96683504724023
 21
12.27734278534938
 31
0.0
100
AcDbText
  0
TEXT
  5
4CE0
330
18
100
AcDbEntity
  8
0
100
AcDbText
 10
12.76083504724023
 20
12.02534278534938
 30
0.0
 40
0.084
  1
28AWG
  7
ROMANS
 72
     4
 11
12.96683504724023
 21
12.06734278534938
 31
0.0
100
AcDbText
  0
TEXT
  5
4CE1
330
18
100
AcDbEntity
  8
0
100
AcDbText
 10
12.76083504724023
 20
11.81534278534938
 30
0.0
 40
0.084
  1
28AWG
  7
ROMANS
 72
     4
 11
12.96683504724023
 21
11.85734278534938
 31
0.0
100
AcDbText
  0
TEXT
  5
4CE2
330
18
100
AcDbEntity
  8
0
100
AcDbText
 10
12.76083504724023
 20
12.65534278534938
 30
0.0
 40
0.084
  1
28AWG
  7
ROMANS
 72
     4
 11
12.96683504724023
 21
12.69734278534938
 31
0.0
100
AcDbText
  0
TEXT
  5
4CE3
330
18
100
AcDbEntity
  8
0
100
AcDbText
 10
12.76083504724023
 20
11.39534278534938
 30
0.0
 40
0.084
  1
28AWG
  7
ROMANS
 72
     4
 11
12.96683504724023
 21
11.43734278534938
 31
0.0
100
AcDbText
  0
TEXT
  5
4CE4
330
18
100
AcDbEntity
  8
0
100
AcDbText
 10
12.76083504724023
 20
11.18534278534937
 30
0.0
 40
0.084
  1
28AWG
  7
ROMANS
 72
     4
 11
12.96683504724023
 21
11.22734278534937
 31
0.0
100
AcDbText
  0
TEXT
  5
4CE5
330
18
100
AcDbEntity
  8
0
100
AcDbText
 10
12.76083504724023
 20
10.76534278534937
 30
0.0
 40
0.084
  1
28AWG
  7
ROMANS
 72
     4
 11
12.96683504724023
 21
10.80734278534937
 31
0.0
100
AcDbText
  0
TEXT
  5
4CE6
330
18
100
AcDbEntity
  8
0
100
AcDbText
 10
12.76083504724023
 20
10.97534278534938
 30
0.0
 40
0.084
  1
28AWG
  7
ROMANS
 72
     4
 11
12.96683504724023
 21
11.01734278534938
 31
0.0
100
AcDbText
  0
TEXT
  5
4CE7
330
18
100
AcDbEntity
  8
0
100
AcDbText
 10
12.76083504724023
 20
10.13534278534938
 30
0.0
 40
0.084
  1
28AWG
  7
ROMANS
 72
     4
 11
12.96683504724023
 21
10.17734278534938
 31
0.0
100
AcDbText
  0
TEXT
  5
4CE8
330
18
100
AcDbEntity
  8
0
100
AcDbText
 10
12.76083504724023
 20
10.34534278534938
 30
0.0
 40
0.084
  1
28AWG
  7
ROMANS
 72
     4
 11
12.96683504724023
 21
10.38734278534938
 31
0.0
100
AcDbText
  0
TEXT
  5
4CE9
330
18
100
AcDbEntity
  8
0
100
AcDbText
 10
12.76083504724023
 20
9.925342785349389
 30
0.0
 40
0.084
  1
28AWG
  7
ROMANS
 72
     4
 11
12.96683504724023
 21
9.967342785349389
 31
0.0
100
AcDbText
  0
TEXT
  5
4CEA
330
18
100
AcDbEntity
  8
0
100
AcDbText
 10
12.76083504724023
 20
9.715342785349388
 30
0.0
 40
0.084
  1
28AWG
  7
ROMANS
 72
     4
 11
12.96683504724023
 21
9.757342785349388
 31
0.0
100
AcDbText
  0
TEXT
  5
4CEB
330
18
100
AcDbEntity
  8
0
100
AcDbText
 10
12.76083504724023
 20
10.55534278534938
 30
0.0
 40
0.084
  1
28AWG
  7
ROMANS
 72
     4
 11
12.96683504724023
 21
10.59734278534938
 31
0.0
100
AcDbText
  0
TEXT
  5
4CEC
330
18
100
AcDbEntity
  8
0
100
AcDbText
 10
12.76083504724023
 20
9.505337745349359
 30
0.0
 40
0.084
  1
20AWG
  7
ROMANS
 72
     4
 11
12.96683504724023
 21
9.547337745349359
 31
0.0
100
AcDbText
  0
TEXT
  5
4CED
330
18
100
AcDbEntity
  8
0
100
AcDbText
 10
12.76083504724022
 20
9.295342785349387
 30
0.0
 40
0.084
  1
20AWG
  7
ROMANS
 72
     4
 11
12.96683504724022
 21
9.337342785349386
 31
0.0
100
AcDbText
  0
TEXT
  5
4CEE
330
18
100
AcDbEntity
  8
0
100
AcDbText
 10
12.77133504724022
 20
9.085337745349358
 30
0.0
 40
0.084
  1
28AWG
  7
ROMANS
 72
     4
 11
12.97733504724022
 21
9.127337745349358
 31
0.0
100
AcDbText
  0
LINE
  5
4CEF
330
18
100
AcDbEntity
  8
0
100
AcDbLine
 10
10.86051799288777
 20
10.30452739914474
 30
0.0
 11
13.80051799288777
 21
10.30452739914474
 31
0.0
  0
LINE
  5
4CF0
330
18
100
AcDbEntity
  8
0
100
AcDbLine
 10
10.86051799288777
 20
9.674527399144739
 30
0.0
 11
13.80051799288777
 21
9.674527399144739
 31
0.0
  0
LINE
  5
4CF1
330
18
100
AcDbEntity
  8
0
100
AcDbLine
 10
10.86051799288777
 20
9.884527399144744
 30
0.0
 11
13.80051799288777
 21
9.884527399144744
 31
0.0
  0
LINE
  5
4CF2
330
18
100
AcDbEntity
  8
0
100
AcDbLine
 10
10.86051799288777
 20
10.09452739914473
 30
0.0
 11
13.80051799288777
 21
10.09452739914473
 31
0.0
  0
LINE
  5
4CF3
330
18
100
AcDbEntity
  8
0
100
AcDbLine
 10
10.86051799288777
 20
11.35453075914478
 30
0.0
 11
13.80051799288777
 21
11.35453075914478
 31
0.0
  0
LINE
  5
4CF4
330
18
100
AcDbEntity
  8
0
100
AcDbLine
 10
9.679267992887783
 20
9.464527399144735
 30
0.0
 11
14.71926799288777
 21
9.464527399144735
 31
0.0
  0
TEXT
  5
4CF5
330
18
100
AcDbEntity
  8
0
100
AcDbText
 10
12.76083504724023
 20
11.60534278534938
 30
0.0
 40
0.084
  1
28AWG
  7
ROMANS
 72
     4
 11
12.96683504724023
 21
11.64734278534938
 31
0.0
100
AcDbText
  0
LINE
  5
4CF6
330
18
100
AcDbEntity
  8
0
100
AcDbLine
 10
9.679267992887774
 20
10.93453243914475
 30
0.0
 11
14.71926799288777
 21
10.93453243914477
 31
0.0
  0
LINE
  5
4CF7
330
18
100
AcDbEntity
  8
0
100
AcDbLine
 10
9.679267992887764
 20
11.14453243914476
 30
0.0
 11
14.71926799288777
 21
11.14453243914477
 31
0.0
  0
LINE
  5
4CF8
330
18
100
AcDbEntity
  8
0
100
AcDbLine
 10
9.679267992887764
 20
10.72453075914475
 30
0.0
 11
14.71926799288777
 21
10.72453075914475
 31
0.0
  0
LINE
  5
4CF9
330
18
100
AcDbEntity
  8
0
  6
HIDDEN
100
AcDbLine
 10
9.679267992887787
 20
9.044527399144737
 30
0.0
 11
14.71926799288778
 21
9.044527399144742
 31
0.0
  0
LINE
  5
4CFA
330
18
100
AcDbEntity
  8
0
100
AcDbLine
 10
9.679267992887778
 20
10.51452907914472
 30
0.0
 11
14.71926799288777
 21
10.51452907914472
 31
0.0
  0
LINE
  5
4CFB
330
18
100
AcDbEntity
  8
0
100
AcDbLine
 10
9.679267992887764
 20
12.19453243914476
 30
0.0
 11
14.71926799288777
 21
12.19453243914477
 31
0.0
  0
LINE
  5
4CFC
330
18
100
AcDbEntity
  8
0
100
AcDbLine
 10
9.679267992887764
 20
11.98453243914477
 30
0.0
 11
14.71926799288777
 21
11.98453243914477
 31
0.0
  0
LINE
  5
4CFD
330
18
100
AcDbEntity
  8
0
100
AcDbLine
 10
9.679267992887764
 20
11.77453243914476
 30
0.0
 11
14.71926799288777
 21
11.77453243914477
 31
0.0
  0
LINE
  5
4CFE
330
18
100
AcDbEntity
  8
0
100
AcDbLine
 10
9.679267992887764
 20
11.56453243914477
 30
0.0
 11
14.71926799288777
 21
11.56453243914477
 31
0.0
  0
LINE
  5
4CFF
330
18
100
AcDbEntity
  8
0
100
AcDbLine
 10
9.679267992887764
 20
12.61453243914477
 30
0.0
 11
14.71926799288777
 21
12.61453243914477
 31
0.0
  0
LINE
  5
4D00
330
18
100
AcDbEntity
  8
0
100
AcDbLine
 10
9.679267992887764
 20
12.40453243914477
 30
0.0
 11
14.71926799288777
 21
12.40453243914477
 31
0.0
  0
LINE
  5
4D01
330
18
100
AcDbEntity
  8
0
100
AcDbLine
 10
9.679267992887764
 20
9.254532439144771
 30
0.0
 11
14.71926799288777
 21
9.254532439144787
 31
0.0
  0
ARC
  5
4D02
330
18
100
AcDbEntity
  8
0
100
AcDbCircle
 10
11.28051799288778
 20
9.884525719144736
 30
0.0
 40
0.065625
100
AcDbArc
 50
321.3178125465101
 51
218.68218745349
  0
LINE
  5
4D03
330
18
100
AcDbEntity
  8
0
100
AcDbLine
 10
10.61114299288778
 20
11.35453243914476
 30
0.0
 11
10.61114299288778
 21
9.254532439144773
 31
0.0
  0
LINE
  5
4D04
330
18
100
AcDbEntity
  8
0
100
AcDbLine
 10
10.47989299288778
 20
10.09452739914473
 30
0.0
 11
10.47989299288778
 21
9.464530864144759
 31
0.0
  0
ARC
  5
4D05
330
18
100
AcDbEntity
  8
0
  6
HIDDEN
100
AcDbCircle
 10
10.86051799288777
 20
9.044527399144737
 30
0.0
 40
0.1574999999999996
100
AcDbArc
 50
180.0
 51
0.0
  0
ARC
  5
4D06
330
18
100
AcDbEntity
  8
0
  6
HIDDEN
100
AcDbCircle
 10
10.86051799288777
 20
9.044527399144737
 30
0.0
 40
0.1049999999999997
100
AcDbArc
 50
180.0
 51
0.0
  0
TEXT
  5
4D07
330
18
100
AcDbEntity
  8
0
100
AcDbText
 10
9.791624459744687
 20
9.295342785349403
 30
0.0
 40
0.084
  1
COM
  7
ROMANS
 11
9.791624459744687
 21
9.337342785349402
 31
0.0
100
AcDbText
 73
     2
  0
TEXT
  5
4D08
330
18
100
AcDbEntity
  8
0
100
AcDbText
 10
9.791624459744687
 20
9.5053427853494
 30
0.0
 40
0.084
  1
24VDCOUT
  7
ROMANS
 11
9.791624459744687
 21
9.5473427853494
 31
0.0
100
AcDbText
 73
     2
  0
LINE
  5
4D0A
330
18
100
AcDbEntity
  8
0
 62
     4
100
AcDbLine
 10
9.364267992887789
 20
8.939530864144758
 30
0.0
 11
9.679267992887787
 21
8.939530864144758
 31
0.0
  0
LWPOLYLINE
  5
4D0B
330
18
100
AcDbEntity
  8
0
100
AcDbPolyline
 90
        2
 70
     1
 43
0.021
 10
9.668767992887786
 20
9.044527399144737
 42
1.0
 10
9.689767992887777
 20
9.044527399144737
 42
1.0
  0
TEXT
  5
4D0C
330
18
100
AcDbEntity
  8
0
100
AcDbText
 10
9.429267946637772
 20
9.42385791260766
 30
0.0
 40
0.1050000525
  1
11
  7
ROMANS
 72
     4
 11
9.521767992887772
 21
9.47635793885766
 31
0.0
100
AcDbText
  0
TEXT
  5
4D0D
330
18
100
AcDbEntity
  8
0
100
AcDbText
 10
9.414267939137772
 20
9.213857912607659
 30
0.0
 40
0.1050000525
  1
12
  7
ROMANS
 72
     4
 11
9.521767992887772
 21
9.266357938857659
 31
0.0
100
AcDbText
  0
LWPOLYLINE
  5
4D0E
330
18
100
AcDbEntity
  8
0
100
AcDbPolyline
 90
        2
 70
     1
 43
0.021
 10
10.60064299288778
 20
9.254532439144771
 42
1.0
 10
10.62164299288777
 20
9.254532439144771
 42
1.0
  0
TEXT
  5
4D0F
330
18
100
AcDbEntity
  8
0
100
AcDbText
 10
11.38610046749714
 20
8.688518881248198
 30
0.0
 40
0.084
  1
= TWISTED PAIR
  7
ROMANS
 72
     4
 11
11.90810046749714
 21
8.730518881248197
 31
0.0
100
AcDbText
  0
TEXT
  5
4D10
330
18
100
AcDbEntity
  8
0
100
AcDbText
 10
11.70338167809302
 20
9.727777399144741
 30
0.0
 40
0.084
  1
WHITE/VIOLET
  7
ROMANS
 72
     4
 11
12.12738167809302
 21
9.763777399144741
 31
0.0
100
AcDbText
  0
TEXT
  5
4D11
330
18
100
AcDbEntity
  8
0
100
AcDbText
 10
11.74738167809302
 20
9.307782439144773
 30
0.0
 40
0.084
  1
WHITE/GRAY
  7
ROMANS
 72
     4
 11
12.12738167809302
 21
9.343782439144773
 31
0.0
100
AcDbText
  0
LINE
  5
4D12
330
18
100
AcDbEntity
  8
0
100
AcDbLine
 10
11.22928949368217
 20
8.656912201469797
 30
0.0
 11
11.33174649209339
 21
8.7848809514698
 31
0.0
  0
LINE
  5
4D13
330
18
100
AcDbEntity
  8
0
100
AcDbLine
 10
11.33174649209339
 20
8.656912201469797
 30
0.0
 11
11.22928949368217
 21
8.7848809514698
 31
0.0
  0
ARC
  5
4D14
330
18
100
AcDbEntity
  8
0
100
AcDbCircle
 10
11.28051799288778
 20
8.8258965764698
 30
0.0
 40
0.065625
100
AcDbArc
 50
321.3178125465101
 51
218.68218745349
  0
ARC
  5
4D15
330
18
100
AcDbEntity
  8
0
100
AcDbCircle
 10
11.28051799288778
 20
8.615896576469797
 30
0.0
 40
0.065625
100
AcDbArc
 50
141.3178125465109
 51
38.68218745348999
  0
LWPOLYLINE
  5
4D16
330
18
100
AcDbEntity
  8
0
100
AcDbPolyline
 90
        2
 70
     1
 43
0.021
 10
11.00751799288777
 20
9.044527399144737
 42
1.0
 10
11.02851799288777
 20
9.044527399144737
 42
1.0
  0
LWPOLYLINE
  5
4D17
330
18
100
AcDbEntity
  8
0
100
AcDbPolyline
 90
        2
 70
     1
 43
0.021
 10
10.95501799288777
 20
9.044527399144737
 42
1.0
 10
10.97601799288778
 20
9.044527399144737
 42
1.0
  0
ARC
  5
4D18
330
18
100
AcDbEntity
  8
0
100
AcDbCircle
 10
11.28051799288778
 20
9.46452571914474
 30
0.0
 40
0.065625
100
AcDbArc
 50
321.3178125465101
 51
218.68218745349
  0
ARC
  5
4D19
330
18
100
AcDbEntity
  8
0
100
AcDbCircle
 10
11.28051799288778
 20
9.254525719144737
 30
0.0
 40
0.065625
100
AcDbArc
 50
141.3178125465109
 51
38.68218745348999
  0
LINE
  5
4D1A
330
18
100
AcDbEntity
  8
0
100
AcDbLine
 10
11.22928949368216
 20
9.295541344144737
 30
0.0
 11
11.33174649209339
 21
9.42351009414474
 31
0.0
  0
LINE
  5
4D1B
330
18
100
AcDbEntity
  8
0
100
AcDbLine
 10
11.33174649209339
 20
9.295541344144737
 30
0.0
 11
11.22928949368217
 21
9.42351009414474
 31
0.0
  0
ARC
  5
4D1C
330
18
100
AcDbEntity
  8
0
100
AcDbCircle
 10
11.28051799288778
 20
9.674525719144735
 30
0.0
 40
0.065625
100
AcDbArc
 50
141.3178125465109
 51
38.68218745348999
  0
LINE
  5
4D1D
330
18
100
AcDbEntity
  8
0
100
AcDbLine
 10
11.22928949368216
 20
9.715541344144735
 30
0.0
 11
11.33174649209339
 21
9.843510094144736
 31
0.0
  0
LINE
  5
4D1E
330
18
100
AcDbEntity
  8
0
100
AcDbLine
 10
11.33174649209339
 20
9.715541344144735
 30
0.0
 11
11.22928949368217
 21
9.843510094144736
 31
0.0
  0
TEXT
  5
4D1F
330
18
100
AcDbEntity
  8
0
100
AcDbText
 10
11.95046883224561
 20
9.085337745349358
 30
0.0
 40
0.084
  1
DRAIN
  7
ROMANS
 72
     4
 11
12.13046883224562
 21
9.127337745349358
 31
0.0
100
AcDbText
  0
TEXT
  5
4D20
330
18
100
AcDbEntity
  8
0
100
AcDbText
 10
11.96738167809302
 20
9.511782439144774
 30
0.0
 40
0.084
  1
GRAY
  7
ROMANS
 72
     4
 11
12.12738167809302
 21
9.553782439144773
 31
0.0
100
AcDbText
  0
TEXT
  5
4D21
330
18
100
AcDbEntity
  8
0
100
AcDbText
 10
9.471767967887773
 20
11.31385759760763
 30
0.0
 40
0.1050000525
  1
7
  7
ROMANS
 72
     4
 11
9.521767992887772
 21
11.36635762385763
 31
0.0
100
AcDbText
  0
TEXT
  5
4D22
330
18
100
AcDbEntity
  8
0
100
AcDbText
 10
9.791624459744687
 20
11.18534446534941
 30
0.0
 40
0.084
  1
DA+
  7
ROMANS
 11
9.791624459744687
 21
11.22734446534941
 31
0.0
100
AcDbText
 73
     2
  0
TEXT
  5
4D23
330
18
100
AcDbEntity
  8
0
100
AcDbText
 10
9.791624459744699
 20
10.97534367784941
 30
0.0
 40
0.084
  1
DA-
  7
ROMANS
 11
9.791624459744699
 21
11.01734367784941
 31
0.0
100
AcDbText
 73
     2
  0
TEXT
  5
4D24
330
18
100
AcDbEntity
  8
0
100
AcDbText
 10
9.791624459744685
 20
10.76534782534941
 30
0.0
 40
0.084
  1
DCOUT1
  7
ROMANS
 11
9.791624459744685
 21
10.80734782534941
 31
0.0
100
AcDbText
 73
     2
  0
TEXT
  5
4D25
330
18
100
AcDbEntity
  8
0
100
AcDbText
 10
9.791624459744678
 20
10.13534614534939
 30
0.0
 40
0.084
  1
DCOSS
  7
ROMANS
 11
9.791624459744678
 21
10.17734614534939
 31
0.0
100
AcDbText
 73
     2
  0
TEXT
  5
4D26
330
18
100
AcDbEntity
  8
0
100
AcDbText
 10
9.791624459744687
 20
10.55534614534939
 30
0.0
 40
0.084
  1
DCOUT2
  7
ROMANS
 11
9.791624459744687
 21
10.59734614534939
 31
0.0
100
AcDbText
 73
     2
  0
LINE
  5
4D27
330
18
100
AcDbEntity
  8
0
100
AcDbLine
 10
9.679267992887787
 20
10.09452739914474
 30
0.0
 11
10.47989299288778
 21
10.09452739914473
 31
0.0
  0
TEXT
  5
4D28
330
18
100
AcDbEntity
  8
0
100
AcDbText
 10
9.411767937887763
 20
10.47385906760766
 30
0.0
 40
0.1050000525
  1
14
  7
ROMANS
 72
     4
 11
9.521767992887763
 21
10.52635909385766
 31
0.0
100
AcDbText
  0
TEXT
  5
4D29
330
18
100
AcDbEntity
  8
0
100
AcDbText
 10
9.414267939137781
 20
10.05385738760764
 30
0.0
 40
0.1050000525
  1
15
  7
ROMANS
 72
     4
 11
9.521767992887781
 21
10.10635741385764
 31
0.0
100
AcDbText
  0
TEXT
  5
4D2A
330
18
100
AcDbEntity
  8
0
100
AcDbText
 10
9.474267969137784
 20
10.89385670510764
 30
0.0
 40
0.1050000525
  1
9
  7
ROMANS
 72
     4
 11
9.521767992887784
 21
10.94635673135764
 31
0.0
100
AcDbText
  0
TEXT
  5
4D2B
330
18
100
AcDbEntity
  8
0
100
AcDbText
 10
9.414267939137785
 20
10.68385623260763
 30
0.0
 40
0.1050000525
  1
13
  7
ROMANS
 72
     4
 11
9.521767992887784
 21
10.73635625885763
 31
0.0
100
AcDbText
  0
TEXT
  5
4D2C
330
18
100
AcDbEntity
  8
0
100
AcDbText
 10
9.471767967887773
 20
11.10385749260763
 30
0.0
 40
0.1050000525
  1
8
  7
ROMANS
 72
     4
 11
9.521767992887772
 21
11.15635751885763
 31
0.0
100
AcDbText
  0
TEXT
  5
4D2D
330
18
100
AcDbEntity
  8
0
100
AcDbText
 10
9.791624459744687
 20
12.23534278534939
 30
0.0
 40
0.084
  1
B/
  7
ROMANS
 11
9.791624459744687
 21
12.27734278534939
 31
0.0
100
AcDbText
 73
     2
  0
TEXT
  5
4D2E
330
18
100
AcDbEntity
  8
0
100
AcDbText
 10
9.791624459744687
 20
12.65534278534937
 30
0.0
 40
0.084
  1
A/
  7
ROMANS
 11
9.791624459744687
 21
12.69734278534937
 31
0.0
100
AcDbText
 73
     2
  0
TEXT
  5
4D2F
330
18
100
AcDbEntity
  8
0
100
AcDbText
 10
9.791624459744687
 20
11.3953444653494
 30
0.0
 40
0.084
  1
DCIN-
  7
ROMANS
 11
9.791624459744687
 21
11.4373444653494
 31
0.0
100
AcDbText
 73
     2
  0
LINE
  5
4D30
330
18
100
AcDbEntity
  8
0
100
AcDbLine
 10
9.679267992887764
 20
11.35453243914477
 30
0.0
 11
10.61114299288778
 21
11.35453243914476
 31
0.0
  0
TEXT
  5
4D31
330
18
100
AcDbEntity
  8
0
100
AcDbText
 10
9.791624459744687
 20
11.60534278534938
 30
0.0
 40
0.084
  1
DCIN+
  7
ROMANS
 11
9.791624459744687
 21
11.64734278534938
 31
0.0
100
AcDbText
 73
     2
  0
TEXT
  5
4D32
330
18
100
AcDbEntity
  8
0
100
AcDbText
 10
9.791624459744687
 20
12.02534278534939
 30
0.0
 40
0.084
  1
I
  7
ROMANS
 11
9.791624459744687
 21
12.06734278534939
 31
0.0
100
AcDbText
 73
     2
  0
TEXT
  5
4D33
330
18
100
AcDbEntity
  8
0
100
AcDbText
 10
9.469267966637772
 20
11.52385770260764
 30
0.0
 40
0.1050000525
  1
6
  7
ROMANS
 72
     4
 11
9.521767992887772
 21
11.57635772885764
 31
0.0
100
AcDbText
  0
TEXT
  5
4D34
330
18
100
AcDbEntity
  8
0
100
AcDbText
 10
9.471767967887773
 20
11.94385749260764
 30
0.0
 40
0.1050000525
  1
5
  7
ROMANS
 72
     4
 11
9.521767992887772
 21
11.99635751885764
 31
0.0
100
AcDbText
  0
TEXT
  5
4D35
330
18
100
AcDbEntity
  8
0
100
AcDbText
 10
9.414267939137772
 20
11.73385738760763
 30
0.0
 40
0.1050000525
  1
10
  7
ROMANS
 72
     4
 11
9.521767992887772
 21
11.78635741385763
 31
0.0
100
AcDbText
  0
TEXT
  5
4D36
330
18
100
AcDbEntity
  8
0
100
AcDbText
 10
9.791624459744687
 20
11.81534278534939
 30
0.0
 40
0.084
  1
I/
  7
ROMANS
 11
9.791624459744687
 21
11.85734278534939
 31
0.0
100
AcDbText
 73
     2
  0
TEXT
  5
4D37
330
18
100
AcDbEntity
  8
0
100
AcDbText
 10
9.471767967887773
 20
12.36385770260765
 30
0.0
 40
0.1050000525
  1
3
  7
ROMANS
 72
     4
 11
9.521767992887772
 21
12.41635772885765
 31
0.0
100
AcDbText
  0
TEXT
  5
4D38
330
18
100
AcDbEntity
  8
0
100
AcDbText
 10
9.469267966637772
 20
12.15385759760764
 30
0.0
 40
0.1050000525
  1
4
  7
ROMANS
 72
     4
 11
9.521767992887772
 21
12.20635762385764
 31
0.0
100
AcDbText
  0
TEXT
  5
4D39
330
18
100
AcDbEntity
  8
0
100
AcDbText
 10
9.471767967887773
 20
12.57385780760765
 30
0.0
 40
0.1050000525
  1
2
  7
ROMANS
 72
     4
 11
9.521767992887772
 21
12.62635783385765
 31
0.0
100
AcDbText
  0
TEXT
  5
4D3A
330
18
100
AcDbEntity
  8
0
100
AcDbText
 10
9.791624459744687
 20
12.44534278534939
 30
0.0
 40
0.084
  1
B
  7
ROMANS
 11
9.791624459744687
 21
12.48734278534939
 31
0.0
100
AcDbText
 73
     2
  0
ARC
  5
4D3B
330
18
100
AcDbEntity
  8
0
100
AcDbCircle
 10
11.28051799288778
 20
11.35453243914476
 30
0.0
 40
0.065625
100
AcDbArc
 50
141.3178125465109
 51
38.68218745348999
  0
TEXT
  5
4D3C
330
18
100
AcDbEntity
  8
0
100
AcDbText
 10
11.89538167809302
 20
10.77178075914475
 30
0.0
 40
0.084
  1
YELLOW
  7
ROMANS
 72
     4
 11
12.12738167809302
 21
10.81378075914475
 31
0.0
100
AcDbText
  0
TEXT
  5
4D3D
330
18
100
AcDbEntity
  8
0
100
AcDbText
 10
11.67138167809302
 20
10.56777907914473
 30
0.0
 40
0.084
  1
WHITE/YELLOW
  7
ROMANS
 72
     4
 11
12.12738167809302
 21
10.60377907914473
 31
0.0
100
AcDbText
  0
TEXT
  5
4D3E
330
18
100
AcDbEntity
  8
0
100
AcDbText
 10
11.68938167809302
 20
10.14777739914473
 30
0.0
 40
0.084
  1
WHITE/BROWN
  7
ROMANS
 72
     4
 11
12.12738167809302
 21
10.18377739914473
 31
0.0
100
AcDbText
  0
TEXT
  5
4D3F
330
18
100
AcDbEntity
  8
0
100
AcDbText
 10
11.74738167809302
 20
10.98778243914476
 30
0.0
 40
0.084
  1
WHITE/BLUE
  7
ROMANS
 72
     4
 11
12.12738167809302
 21
11.02378243914476
 31
0.0
100
AcDbText
  0
LINE
  5
4D40
330
18
100
AcDbEntity
  8
0
100
AcDbLine
 10
11.22928949368216
 20
10.55554638414476
 30
0.0
 11
11.33174649209339
 21
10.68351513414476
 31
0.0
  0
LINE
  5
4D41
330
18
100
AcDbEntity
  8
0
100
AcDbLine
 10
11.33174649209339
 20
10.55554638414476
 30
0.0
 11
11.22928949368217
 21
10.68351513414476
 31
0.0
  0
LINE
  5
4D42
330
18
100
AcDbEntity
  8
0
100
AcDbLine
 10
11.22928949368216
 20
10.13554470414475
 30
0.0
 11
11.33174649209339
 21
10.26351345414473
 31
0.0
  0
LINE
  5
4D43
330
18
100
AcDbEntity
  8
0
100
AcDbLine
 10
11.33174649209339
 20
10.13554470414475
 30
0.0
 11
11.22928949368217
 21
10.26351345414473
 31
0.0
  0
ARC
  5
4D44
330
18
100
AcDbEntity
  8
0
100
AcDbCircle
 10
11.28051799288778
 20
10.09452907914475
 30
0.0
 40
0.065625
100
AcDbArc
 50
141.3178125465109
 51
38.68218745348999
  0
ARC
  5
4D45
330
18
100
AcDbEntity
  8
0
100
AcDbCircle
 10
11.28051799288778
 20
10.51453075914476
 30
0.0
 40
0.065625
100
AcDbArc
 50
141.3178125465109
 51
38.68218745348999
  0
ARC
  5
4D46
330
18
100
AcDbEntity
  8
0
100
AcDbCircle
 10
11.28051799288778
 20
10.30452907914473
 30
0.0
 40
0.065625
100
AcDbArc
 50
321.3178125465101
 51
218.68218745349
  0
ARC
  5
4D47
330
18
100
AcDbEntity
  8
0
100
AcDbCircle
 10
11.28051799288778
 20
10.93453243914477
 30
0.0
 40
0.065625
100
AcDbArc
 50
141.3178125465109
 51
38.68218745348999
  0
ARC
  5
4D48
330
18
100
AcDbEntity
  8
0
100
AcDbCircle
 10
11.28051799288778
 20
10.72453075914476
 30
0.0
 40
0.065625
100
AcDbArc
 50
321.3178125465101
 51
218.68218745349
  0
LINE
  5
4D49
330
18
100
AcDbEntity
  8
0
100
AcDbLine
 10
11.22928949368216
 20
10.97554806414477
 30
0.0
 11
11.33174649209339
 21
11.10351681414477
 31
0.0
  0
LINE
  5
4D4A
330
18
100
AcDbEntity
  8
0
100
AcDbLine
 10
11.33174649209339
 20
10.97554806414477
 30
0.0
 11
11.22928949368217
 21
11.10351681414477
 31
0.0
  0
ARC
  5
4D4B
330
18
100
AcDbEntity
  8
0
100
AcDbCircle
 10
11.28051799288778
 20
11.14453243914477
 30
0.0
 40
0.065625
100
AcDbArc
 50
321.3178125465101
 51
218.68218745349
  0
TEXT
  5
4D4C
330
18
100
AcDbEntity
  8
0
100
AcDbText
 10
11.92738167809302
 20
9.931777399144744
 30
0.0
 40
0.084
  1
VIOLET
  7
ROMANS
 72
     4
 11
12.12738167809302
 21
9.973777399144744
 31
0.0
100
AcDbText
  0
TEXT
  5
4D4D
330
18
100
AcDbEntity
  8
0
100
AcDbText
 10
11.90738167809302
 20
10.35177739914474
 30
0.0
 40
0.084
  1
BROWN
  7
ROMANS
 72
     4
 11
12.12738167809302
 21
10.39377739914474
 31
0.0
100
AcDbText
  0
TEXT
  5
4D4E
330
18
100
AcDbEntity
  8
0
100
AcDbText
 10
11.96538167809302
 20
11.19178243914477
 30
0.0
 40
0.084
  1
BLUE
  7
ROMANS
 72
     4
 11
12.12738167809302
 21
11.23378243914477
 31
0.0
100
AcDbText
  0
TEXT
  5
4D4F
330
18
100
AcDbEntity
  8
0
100
AcDbText
 10
11.70538167809302
 20
11.82778243914477
 30
0.0
 40
0.084
  1
WHITE/GREEN
  7
ROMANS
 72
     4
 11
12.12738167809302
 21
11.86378243914477
 31
0.0
100
AcDbText
  0
TEXT
  5
4D50
330
18
100
AcDbEntity
  8
0
100
AcDbText
 10
11.78538167809302
 20
12.24778243914476
 30
0.0
 40
0.084
  1
WHITE/RED
  7
ROMANS
 72
     4
 11
12.12738167809302
 21
12.28378243914476
 31
0.0
100
AcDbText
  0
TEXT
  5
4D51
330
18
100
AcDbEntity
  8
0
100
AcDbText
 10
11.71138167809302
 20
12.66778243914477
 30
0.0
 40
0.084
  1
WHITE/BLACK
  7
ROMANS
 72
     4
 11
12.12738167809302
 21
12.70378243914477
 31
0.0
100
AcDbText
  0
TEXT
  5
4D52
330
18
100
AcDbEntity
  8
0
100
AcDbText
 10
11.65938167809302
 20
11.40778243914477
 30
0.0
 40
0.084
  1
WHITE/ORANGE
  7
ROMANS
 72
     4
 11
12.12738167809302
 21
11.44378243914477
 31
0.0
100
AcDbText
  0
TEXT
  5
4D53
330
18
100
AcDbEntity
  8
0
100
AcDbText
 10
11.87938167809302
 20
11.61178243914477
 30
0.0
 40
0.084
  1
ORANGE
  7
ROMANS
 72
     4
 11
12.12738167809302
 21
11.65378243914477
 31
0.0
100
AcDbText
  0
LINE
  5
4D54
330
18
100
AcDbEntity
  8
0
100
AcDbLine
 10
11.22928949368216
 20
11.39554806414476
 30
0.0
 11
11.33174649209339
 21
11.52351681414477
 31
0.0
  0
LINE
  5
4D55
330
18
100
AcDbEntity
  8
0
100
AcDbLine
 10
11.33174649209339
 20
11.39554806414476
 30
0.0
 11
11.22928949368217
 21
11.52351681414477
 31
0.0
  0
ARC
  5
4D56
330
18
100
AcDbEntity
  8
0
100
AcDbCircle
 10
11.28051799288778
 20
11.56453243914477
 30
0.0
 40
0.065625
100
AcDbArc
 50
321.3178125465101
 51
218.68218745349
  0
ARC
  5
4D57
330
18
100
AcDbEntity
  8
0
100
AcDbCircle
 10
11.28051799288778
 20
11.98453243914477
 30
0.0
 40
0.065625
100
AcDbArc
 50
321.3178125465101
 51
218.68218745349
  0
ARC
  5
4D58
330
18
100
AcDbEntity
  8
0
100
AcDbCircle
 10
11.28051799288778
 20
11.77453243914477
 30
0.0
 40
0.065625
100
AcDbArc
 50
141.3178125465109
 51
38.68218745348999
  0
LINE
  5
4D59
330
18
100
AcDbEntity
  8
0
100
AcDbLine
 10
11.22928949368216
 20
11.81554806414477
 30
0.0
 11
11.33174649209339
 21
11.94351681414477
 31
0.0
  0
LINE
  5
4D5A
330
18
100
AcDbEntity
  8
0
100
AcDbLine
 10
11.33174649209339
 20
11.81554806414477
 30
0.0
 11
11.22928949368217
 21
11.94351681414477
 31
0.0
  0
ARC
  5
4D5B
330
18
100
AcDbEntity
  8
0
100
AcDbCircle
 10
11.28051799288778
 20
12.40453243914476
 30
0.0
 40
0.065625
100
AcDbArc
 50
321.3178125465103
 51
218.68218745349
  0
LINE
  5
4D5C
330
18
100
AcDbEntity
  8
0
100
AcDbLine
 10
11.33174649209339
 20
12.23554806414477
 30
0.0
 11
11.22928949368217
 21
12.36351681414476
 31
0.0
  0
LINE
  5
4D5D
330
18
100
AcDbEntity
  8
0
100
AcDbLine
 10
11.22928949368216
 20
12.23554806414477
 30
0.0
 11
11.33174649209339
 21
12.36351681414476
 31
0.0
  0
ARC
  5
4D5E
330
18
100
AcDbEntity
  8
0
100
AcDbCircle
 10
11.28051799288778
 20
12.19453243914477
 30
0.0
 40
0.065625
100
AcDbArc
 50
141.3178125465109
 51
38.68218745348999
  0
ARC
  5
4D5F
330
18
100
AcDbEntity
  8
0
100
AcDbCircle
 10
11.28051799288777
 20
12.61453243914477
 30
0.0
 40
0.065625
100
AcDbArc
 50
141.3178125465109
 51
38.68218745348999
  0
LINE
  5
4D60
330
18
100
AcDbEntity
  8
0
100
AcDbLine
 10
11.22928949368216
 20
12.65554806414477
 30
0.0
 11
11.33174649209337
 21
12.78351681414477
 31
0.0
  0
LINE
  5
4D61
330
18
100
AcDbEntity
  8
0
100
AcDbLine
 10
11.33174649209337
 20
12.65554806414477
 30
0.0
 11
11.22928949368216
 21
12.78351681414477
 31
0.0
  0
TEXT
  5
4D62
330
18
100
AcDbEntity
  8
0
100
AcDbText
 10
11.92538167809302
 20
12.03178243914477
 30
0.0
 40
0.084
  1
GREEN
  7
ROMANS
 72
     4
 11
12.12738167809302
 21
12.07378243914477
 31
0.0
100
AcDbText
  0
TEXT
  5
4D63
330
18
100
AcDbEntity
  8
0
100
AcDbText
 10
12.00338167809302
 20
12.45178243914477
 30
0.0
 40
0.084
  1
RED
  7
ROMANS
 72
     4
 11
12.12738167809302
 21
12.49378243914477
 31
0.0
100
AcDbText
  0
TEXT
  5
4D64
330
18
100
AcDbEntity
  8
0
100
AcDbText
 10
14.76926793913778
 20
9.213862427607715
 30
0.0
 40
0.1050000525
  1
16
  7
ROMANS
 72
     1
 11
14.87676799288777
 21
9.266362453857714
 31
0.0
100
AcDbText
 73
     2
  0
LINE
  5
4D65
330
18
100
AcDbEntity
  8
0
 62
     4
100
AcDbLine
 10
14.71926799288777
 20
8.939530864144758
 30
0.0
 11
15.03426799288778
 21
8.939530864144758
 31
0.0
  0
ARC
  5
4D66
330
18
100
AcDbEntity
  8
0
  6
HIDDEN
100
AcDbCircle
 10
13.80051799288777
 20
9.044527399144742
 30
0.0
 40
0.1049999999999997
100
AcDbArc
 50
180.0
 51
0.0
  0
ARC
  5
4D67
330
18
100
AcDbEntity
  8
0
  6
HIDDEN
100
AcDbCircle
 10
13.80051799288777
 20
9.044527399144744
 30
0.0
 40
0.1574999999999996
100
AcDbArc
 50
180.0
 51
0.0
  0
LWPOLYLINE
  5
4D68
330
18
100
AcDbEntity
  8
0
100
AcDbPolyline
 90
        2
 70
     1
 43
0.021
 10
13.89501799288778
 20
9.044527399144744
 42
1.0
 10
13.91601799288777
 20
9.044527399144744
 42
1.0
  0
LWPOLYLINE
  5
4D69
330
18
100
AcDbEntity
  8
0
100
AcDbPolyline
 90
        2
 70
     1
 43
0.021
 10
13.94751799288777
 20
9.044527399144744
 42
1.0
 10
13.96851799288778
 20
9.044527399144744
 42
1.0
  0
LWPOLYLINE
  5
4D6A
330
18
100
AcDbEntity
  8
0
100
AcDbPolyline
 90
        2
 70
     1
 43
0.021
 10
14.72976799288778
 20
9.044527399144744
 42
-1.0
 10
14.70876799288778
 20
9.044527399144744
 42
-1.0
  0
TEXT
  5
4D6B
330
18
100
AcDbEntity
  8
0
100
AcDbText
 10
14.19537445974468
 20
9.295351185349469
 30
0.0
 40
0.084
  1
IOCOM
  7
ROMANS
 11
14.19537445974468
 21
9.337351185349469
 31
0.0
100
AcDbText
 73
     2
  0
TEXT
  5
4D6C
330
18
100
AcDbEntity
  8
0
100
AcDbText
 10
14.82426796663777
 20
12.15385759760764
 30
0.0
 40
0.1050000525
  1
4
  7
ROMANS
 72
     1
 11
14.87676799288777
 21
12.20635762385764
 31
0.0
100
AcDbText
 73
     2
  0
TEXT
  5
4D6D
330
18
100
AcDbEntity
  8
0
100
AcDbText
 10
14.82676796788777
 20
12.36385770260765
 30
0.0
 40
0.1050000525
  1
3
  7
ROMANS
 72
     1
 11
14.87676799288777
 21
12.41635772885765
 31
0.0
100
AcDbText
 73
     2
  0
TEXT
  5
4D6E
330
18
100
AcDbEntity
  8
0
100
AcDbText
 10
14.82676796788777
 20
11.94385749260764
 30
0.0
 40
0.1050000525
  1
5
  7
ROMANS
 72
     1
 11
14.87676799288777
 21
11.99635751885764
 31
0.0
100
AcDbText
 73
     2
  0
TEXT
  5
4D6F
330
18
100
AcDbEntity
  8
0
100
AcDbText
 10
14.82426796663777
 20
11.73385738760763
 30
0.0
 40
0.1050000525
  1
6
  7
ROMANS
 72
     1
 11
14.87676799288777
 21
11.78635741385763
 31
0.0
100
AcDbText
 73
     2
  0
TEXT
  5
4D70
330
18
100
AcDbEntity
  8
0
100
AcDbText
 10
14.82676796788777
 20
12.57385791260764
 30
0.0
 40
0.1050000525
  1
2
  7
ROMANS
 72
     1
 11
14.87676799288777
 21
12.62635793885764
 31
0.0
100
AcDbText
 73
     2
  0
TEXT
  5
4D71
330
18
100
AcDbEntity
  8
0
100
AcDbText
 10
14.77676794288777
 20
11.52385770260764
 30
0.0
 40
0.1050000525
  1
26
  7
ROMANS
 72
     1
 11
14.87676799288777
 21
11.57635772885764
 31
0.0
100
AcDbText
 73
     2
  0
TEXT
  5
4D72
330
18
100
AcDbEntity
  8
0
100
AcDbText
 10
14.76926793913778
 20
10.89385828010766
 30
0.0
 40
0.1050000525
  1
15
  7
ROMANS
 72
     1
 11
14.87676799288777
 21
10.94635830635766
 31
0.0
100
AcDbText
 73
     2
  0
TEXT
  5
4D73
330
18
100
AcDbEntity
  8
0
100
AcDbText
 10
14.76926793913778
 20
10.68385738760764
 30
0.0
 40
0.1050000525
  1
17
  7
ROMANS
 72
     1
 11
14.87676799288777
 21
10.73635741385764
 31
0.0
100
AcDbText
 73
     2
  0
TEXT
  5
4D74
330
18
100
AcDbEntity
  8
0
100
AcDbText
 10
14.76676793788777
 20
11.10385749260763
 30
0.0
 40
0.1050000525
  1
14
  7
ROMANS
 72
     1
 11
14.87676799288777
 21
11.15635751885763
 31
0.0
100
AcDbText
 73
     2
  0
TEXT
  5
4D75
330
18
100
AcDbEntity
  8
0
100
AcDbText
 10
14.76926793913778
 20
10.47385738760763
 30
0.0
 40
0.1050000525
  1
18
  7
ROMANS
 72
     1
 11
14.87676799288777
 21
10.52635741385763
 31
0.0
100
AcDbText
 73
     2
  0
TEXT
  5
4D76
330
18
100
AcDbEntity
  8
0
100
AcDbText
 10
14.19537445974469
 20
10.55534614534939
 30
0.0
 40
0.084
  1
IN2
  7
ROMANS
 11
14.19537445974469
 21
10.59734614534939
 31
0.0
100
AcDbText
 73
     2
  0
TEXT
  5
4D77
330
18
100
AcDbEntity
  8
0
100
AcDbText
 10
14.19537445974469
 20
11.18534446534941
 30
0.0
 40
0.084
  1
CMD+
  7
ROMANS
 11
14.19537445974469
 21
11.22734446534941
 31
0.0
100
AcDbText
 73
     2
  0
TEXT
  5
4D78
330
18
100
AcDbEntity
  8
0
100
AcDbText
 10
14.19537445974469
 20
10.97534703784941
 30
0.0
 40
0.084
  1
CMD-
  7
ROMANS
 11
14.19537445974469
 21
11.01734703784941
 31
0.0
100
AcDbText
 73
     2
  0
TEXT
  5
4D79
330
18
100
AcDbEntity
  8
0
100
AcDbText
 10
14.19537445974469
 20
10.7653461453494
 30
0.0
 40
0.084
  1
IN1
  7
ROMANS
 11
14.19537445974469
 21
10.8073461453494
 31
0.0
100
AcDbText
 73
     2
  0
TEXT
  5
4D7A
330
18
100
AcDbEntity
  8
0
100
AcDbText
 10
14.19537445974469
 20
12.02534278534939
 30
0.0
 40
0.084
  1
I
  7
ROMANS
 11
14.19537445974469
 21
12.06734278534939
 31
0.0
100
AcDbText
 73
     2
  0
TEXT
  5
4D7B
330
18
100
AcDbEntity
  8
0
100
AcDbText
 10
14.19537445974469
 20
11.81534278534939
 30
0.0
 40
0.084
  1
I/
  7
ROMANS
 11
14.19537445974469
 21
11.85734278534939
 31
0.0
100
AcDbText
 73
     2
  0
TEXT
  5
4D7C
330
18
100
AcDbEntity
  8
0
100
AcDbText
 10
14.19537445974469
 20
11.60534278534938
 30
0.0
 40
0.084
  1
OUT4
  7
ROMANS
 11
14.19537445974469
 21
11.64734278534938
 31
0.0
100
AcDbText
 73
     2
  0
TEXT
  5
4D7D
330
18
100
AcDbEntity
  8
0
100
AcDbText
 10
14.19537445974469
 20
12.44534278534939
 30
0.0
 40
0.084
  1
B
  7
ROMANS
 11
14.19537445974469
 21
12.48734278534939
 31
0.0
100
AcDbText
 73
     2
  0
TEXT
  5
4D7E
330
18
100
AcDbEntity
  8
0
100
AcDbText
 10
14.19537445974469
 20
12.23534278534939
 30
0.0
 40
0.084
  1
B/
  7
ROMANS
 11
14.19537445974469
 21
12.27734278534939
 31
0.0
100
AcDbText
 73
     2
  0
TEXT
  5
4D7F
330
18
100
AcDbEntity
  8
0
100
AcDbText
 10
14.19537445974469
 20
12.65534278534937
 30
0.0
 40
0.084
  1
A/
  7
ROMANS
 11
14.19537445974469
 21
12.69734278534937
 31
0.0
100
AcDbText
 73
     2
  0
TEXT
  5
4D80
330
18
100
AcDbEntity
  8
0
100
AcDbText
 10
12.76083504724023
 20
12.86534278534938
 30
0.0
 40
0.084
  1
28AWG
  7
ROMANS
 72
     4
 11
12.96683504724023
 21
12.90734278534938
 31
0.0
100
AcDbText
  0
LINE
  5
4D81
330
18
100
AcDbEntity
  8
0
100
AcDbLine
 10
9.679267992887764
 20
12.82453243914476
 30
0.0
 11
14.71926799288777
 21
12.82453243914477
 31
0.0
  0
ARC
  5
4D82
330
18
100
AcDbEntity
  8
0
  6
HIDDEN
100
AcDbCircle
 10
10.86051799288777
 20
12.82453243914477
 30
0.0
 40
0.1049999999999997
100
AcDbArc
 50
0.0
 51
180.0
  0
ARC
  5
4D83
330
18
100
AcDbEntity
  8
0
  6
HIDDEN
100
AcDbCircle
 10
10.86051799288777
 20
12.82453243914477
 30
0.0
 40
0.1574999999999996
100
AcDbArc
 50
0.0
 51
180.0
  0
LINE
  5
4D84
330
18
100
AcDbEntity
  8
0
 62
     4
100
AcDbLine
 10
9.364267992887771
 20
12.92953243914477
 30
0.0
 11
9.679267992887764
 21
12.92953243914477
 31
0.0
  0
MTEXT
  5
4D85
330
18
100
AcDbEntity
  8
0
100
AcDbMText
 10
9.543488310357007
 20
13.42967214868935
 30
0.0
 40
0.13125
 41
0.434175
 71
     2
 72
     5
  1
MMC\PAn
 73
     1
 44
1.0
  0
TEXT
  5
4D86
330
18
100
AcDbEntity
  8
0
100
AcDbText
 10
9.791624459744687
 20
12.86534278534939
 30
0.0
 40
0.084
  1
A
  7
ROMANS
 11
9.791624459744687
 21
12.90734278534939
 31
0.0
100
AcDbText
 73
     2
  0
TEXT
  5
4D87
330
18
100
AcDbEntity
  8
0
100
AcDbText
 10
11.92938167809302
 20
12.87178243914476
 30
0.0
 40
0.084
  1
BLACK
  7
ROMANS
 72
     4
 11
12.12738167809302
 21
12.91378243914476
 31
0.0
100
AcDbText
  0
LINE
  5
4D88
330
18
100
AcDbEntity
  8
0
 62
     4
100
AcDbLine
 10
14.71926799288777
 20
12.92953243914477
 30
0.0
 11
15.03426799288778
 21
12.92953243914477
 31
0.0
  0
ARC
  5
4D8A
330
18
100
AcDbEntity
  8
0
  6
HIDDEN
100
AcDbCircle
 10
13.80051799288777
 20
12.82453243914477
 30
0.0
 40
0.1049999999999997
100
AcDbArc
 50
0.0
 51
180.0
  0
ARC
  5
4D8B
330
18
100
AcDbEntity
  8
0
  6
HIDDEN
100
AcDbCircle
 10
13.80051799288777
 20
12.82453243914477
 30
0.0
 40
0.1574999999999996
100
AcDbArc
 50
0.0
 51
180.0
  0
TEXT
  5
4D8C
330
18
100
AcDbEntity
  8
0
100
AcDbText
 10
14.19537445974469
 20
12.86534278534939
 30
0.0
 40
0.084
  1
A
  7
ROMANS
 11
14.19537445974469
 21
12.90734278534939
 31
0.0
100
AcDbText
 73
     2
  0
MTEXT
  5
4ECF
330
18
100
AcDbEntity
  8
0
100
AcDbMText
 10
14.68298505264821
 20
13.4613727030803
 30
0.0
 40
0.125
 41
1.0602
 71
     1
 72
     5
  1
MMC-SD\PI/O
 73
     1
 44
1.0
  0
TEXT
  5
4F12
330
18
100
AcDbEntity
  8
0
100
AcDbText
 10
16.23926799288779
 20
8.627030864144758
 30
0.0
 40
0.1
  1
1
100
AcDbText
  0
TEXT
  5
4F13
330
18
100
AcDbEntity
  8
0
100
AcDbText
 10
16.58301799288778
 20
8.627030864144758
 30
0.0
 40
0.1
  1
08.04.03
100
AcDbText
  0
TEXT
  5
4F14
330
18
100
AcDbEntity
  8
0
100
AcDbText
 10
17.39551799288778
 20
8.627030864144758
 30
0.0
 40
0.1
  1
26 PIN TO STR
100
AcDbText
  0
TEXT
  5
4F46
330
18
100
AcDbEntity
  8
0
100
AcDbText
 10
16.23926799288779
 20
8.877030864144758
 30
0.0
 40
0.1
  1
2
100
AcDbText
  0
TEXT
  5
4F47
330
18
100
AcDbEntity
  8
0
100
AcDbText
 10
16.58301799288778
 20
8.877030864144758
 30
0.0
 40
0.1
  1
20.05.03
100
AcDbText
  0
TEXT
  5
4F48
330
18
100
AcDbEntity
  8
0
100
AcDbText
 10
17.39551799288778
 20
8.877030864144758
 30
0.0
 40
0.1
  1
Color Code Change
100
AcDbText
  0
LWPOLYLINE
  5
4F4E
330
18
100
AcDbEntity
  8
0
100
AcDbPolyline
 90
        2
 70
     1
 43
0.021
 10
10.46939299288778
 20
9.46453243914477
 42
1.0
 10
10.49039299288778
 20
9.46453243914477
 42
1.0
  0
TEXT
  5
4F4F
330
18
100
AcDbEntity
  8
0
100
AcDbText
 10
14.19537445974468
 20
9.505346145349417
 30
0.0
 40
0.084
  1
IO24V
  7
ROMANS
 11
14.19537445974468
 21
9.547346145349417
 31
0.0
100
AcDbText
 73
     2
  0
TEXT
  5
4F50
330
18
100
AcDbEntity
  8
0
100
AcDbText
 10
14.76926793913777
 20
9.423857387607663
 30
0.0
 40
0.1050000525
  1
10
  7
ROMANS
 72
     1
 11
14.87676799288777
 21
9.476357413857662
 31
0.0
100
AcDbText
 73
     2
  0
LWPOLYLINE
  5
5063
330
18
100
AcDbEntity
  8
500
  6
L10
 62
     2
100
AcDbPolyline
 90
        2
 70
     0
 43
0.0
 10
20.35964551256513
 20
15.59884787401962
 10
20.62001344043716
 20
15.85921580189166
  0
LINE
  5
5064
330
18
100
AcDbEntity
  8
0
 62
     2
100
AcDbLine
 10
19.61381715182125
 20
16.29408085061184
 30
0.0
 11
20.63121256122064
 21
16.29408085061184
 31
0.0
  0
LEADER
  5
5065
330
18
100
AcDbEntity
  8
0
100
AcDbLeader
  3
STANDARD
 73
     0
 40
0.3333333333333333
 41
1.738095238095237
 76
     3
 10
20.76035384008557
 20
15.07881284009694
 30
0.0
 10
19.88535384008557
 20
14.36006284009694
 30
0.0
 10
19.60410384008557
 20
14.36006284009694
 30
0.0
340
5066
213
0.0
223
-0.0625
233
0.0
1001
ACAD
1000
DSTYLE
1002
{
1070
   147
1040
0.09
1070
    77
1070
     0
1070
    44
1040
0.125
1070
   140
1040
0.125
1002
}
  0
MTEXT
  5
5066
102
{ACAD_REACTORS
330
5065
102
}
330
18
100
AcDbEntity
  8
0
100
AcDbMText
 10
19.51410384008557
 20
14.42256284009694
 30
0.0
 40
0.125
 41
0.0
 71
     3
 72
     1
  1
LABEL CONNECTOR\PAS SHOWN 
 73
     1
 44
1.0
  0
LEADER
  5
5067
330
18
100
AcDbEntity
  8
0
100
AcDbLeader
  3
STANDARD
 73
     0
 40
0.125
 41
2.547619047619047
 76
     3
 10
20.3122969581369
 20
16.29965593200392
 30
0.0
 10
21.2497969581369
 20
17.29965593200392
 30
0.0
 10
21.53548263809825
 20
17.29779374715688
 30
0.0
340
5068
213
0.0
223
-0.0625
233
0.0
1001
ACAD
1000
DSTYLE
1002
{
1070
   147
1040
0.09
1070
    77
1070
     0
1070
    44
1040
0.125
1070
   140
1040
0.125
1002
}
  0
MTEXT
  5
5068
102
{ACAD_REACTORS
330
5067
102
}
330
18
100
AcDbEntity
  8
0
100
AcDbMText
 10
21.62548263809826
 20
17.36029374715688
 30
0.0
 40
0.125
 41
0.0
 71
     1
 72
     1
  1
\A1;45%%D PVC BLACK OVERMOLD
 73
     1
 44
1.0
  0
LWPOLYLINE
  5
5069
330
18
100
AcDbEntity
  8
500
  6
L10
 62
     2
100
AcDbPolyline
 90
        2
 70
     0
 43
0.0
 10
20.66509144043716
 20
16.14117480189166
 42
0.4142140000000001
 10
20.57670344043716
 20
16.14117480189166
  0
LWPOLYLINE
  5
506A
330
18
100
AcDbEntity
  8
500
  6
L10
 62
     2
100
AcDbPolyline
 90
        2
 70
     0
 43
0.0
 10
20.24001594146317
 20
15.41416448826965
 10
20.81605844043716
 20
15.99020780189166
  0
LWPOLYLINE
  5
506B
330
18
100
AcDbEntity
  8
500
  6
L10
 62
     2
100
AcDbPolyline
 90
        2
 70
     0
 43
0.0
 10
20.17496203413916
 20
15.47921839559366
 10
20.75100544043716
 20
16.05526180189166
  0
LWPOLYLINE
  5
506C
330
18
100
AcDbEntity
  8
500
  6
L10
 62
     2
100
AcDbPolyline
 90
        2
 70
     0
 43
0.0
 10
20.07894913619688
 20
15.57836749765137
 10
20.65185644043717
 20
16.15127480189166
  0
LWPOLYLINE
  5
506D
330
18
100
AcDbEntity
  8
500
  6
L10
 62
     2
100
AcDbPolyline
 90
        2
 70
     0
 43
0.0
 10
20.14243503413916
 20
15.51174539559366
 10
20.71847844043716
 20
16.08778880189166
  0
LWPOLYLINE
  5
506E
330
18
100
AcDbEntity
  8
500
  6
L10
 62
     2
100
AcDbPolyline
 90
        2
 70
     0
 43
0.0
 10
20.10990803413916
 20
15.54427239559366
 10
20.68595144043716
 20
16.12031580189166
  0
LWPOLYLINE
  5
506F
330
18
100
AcDbEntity
  8
500
  6
L10
 62
     2
100
AcDbPolyline
 90
        2
 70
     0
 43
0.0
 10
20.41431714005452
 20
15.32825128967829
 10
20.90197244043716
 20
15.81590580189166
  0
LWPOLYLINE
  5
5070
330
18
100
AcDbEntity
  8
500
  6
L10
 62
     2
100
AcDbPolyline
 90
        2
 70
     0
 43
0.0
 10
20.3391650137879
 20
15.31815156142019
 10
20.91207144043716
 20
15.89105880189166
  0
LWPOLYLINE
  5
5071
330
18
100
AcDbEntity
  8
500
  6
L10
 62
     2
100
AcDbPolyline
 90
        2
 70
     0
 43
0.0
 10
20.30506953413916
 20
15.34911089559366
 10
20.88111244043716
 20
15.92515380189166
  0
LWPOLYLINE
  5
5072
330
18
100
AcDbEntity
  8
500
  6
L10
 62
     2
100
AcDbPolyline
 90
        2
 70
     0
 43
0.0
 10
20.27254253413916
 20
15.38163789559366
 10
20.84858544043716
 20
15.95768080189166
  0
LWPOLYLINE
  5
5073
330
18
100
AcDbEntity
  8
500
  6
L10
 62
     2
100
AcDbPolyline
 90
        2
 70
     0
 43
0.0
 10
20.78979114005452
 20
14.86438928967829
 10
20.52462614005452
 20
15.12955428967829
  0
LWPOLYLINE
  5
5074
330
18
100
AcDbEntity
  8
500
  6
L10
 62
     2
100
AcDbPolyline
 90
        2
 70
     0
 43
0.0
 10
20.65227900216374
 20
14.68038005356721
 10
20.31180800216374
 20
15.02085105356721
  0
LWPOLYLINE
  5
5075
330
18
100
AcDbEntity
  8
500
  6
L10
 62
     2
100
AcDbPolyline
 90
        2
 70
     0
 43
0.0
 10
20.69647400216374
 20
14.72457405356721
 10
20.49813000216374
 20
14.52623005356721
  0
LWPOLYLINE
  5
5076
330
18
100
AcDbEntity
  8
500
  6
L10
 62
     2
100
AcDbPolyline
 90
        2
 70
     0
 43
0.0
 10
20.60843900216374
 20
14.41592105356721
 10
20.13538500216374
 20
14.88897505356721
  0
LWPOLYLINE
  5
5077
330
18
100
AcDbEntity
  8
500
  6
L10
 62
     2
100
AcDbPolyline
 90
        2
 70
     0
 43
0.0
 10
21.01228144043716
 20
15.70559680189166
 10
20.52462606730869
 20
15.21794221693258
  0
LWPOLYLINE
  5
5078
330
18
100
AcDbEntity
  8
500
  6
L10
 62
     2
100
AcDbPolyline
 90
        2
 70
     0
 43
0.0
 10
20.52462614005452
 20
15.21794228967829
 42
0.4142149999999999
 10
20.52462614005452
 20
15.12955428967829
  0
LWPOLYLINE
  5
5079
330
18
100
AcDbEntity
  8
500
  6
L10
 62
     2
100
AcDbPolyline
 90
        2
 70
     0
 43
0.0
 10
20.18134600216374
 20
14.97877805356721
 10
19.82779300216374
 20
15.33233105356721
  0
LWPOLYLINE
  5
507A
330
18
100
AcDbEntity
  8
500
  6
L10
 62
     2
100
AcDbPolyline
 90
        2
 70
     0
 43
0.0
 10
20.19548800216374
 20
14.99292005356721
 10
19.84193500216374
 20
15.34647305356721
  0
LWPOLYLINE
  5
507B
330
18
100
AcDbEntity
  8
500
  6
L10
 62
     2
100
AcDbPolyline
 90
        2
 70
     0
 43
0.0
 10
20.13184900216374
 20
14.92928005356721
 10
19.77890200216374
 20
15.28222705356721
  0
LWPOLYLINE
  5
507C
330
18
100
AcDbEntity
  8
500
  6
L10
 62
     2
100
AcDbPolyline
 90
        2
 70
     0
 43
0.0
 10
20.13892000216374
 20
14.93635105356721
 10
19.78536700216374
 20
15.28990505356721
  0
LWPOLYLINE
  5
507D
330
18
100
AcDbEntity
  8
500
  6
L10
 62
     2
100
AcDbPolyline
 90
        2
 70
     0
 43
0.0
 10
20.14599100216374
 20
14.94342205356721
 10
19.79243800216374
 20
15.29697605356721
  0
LWPOLYLINE
  5
507E
330
18
100
AcDbEntity
  8
500
  6
L10
 62
     2
100
AcDbPolyline
 90
        2
 70
     0
 43
0.0
 10
20.15659800216373
 20
14.95402905356721
 10
19.80304500216374
 20
15.30758305356721
  0
LWPOLYLINE
  5
507F
330
18
100
AcDbEntity
  8
500
  6
L10
 62
     2
100
AcDbPolyline
 90
        2
 70
     0
 43
0.0
 10
20.12477800216374
 20
14.92220905356721
 10
19.78183200216374
 20
15.26515605356721
  0
LWPOLYLINE
  5
5080
330
18
100
AcDbEntity
  8
500
  6
L10
 62
     2
100
AcDbPolyline
 90
        2
 70
     0
 43
0.0
 10
20.16720400216374
 20
14.96463605356721
 10
19.81365100216374
 20
15.31818905356721
  0
LWPOLYLINE
  5
5081
330
18
100
AcDbEntity
  8
500
  6
L10
 62
     2
100
AcDbPolyline
 90
        2
 70
     0
 43
0.0
 10
20.23084400216374
 20
15.02827605356721
 10
19.87729100216374
 20
15.38182905356721
  0
LWPOLYLINE
  5
5082
330
18
100
AcDbEntity
  8
500
  6
L10
 62
     2
100
AcDbPolyline
 90
        2
 70
     0
 43
0.0
 10
20.21316600216374
 20
15.01059805356721
 10
19.85961300216374
 20
15.36415105356721
  0
LWPOLYLINE
  5
5083
330
18
100
AcDbEntity
  8
500
  6
L10
 62
     2
100
AcDbPolyline
 90
        2
 70
     0
 43
0.0
 10
20.23084400216374
 20
15.02827605356721
 10
19.87729100216374
 20
15.38182905356721
  0
LWPOLYLINE
  5
5084
330
18
100
AcDbEntity
  8
500
  6
L10
 62
     2
100
AcDbPolyline
 90
        2
 70
     0
 43
0.0
 10
20.24852100216374
 20
15.04595305356721
 10
19.89496800216374
 20
15.39950705356721
  0
LWPOLYLINE
  5
5085
330
18
100
AcDbEntity
  8
500
  6
L10
 62
     2
100
AcDbPolyline
 90
        2
 70
     0
 43
0.0
 10
20.26619900216374
 20
15.06363105356721
 10
19.91264600216374
 20
15.41718405356721
  0
LWPOLYLINE
  5
5086
330
18
100
AcDbEntity
  8
500
  6
L10
 62
     2
100
AcDbPolyline
 90
        2
 70
     0
 43
0.0
 10
20.33691000216374
 20
15.13434105356721
 10
19.99396300216374
 20
15.47728805356721
  0
LWPOLYLINE
  5
5087
330
18
100
AcDbEntity
  8
500
  6
L10
 62
     2
100
AcDbPolyline
 90
        2
 70
     0
 43
0.0
 10
20.32276800216374
 20
15.12019905356721
 10
19.96921500216374
 20
15.47375305356721
  0
LWPOLYLINE
  5
5088
330
18
100
AcDbEntity
  8
500
  6
L10
 62
     2
100
AcDbPolyline
 90
        2
 70
     0
 43
0.0
 10
20.32983900216374
 20
15.12727005356721
 10
19.97689200216374
 20
15.48021705356721
  0
LWPOLYLINE
  5
5089
330
18
100
AcDbEntity
  8
500
  6
L10
 62
     2
100
AcDbPolyline
 90
        2
 70
     0
 43
0.0
 10
20.31569700216374
 20
15.11312805356721
 10
19.96214400216374
 20
15.46668205356721
  0
LWPOLYLINE
  5
508A
330
18
100
AcDbEntity
  8
500
  6
L10
 62
     2
100
AcDbPolyline
 90
        2
 70
     0
 43
0.0
 10
20.36893200216374
 20
15.16636405356721
 10
19.98541271231122
 20
15.54988407376572
  0
LWPOLYLINE
  5
508B
330
18
100
AcDbEntity
  8
500
  6
L10
 62
     2
100
AcDbPolyline
 90
        2
 70
     0
 43
0.0
 10
20.30509000216374
 20
15.10252205356721
 10
19.95153700216374
 20
15.45607505356721
  0
LWPOLYLINE
  5
508C
330
18
100
AcDbEntity
  8
500
  6
L10
 62
     2
100
AcDbPolyline
 90
        2
 70
     0
 43
0.0
 10
20.28034100216374
 20
15.07777305356721
 10
19.92678800216374
 20
15.43132705356721
  0
LWPOLYLINE
  5
508D
330
18
100
AcDbEntity
  8
500
  6
L10
 62
     2
100
AcDbPolyline
 90
        2
 70
     0
 43
0.0
 10
20.29448400216374
 20
15.09191505356721
 10
19.94093000216374
 20
15.44546905356721
  0
LWPOLYLINE
  5
508E
330
18
100
AcDbEntity
  8
500
  6
L10
 62
     2
100
AcDbPolyline
 90
        2
 70
     0
 43
0.0
 10
20.13538500216374
 20
14.93281605356721
 10
20.36902500216374
 20
15.16645605356721
  0
LWPOLYLINE
  5
508F
330
18
100
AcDbEntity
  8
500
  6
L10
 62
     2
100
AcDbPolyline
 90
        2
 70
     0
 43
0.0
 10
20.31180800216374
 20
15.10923905356721
 42
0.4142140000000001
 10
20.31180800216374
 20
15.02085105356721
  0
LWPOLYLINE
  5
5090
330
18
100
AcDbEntity
  8
500
  6
L10
 62
     2
100
AcDbPolyline
 90
        2
 70
     0
 43
0.0
 10
20.13538500216374
 20
14.93281605356721
 42
0.4142170000000001
 10
20.13538500216374
 20
14.88897505356721
  0
LWPOLYLINE
  5
5091
330
18
100
AcDbEntity
  8
500
  6
L10
 62
     2
100
AcDbPolyline
 90
        2
 70
     0
 43
0.0
 10
19.61381715182125
 20
16.15351785061184
 10
19.53581715182125
 20
16.15351785061184
  0
LWPOLYLINE
  5
5092
330
18
100
AcDbEntity
  8
500
  6
L10
 62
     2
100
AcDbPolyline
 90
        2
 70
     0
 43
0.0
 10
19.53581715182125
 20
16.06151785061184
 42
1.0
 10
19.61381715182125
 20
16.06151785061184
  0
LWPOLYLINE
  5
5093
330
18
100
AcDbEntity
  8
500
  6
L10
 62
     2
100
AcDbPolyline
 90
        2
 70
     0
 43
0.0
 10
19.61381715182125
 20
15.70352185061184
 10
19.53581715182125
 20
15.70352185061184
  0
LWPOLYLINE
  5
5094
330
18
100
AcDbEntity
  8
500
  6
L10
 62
     2
100
AcDbPolyline
 90
        2
 70
     0
 43
0.0
 10
19.61381715182125
 20
15.79552185061184
 42
1.0
 10
19.53581715182125
 20
15.79552185061184
  0
LWPOLYLINE
  5
5095
330
18
100
AcDbEntity
  8
500
  6
L10
 62
     2
100
AcDbPolyline
 90
        2
 70
     0
 43
0.0
 10
19.20781815182125
 20
15.59046685061184
 10
19.20781815182125
 20
16.26657385061184
  0
LWPOLYLINE
  5
5096
330
18
100
AcDbEntity
  8
500
  6
L10
 62
     2
100
AcDbPolyline
 90
        2
 70
     0
 43
0.0
 10
19.53581715182125
 20
15.54932312974389
 10
19.53581715182125
 20
15.79552185061184
  0
LWPOLYLINE
  5
5097
330
18
100
AcDbEntity
  8
500
  6
L10
 62
     2
100
AcDbPolyline
 90
        2
 70
     0
 43
0.0
 10
19.44181815182125
 20
15.54920585061184
 10
19.44181815182125
 20
15.81152285061184
  0
LWPOLYLINE
  5
5098
330
18
100
AcDbEntity
  8
500
  6
L10
 62
     2
100
AcDbPolyline
 90
        2
 70
     0
 43
0.0
 10
19.36381715182125
 20
15.56295885061184
 10
19.36381715182125
 20
15.81152285061184
  0
LWPOLYLINE
  5
5099
330
18
100
AcDbEntity
  8
500
  6
L10
 62
     2
100
AcDbPolyline
 90
        2
 70
     0
 43
0.0
 10
19.36381715182125
 20
15.56295885061184
 10
19.20781815182125
 20
15.59046685061184
  0
LINE
  5
509A
330
18
100
AcDbEntity
  8
0
100
AcDbLine
 10
19.44181815182125
 20
15.54920585061184
 30
0.0
 11
19.53581715182125
 21
15.54932312974389
 31
0.0
  0
LWPOLYLINE
  5
509B
330
18
100
AcDbEntity
  8
500
  6
L10
 62
     2
100
AcDbPolyline
 90
        2
 70
     0
 43
0.0
 10
19.44181815182125
 20
15.70352185061184
 10
19.36381715182125
 20
15.70352185061184
  0
LWPOLYLINE
  5
509C
330
18
100
AcDbEntity
  8
500
  6
L10
 62
     2
100
AcDbPolyline
 90
        2
 70
     0
 43
0.0
 10
19.44181815182125
 20
15.81152285061184
 42
1.0
 10
19.36381715182125
 20
15.81152285061184
  0
LWPOLYLINE
  5
509D
330
18
100
AcDbEntity
  8
500
  6
L10
 62
     2
100
AcDbPolyline
 90
        2
 70
     0
 43
0.0
 10
19.36381715182125
 20
16.29408085061184
 10
19.20781815182125
 20
16.26657385061184
  0
LINE
  5
509E
330
18
100
AcDbEntity
  8
0
100
AcDbLine
 10
19.44181815182125
 20
16.29408085061184
 30
0.0
 11
19.53581715182125
 21
16.29408085061184
 31
0.0
  0
LWPOLYLINE
  5
509F
330
18
100
AcDbEntity
  8
500
  6
L10
 62
     2
100
AcDbPolyline
 90
        2
 70
     0
 43
0.0
 10
19.44181815182125
 20
16.15351785061184
 10
19.36381715182125
 20
16.15351785061184
  0
LWPOLYLINE
  5
50A0
330
18
100
AcDbEntity
  8
500
  6
L10
 62
     2
100
AcDbPolyline
 90
        2
 70
     0
 43
0.0
 10
19.36381715182125
 20
16.04551785061184
 42
1.0
 10
19.44181815182125
 20
16.04551785061184
  0
LWPOLYLINE
  5
50A1
330
18
100
AcDbEntity
  8
500
  6
L10
 62
     2
100
AcDbPolyline
 90
        2
 70
     0
 43
0.0
 10
19.44181815182125
 20
16.29408085061184
 10
19.44181815182125
 20
16.04551785061184
  0
LWPOLYLINE
  5
50A2
330
18
100
AcDbEntity
  8
500
  6
L10
 62
     2
100
AcDbPolyline
 90
        2
 70
     0
 43
0.0
 10
19.53581715182125
 20
16.29408085061184
 10
19.53581715182125
 20
16.06151785061184
  0
LWPOLYLINE
  5
50A3
330
18
100
AcDbEntity
  8
500
  6
L10
 62
     2
100
AcDbPolyline
 90
        2
 70
     0
 43
0.0
 10
19.36381715182125
 20
16.29408085061184
 10
19.36381715182125
 20
16.04551785061184
  0
LWPOLYLINE
  5
50A4
330
18
100
AcDbEntity
  8
500
  6
L10
 62
     2
100
AcDbPolyline
 90
        2
 70
     0
 43
0.0
 10
19.77181715182124
 20
16.27077485061184
 10
19.77181715182124
 20
15.58626485061184
  0
LWPOLYLINE
  5
50A5
330
18
100
AcDbEntity
  8
500
  6
L10
 62
     2
100
AcDbPolyline
 90
        2
 70
     0
 43
0.0
 10
20.08904853413916
 20
15.65351989559366
 10
20.57670344043716
 20
16.14117480189166
  0
LWPOLYLINE
  5
50A6
330
18
100
AcDbEntity
  8
500
  6
L10
 62
     2
100
AcDbPolyline
 90
        2
 70
     0
 43
0.0
 10
20.08904914005453
 20
15.65352028967829
 42
0.4142140000000001
 10
20.08904914005453
 20
15.56513128967829
  0
LWPOLYLINE
  5
50A7
330
18
100
AcDbEntity
  8
500
  6
L10
 62
     2
100
AcDbPolyline
 90
        2
 70
     0
 43
0.0
 10
19.61381715182125
 20
15.54942044750578
 10
19.61381715182125
 20
15.79552185061184
  0
LINE
  5
50A8
330
18
100
AcDbEntity
  8
0
 62
     2
100
AcDbLine
 10
19.61381715182125
 20
15.54942044750578
 30
0.0
 11
19.98541271231122
 21
15.54988407376573
 31
0.0
  0
LWPOLYLINE
  5
50A9
330
18
100
AcDbEntity
  8
500
  6
L10
 62
     2
100
AcDbPolyline
 90
        2
 70
     0
 43
0.0
 10
19.97275000216374
 20
15.47728805356721
 10
19.78183200216374
 20
15.28636905356721
  0
LWPOLYLINE
  5
50AA
330
18
100
AcDbEntity
  8
500
  6
L10
 62
     2
100
AcDbPolyline
 90
        2
 70
     0
 43
0.0
 10
19.78183200216374
 20
15.28636905356721
 42
0.41422
 10
19.78183200216374
 20
15.26515605356721
  0
LWPOLYLINE
  5
50AB
330
18
100
AcDbEntity
  8
500
  6
L10
 62
     2
100
AcDbPolyline
 90
        2
 70
     0
 43
0.0
 10
19.99396300216374
 20
15.47728805356721
 42
0.4142140000000001
 10
19.97275000216374
 20
15.47728805356721
  0
CIRCLE
  5
50AC
330
18
100
AcDbEntity
  8
500
  6
L10
 62
     2
100
AcDbCircle
 10
20.33814027987016
 20
15.57617437700801
 30
0.0
 40
0.03125
  0
LWPOLYLINE
  5
50AD
330
18
100
AcDbEntity
  8
500
  6
L10
 62
     2
100
AcDbPolyline
 90
        2
 70
     0
 43
0.0
 10
20.32592914005453
 20
15.32825128967829
 42
0.414212
 10
20.41431714005452
 20
15.32825128967829
  0
LWPOLYLINE
  5
50AE
330
18
100
AcDbEntity
  8
500
  6
L10
 62
     2
100
AcDbPolyline
 90
        2
 70
     0
 43
0.0
 10
20.20748903413916
 20
15.44669139559366
 10
20.31546678285855
 20
15.55466914431305
  0
LWPOLYLINE
  5
50AF
330
18
100
AcDbEntity
  8
500
  6
L10
 62
     2
100
AcDbPolyline
 90
        2
 70
     0
 43
0.0
 10
20.32592914005453
 20
15.32825128967829
 10
20.08904914005453
 20
15.56513128967829
  0
LWPOLYLINE
  5
50B0
330
18
100
AcDbEntity
  8
500
  6
L10
 62
     2
100
AcDbPolyline
 90
        2
 70
     0
 43
0.0
 10
19.61381715182125
 20
16.29408085061184
 10
19.61381715182125
 20
16.06151785061184
  0
LINE
  5
50B1
330
18
100
AcDbEntity
  8
0
 62
     7
100
AcDbLine
 10
21.50975193057288
 20
15.19210176912059
 30
0.0
 11
21.55500676456882
 21
15.23735660311653
 31
0.0
  0
LINE
  5
50B2
330
18
100
AcDbEntity
  8
0
100
AcDbLine
 10
21.61016109350136
 20
15.18220227418397
 30
0.0
 11
21.55500676456882
 21
15.23735660311653
 31
0.0
  0
TEXT
  5
50B3
330
18
100
AcDbEntity
  8
0
100
AcDbText
 10
21.25737081257068
 20
15.5277417257374
 30
0.0
 40
0.125
  1
MMC-SD
 50
225.0
 72
     1
 11
21.0132506143039
 21
15.1952331798223
 31
0.0
100
AcDbText
 73
     2
  0
LWPOLYLINE
  5
50B4
330
18
100
AcDbEntity
  8
500
  6
L10
 62
     2
100
AcDbPolyline
 90
        2
 70
     0
 43
0.0
 10
21.00651390887795
 20
14.48202704611018
 10
21.75593573644867
 20
15.2314488736809
  0
LWPOLYLINE
  5
50B5
330
18
100
AcDbEntity
  8
500
  6
L10
 62
     2
100
AcDbPolyline
 90
        2
 70
     0
 43
0.0
 10
20.60656639025482
 20
14.41779366547613
 10
21.81259401990389
 20
15.6238212951252
  0
LWPOLYLINE
  5
50B6
330
18
100
AcDbEntity
  8
500
  6
L10
 62
     2
100
AcDbPolyline
 90
        2
 70
     0
 43
0.0
 10
21.36583444043716
 20
15.35204380189166
 10
20.87808324505712
 20
14.86429260651162
  0
LINE
  5
50B7
330
18
100
AcDbEntity
  8
0
100
AcDbLine
 10
22.63518078808548
 20
14.04372445424334
 30
0.0
 11
22.38097544043716
 21
14.29792980189166
 31
0.0
  0
CIRCLE
  5
50B8
330
18
100
AcDbEntity
  8
500
  6
L10
 62
     2
100
AcDbCircle
 10
22.58462244043716
 20
14.61188480189166
 30
0.0
 40
0.06
  0
LWPOLYLINE
  5
50B9
330
18
100
AcDbEntity
  8
500
  6
L10
 62
     2
100
AcDbPolyline
 90
        2
 70
     0
 43
0.0
 10
22.54735744043716
 20
14.88390880189166
 10
22.85664644043716
 20
14.57462080189166
  0
LWPOLYLINE
  5
50BA
330
18
100
AcDbEntity
  8
500
  6
L10
 62
     2
100
AcDbPolyline
 90
        2
 70
     0
 43
0.0
 10
22.53724644043716
 20
14.82613880189166
 10
22.79887544043716
 20
14.56450980189166
  0
LWPOLYLINE
  5
50BB
330
18
100
AcDbEntity
  8
500
  6
L10
 62
     2
100
AcDbPolyline
 90
        2
 70
     0
 43
0.0
 10
22.85664644043716
 20
14.44196680189166
 10
21.80299702840231
 20
13.38831738985681
  0
LWPOLYLINE
  5
50BC
330
18
100
AcDbEntity
  8
500
  6
L10
 62
     2
100
AcDbPolyline
 90
        2
 70
     0
 43
0.0
 10
21.76815988822067
 20
13.44611224967517
 10
22.79887554803067
 20
14.47682790948516
  0
LINE
  5
50BD
330
18
100
AcDbEntity
  8
0
 62
     2
100
AcDbLine
 10
22.52228744043716
 20
14.28650680189166
 30
0.0
 11
21.95858658616901
 21
13.72280669391786
 31
0.0
  0
LINE
  5
50BE
330
18
100
AcDbEntity
  8
0
100
AcDbLine
 10
22.16601393381733
 20
13.57455734626954
 30
0.0
 11
21.911808586169
 21
13.82876269391785
 31
0.0
  0
LWPOLYLINE
  5
50BF
330
18
100
AcDbEntity
  8
500
  6
L10
 62
     2
100
AcDbPolyline
 90
        2
 70
     0
 43
0.0
 10
21.69089658616901
 20
13.80028669391786
 10
21.81899258616901
 20
13.71059269391786
  0
LWPOLYLINE
  5
50C0
330
18
100
AcDbEntity
  8
500
  6
L10
 62
     2
100
AcDbPolyline
 90
        2
 70
     0
 43
0.0
 10
21.70294158616901
 20
13.81748869391786
 10
21.83103758616901
 20
13.72779469391786
  0
LWPOLYLINE
  5
50C1
330
18
100
AcDbEntity
  8
500
  6
L10
 62
     2
100
AcDbPolyline
 90
        2
 70
     0
 43
0.0
 10
21.41895558616901
 20
13.79552869391786
 42
0.414212
 10
21.41895558616901
 20
13.70784769391786
  0
LWPOLYLINE
  5
50C2
330
18
100
AcDbEntity
  8
500
  6
L10
 62
     2
100
AcDbPolyline
 90
        2
 70
     0
 43
0.0
 10
21.36118458616901
 20
13.83038969391786
 42
0.4142140000000001
 10
21.36118458616901
 20
13.69773569391786
  0
LWPOLYLINE
  5
50C3
330
18
100
AcDbEntity
  8
500
  6
L10
 62
     2
100
AcDbPolyline
 90
        2
 70
     0
 43
0.0
 10
21.94353740450873
 20
13.73745515425672
 10
22.50743844043716
 20
14.30135680189166
  0
LWPOLYLINE
  5
50C4
330
18
100
AcDbEntity
  8
500
  6
L10
 62
     2
100
AcDbPolyline
 90
        2
 70
     0
 43
0.0
 10
21.36118458616901
 20
13.69773569391786
 10
21.67047358616901
 20
13.38844669391786
  0
LWPOLYLINE
  5
50C5
330
18
100
AcDbEntity
  8
500
  6
L10
 62
     2
100
AcDbPolyline
 90
        2
 70
     0
 43
0.0
 10
21.41895558616901
 20
13.70784769391786
 10
21.68058458616901
 20
13.44621769391786
  0
LWPOLYLINE
  5
50C6
330
18
100
AcDbEntity
  8
500
  6
L10
 62
     2
100
AcDbPolyline
 90
        2
 70
     0
 43
0.0
 10
21.67047358616901
 20
13.38844669391786
 42
0.414211
 10
21.80312658616901
 20
13.38844669391786
  0
LWPOLYLINE
  5
50C7
330
18
100
AcDbEntity
  8
500
  6
L10
 62
     2
100
AcDbPolyline
 90
        2
 70
     0
 43
0.0
 10
21.81899258616901
 20
13.71059269391786
 42
0.363971
 10
21.95858658616901
 20
13.72280669391786
  0
LWPOLYLINE
  5
50C8
330
18
100
AcDbEntity
  8
500
  6
L10
 62
     2
100
AcDbPolyline
 90
        2
 70
     0
 43
0.0
 10
21.68058458616901
 20
13.44621769391786
 42
0.4142149999999999
 10
21.76826558616901
 20
13.44621769391786
  0
CIRCLE
  5
50C9
330
18
100
AcDbEntity
  8
500
  6
L10
 62
     2
100
AcDbCircle
 10
21.633208586169
 20
13.66047169391786
 30
0.0
 40
0.06
  0
LWPOLYLINE
  5
50CA
330
18
100
AcDbEntity
  8
500
  6
L10
 62
     2
100
AcDbPolyline
 90
        2
 70
     0
 43
0.0
 10
21.83103758616901
 20
13.72779469391786
 42
0.3639699999999999
 10
21.943737586169
 20
13.73765469391786
  0
TEXT
  5
50CB
330
18
100
AcDbEntity
  8
0
100
AcDbText
 10
22.12395566094744
 20
13.37461415210088
 30
0.0
 40
0.125
  1
19
 72
     4
 11
22.24895566094744
 21
13.43711415210088
 31
0.0
100
AcDbText
  0
LINE
  5
50CC
330
18
100
AcDbEntity
  8
0
 62
     2
100
AcDbLine
 10
22.44956444043716
 20
14.82613880189166
 30
0.0
 11
21.41895558616901
 21
13.79552869391786
 31
0.0
  0
LINE
  5
50CD
330
18
100
AcDbEntity
  8
0
100
AcDbLine
 10
21.801500586169
 20
13.93907069391786
 30
0.0
 11
21.5472948357456
 21
14.19327644434128
 31
0.0
  0
LWPOLYLINE
  5
50CE
330
18
100
AcDbEntity
  8
500
  6
L10
 62
     2
100
AcDbPolyline
 90
        2
 70
     0
 43
0.0
 10
22.41470444043716
 20
14.88390880189166
 10
21.36118456011015
 20
13.83038966785902
  0
LWPOLYLINE
  5
50CF
330
18
100
AcDbEntity
  8
500
  6
L10
 62
     2
100
AcDbPolyline
 90
        2
 70
     0
 43
0.0
 10
20.83648100216374
 20
14.49264205356721
 10
20.76647700216374
 20
14.42263905356721
  0
LWPOLYLINE
  5
50D0
330
18
100
AcDbEntity
  8
500
  6
L10
 62
     2
100
AcDbPolyline
 90
        2
 70
     0
 43
0.0
 10
20.80466100216374
 20
14.49900605356721
 10
20.76011300216374
 20
14.45445905356721
  0
LWPOLYLINE
  5
50D1
330
18
100
AcDbEntity
  8
500
  6
L10
 62
     2
100
AcDbPolyline
 90
        2
 70
     0
 43
0.0
 10
20.83648100216374
 20
14.49264205356721
 10
20.83648100216374
 20
14.46718705356721
  0
LWPOLYLINE
  5
50D2
330
18
100
AcDbEntity
  8
500
  6
L10
 62
     2
100
AcDbPolyline
 90
        2
 70
     0
 43
0.0
 10
20.76647700216374
 20
14.42263905356721
 10
20.69081700216374
 20
14.49829905356721
  0
LWPOLYLINE
  5
50D3
330
18
100
AcDbEntity
  8
500
  6
L10
 62
     2
100
AcDbPolyline
 90
        2
 70
     0
 43
0.0
 10
20.83648100216374
 20
14.46718705356721
 10
20.79193300216374
 20
14.42263905356721
  0
LWPOLYLINE
  5
50D4
330
18
100
AcDbEntity
  8
500
  6
L10
 62
     2
100
AcDbPolyline
 90
        2
 70
     0
 43
0.0
 10
20.76647700216374
 20
14.42263905356721
 10
20.79193300216374
 20
14.42263905356721
  0
TEXT
  5
50D5
330
18
100
AcDbEntity
  8
0
100
AcDbText
 10
21.38544756897729
 20
14.19759229004949
 30
0.0
 40
0.125
  1
1
 72
     4
 11
21.43604280707252
 21
14.26009229004948
 31
0.0
100
AcDbText
  0
LINE
  5
50D6
330
18
100
AcDbEntity
  8
0
 62
     7
100
AcDbLine
 10
21.04066496332179
 20
14.72014046681257
 30
0.0
 11
21.08591979731774
 21
14.76539530080852
 31
0.0
  0
LINE
  5
50D7
330
18
100
AcDbEntity
  8
0
100
AcDbLine
 10
21.09581929225435
 20
14.66498613788003
 30
0.0
 11
21.04066496332179
 21
14.72014046681257
 31
0.0
  0
LWPOLYLINE
  5
50D8
330
18
100
AcDbEntity
  8
500
  6
L10
 62
     2
100
AcDbPolyline
 90
        2
 70
     0
 43
0.0
 10
20.83648100216374
 20
14.49264205356721
 10
20.76082000216374
 20
14.56830305356721
  0
LWPOLYLINE
  5
50D9
330
18
100
AcDbEntity
  8
500
  6
L10
 62
     2
100
AcDbPolyline
 90
        2
 70
     0
 43
0.0
 10
20.76647700216374
 20
14.53719005356721
 10
20.72193000216374
 20
14.49264205356721
  0
LWPOLYLINE
  5
50DA
330
18
100
AcDbEntity
  8
500
  6
L10
 62
     2
100
AcDbPolyline
 90
        2
 70
     0
 43
0.0
 10
20.78556900216374
 20
14.51809805356721
 10
20.74102200216374
 20
14.47355005356721
  0
LWPOLYLINE
  5
50DB
330
18
100
AcDbEntity
  8
500
  6
L10
 62
     2
100
AcDbPolyline
 90
        2
 70
     0
 43
0.0
 10
21.00651390887795
 20
14.48202704611018
 10
20.83969042953377
 20
14.64885154237307
  0
LWPOLYLINE
  5
50DC
330
18
100
AcDbEntity
  8
500
  6
L10
 62
     2
100
AcDbPolyline
 90
        2
 70
     0
 43
0.0
 10
20.78979114005452
 20
14.86438928967829
 42
0.4142140000000001
 10
20.87818014005452
 20
14.86438928967829
  0
LINE
  5
50DD
330
18
100
AcDbEntity
  8
0
 62
     7
100
AcDbLine
 10
21.12937977766957
 20
14.81187134749972
 30
0.0
 11
21.17463461166551
 21
14.85712618149566
 31
0.0
  0
LINE
  5
50DE
330
18
100
AcDbEntity
  8
0
100
AcDbLine
 10
21.22978894059807
 20
14.8019718525631
 30
0.0
 11
21.17463461166551
 21
14.85712618149566
 31
0.0
  0
LINE
  5
50DF
330
18
100
AcDbEntity
  8
0
100
AcDbLine
 10
21.18453410660212
 20
14.75671701856716
 30
0.0
 11
21.12937977766957
 21
14.81187134749972
 31
0.0
  0
LINE
  5
50E0
330
18
100
AcDbEntity
  8
0
100
AcDbLine
 10
21.14107412625029
 20
14.71024097187597
 30
0.0
 11
21.08591979731774
 21
14.76539530080852
 31
0.0
  0
LINE
  5
50E1
330
18
100
AcDbEntity
  8
0
 62
     7
100
AcDbLine
 10
21.32171282215232
 20
15.00420439198245
 30
0.0
 11
21.36696765614826
 21
15.0494592259784
 31
0.0
  0
LINE
  5
50E2
330
18
100
AcDbEntity
  8
0
100
AcDbLine
 10
21.37686715108487
 20
14.94905006304991
 30
0.0
 11
21.32171282215232
 21
15.00420439198245
 31
0.0
  0
LINE
  5
50E3
330
18
100
AcDbEntity
  8
0
100
AcDbLine
 10
21.32595546283943
 20
14.89813837480447
 30
0.0
 11
21.27080113390689
 21
14.95329270373703
 31
0.0
  0
LINE
  5
50E4
330
18
100
AcDbEntity
  8
0
100
AcDbLine
 10
21.28070062884349
 20
14.85288354080853
 30
0.0
 11
21.22554629991095
 21
14.90803786974109
 31
0.0
  0
LINE
  5
50E5
330
18
100
AcDbEntity
  8
0
 62
     7
100
AcDbLine
 10
21.22554629991095
 20
14.90803786974109
 30
0.0
 11
21.27080113390689
 21
14.95329270373703
 31
0.0
  0
LINE
  5
50E6
330
18
100
AcDbEntity
  8
0
100
AcDbLine
 10
21.56490625950542
 20
15.13694744018803
 30
0.0
 11
21.50975193057288
 21
15.19210176912059
 31
0.0
  0
LINE
  5
50E7
330
18
100
AcDbEntity
  8
0
100
AcDbLine
 10
21.46873973726405
 20
15.04078091794666
 30
0.0
 11
21.4135854083315
 21
15.09593524687922
 31
0.0
  0
LINE
  5
50E8
330
18
100
AcDbEntity
  8
0
 62
     7
100
AcDbLine
 10
21.4135854083315
 20
15.09593524687922
 30
0.0
 11
21.45884024232744
 21
15.14119008087516
 31
0.0
  0
LINE
  5
50E9
330
18
100
AcDbEntity
  8
0
100
AcDbLine
 10
21.51399457126
 20
15.0860357519426
 30
0.0
 11
21.45884024232744
 21
15.14119008087516
 31
0.0
  0
LINE
  5
50EA
330
18
100
AcDbEntity
  8
0
100
AcDbLine
 10
21.42212198508081
 20
14.99430489704585
 30
0.0
 11
21.36696765614826
 21
15.0494592259784
 31
0.0
  0
LINE
  5
50EB
330
18
100
AcDbEntity
  8
0
 62
     2
100
AcDbLine
 10
22.29329444043716
 20
14.55390280189166
 30
0.0
 11
21.69119158616901
 21
13.95179969391786
 31
0.0
  0
LINE
  5
50EC
330
18
100
AcDbEntity
  8
0
100
AcDbLine
 10
22.33430644043716
 20
14.47187780189166
 30
0.0
 11
22.08010150558187
 21
14.72608273674696
 31
0.0
  0
LWPOLYLINE
  5
50ED
330
18
100
AcDbEntity
  8
500
  6
L10
 62
     2
100
AcDbPolyline
 90
        2
 70
     0
 43
0.0
 10
22.44480744043716
 20
14.55419680189166
 10
22.53450044043716
 20
14.42610180189166
  0
LWPOLYLINE
  5
50EE
330
18
100
AcDbEntity
  8
500
  6
L10
 62
     2
100
AcDbPolyline
 90
        2
 70
     0
 43
0.0
 10
22.42760444043716
 20
14.54215180189166
 10
22.51729844043716
 20
14.41405580189166
  0
CIRCLE
  5
50EF
330
18
100
AcDbEntity
  8
500
  6
L10
 62
     2
100
AcDbCircle
 10
22.33430644043716
 20
14.47187780189166
 30
0.0
 40
0.02
  0
LWPOLYLINE
  5
50F0
330
18
100
AcDbEntity
  8
500
  6
L10
 62
     2
100
AcDbPolyline
 90
        2
 70
     0
 43
0.0
 10
21.67624598846988
 20
13.96655297705086
 10
22.27844544043716
 20
14.56875180189166
  0
CIRCLE
  5
50F1
330
18
100
AcDbEntity
  8
500
  6
L10
 62
     2
100
AcDbCircle
 10
22.07974744043716
 20
14.21731980189166
 30
0.0
 40
0.02
  0
CIRCLE
  5
50F2
330
18
100
AcDbEntity
  8
500
  6
L10
 62
     2
100
AcDbCircle
 10
22.06277744043716
 20
13.97973180189166
 30
0.0
 40
0.02
  0
CIRCLE
  5
50F3
330
18
100
AcDbEntity
  8
500
  6
L10
 62
     2
100
AcDbCircle
 10
21.95246844043716
 20
14.09003980189166
 30
0.0
 40
0.02
  0
CIRCLE
  5
50F4
330
18
100
AcDbEntity
  8
500
  6
L10
 62
     2
100
AcDbCircle
 10
21.824834586169
 20
13.85209669391786
 30
0.0
 40
0.02
  0
CIRCLE
  5
50F5
330
18
100
AcDbEntity
  8
500
  6
L10
 62
     2
100
AcDbCircle
 10
21.801500586169
 20
13.93907069391786
 30
0.0
 40
0.02
  0
LWPOLYLINE
  5
50F6
330
18
100
AcDbEntity
  8
500
  6
L10
 62
     2
100
AcDbPolyline
 90
        2
 70
     0
 43
0.0
 10
21.69119158616901
 20
13.95179969391786
 42
0.466307
 10
21.70294158616901
 20
13.81748869391786
  0
LWPOLYLINE
  5
50F7
330
18
100
AcDbEntity
  8
500
  6
L10
 62
     2
100
AcDbPolyline
 90
        2
 70
     0
 43
0.0
 10
21.67634158616901
 20
13.96664869391786
 42
0.466307
 10
21.69089658616901
 20
13.80028669391786
  0
CIRCLE
  5
50F8
330
18
100
AcDbEntity
  8
500
  6
L10
 62
     2
100
AcDbCircle
 10
22.03944244043716
 20
14.06670580189166
 30
0.0
 40
0.02
  0
CIRCLE
  5
50F9
330
18
100
AcDbEntity
  8
500
  6
L10
 62
     2
100
AcDbCircle
 10
21.97580344043716
 20
14.00306580189166
 30
0.0
 40
0.02
  0
CIRCLE
  5
50FA
330
18
100
AcDbEntity
  8
500
  6
L10
 62
     2
100
AcDbCircle
 10
21.865139586169
 20
14.00271069391786
 30
0.0
 40
0.02
  0
CIRCLE
  5
50FB
330
18
100
AcDbEntity
  8
500
  6
L10
 62
     2
100
AcDbCircle
 10
21.975448586169
 20
13.89240169391786
 30
0.0
 40
0.02
  0
CIRCLE
  5
50FC
330
18
100
AcDbEntity
  8
500
  6
L10
 62
     2
100
AcDbCircle
 10
21.888474586169
 20
13.91573669391786
 30
0.0
 40
0.02
  0
CIRCLE
  5
50FD
330
18
100
AcDbEntity
  8
500
  6
L10
 62
     2
100
AcDbCircle
 10
21.911808586169
 20
13.82876269391785
 30
0.0
 40
0.02
  0
CIRCLE
  5
50FE
330
18
100
AcDbEntity
  8
500
  6
L10
 62
     2
100
AcDbCircle
 10
22.01610844043716
 20
14.15367980189166
 30
0.0
 40
0.02
  0
CIRCLE
  5
50FF
330
18
100
AcDbEntity
  8
500
  6
L10
 62
     2
100
AcDbCircle
 10
22.19005644043716
 20
14.10701080189166
 30
0.0
 40
0.02
  0
CIRCLE
  5
5100
330
18
100
AcDbEntity
  8
500
  6
L10
 62
     2
100
AcDbCircle
 10
22.12641644043716
 20
14.04337080189166
 30
0.0
 40
0.02
  0
CIRCLE
  5
5101
330
18
100
AcDbEntity
  8
500
  6
L10
 62
     2
100
AcDbCircle
 10
22.31733544043716
 20
14.23428980189166
 30
0.0
 40
0.02
  0
CIRCLE
  5
5102
330
18
100
AcDbEntity
  8
500
  6
L10
 62
     2
100
AcDbCircle
 10
22.27066644043716
 20
14.40823880189166
 30
0.0
 40
0.02
  0
CIRCLE
  5
5103
330
18
100
AcDbEntity
  8
500
  6
L10
 62
     2
100
AcDbCircle
 10
22.29400144043716
 20
14.32126480189166
 30
0.0
 40
0.02
  0
CIRCLE
  5
5104
330
18
100
AcDbEntity
  8
500
  6
L10
 62
     2
100
AcDbCircle
 10
22.20702744043716
 20
14.34459880189166
 30
0.0
 40
0.02
  0
CIRCLE
  5
5105
330
18
100
AcDbEntity
  8
500
  6
L10
 62
     2
100
AcDbCircle
 10
22.14338744043716
 20
14.28095880189166
 30
0.0
 40
0.02
  0
CIRCLE
  5
5106
330
18
100
AcDbEntity
  8
500
  6
L10
 62
     2
100
AcDbCircle
 10
22.25369644043716
 20
14.17065080189166
 30
0.0
 40
0.02
  0
CIRCLE
  5
5107
330
18
100
AcDbEntity
  8
500
  6
L10
 62
     2
100
AcDbCircle
 10
22.10308244043716
 20
14.13034580189166
 30
0.0
 40
0.02
  0
CIRCLE
  5
5108
330
18
100
AcDbEntity
  8
500
  6
L10
 62
     2
100
AcDbCircle
 10
22.16672244043716
 20
14.19398480189166
 30
0.0
 40
0.02
  0
CIRCLE
  5
5109
330
18
100
AcDbEntity
  8
500
  6
L10
 62
     2
100
AcDbCircle
 10
22.23036144043716
 20
14.25762480189166
 30
0.0
 40
0.02
  0
LWPOLYLINE
  5
510A
330
18
100
AcDbEntity
  8
500
  6
L10
 62
     2
100
AcDbPolyline
 90
        2
 70
     0
 43
0.0
 10
22.50743844043716
 20
14.30135680189166
 42
0.363969
 10
22.51729844043716
 20
14.41405580189166
  0
CIRCLE
  5
510B
330
18
100
AcDbEntity
  8
500
  6
L10
 62
     2
100
AcDbCircle
 10
22.38097544043716
 20
14.29792980189166
 30
0.0
 40
0.02
  0
LWPOLYLINE
  5
510C
330
18
100
AcDbEntity
  8
500
  6
L10
 62
     2
100
AcDbPolyline
 90
        2
 70
     0
 43
0.0
 10
22.52228744043716
 20
14.28650680189166
 42
0.363972
 10
22.53450044043716
 20
14.42610180189166
  0
CIRCLE
  5
510D
330
18
100
AcDbEntity
  8
500
  6
L10
 62
     2
100
AcDbCircle
 10
22.35764144043716
 20
14.38490380189166
 30
0.0
 40
0.02
  0
TEXT
  5
510E
330
18
100
AcDbEntity
  8
0
100
AcDbText
 10
21.89981892789225
 20
14.78117352120441
 30
0.0
 40
0.125
  1
9
 72
     4
 11
21.95636654693987
 21
14.84367352120441
 31
0.0
100
AcDbText
  0
LWPOLYLINE
  5
510F
330
18
100
AcDbEntity
  8
500
  6
L10
 62
     2
100
AcDbPolyline
 90
        2
 70
     0
 43
0.0
 10
22.53724644043716
 20
14.82613880189166
 42
0.414211
 10
22.44956444043716
 20
14.82613880189166
  0
LWPOLYLINE
  5
5110
330
18
100
AcDbEntity
  8
500
  6
L10
 62
     2
100
AcDbPolyline
 90
        2
 70
     0
 43
0.0
 10
22.44480744043716
 20
14.55419680189166
 42
0.466311
 10
22.27844544043716
 20
14.56875180189166
  0
LWPOLYLINE
  5
5111
330
18
100
AcDbEntity
  8
500
  6
L10
 62
     2
100
AcDbPolyline
 90
        2
 70
     0
 43
0.0
 10
22.42760444043716
 20
14.54215180189166
 42
0.4663090000000001
 10
22.29329444043716
 20
14.55390280189166
  0
LWPOLYLINE
  5
5112
330
18
100
AcDbEntity
  8
500
  6
L10
 62
     2
100
AcDbPolyline
 90
        2
 70
     0
 43
0.0
 10
22.54735744043716
 20
14.88390880189166
 42
0.4142140000000001
 10
22.41470444043716
 20
14.88390880189166
  0
TEXT
  5
5113
330
18
100
AcDbEntity
  8
0
100
AcDbText
 10
22.56047875920424
 20
13.54466917585956
 30
0.0
 40
0.125
  1
FACE VIEW
100
AcDbText
  0
LWPOLYLINE
  5
5114
330
18
100
AcDbEntity
  8
500
  6
L10
 62
     2
100
AcDbPolyline
 90
        2
 70
     0
 43
0.0
 10
22.85664644043716
 20
14.44196680189166
 42
0.4142140000000001
 10
22.85664644043716
 20
14.57462080189166
  0
TEXT
  5
5115
330
18
100
AcDbEntity
  8
0
100
AcDbText
 10
22.64635269468281
 20
13.89113271047595
 30
0.0
 40
0.125
  1
26
 72
     4
 11
22.76540031373043
 21
13.95363271047595
 31
0.0
100
AcDbText
  0
LWPOLYLINE
  5
5116
330
18
100
AcDbEntity
  8
500
  6
L10
 62
     2
100
AcDbPolyline
 90
        2
 70
     0
 43
0.0
 10
22.79887544043716
 20
14.47682780189166
 42
0.4142149999999999
 10
22.79887544043716
 20
14.56450980189166
  0
MTEXT
  5
5117
102
{ACAD_REACTORS
330
5140
102
}
330
18
100
AcDbEntity
  8
0
100
AcDbMText
 10
22.43410374785074
 20
16.21968423692231
 30
0.0
 40
0.125
 41
0.0
 71
     1
 72
     1
  1
D-SUB CONNECTOR,\P26 PIN HD MALE
 73
     1
 44
1.0
  0
MTEXT
  5
5118
102
{ACAD_REACTORS
330
5119
102
}
330
18
100
AcDbEntity
  8
0
100
AcDbMText
 10
22.16700194043716
 20
16.79176480189166
 30
0.0
 40
0.125
 41
0.0
 71
     1
 72
     1
  1
JACKSCREW 4-40
 73
     1
 44
1.0
  0
LEADER
  5
5119
330
18
100
AcDbEntity
  8
0
100
AcDbLeader
  3
STANDARD
 73
     0
 40
0.125
 41
1.684523809523809
 76
     3
 10
21.24408554046217
 20
16.1791583506938
 30
0.0
 10
21.76450194043716
 20
16.72926480189166
 30
0.0
 10
22.07700194043716
 20
16.72926480189166
 30
0.0
340
5118
213
0.0
223
-0.0625
233
0.0
1001
ACAD
1000
DSTYLE
1002
{
1070
   147
1040
0.09
1070
    77
1070
     0
1070
    44
1040
0.125
1070
   140
1040
0.125
1002
}
  0
LWPOLYLINE
  5
511A
330
18
100
AcDbEntity
  8
500
  6
L10
 62
     2
100
AcDbPolyline
 90
        2
 70
     0
 43
0.0
 10
21.81259401990389
 20
15.6238212951252
 10
21.33954001990389
 20
16.0968752951252
  0
LWPOLYLINE
  5
511B
330
18
100
AcDbEntity
  8
500
  6
L10
 62
     2
100
AcDbPolyline
 90
        2
 70
     0
 43
0.0
 10
21.50394201990389
 20
15.5357862951252
 10
21.70228501990389
 20
15.7341302951252
  0
LWPOLYLINE
  5
511C
330
18
100
AcDbEntity
  8
500
  6
L10
 62
     2
100
AcDbPolyline
 90
        2
 70
     0
 43
0.0
 10
21.20766401990389
 20
15.9204522951252
 42
0.414212
 10
21.11927601990389
 20
15.9204522951252
  0
LWPOLYLINE
  5
511D
330
18
100
AcDbEntity
  8
500
  6
L10
 62
     2
100
AcDbPolyline
 90
        2
 70
     0
 43
0.0
 10
21.10124501990389
 20
15.9024212951252
 10
20.74829801990389
 20
16.2553672951252
  0
LWPOLYLINE
  5
511E
330
18
100
AcDbEntity
  8
500
  6
L10
 62
     2
100
AcDbPolyline
 90
        2
 70
     0
 43
0.0
 10
21.10831601990389
 20
15.9094922951252
 10
20.75476201990389
 20
16.2630452951252
  0
LWPOLYLINE
  5
511F
330
18
100
AcDbEntity
  8
500
  6
L10
 62
     2
100
AcDbPolyline
 90
        2
 70
     0
 43
0.0
 10
21.09417401990389
 20
15.8953502951252
 10
20.75122701990389
 20
16.2382972951252
  0
LWPOLYLINE
  5
5120
330
18
100
AcDbEntity
  8
500
  6
L10
 62
     2
100
AcDbPolyline
 90
        2
 70
     0
 43
0.0
 10
21.11538701990389
 20
15.9165632951252
 10
20.76183301990389
 20
16.2701162951252
  0
LWPOLYLINE
  5
5121
330
18
100
AcDbEntity
  8
500
  6
L10
 62
     2
100
AcDbPolyline
 90
        2
 70
     0
 43
0.0
 10
21.12599301990389
 20
15.9271692951252
 10
20.77244001990389
 20
16.2807232951252
  0
LWPOLYLINE
  5
5122
330
18
100
AcDbEntity
  8
500
  6
L10
 62
     2
100
AcDbPolyline
 90
        2
 70
     0
 43
0.0
 10
21.29569901990389
 20
16.0968752951252
 10
21.06205901990389
 20
15.8632352951252
  0
LWPOLYLINE
  5
5123
330
18
100
AcDbEntity
  8
500
  6
L10
 62
     2
100
AcDbPolyline
 90
        2
 70
     0
 43
0.0
 10
20.66420744043716
 20
15.90340980189166
 10
20.78353244043716
 20
16.02273480189166
  0
LWPOLYLINE
  5
5124
330
18
100
AcDbEntity
  8
500
  6
L10
 62
     2
100
AcDbPolyline
 90
        2
 70
     0
 43
0.0
 10
21.06205901990389
 20
15.8632352951252
 10
20.63121256122064
 20
16.29408085061184
  0
LWPOLYLINE
  5
5125
330
18
100
AcDbEntity
  8
500
  6
L10
 62
     2
100
AcDbPolyline
 90
        2
 70
     0
 43
0.0
 10
20.90197244043716
 20
15.90429380189166
 10
20.66509144043716
 20
16.14117480189166
  0
LWPOLYLINE
  5
5126
330
18
100
AcDbEntity
  8
500
  6
L10
 62
     2
100
AcDbPolyline
 90
        2
 70
     0
 43
0.0
 10
21.10066944043716
 20
15.70559680189166
 42
0.4142140000000001
 10
21.01228144043716
 20
15.70559680189166
  0
TEXT
  5
5127
330
18
100
AcDbEntity
  8
0
100
AcDbText
 10
20.94139376275888
 20
15.51396815166924
 30
0.0
 40
0.125
  1
I/O
 50
225.0
 72
     1
 11
20.87405025978874
 21
15.35823630105078
 31
0.0
100
AcDbText
 73
     2
  0
CIRCLE
  5
5128
330
18
100
AcDbEntity
  8
500
  6
L10
 62
     2
100
AcDbCircle
 10
20.64211144043716
 20
15.88131280189166
 30
0.0
 40
0.03125
  0
LWPOLYLINE
  5
5129
330
18
100
AcDbEntity
  8
500
  6
L10
 62
     2
100
AcDbPolyline
 90
        2
 70
     0
 43
0.0
 10
20.90197244043716
 20
15.81590580189166
 42
0.4142140000000001
 10
20.90197244043716
 20
15.90429380189166
  0
LWPOLYLINE
  5
512A
330
18
100
AcDbEntity
  8
500
  6
L10
 62
     2
100
AcDbPolyline
 90
        2
 70
     0
 43
0.0
 10
21.36583444043716
 20
15.44043280189166
 10
21.10066944043716
 20
15.70559680189166
  0
LWPOLYLINE
  5
512B
330
18
100
AcDbEntity
  8
500
  6
L10
 62
     2
100
AcDbPolyline
 90
        2
 70
     0
 43
0.0
 10
21.36583444043716
 20
15.35204380189166
 42
0.4142140000000001
 10
21.36583444043716
 20
15.44043280189166
  0
LWPOLYLINE
  5
512C
330
18
100
AcDbEntity
  8
500
  6
L10
 62
     2
100
AcDbPolyline
 90
        2
 70
     0
 43
0.0
 10
21.54813601990389
 20
15.5799802951252
 10
21.20766401990389
 20
15.9204522951252
  0
LWPOLYLINE
  5
512D
330
18
100
AcDbEntity
  8
500
  6
L10
 62
     2
100
AcDbPolyline
 90
        2
 70
     0
 43
0.0
 10
21.15074201990389
 20
15.9519182951252
 10
20.79718901990389
 20
16.3054722951252
  0
LWPOLYLINE
  5
512E
330
18
100
AcDbEntity
  8
500
  6
L10
 62
     2
100
AcDbPolyline
 90
        2
 70
     0
 43
0.0
 10
21.13660001990389
 20
15.9377762951252
 10
20.78304701990389
 20
16.2913302951252
  0
LWPOLYLINE
  5
512F
330
18
100
AcDbEntity
  8
500
  6
L10
 62
     2
100
AcDbPolyline
 90
        2
 70
     0
 43
0.0
 10
21.29216301990389
 20
16.0933402951252
 10
20.93861001990389
 20
16.44689329512521
  0
LWPOLYLINE
  5
5130
330
18
100
AcDbEntity
  8
500
  6
L10
 62
     2
100
AcDbPolyline
 90
        2
 70
     0
 43
0.0
 10
21.26387901990389
 20
16.0650562951252
 10
20.91032601990389
 20
16.4186092951252
  0
LWPOLYLINE
  5
5131
330
18
100
AcDbEntity
  8
500
  6
L10
 62
     2
100
AcDbPolyline
 90
        2
 70
     0
 43
0.0
 10
21.27448601990389
 20
16.07566229512521
 10
20.92093201990389
 20
16.4292162951252
  0
LWPOLYLINE
  5
5132
330
18
100
AcDbEntity
  8
500
  6
L10
 62
     2
100
AcDbPolyline
 90
        2
 70
     0
 43
0.0
 10
21.28509201990389
 20
16.0862692951252
 10
20.93153901990389
 20
16.4398222951252
  0
LWPOLYLINE
  5
5133
330
18
100
AcDbEntity
  8
500
  6
L10
 62
     2
100
AcDbPolyline
 90
        2
 70
     0
 43
0.0
 10
21.23559501990389
 20
16.0367712951252
 10
20.88204201990389
 20
16.3903242951252
  0
LWPOLYLINE
  5
5134
330
18
100
AcDbEntity
  8
500
  6
L10
 62
     2
100
AcDbPolyline
 90
        2
 70
     0
 43
0.0
 10
21.24973701990389
 20
16.05091329512521
 10
20.89618401990389
 20
16.4044672951252
  0
LWPOLYLINE
  5
5135
330
18
100
AcDbEntity
  8
500
  6
L10
 62
     2
100
AcDbPolyline
 90
        2
 70
     0
 43
0.0
 10
21.21791701990389
 20
16.0190942951252
 10
20.86436401990389
 20
16.3726472951252
  0
LWPOLYLINE
  5
5136
330
18
100
AcDbEntity
  8
500
  6
L10
 62
     2
100
AcDbPolyline
 90
        2
 70
     0
 43
0.0
 10
21.16488401990389
 20
15.9660602951252
 10
20.81133101990389
 20
16.31961429512521
  0
LWPOLYLINE
  5
5137
330
18
100
AcDbEntity
  8
500
  6
L10
 62
     2
100
AcDbPolyline
 90
        2
 70
     0
 43
0.0
 10
21.18256201990389
 20
15.9837382951252
 10
20.82900901990389
 20
16.3372912951252
  0
LWPOLYLINE
  5
5138
330
18
100
AcDbEntity
  8
500
  6
L10
 62
     2
100
AcDbPolyline
 90
        2
 70
     0
 43
0.0
 10
21.20024001990389
 20
16.0014162951252
 10
20.84668601990389
 20
16.3549692951252
  0
LWPOLYLINE
  5
5139
330
18
100
AcDbEntity
  8
500
  6
L10
 62
     2
100
AcDbPolyline
 90
        2
 70
     0
 43
0.0
 10
21.20024001990389
 20
16.0014162951252
 10
20.84668601990389
 20
16.3549692951252
  0
LWPOLYLINE
  5
513A
330
18
100
AcDbEntity
  8
500
  6
L10
 62
     2
100
AcDbPolyline
 90
        2
 70
     0
 43
0.0
 10
21.30630501990389
 20
16.1074822951252
 10
20.96335901990389
 20
16.4504292951252
  0
LWPOLYLINE
  5
513B
330
18
100
AcDbEntity
  8
500
  6
L10
 62
     2
100
AcDbPolyline
 90
        2
 70
     0
 43
0.0
 10
21.29923401990389
 20
16.1004112951252
 10
20.94628801990389
 20
16.4533572951252
  0
LWPOLYLINE
  5
513C
330
18
100
AcDbEntity
  8
500
  6
L10
 62
     2
100
AcDbPolyline
 90
        2
 70
     0
 43
0.0
 10
20.75122701990389
 20
16.2595102951252
 10
20.94214501990389
 20
16.4504292951252
  0
LWPOLYLINE
  5
513D
330
18
100
AcDbEntity
  8
500
  6
L10
 62
     2
100
AcDbPolyline
 90
        2
 70
     0
 43
0.0
 10
20.75122701990389
 20
16.2595102951252
 42
0.41422
 10
20.75122701990389
 20
16.2382972951252
  0
LWPOLYLINE
  5
513E
330
18
100
AcDbEntity
  8
500
  6
L10
 62
     2
100
AcDbPolyline
 90
        2
 70
     0
 43
0.0
 10
20.96335901990389
 20
16.4504292951252
 42
0.4142140000000001
 10
20.94214501990389
 20
16.4504292951252
  0
LWPOLYLINE
  5
513F
330
18
100
AcDbEntity
  8
500
  6
L10
 62
     2
100
AcDbPolyline
 90
        2
 70
     0
 43
0.0
 10
21.33954001990389
 20
16.0968752951252
 42
0.414209
 10
21.29569901990389
 20
16.0968752951252
  0
LEADER
  5
5140
330
18
100
AcDbEntity
  8
0
100
AcDbLeader
  3
STANDARD
 73
     0
 40
0.3333333333333334
 41
1.898809523809523
 76
     3
 10
21.78160374785074
 20
15.25093423692231
 30
0.0
 10
22.15660374785074
 20
16.15718423692231
 30
0.0
 10
22.34410374785074
 20
16.15718423692231
 30
0.0
340
5117
213
0.0
223
-0.0625
233
0.0
1001
ACAD
1000
DSTYLE
1002
{
1070
   147
1040
0.09
1070
    77
1070
     0
1070
    44
1040
0.125
1070
   140
1040
0.125
1002
}
  0
LWPOLYLINE
  5
5141
330
18
100
AcDbEntity
  8
500
  6
L10
 62
     2
100
AcDbPolyline
 90
        2
 70
     0
 43
0.0
 10
21.80587601990389
 20
15.4657822951252
 10
21.73021601990389
 20
15.5414432951252
  0
LWPOLYLINE
  5
5142
330
18
100
AcDbEntity
  8
500
  6
L10
 62
     2
100
AcDbPolyline
 90
        2
 70
     0
 43
0.0
 10
21.80587601990389
 20
15.4657822951252
 10
21.80587601990389
 20
15.4403262951252
  0
LWPOLYLINE
  5
5143
330
18
100
AcDbEntity
  8
500
  6
L10
 62
     2
100
AcDbPolyline
 90
        2
 70
     0
 43
0.0
 10
21.72950901990389
 20
15.4275992951252
 10
21.77405701990389
 20
15.4721462951252
  0
LWPOLYLINE
  5
5144
330
18
100
AcDbEntity
  8
500
  6
L10
 62
     2
100
AcDbPolyline
 90
        2
 70
     0
 43
0.0
 10
21.73587301990389
 20
15.3957792951252
 10
21.76132901990389
 20
15.3957792951252
  0
LWPOLYLINE
  5
5145
330
18
100
AcDbEntity
  8
500
  6
L10
 62
     2
100
AcDbPolyline
 90
        2
 70
     0
 43
0.0
 10
21.73587301990389
 20
15.3957792951252
 10
21.80587601990389
 20
15.4657822951252
  0
LWPOLYLINE
  5
5146
330
18
100
AcDbEntity
  8
500
  6
L10
 62
     2
100
AcDbPolyline
 90
        2
 70
     0
 43
0.0
 10
21.76132901990389
 20
15.3957792951252
 10
21.80587601990389
 20
15.4403262951252
  0
LWPOLYLINE
  5
5147
330
18
100
AcDbEntity
  8
500
  6
L10
 62
     2
100
AcDbPolyline
 90
        2
 70
     0
 43
0.0
 10
21.69132501990389
 20
15.4657822951252
 10
21.73587301990389
 20
15.5103302951252
  0
LWPOLYLINE
  5
5148
330
18
100
AcDbEntity
  8
500
  6
L10
 62
     2
100
AcDbPolyline
 90
        2
 70
     0
 43
0.0
 10
21.71041701990389
 20
15.4466912951252
 10
21.75496501990389
 20
15.4912382951252
  0
LWPOLYLINE
  5
5149
330
18
100
AcDbEntity
  8
500
  6
L10
 62
     2
100
AcDbPolyline
 90
        2
 70
     0
 43
0.0
 10
21.73587301990389
 20
15.3957792951252
 10
21.66021301990389
 20
15.4714392951252
  0
LWPOLYLINE
  5
514A
330
18
100
AcDbEntity
  8
500
  6
L10
 62
     2
100
AcDbPolyline
 90
        2
 70
     0
 43
0.0
 10
21.75593573644867
 20
15.2314488736809
 10
21.59188673644867
 20
15.3954968736809
  0
TEXT
  5
514B
330
18
100
AcDbEntity
  8
0
100
AcDbText
 10
16.23926799288779
 20
9.127030864144758
 30
0.0
 40
0.1
  1
3
100
AcDbText
  0
TEXT
  5
514C
330
18
100
AcDbEntity
  8
0
100
AcDbText
 10
16.58301799288778
 20
9.127030864144758
 30
0.0
 40
0.1
  1
08.09.03
100
AcDbText
  0
TEXT
  5
514D
330
18
100
AcDbEntity
  8
0
100
AcDbText
 10
17.39551799288778
 20
9.127030864144758
 30
0.0
 40
0.1
  1
26 PIN TO 45deg
100
AcDbText
  0
ENDSEC
  0
SECTION
  2
OBJECTS
  0
DICTIONARY
  5
C
330
0
100
AcDbDictionary
281
     1
  3
ACAD_GROUP
350
D
  3
ACAD_LAYOUT
350
418A
  3
ACAD_MLINESTYLE
350
1B
  3
ACAD_PLOTSETTINGS
350
418B
  3
ACAD_PLOTSTYLENAME
350
4188
  3
AcadDim
350
4ED9
  3
ACDBHEADERROUNDTRIPXREC
350
516D
  3
ACDBVARIABLEDICTIONARY
350
4CA
  3
AcmDictionary
350
47AC
  3
AMG
350
4791
  3
AMGSNAPSETTINGS
350
47DE
  3
ASE_INDEX_DICTIONARY
350
4945
  3
DWGPROPS
350
5167
  0
DICTIONARY
  5
488B
330
18
100
AcDbDictionary
280
     1
281
     1
  3
ACAD_INDEX
360
4F53
  0
DICTIONARY
  5
D
102
{ACAD_REACTORS
330
C
102
}
330
C
100
AcDbDictionary
281
     1
  0
DICTIONARY
  5
418A
102
{ACAD_REACTORS
330
C
102
}
330
C
100
AcDbDictionary
281
     1
  3
Layout1
350
418D
  3
Model
350
418C
  0
DICTIONARY
  5
1B
102
{ACAD_REACTORS
330
C
102
}
330
C
100
AcDbDictionary
281
     1
  3
STANDARD
350
1C
  0
DICTIONARY
  5
418B
102
{ACAD_REACTORS
330
C
102
}
330
C
100
AcDbDictionary
281
     1
  0
ACDBDICTIONARYWDFLT
  5
4188
102
{ACAD_REACTORS
330
C
102
}
330
C
100
AcDbDictionary
281
     1
  3
Normal
350
4189
100
AcDbDictionaryWithDefault
340
4189
  0
XRECORD
  5
4ED9
102
{ACAD_REACTORS
330
C
102
}
330
C
100
AcDbXrecord
280
     1
 90
   990106
  3

 60
     0
 61
     0
 62
     1
 63
     3
 64
     0
 65
     0
 66
     0
 67
     3
 68
     1
 69
     0
 70
     0
 71
     0
 72
     0
 40
0.0
170
     0
  0
DICTIONARY
  5
516D
102
{ACAD_REACTORS
330
C
102
}
330
C
100
AcDbDictionary
281
     1
  3
CEPSNTYPE
350
5177
  3
FINGERPRINTGUID
350
5178
  3
HYPERLINKBASE
350
5170
  3
INSUNITS
350
5176
  3
LAYOUTDICT
350
5172
  3
LWETCUNION
350
5175
  3
PLOTSETDICT
350
5173
  3
PLOTSTYLNAMDICT
350
5174
  3
PSVPSCALE
350
517A
  3
PUCSBASE
350
517D
  3
PUCSORGBACK
350
5183
  3
PUCSORGBOTTOM
350
517F
  3
PUCSORGFRONT
350
5182
  3
PUCSORGLEFT
350
5180
  3
PUCSORGRIGHT
350
5181
  3
PUCSORGTOP
350
517E
  3
PUCSORTHOREF
350
517B
  3
PUCSORTHOVIEW
350
517C
  3
STYLESHEET
350
5171
  3
TSTACKALIGN
350
516E
  3
TSTACKSIZE
350
516F
  3
UCSBASE
350
5186
  3
UCSORGBACK
350
518C
  3
UCSORGBOTTOM
350
5188
  3
UCSORGFRONT
350
518B
  3
UCSORGLEFT
350
5189
  3
UCSORGRIGHT
350
518A
  3
UCSORGTOP
350
5187
  3
UCSORTHOREF
350
5184
  3
UCSORTHOVIEW
350
5185
  3
VERSIONGUID
350
5179
  0
DICTIONARY
  5
4CA
102
{ACAD_REACTORS
330
C
102
}
330
C
100
AcDbDictionary
281
     1
  3
DIMASSOC
350
5152
  3
INDEXCTL
350
479A
  3
SORTENTS
350
4CB
  0
DICTIONARY
  5
47AC
102
{ACAD_REACTORS
330
C
102
}
330
C
100
AcDbDictionary
281
     1
  3
AcmStdDictionary
350
47B2
  0
DICTIONARY
  5
4791
102
{ACAD_REACTORS
330
C
102
}
330
C
100
AcDbDictionary
281
     1
  3
AcMgSettings
350
4792
  0
DICTIONARY
  5
47DE
102
{ACAD_REACTORS
330
C
102
}
330
C
100
AcDbDictionary
281
     1
  3
DIMENSION
350
47E3
  3
FEA
350
47E2
  3
HATCH (1)
350
47DF
  3
HATCH (2)
350
47E0
  3
SIMPLE WELD
350
47E4
  3
SYMBOLS
350
47E1
  0
DICTIONARY
  5
4945
102
{ACAD_REACTORS
330
C
102
}
330
C
100
AcDbDictionary
281
     1
  3
ASEBlockHierarchyIndexRecord
350
4947
1001
DCO15
1040
1451630500.334
  0
XRECORD
  5
5167
102
{ACAD_REACTORS
330
C
102
}
330
C
100
AcDbXrecord
280
     1
  1
DWGPROPS COOKIE
  2

  3

  4

  6

  7

  8

  9

300
AmdtFileType=84
301
=
302
=
303
=
304
=
305
=
306
=
307
=
308
=
309
=
 40
1.815319884259259
 41
2450708.349033448
 42
2452891.397745046
  1

 90
        1
  0
DICTIONARY
  5
4F53
102
{ACAD_REACTORS
330
488B
102
}
330
488B
100
AcDbDictionary
281
     1
  3
*A1
350
4F54
  0
LAYOUT
  5
418D
102
{ACAD_REACTORS
330
418A
102
}
330
418A
100
AcDbPlotSettings
  1

  2
HP LaserJet 4V
  4

  6

 40
0.0
 41
0.0
 42
0.0
 43
0.0
 44
0.0
 45
0.0
 46
0.0
 47
0.0
 48
0.0
 49
0.0
140
0.0
141
0.0
142
1.0
143
1.0
 70
   688
 72
     0
 73
     0
 74
     5
  7
monochrome.ctb
 75
    16
147
1.0
148
0.0
149
0.0
100
AcDbLayout
  1
Layout1
 70
     1
 71
     1
 10
0.0
 20
0.0
 11
12.0
 21
9.0
 12
0.0
 22
0.0
 32
0.0
 14
1.000000000000000E+20
 24
1.000000000000000E+20
 34
1.000000000000000E+20
 15
-1.000000000000000E+20
 25
-1.000000000000000E+20
 35
-1.000000000000000E+20
146
0.0
 13
0.0
 23
0.0
 33
0.0
 16
1.0
 26
0.0
 36
0.0
 17
0.0
 27
1.0
 37
0.0
 76
     0
330
15
  0
LAYOUT
  5
418C
102
{ACAD_REACTORS
330
418A
102
}
330
418A
100
AcDbPlotSettings
  1

  2
\\Fdlfs06\Engineering - HP LaserJet 5Si MX
  4
Letter
  6

 40
7.143749713897705
 41
6.974400997161865
 42
7.14373779296875
 43
6.297088623046875
 44
215.8999938964843
 45
279.3999938964843
 46
14.73199999999999
 47
0.0
 48
0.0
 49
0.0
140
0.0
141
0.0
142
1.0
143
1.622808170333332
 70
 11956
 72
     0
 73
     1
 74
     1
  7
monochrome.ctb
 75
     0
147
0.616215778476513
148
-211.6224388482994
149
-196.1391218981528
100
AcDbLayout
  1
Model
 70
     1
 71
     0
 10
0.0
 20
0.0
 11
12.0
 21
9.0
 12
0.0
 22
0.0
 32
0.0
 14
0.0
 24
0.0
 34
0.0
 15
0.0
 25
0.0
 35
0.0
146
0.0
 13
0.0
 23
0.0
 33
0.0
 16
1.0
 26
0.0
 36
0.0
 17
0.0
 27
1.0
 37
0.0
 76
     0
330
18
  0
MLINESTYLE
  5
1C
102
{ACAD_REACTORS
330
1B
102
}
330
1B
100
AcDbMlineStyle
  2
STANDARD
 70
     0
  3

 62
   256
 51
90.0
 52
90.0
 71
     2
 49
0.5
 62
   256
  6
BYLAYER
 49
-0.5
 62
   256
  6
BYLAYER
  0
ACDBPLACEHOLDER
  5
4189
102
{ACAD_REACTORS
330
4188
102
}
330
4188
  0
XRECORD
  5
5177
102
{ACAD_REACTORS
330
516D
102
}
330
516D
100
AcDbXrecord
280
     1
 90
        0
  0
XRECORD
  5
5178
102
{ACAD_REACTORS
330
516D
102
}
330
516D
100
AcDbXrecord
280
     1
  1
{21BBB917-79A7-48EA-B0E7-997A5F90763C}
  0
XRECORD
  5
5170
102
{ACAD_REACTORS
330
516D
102
}
330
516D
100
AcDbXrecord
280
     1
  1

  0
XRECORD
  5
5176
102
{ACAD_REACTORS
330
516D
102
}
330
516D
100
AcDbXrecord
280
     1
 90
        0
  0
XRECORD
  5
5172
102
{ACAD_REACTORS
330
516D
102
}
330
516D
100
AcDbXrecord
280
     1
340
418A
  0
XRECORD
  5
5175
102
{ACAD_REACTORS
330
516D
102
}
330
516D
100
AcDbXrecord
280
     1
 90
    10781
  0
XRECORD
  5
5173
102
{ACAD_REACTORS
330
516D
102
}
330
516D
100
AcDbXrecord
280
     1
340
418B
  0
XRECORD
  5
5174
102
{ACAD_REACTORS
330
516D
102
}
330
516D
100
AcDbXrecord
280
     1
340
4188
  0
XRECORD
  5
517A
102
{ACAD_REACTORS
330
516D
102
}
330
516D
100
AcDbXrecord
280
     1
 40
0.0
  0
XRECORD
  5
517D
102
{ACAD_REACTORS
330
516D
102
}
330
516D
100
AcDbXrecord
280
     1
340
0
  0
XRECORD
  5
5183
102
{ACAD_REACTORS
330
516D
102
}
330
516D
100
AcDbXrecord
280
     1
 10
0.0
 20
0.0
 30
0.0
  0
XRECORD
  5
517F
102
{ACAD_REACTORS
330
516D
102
}
330
516D
100
AcDbXrecord
280
     1
 10
0.0
 20
0.0
 30
0.0
  0
XRECORD
  5
5182
102
{ACAD_REACTORS
330
516D
102
}
330
516D
100
AcDbXrecord
280
     1
 10
0.0
 20
0.0
 30
0.0
  0
XRECORD
  5
5180
102
{ACAD_REACTORS
330
516D
102
}
330
516D
100
AcDbXrecord
280
     1
 10
0.0
 20
0.0
 30
0.0
  0
XRECORD
  5
5181
102
{ACAD_REACTORS
330
516D
102
}
330
516D
100
AcDbXrecord
280
     1
 10
0.0
 20
0.0
 30
0.0
  0
XRECORD
  5
517E
102
{ACAD_REACTORS
330
516D
102
}
330
516D
100
AcDbXrecord
280
     1
 10
0.0
 20
0.0
 30
0.0
  0
XRECORD
  5
517B
102
{ACAD_REACTORS
330
516D
102
}
330
516D
100
AcDbXrecord
280
     1
340
0
  0
XRECORD
  5
517C
102
{ACAD_REACTORS
330
516D
102
}
330
516D
100
AcDbXrecord
280
     1
 70
     0
  0
XRECORD
  5
5171
102
{ACAD_REACTORS
330
516D
102
}
330
516D
100
AcDbXrecord
280
     1
  1
monochrome.ctb
  0
XRECORD
  5
516E
102
{ACAD_REACTORS
330
516D
102
}
330
516D
100
AcDbXrecord
280
     1
 90
        1
  0
XRECORD
  5
516F
102
{ACAD_REACTORS
330
516D
102
}
330
516D
100
AcDbXrecord
280
     1
 90
       70
  0
XRECORD
  5
5186
102
{ACAD_REACTORS
330
516D
102
}
330
516D
100
AcDbXrecord
280
     1
340
0
  0
XRECORD
  5
518C
102
{ACAD_REACTORS
330
516D
102
}
330
516D
100
AcDbXrecord
280
     1
 10
0.0
 20
0.0
 30
0.0
  0
XRECORD
  5
5188
102
{ACAD_REACTORS
330
516D
102
}
330
516D
100
AcDbXrecord
280
     1
 10
0.0
 20
0.0
 30
0.0
  0
XRECORD
  5
518B
102
{ACAD_REACTORS
330
516D
102
}
330
516D
100
AcDbXrecord
280
     1
 10
0.0
 20
0.0
 30
0.0
  0
XRECORD
  5
5189
102
{ACAD_REACTORS
330
516D
102
}
330
516D
100
AcDbXrecord
280
     1
 10
0.0
 20
0.0
 30
0.0
  0
XRECORD
  5
518A
102
{ACAD_REACTORS
330
516D
102
}
330
516D
100
AcDbXrecord
280
     1
 10
0.0
 20
0.0
 30
0.0
  0
XRECORD
  5
5187
102
{ACAD_REACTORS
330
516D
102
}
330
516D
100
AcDbXrecord
280
     1
 10
0.0
 20
0.0
 30
0.0
  0
XRECORD
  5
5184
102
{ACAD_REACTORS
330
516D
102
}
330
516D
100
AcDbXrecord
280
     1
340
0
  0
XRECORD
  5
5185
102
{ACAD_REACTORS
330
516D
102
}
330
516D
100
AcDbXrecord
280
     1
 70
     0
  0
XRECORD
  5
5179
102
{ACAD_REACTORS
330
516D
102
}
330
516D
100
AcDbXrecord
280
     1
  1
{93362D83-DF7B-4475-8043-FD11E3DC8B7B}
  0
DICTIONARYVAR
  5
5152
102
{ACAD_REACTORS
330
4CA
102
}
330
4CA
100
DictionaryVariables
280
     0
  1
0
  0
DICTIONARYVAR
  5
479A
102
{ACAD_REACTORS
330
4CA
102
}
330
4CA
100
DictionaryVariables
280
     0
  1
1
  0
DICTIONARYVAR
  5
4CB
102
{ACAD_REACTORS
330
4CA
102
}
330
4CA
100
DictionaryVariables
280
     0
  1
96
  0
DICTIONARY
  5
47B2
102
{ACAD_REACTORS
330
47AC
102
}
330
47AC
100
AcDbDictionary
281
     1
  0
DICTIONARY
  5
4792
102
{ACAD_REACTORS
330
4791
102
}
330
4791
100
AcDbDictionary
281
     1
  3
DWGSETTINGS
350
4793
  3
TRANSSETTINGS
350
4794
  0
ACAMGFILTERDAT
  5
47E3
102
{ACAD_REACTORS
330
47DE
102
}
330
47DE
100
AcAmgFilterDat
 70
    15
  1
DIMENSION,AMDT_*_DIM
  2
*
  3
*
  4
*
  5
*
290
     1
  0
ACAMGFILTERDAT
  5
47E2
102
{ACAD_REACTORS
330
47DE
102
}
330
47DE
100
AcAmgFilterDat
 70
    15
  1
*
  2
AM_FEA-AM_*
  3
*
  4
*
  5
*
290
     1
  0
ACAMGFILTERDAT
  5
47DF
102
{ACAD_REACTORS
330
47DE
102
}
330
47DE
100
AcAmgFilterDat
 70
    15
  1
HATCH
  2
*
  3
*
  4
*
  5
*
290
     1
  0
ACAMGFILTERDAT
  5
47E0
102
{ACAD_REACTORS
330
47DE
102
}
330
47DE
100
AcAmgFilterDat
 70
    15
  1
LINE
  2
8,8N,*-8,*-8N,AM_8,AM_8N,*-AM_8,*-AM_8N
  3
*
  4
*
  5
INSERT,STDPART2D
290
     1
  0
ACAMGFILTERDAT
  5
47E4
102
{ACAD_REACTORS
330
47DE
102
}
330
47DE
100
AcAmgFilterDat
 70
    15
  1
ARC
  2
AM_5
  3
*
  4
2
  5
INSERT
290
     0
  0
ACAMGFILTERDAT
  5
47E1
102
{ACAD_REACTORS
330
47DE
102
}
330
47DE
100
AcAmgFilterDat
 70
    15
  1
ACMFCFRAME,ACMDATUMTARGET,ACMDATUMID,ACMWELDSYM,ACMSURFSYM,ACMFEATID,ACMPARTREF,ACMBALLOON,AMDTEDGESYM
  2
*
  3
*
  4
*
  5
*
290
     1
  0
XRECORD
  5
4947
102
{ACAD_REACTORS
330
4945
102
}
330
4945
100
AcDbXrecord
280
     1
330
0
330
41A0
330
41AF
330
41B5
330
41BB
  0
LAYER_INDEX
  5
4F54
102
{ACAD_REACTORS
330
4F53
102
}
330
4F53
100
AcDbIndex
 40
2452891.549317674
100
AcDbLayerIndex
  8
0
360
4F55
 90
      521
  8
DEFPOINTS
360
4F56
 90
        2
  8
500
360
4F57
 90
      188
  8
4
360
4F58
 90
        0
  8
BORDER
360
4F59
 90
        0
  8
Title Block
360
4F5A
 90
        0
  8
L0
360
4F5B
 90
        0
  0
IDBUFFER
  5
4F55
330
0
100
AcDbIdBuffer
330
3E42
330
3E43
330
3E44
330
3E45
330
3E46
330
3E47
330
3E48
330
3E49
330
3E4A
330
3E4B
330
3E4C
330
3E4D
330
3E4E
330
3E4F
330
3E50
330
3E51
330
3E52
330
3E53
330
3E54
330
3E55
330
3E56
330
3E57
330
3E58
330
3E59
330
3E5A
330
3E5B
330
3E5C
330
3E5D
330
3E5E
330
3E5F
330
3E60
330
3E61
330
3E62
330
3E63
330
3E64
330
3E65
330
3E66
330
3E67
330
3E68
330
3E69
330
3E6A
330
3E6B
330
3E6C
330
3E6D
330
3E6E
330
3E6F
330
3E70
330
3E71
330
3E72
330
3E73
330
3E74
330
3E75
330
3E76
330
3E77
330
3E78
330
3E79
330
3E7A
330
3E7B
330
3E7C
330
3E7D
330
3E7E
330
3E7F
330
3E80
330
3E81
330
3E82
330
3E83
330
3E84
330
3E85
330
3E86
330
3E87
330
3E88
330
3E89
330
3E8A
330
3E8B
330
3E8C
330
3E8D
330
3E8E
330
3E8F
330
3E90
330
3E91
330
3E92
330
3E94
330
3E95
330
3E96
330
3E97
330
3E98
330
3E99
330
3E9A
330
3E9B
330
3E9C
330
3E9D
330
3E9E
330
3E9F
330
3EA0
330
3EA1
330
3EA2
330
3EA3
330
3EA4
330
3EA5
330
3EA6
330
3EA7
330
3EA8
330
3EA9
330
3EAA
330
3EAB
330
3EAC
330
3EAD
330
3EAE
330
3EAF
330
3EB0
330
3EB1
330
3EB2
330
3EB3
330
3EB4
330
3EB5
330
3EB6
330
3EB7
330
3EB8
330
3EB9
330
3EBA
330
3EBB
330
3EBC
330
3EBD
330
3EBE
330
3EBF
330
3EC0
330
3EC1
330
3EC2
330
3EC3
330
3EC4
330
3EC5
330
3EC9
330
3EF3
330
3EF4
330
3EF5
330
3EF6
330
3EF7
330
3EF8
330
3EF9
330
3EFA
330
3EFB
330
3EFC
330
3EFD
330
3EFE
330
3EFF
330
3F00
330
3F01
330
3F02
330
3F03
330
3F04
330
3F05
330
3F06
330
3F07
330
3F08
330
3F09
330
3F0A
330
3F0B
330
3F0C
330
3F0D
330
3F0E
330
3F0F
330
3F10
330
3F11
330
3F12
330
3F13
330
3F14
330
3F15
330
3F16
330
3F17
330
3F18
330
3F19
330
3F1A
330
3F1B
330
3F1C
330
3F1D
330
3F1E
330
3F1F
330
3F20
330
3F21
330
3F22
330
3F23
330
3F24
330
3F25
330
3F26
330
3F27
330
3F28
330
3F29
330
3F2A
330
3F2B
330
3F2C
330
3F2D
330
3F2E
330
3F2F
330
3F30
330
3F31
330
3F32
330
3F33
330
3F34
330
3F35
330
3F36
330
3F37
330
3F38
330
3F39
330
3F3A
330
3F3B
330
3F3C
330
3F3D
330
3F3E
330
3F41
330
3F42
330
3F44
330
3F45
330
3F46
330
3F49
330
3F4A
330
3F4B
330
3F4C
330
3F4D
330
3F4E
330
3F4F
330
3F50
330
3F53
330
3F6F
330
4038
330
4131
330
4132
330
4134
330
4135
330
4136
330
4137
330
4138
330
4139
330
413F
330
4140
330
4151
330
4152
330
4159
330
415C
330
415D
330
415E
330
415F
330
4160
330
4163
330
4164
330
4601
330
4602
330
462E
330
462F
330
4634
330
4635
330
4636
330
4637
330
4638
330
4639
330
463A
330
463B
330
4643
330
4644
330
464B
330
464C
330
466B
330
466C
330
46CF
330
46D1
330
46D8
330
4725
330
4726
330
4727
330
4728
330
4729
330
472A
330
472B
330
472C
330
4735
330
4736
330
49EB
330
4CCF
330
4CD0
330
4CD1
330
4CD2
330
4CD3
330
4CD4
330
4CD5
330
4CD6
330
4CD7
330
4CD8
330
4CD9
330
4CDA
330
4CDB
330
4CDC
330
4CDD
330
4CDE
330
4CDF
330
4CE0
330
4CE1
330
4CE2
330
4CE3
330
4CE4
330
4CE5
330
4CE6
330
4CE7
330
4CE8
330
4CE9
330
4CEA
330
4CEB
330
4CEC
330
4CED
330
4CEE
330
4CEF
330
4CF0
330
4CF1
330
4CF2
330
4CF3
330
4CF4
330
4CF5
330
4CF6
330
4CF7
330
4CF8
330
4CF9
330
4CFA
330
4CFB
330
4CFC
330
4CFD
330
4CFE
330
4CFF
330
4D00
330
4D01
330
4D02
330
4D03
330
4D04
330
4D05
330
4D06
330
4D07
330
4D08
330
4D0A
330
4D0B
330
4D0C
330
4D0D
330
4D0E
330
4D0F
330
4D10
330
4D11
330
4D12
330
4D13
330
4D14
330
4D15
330
4D16
330
4D17
330
4D18
330
4D19
330
4D1A
330
4D1B
330
4D1C
330
4D1D
330
4D1E
330
4D1F
330
4D20
330
4D21
330
4D22
330
4D23
330
4D24
330
4D25
330
4D26
330
4D27
330
4D28
330
4D29
330
4D2A
330
4D2B
330
4D2C
330
4D2D
330
4D2E
330
4D2F
330
4D30
330
4D31
330
4D32
330
4D33
330
4D34
330
4D35
330
4D36
330
4D37
330
4D38
330
4D39
330
4D3A
330
4D3B
330
4D3C
330
4D3D
330
4D3E
330
4D3F
330
4D40
330
4D41
330
4D42
330
4D43
330
4D44
330
4D45
330
4D46
330
4D47
330
4D48
330
4D49
330
4D4A
330
4D4B
330
4D4C
330
4D4D
330
4D4E
330
4D4F
330
4D50
330
4D51
330
4D52
330
4D53
330
4D54
330
4D55
330
4D56
330
4D57
330
4D58
330
4D59
330
4D5A
330
4D5B
330
4D5C
330
4D5D
330
4D5E
330
4D5F
330
4D60
330
4D61
330
4D62
330
4D63
330
4D64
330
4D65
330
4D66
330
4D67
330
4D68
330
4D69
330
4D6A
330
4D6B
330
4D6C
330
4D6D
330
4D6E
330
4D6F
330
4D70
330
4D71
330
4D72
330
4D73
330
4D74
330
4D75
330
4D76
330
4D77
330
4D78
330
4D79
330
4D7A
330
4D7B
330
4D7C
330
4D7D
330
4D7E
330
4D7F
330
4D80
330
4D81
330
4D82
330
4D83
330
4D84
330
4D85
330
4D86
330
4D87
330
4D88
330
4D8A
330
4D8B
330
4D8C
330
4ECF
330
4F12
330
4F13
330
4F14
330
4F46
330
4F47
330
4F48
330
4F4E
330
4F4F
330
4F50
330
5064
330
5065
330
5066
330
5067
330
5068
330
509A
330
509E
330
50A8
330
50B1
330
50B2
330
50B3
330
50B7
330
50BD
330
50BE
330
50CB
330
50CC
330
50CD
330
50D5
330
50D6
330
50D7
330
50DD
330
50DE
330
50DF
330
50E0
330
50E1
330
50E2
330
50E3
330
50E4
330
50E5
330
50E6
330
50E7
330
50E8
330
50E9
330
50EA
330
50EB
330
50EC
330
510E
330
5113
330
5115
330
5117
330
5118
330
5119
330
5127
330
5140
330
514B
330
514C
330
514D
  0
IDBUFFER
  5
4F56
330
0
100
AcDbIdBuffer
330
3F3F
330
3F6E
  0
IDBUFFER
  5
4F57
330
0
100
AcDbIdBuffer
330
5063
330
5069
330
506A
330
506B
330
506C
330
506D
330
506E
330
506F
330
5070
330
5071
330
5072
330
5073
330
5074
330
5075
330
5076
330
5077
330
5078
330
5079
330
507A
330
507B
330
507C
330
507D
330
507E
330
507F
330
5080
330
5081
330
5082
330
5083
330
5084
330
5085
330
5086
330
5087
330
5088
330
5089
330
508A
330
508B
330
508C
330
508D
330
508E
330
508F
330
5090
330
5091
330
5092
330
5093
330
5094
330
5095
330
5096
330
5097
330
5098
330
5099
330
509B
330
509C
330
509D
330
509F
330
50A0
330
50A1
330
50A2
330
50A3
330
50A4
330
50A5
330
50A6
330
50A7
330
50A9
330
50AA
330
50AB
330
50AC
330
50AD
330
50AE
330
50AF
330
50B0
330
50B4
330
50B5
330
50B6
330
50B8
330
50B9
330
50BA
330
50BB
330
50BC
330
50BF
330
50C0
330
50C1
330
50C2
330
50C3
330
50C4
330
50C5
330
50C6
330
50C7
330
50C8
330
50C9
330
50CA
330
50CE
330
50CF
330
50D0
330
50D1
330
50D2
330
50D3
330
50D4
330
50D8
330
50D9
330
50DA
330
50DB
330
50DC
330
50ED
330
50EE
330
50EF
330
50F0
330
50F1
330
50F2
330
50F3
330
50F4
330
50F5
330
50F6
330
50F7
330
50F8
330
50F9
330
50FA
330
50FB
330
50FC
330
50FD
330
50FE
330
50FF
330
5100
330
5101
330
5102
330
5103
330
5104
330
5105
330
5106
330
5107
330
5108
330
5109
330
510A
330
510B
330
510C
330
510D
330
510F
330
5110
330
5111
330
5112
330
5114
330
5116
330
511A
330
511B
330
511C
330
511D
330
511E
330
511F
330
5120
330
5121
330
5122
330
5123
330
5124
330
5125
330
5126
330
5128
330
5129
330
512A
330
512B
330
512C
330
512D
330
512E
330
512F
330
5130
330
5131
330
5132
330
5133
330
5134
330
5135
330
5136
330
5137
330
5138
330
5139
330
513A
330
513B
330
513C
330
513D
330
513E
330
513F
330
5141
330
5142
330
5143
330
5144
330
5145
330
5146
330
5147
330
5148
330
5149
330
514A
  0
IDBUFFER
  5
4F58
330
0
100
AcDbIdBuffer
  0
IDBUFFER
  5
4F59
330
0
100
AcDbIdBuffer
  0
IDBUFFER
  5
4F5A
330
0
100
AcDbIdBuffer
  0
IDBUFFER
  5
4F5B
330
0
100
AcDbIdBuffer
  0
ENDSEC
  0
EOF
