  0
SECTION
  2
HEADER
  9
$ACADVER
  1
AC1015
  9
$ACADMAINTVER
 70
    11
  9
$DWGCODEPAGE
  3
ANSI_1252
  9
$INSBASE
 10
0.0
 20
0.0
 30
0.0
  9
$EXTMIN
 10
-0.0006713354967829
 20
0.2446136873269111
 30
-0.0015258207003583
  9
$EXTMAX
 10
22.00067143794227
 20
17.00051883840993
 30
0.0000000349246037
  9
$LIMMIN
 10
0.0
 20
0.0
  9
$LIMMAX
 10
12.0
 20
9.0
  9
$ORTHOMODE
 70
     0
  9
$REGENMODE
 70
     1
  9
$FILLMODE
 70
     1
  9
$QTEXTMODE
 70
     0
  9
$MIRRTEXT
 70
     1
  9
$LTSCALE
 40
1.0
  9
$ATTMODE
 70
     1
  9
$TEXTSIZE
 40
0.1
  9
$TRACEWID
 40
0.05
  9
$TEXTSTYLE
  7
Standard
  9
$CLAYER
  8
0
  9
$CELTYPE
  6
ByLayer
  9
$CECOLOR
 62
   256
  9
$CELTSCALE
 40
1.0
  9
$DISPSILH
 70
     0
  9
$DIMSCALE
 40
1.0
  9
$DIMASZ
 40
0.18
  9
$DIMEXO
 40
0.0625
  9
$DIMDLI
 40
0.38
  9
$DIMRND
 40
0.0
  9
$DIMDLE
 40
0.0
  9
$DIMEXE
 40
0.18
  9
$DIMTP
 40
0.0
  9
$DIMTM
 40
0.0
  9
$DIMTXT
 40
0.125
  9
$DIMCEN
 40
0.09
  9
$DIMTSZ
 40
0.0
  9
$DIMTOL
 70
     0
  9
$DIMLIM
 70
     0
  9
$DIMTIH
 70
     1
  9
$DIMTOH
 70
     1
  9
$DIMSE1
 70
     0
  9
$DIMSE2
 70
     0
  9
$DIMTAD
 70
     0
  9
$DIMZIN
 70
     0
  9
$DIMBLK
  1

  9
$DIMASO
 70
     1
  9
$DIMSHO
 70
     1
  9
$DIMPOST
  1

  9
$DIMAPOST
  1

  9
$DIMALT
 70
     0
  9
$DIMALTD
 70
     2
  9
$DIMALTF
 40
25.4
  9
$DIMLFAC
 40
1.0
  9
$DIMTOFL
 70
     0
  9
$DIMTVP
 40
0.0
  9
$DIMTIX
 70
     0
  9
$DIMSOXD
 70
     0
  9
$DIMSAH
 70
     0
  9
$DIMBLK1
  1

  9
$DIMBLK2
  1

  9
$DIMSTYLE
  2
Standard
  9
$DIMCLRD
 70
     0
  9
$DIMCLRE
 70
     0
  9
$DIMCLRT
 70
     0
  9
$DIMTFAC
 40
1.0
  9
$DIMGAP
 40
0.09
  9
$DIMJUST
 70
     0
  9
$DIMSD1
 70
     0
  9
$DIMSD2
 70
     0
  9
$DIMTOLJ
 70
     1
  9
$DIMTZIN
 70
     0
  9
$DIMALTZ
 70
     0
  9
$DIMALTTZ
 70
     0
  9
$DIMUPT
 70
     0
  9
$DIMDEC
 70
     4
  9
$DIMTDEC
 70
     4
  9
$DIMALTU
 70
     2
  9
$DIMALTTD
 70
     2
  9
$DIMTXSTY
  7
Standard
  9
$DIMAUNIT
 70
     0
  9
$DIMADEC
 70
     0
  9
$DIMALTRND
 40
0.0
  9
$DIMAZIN
 70
     0
  9
$DIMDSEP
 70
    46
  9
$DIMATFIT
 70
     3
  9
$DIMFRAC
 70
     0
  9
$DIMLDRBLK
  1

  9
$DIMLUNIT
 70
     2
  9
$DIMLWD
 70
    -2
  9
$DIMLWE
 70
    -2
  9
$DIMTMOVE
 70
     0
  9
$LUNITS
 70
     2
  9
$LUPREC
 70
     4
  9
$SKETCHINC
 40
0.1
  9
$FILLETRAD
 40
0.5
  9
$AUNITS
 70
     0
  9
$AUPREC
 70
     0
  9
$MENU
  1
.
  9
$ELEVATION
 40
0.0
  9
$PELEVATION
 40
0.0
  9
$THICKNESS
 40
0.0
  9
$LIMCHECK
 70
     0
  9
$CHAMFERA
 40
0.5
  9
$CHAMFERB
 40
0.5
  9
$CHAMFERC
 40
1.0
  9
$CHAMFERD
 40
0.0
  9
$SKPOLY
 70
     0
  9
$TDCREATE
 40
2452544.435273194
  9
$TDUCREATE
 40
2452544.643606527
  9
$TDUPDATE
 40
2452892.348327291
  9
$TDUUPDATE
 40
2452892.556660625
  9
$TDINDWG
 40
0.3103505671
  9
$TDUSRTIMER
 40
0.3103504514
  9
$USRTIMER
 70
     1
  9
$ANGBASE
 50
0.0
  9
$ANGDIR
 70
     0
  9
$PDMODE
 70
     0
  9
$PDSIZE
 40
0.0
  9
$PLINEWID
 40
0.0
  9
$SPLFRAME
 70
     0
  9
$SPLINETYPE
 70
     6
  9
$SPLINESEGS
 70
     8
  9
$HANDSEED
  5
E51
  9
$SURFTAB1
 70
     6
  9
$SURFTAB2
 70
     6
  9
$SURFTYPE
 70
     6
  9
$SURFU
 70
     6
  9
$SURFV
 70
     6
  9
$UCSBASE
  2

  9
$UCSNAME
  2

  9
$UCSORG
 10
0.0
 20
0.0
 30
0.0
  9
$UCSXDIR
 10
1.0
 20
0.0
 30
0.0
  9
$UCSYDIR
 10
0.0
 20
1.0
 30
0.0
  9
$UCSORTHOREF
  2

  9
$UCSORTHOVIEW
 70
     0
  9
$UCSORGTOP
 10
0.0
 20
0.0
 30
0.0
  9
$UCSORGBOTTOM
 10
0.0
 20
0.0
 30
0.0
  9
$UCSORGLEFT
 10
0.0
 20
0.0
 30
0.0
  9
$UCSORGRIGHT
 10
0.0
 20
0.0
 30
0.0
  9
$UCSORGFRONT
 10
0.0
 20
0.0
 30
0.0
  9
$UCSORGBACK
 10
0.0
 20
0.0
 30
0.0
  9
$PUCSBASE
  2

  9
$PUCSNAME
  2

  9
$PUCSORG
 10
0.0
 20
0.0
 30
0.0
  9
$PUCSXDIR
 10
1.0
 20
0.0
 30
0.0
  9
$PUCSYDIR
 10
0.0
 20
1.0
 30
0.0
  9
$PUCSORTHOREF
  2

  9
$PUCSORTHOVIEW
 70
     0
  9
$PUCSORGTOP
 10
0.0
 20
0.0
 30
0.0
  9
$PUCSORGBOTTOM
 10
0.0
 20
0.0
 30
0.0
  9
$PUCSORGLEFT
 10
0.0
 20
0.0
 30
0.0
  9
$PUCSORGRIGHT
 10
0.0
 20
0.0
 30
0.0
  9
$PUCSORGFRONT
 10
0.0
 20
0.0
 30
0.0
  9
$PUCSORGBACK
 10
0.0
 20
0.0
 30
0.0
  9
$USERI1
 70
     0
  9
$USERI2
 70
     0
  9
$USERI3
 70
     0
  9
$USERI4
 70
     0
  9
$USERI5
 70
     0
  9
$USERR1
 40
0.0
  9
$USERR2
 40
0.0
  9
$USERR3
 40
0.0
  9
$USERR4
 40
0.0
  9
$USERR5
 40
0.0
  9
$WORLDVIEW
 70
     1
  9
$SHADEDGE
 70
     3
  9
$SHADEDIF
 70
    70
  9
$TILEMODE
 70
     1
  9
$MAXACTVP
 70
    64
  9
$PINSBASE
 10
0.0
 20
0.0
 30
0.0
  9
$PLIMCHECK
 70
     0
  9
$PEXTMIN
 10
1.000000000000000E+20
 20
1.000000000000000E+20
 30
1.000000000000000E+20
  9
$PEXTMAX
 10
-1.000000000000000E+20
 20
-1.000000000000000E+20
 30
-1.000000000000000E+20
  9
$PLIMMIN
 10
0.0
 20
0.0
  9
$PLIMMAX
 10
12.0
 20
9.0
  9
$UNITMODE
 70
     0
  9
$VISRETAIN
 70
     1
  9
$PLINEGEN
 70
     0
  9
$PSLTSCALE
 70
     1
  9
$TREEDEPTH
 70
  3020
  9
$CMLSTYLE
  2
Standard
  9
$CMLJUST
 70
     0
  9
$CMLSCALE
 40
1.0
  9
$PROXYGRAPHICS
 70
     1
  9
$MEASUREMENT
 70
     0
  9
$CELWEIGHT
370
    -1
  9
$ENDCAPS
280
     0
  9
$JOINSTYLE
280
     0
  9
$LWDISPLAY
290
     0
  9
$INSUNITS
 70
     1
  9
$HYPERLINKBASE
  1

  9
$STYLESHEET
  1
monochrome.ctb
  9
$XEDIT
290
     1
  9
$CEPSNTYPE
380
     0
  9
$PSTYLEMODE
290
     1
  9
$FINGERPRINTGUID
  2
{B826B6B0-D14A-11D6-843B-00B0D02CC2F3}
  9
$VERSIONGUID
  2
{A8D55318-8E7E-4352-9F02-D53C44A266C6}
  9
$EXTNAMES
290
     1
  9
$PSVPSCALE
 40
0.0
  9
$OLESTARTUP
290
     0
  0
ENDSEC
  0
SECTION
  2
CLASSES
  0
CLASS
  1
ACDBDICTIONARYWDFLT
  2
AcDbDictionaryWithDefault
  3
AutoCAD 2000
 90
        0
280
     0
281
     0
  0
CLASS
  1
ACDBPLACEHOLDER
  2
AcDbPlaceHolder
  3
AutoCAD 2000
 90
        0
280
     0
281
     0
  0
CLASS
  1
LAYOUT
  2
AcDbLayout
  3
AutoCAD 2000
 90
        0
280
     0
281
     0
  0
CLASS
  1
ACME_DOCUMENT
  2
AcMeDbDoc
  3
AcMeServices
 90
        0
280
     0
281
     0
  0
CLASS
  1
AMGSETTINGSOBJ
  2
AmgSettingsObj
  3
"AcadM|Product Description: AutoCAD Mechanical 2000|Company: Autodesk"
 90
        0
280
     0
281
     0
  0
CLASS
  1
ACMESCOPE
  2
AcMeScope
  3
AcMeServices
 90
        0
280
     0
281
     0
  0
CLASS
  1
ACMECOMMANDHISTORY
  2
AcMeCommandHistory
  3
AcMeServices
 90
        0
280
     0
281
     0
  0
CLASS
  1
DICTIONARYVAR
  2
AcDbDictionaryVar
  3
AutoCAD 2000
 90
        0
280
     0
281
     0
  0
CLASS
  1
ACIMSYSVARMAN
  2
AcImSysVarManager
  3
AcMeServices
 90
        0
280
     0
281
     0
  0
CLASS
  1
ACIMREALSYSVAR
  2
AcImRealSysVar
  3
AcMeServices
 90
        0
280
     0
281
     0
  0
CLASS
  1
ACIMINTSYSVAR
  2
AcImIntSysVar
  3
AcMeServices
 90
        0
280
     0
281
     0
  0
CLASS
  1
ACMEDRAWINGMAN
  2
AcMeDrawingMan
  3
AcMeServices
 90
        0
280
     0
281
     0
  0
CLASS
  1
ACMEVIEW
  2
AcMeView
  3
AcMeServices
 90
        0
280
     0
281
     0
  0
CLASS
  1
ACDBENTITYCACHE
  2
AcMeEntityCache
  3
AcMeServices
 90
        0
280
     0
281
     0
  0
CLASS
  1
GSMANAGER
  2
AcMeGSManager
  3
AcMeServices
 90
        0
280
     0
281
     0
  0
CLASS
  1
AMDTINTERNALREACTOR
  2
AmdtInternalReactor
  3
AcMeServices
 90
        0
280
     0
281
     0
  0
CLASS
  1
ACMESTATEMGR
  2
AcMeStateMgr
  3
AcMeServices
 90
        0
280
     0
281
     0
  0
CLASS
  1
ACGREFMASTER
  2
AcGrefMaster
  3
AcAttribServices
 90
        0
280
     0
281
     0
  0
CLASS
  1
ACME_DATABASE
  2
AcMeDbDatabase
  3
AcMeServices
 90
        0
280
     0
281
     0
  0
CLASS
  1
ACRFINSADJUSTERMGR
  2
AcRfInsAdjusterMgr
  3
AcMeServices
 90
        0
280
     0
281
     0
  0
CLASS
  1
ACGREFMASTER
  2
AcGrefacadMaster
  3
AcGrefServices
 90
        0
280
     0
281
     0
  0
CLASS
  1
AMIMASTER
  2
AmiMaster
  3
AmiServices
 90
        0
280
     0
281
     0
  0
CLASS
  1
ACMDATADICTIONARY
  2
AcmDataDictionary
  3
"AcmSymBB|Product Description: AutoCAD Mechanical 2000|Company: Autodesk"
 90
        0
280
     0
281
     0
  0
CLASS
  1
ACMDATAENTRYBLOCK
  2
AcmDataEntryBlock
  3
"AcmSymBB|Product Description: AutoCAD Mechanical 2000|Company: Autodesk"
 90
        0
280
     0
281
     0
  0
CLASS
  1
ACIMSTRSYSVAR
  2
AcImStrSysVar
  3
AcMeServices
 90
        0
280
     0
281
     0
  0
CLASS
  1
ACMSTANDARDANSI
  2
AcmStandardANSI
  3
"Amdt_StdImp|Product Description: AutoCAD Mechanical 2000|Company: Autodesk"
 90
        0
280
     0
281
     0
  0
CLASS
  1
AMGOBJPROPCFG
  2
AmgObjPropCfg
  3
"AmgLay|Product Description: AutoCAD Mechanical 2000|Company: Autodesk"
 90
        1
280
     0
281
     0
  0
CLASS
  1
ACMSURFSTANDARDANSI
  2
AcmSurfTextStdANSI
  3
"Amdt_StdImp|Product Description: AutoCAD Mechanical 2000|Company: Autodesk"
 90
        0
280
     0
281
     0
  0
CLASS
  1
ACMFCFSTANDARDANSI
  2
AcmFCFStdANSI
  3
"Amdt_StdImp|Product Description: AutoCAD Mechanical 2000|Company: Autodesk"
 90
        0
280
     0
281
     0
  0
CLASS
  1
ACMWELDSTANDARDANSI
  2
AcmWeldingStdANSI
  3
"Amdt_StdImp|Product Description: AutoCAD Mechanical 2000|Company: Autodesk"
 90
        0
280
     0
281
     0
  0
CLASS
  1
ACMIDSTANDARDANSI
  2
AcmIdStdANSI
  3
"Amdt_StdImp|Product Description: AutoCAD Mechanical 2000|Company: Autodesk"
 90
        0
280
     0
281
     0
  0
CLASS
  1
ACMDATUMSTANDARDANSI
  2
AcmDatumStdANSI
  3
"Amdt_StdImp|Product Description: AutoCAD Mechanical 2000|Company: Autodesk"
 90
        0
280
     0
281
     0
  0
CLASS
  1
ACMBOMSTANDARDANSI
  2
AcmBOMStdANSI
  3
"Amdt_StdImp|Product Description: AutoCAD Mechanical 2000|Company: Autodesk"
 90
        0
280
     0
281
     0
  0
CLASS
  1
ACMDETAILSTANDARDANSI
  2
AmdtDetailSymStdANSI
  3
"Amdt_StdImp|Product Description: AutoCAD Mechanical 2000|Company: Autodesk"
 90
        0
280
     0
281
     0
  0
CLASS
  1
ACMSECTIONSTANDARDANSI
  2
AmdtSectionSymStdANSI
  3
"Amdt_StdImp|Product Description: AutoCAD Mechanical 2000|Company: Autodesk"
 90
        0
280
     0
281
     0
  0
CLASS
  1
ACMCENTERLINESTANDARDANSI
  2
AmdtCenterLineStdANSI
  3
"Amdt_StdImp|Product Description: AutoCAD Mechanical 2000|Company: Autodesk"
 90
        0
280
     0
281
     0
  0
CLASS
  1
ACMTHREADLINESTANDARDANSI
  2
AmdtThreadLineStdANSI
  3
"Amdt_StdImp|Product Description: AutoCAD Mechanical 2000|Company: Autodesk"
 90
        0
280
     0
281
     0
  0
CLASS
  1
"AcAmgLayStd"
  2
AcAmgLayStd
  3
"AcAmgLayStd|Product Description: AutoCAD Mechanical 2000|Company: Autodesk"
 90
        0
280
     0
281
     0
  0
CLASS
  1
"AcAmgDimStd"
  2
AcAmgDimStd
  3
"AcAmgDimStd|Product Description: AutoCAD Mechanical 2000|Company: Autodesk"
 90
        0
280
     0
281
     0
  0
CLASS
  1
AcAmgTitleStd
  2
AcAmgTitleStd
  3
"TITLEAPP"
 90
        0
280
     0
281
     0
  0
CLASS
  1
ACAMGFILTERDAT
  2
AcAmgFilterDat
  3
"AcadM|Product Description: AutoCAD Mechanical 2000|Company: Autodesk"
 90
        0
280
     0
281
     0
  0
CLASS
  1
AMDTFORMULAUPDATEDISPATCHER
  2
AmdtFormulaUpdateDispatcher
  3
AcMeServices
 90
        0
280
     0
281
     0
  0
CLASS
  1
LAYER_INDEX
  2
AcDbLayerIndex
  3
AutoCAD 2000
 90
        0
280
     0
281
     0
  0
CLASS
  1
IDBUFFER
  2
AcDbIdBuffer
  3
AutoCAD 2000
 90
        0
280
     0
281
     0
  0
ENDSEC
  0
SECTION
  2
TABLES
  0
TABLE
  2
VPORT
  5
8
330
0
100
AcDbSymbolTable
 70
    20
  0
VPORT
  5
E30
330
8
100
AcDbSymbolTableRecord
100
AcDbViewportTableRecord
  2
*Active
 70
     0
 10
0.0
 20
0.0
 11
1.0
 21
1.0
 12
11.00000005122274
 22
8.622566262868422
 13
0.0
 23
0.0
 14
0.0625
 24
0.0625
 15
0.5
 25
0.5
 16
0.0
 26
0.0
 36
1.0
 17
0.0
 27
0.0
 37
0.0
 40
16.93352958731358
 41
1.607079646017699
 42
50.0
 43
0.0
 44
0.0
 50
0.0
 51
0.0
 71
     0
 72
   100
 73
     1
 74
     3
 75
     0
 76
     0
 77
     0
 78
     0
281
     0
 65
     1
110
0.0
120
0.0
130
0.0
111
1.0
121
0.0
131
0.0
112
0.0
122
1.0
132
0.0
 79
     0
146
0.0
  0
ENDTAB
  0
TABLE
  2
LTYPE
  5
5
330
0
100
AcDbSymbolTable
 70
    20
  0
LTYPE
  5
14
330
5
100
AcDbSymbolTableRecord
100
AcDbLinetypeTableRecord
  2
ByBlock
 70
     0
  3

 72
    65
 73
     0
 40
0.0
  0
LTYPE
  5
15
330
5
100
AcDbSymbolTableRecord
100
AcDbLinetypeTableRecord
  2
ByLayer
 70
     0
  3

 72
    65
 73
     0
 40
0.0
  0
LTYPE
  5
16
330
5
100
AcDbSymbolTableRecord
100
AcDbLinetypeTableRecord
  2
Continuous
 70
     0
  3
Solid line
 72
    65
 73
     0
 40
0.0
  0
LTYPE
  5
31
330
5
100
AcDbSymbolTableRecord
100
AcDbLinetypeTableRecord
  2
LS
 70
     0
  3
LIGHT_SOLID
 72
    65
 73
     0
 40
0.0
  0
LTYPE
  5
32
330
5
100
AcDbSymbolTableRecord
100
AcDbLinetypeTableRecord
  2
LP
 70
     0
  3
LIGHT_PHANTOM
 72
    65
 73
     6
 40
1.5
 49
0.75
 74
     0
 49
-0.14999998
 74
     0
 49
0.14999998
 74
     0
 49
-0.14999998
 74
     0
 49
0.14999998
 74
     0
 49
-0.14999998
 74
     0
  0
LTYPE
  5
3B
330
5
100
AcDbSymbolTableRecord
100
AcDbLinetypeTableRecord
  2
HIDDEN
 70
     0
  3
Hidden __ __ __ __ __ __ __ __ __ __ __ __ __ _
 72
    65
 73
     2
 40
0.375
 49
0.25
 74
     0
 49
-0.125
 74
     0
  0
LTYPE
  5
3C
330
5
100
AcDbSymbolTableRecord
100
AcDbLinetypeTableRecord
  2
CENTER
 70
     0
  3
Center ____ _ ____ _ ____ _ ____ _ ____ _ ____
 72
    65
 73
     4
 40
2.0
 49
1.25
 74
     0
 49
-0.25
 74
     0
 49
0.25
 74
     0
 49
-0.25
 74
     0
  0
LTYPE
  5
AC4
330
5
100
AcDbSymbolTableRecord
100
AcDbLinetypeTableRecord
  2
AM_ISO02W050
 70
     0
  3
__ __ __ __ __ __ __ __ __ __ __ __ __ __ __
 72
    65
 73
     2
 40
7.5
 49
6.0
 74
     0
 49
-1.5
 74
     0
  0
LTYPE
  5
AC5
330
5
100
AcDbSymbolTableRecord
100
AcDbLinetypeTableRecord
  2
AM_ISO08W050
 70
     0
  3
____ . ____ . ____ . ____ . ____ . ____ . ____
 72
    65
 73
     4
 40
18.0
 49
12.0
 74
     0
 49
-1.5
 74
     0
 49
3.0
 74
     0
 49
-1.5
 74
     0
  0
LTYPE
  5
AC6
330
5
100
AcDbSymbolTableRecord
100
AcDbLinetypeTableRecord
  2
AM_ISO09W050
 70
     0
  3
_____ . . _____ . . _____ . . ____ .. ____
 72
    65
 73
     6
 40
22.5
 49
12.0
 74
     0
 49
-1.5
 74
     0
 49
3.0
 74
     0
 49
-1.5
 74
     0
 49
3.0
 74
     0
 49
-1.5
 74
     0
  0
LTYPE
  5
AC7
330
5
100
AcDbSymbolTableRecord
100
AcDbLinetypeTableRecord
  2
Amconstr
 70
     0
  3
_______________________
 72
    65
 73
     2
 40
9999.0
 49
9999.0
 74
     0
 49
0.0
 74
     0
  0
LTYPE
  5
AC8
330
5
100
AcDbSymbolTableRecord
100
AcDbLinetypeTableRecord
  2
AM_ISO08W050x2
 70
     0
  3
__ . __ . __ . __ . __ . __
 72
    65
 73
     4
 40
9.0
 49
6.0
 74
     0
 49
-0.75
 74
     0
 49
1.5
 74
     0
 49
-0.75
 74
     0
  0
LTYPE
  5
AC9
330
5
100
AcDbSymbolTableRecord
100
AcDbLinetypeTableRecord
  2
AM_ISO02W050x2
 70
     0
  3
 _ _ _ _ _ _ _ _ _ _ _ _
 72
    65
 73
     2
 40
3.75
 49
3.0
 74
     0
 49
-0.75
 74
     0
  0
LTYPE
  5
ACC
330
5
100
AcDbSymbolTableRecord
100
AcDbLinetypeTableRecord
  2
Amzigzag
 70
     0
  3
/\/-/\/-/\/-/\/-/\/-/\/
 72
    65
 73
     2
 40
11.00009999999999
 49
0.0001
 74
     4
 75
   135
340
ACB
 46
0.04
 50
0.0
 44
0.0
 45
0.0
 49
-11.0
 74
     0
  0
LTYPE
  5
ACD
330
5
100
AcDbSymbolTableRecord
100
AcDbLinetypeTableRecord
  2
PHANTOM2
 70
     0
  3
Phantom (.5x) ___ _ _ ___ _ _ ___ _ _ ___ _ _
 72
    65
 73
     6
 40
1.25
 49
0.625
 74
     0
 49
-0.125
 74
     0
 49
0.125
 74
     0
 49
-0.125
 74
     0
 49
0.125
 74
     0
 49
-0.125
 74
     0
  0
LTYPE
  5
ACE
330
5
100
AcDbSymbolTableRecord
100
AcDbLinetypeTableRecord
  2
CENTER2
 70
     0
  3
Center (.5x) ___ _ ___ _ ___ _ ___ _ ___ _ ___
 72
    65
 73
     4
 40
1.125
 49
0.75
 74
     0
 49
-0.125
 74
     0
 49
0.125
 74
     0
 49
-0.125
 74
     0
  0
LTYPE
  5
ACF
330
5
100
AcDbSymbolTableRecord
100
AcDbLinetypeTableRecord
  2
HIDDEN2
 70
     0
  3
Hidden (.5x) _ _ _ _ _ _ _ _ _ _ _ _ _ _ _ _ _
 72
    65
 73
     2
 40
0.1875
 49
0.125
 74
     0
 49
-0.0625
 74
     0
  0
LTYPE
  5
AD0
330
5
100
AcDbSymbolTableRecord
100
AcDbLinetypeTableRecord
  2
Amzigzag2
 70
     0
  3
/\/-/\/-/\/-/\/-/\/-/\/
 72
    65
 73
     2
 40
0.4401
 49
0.0001
 74
     4
 75
   135
340
ACB
 46
0.0016
 50
0.0
 44
0.0
 45
0.0
 49
-0.4400000000000001
 74
     0
  0
LTYPE
  5
ADD
330
5
100
AcDbSymbolTableRecord
100
AcDbLinetypeTableRecord
  2
ACANSTGB
 70
     0
  3
__ . . __ . .
 72
    65
 73
     6
 40
0.35433070866
 49
0.15748031496
 74
     0
 49
-0.03937007874
 74
     0
 49
0.03937007874
 74
     0
 49
-0.03937007874
 74
     0
 49
0.03937007874
 74
     0
 49
-0.03937007874
 74
     0
  0
LTYPE
  5
ADE
330
5
100
AcDbSymbolTableRecord
100
AcDbLinetypeTableRecord
  2
ACANSTGL
 70
     0
  3
_ _ _ _ _
 72
    65
 73
     2
 40
0.11811023622
 49
0.07874015748
 74
     0
 49
-0.03937007874
 74
     0
  0
LTYPE
  5
AF6
330
5
100
AcDbSymbolTableRecord
100
AcDbLinetypeTableRecord
  2
MS
 70
     0
  3
MEDIUM_SOLID
 72
    65
 73
     0
 40
0.0
  0
LTYPE
  5
AF7
330
5
100
AcDbSymbolTableRecord
100
AcDbLinetypeTableRecord
  2
NC
 70
     0
  3
NUMERIC_CONTROL
 72
    65
 73
     0
 40
0.0
  0
ENDTAB
  0
TABLE
  2
LAYER
  5
2
330
0
100
AcDbSymbolTable
 70
     4
  0
LAYER
  5
10
330
2
100
AcDbSymbolTableRecord
100
AcDbLayerTableRecord
  2
0
 70
     0
 62
     7
  6
Continuous
370
    -3
390
F
  0
LAYER
  5
43
330
2
100
AcDbSymbolTableRecord
100
AcDbLayerTableRecord
  2
BORDER
 70
     0
 62
    15
  6
Continuous
370
    -3
390
F
  0
LAYER
  5
44
330
2
100
AcDbSymbolTableRecord
100
AcDbLayerTableRecord
  2
TITLE BLOCK
 70
     0
 62
     2
  6
Continuous
370
    -3
390
F
  0
LAYER
  5
12B
330
2
100
AcDbSymbolTableRecord
100
AcDbLayerTableRecord
  2
1
 70
     0
 62
     7
  6
Continuous
370
    -3
390
F
  0
ENDTAB
  0
TABLE
  2
STYLE
  5
3
330
0
100
AcDbSymbolTable
 70
     8
  0
STYLE
  5
11
330
3
100
AcDbSymbolTableRecord
100
AcDbTextStyleTableRecord
  2
Standard
 70
     0
 40
0.0
 41
1.0
 50
0.0
 71
     0
 42
0.1
  3
romans.shx
  4

  0
STYLE
  5
45
330
3
100
AcDbSymbolTableRecord
100
AcDbTextStyleTableRecord
  2
AE
 70
     0
 40
0.0
 41
1.0
 50
0.0
 71
     0
 42
0.16408998
  3
MIGRATOR
  4

  0
STYLE
  5
12C
330
3
100
AcDbSymbolTableRecord
100
AcDbTextStyleTableRecord
  2
SIMPLEX
 70
     0
 40
0.0938
 41
1.0
 50
0.0
 71
     0
 42
0.0938
  3
C:\ACADWIN\FONTS\SIMPLEX.SHX
  4

  0
STYLE
  5
12D
330
3
100
AcDbSymbolTableRecord
100
AcDbTextStyleTableRecord
  2
ROMANS
 70
     0
 40
0.0
 41
1.0
 50
0.0
 71
     0
 42
0.09375
  3
romans
  4

  0
STYLE
  5
ACB
330
3
100
AcDbSymbolTableRecord
100
AcDbTextStyleTableRecord
  2

 70
     1
 40
0.0
 41
1.0
 50
0.0
 71
     0
 42
0.2
  3
ltypeshp.shx
  4

  0
STYLE
  5
AD1
330
3
100
AcDbSymbolTableRecord
100
AcDbTextStyleTableRecord
  2
ACANSTS
 70
     0
 40
1.0
 41
1.0
 50
0.0
 71
     0
 42
0.2
  3
romans.shx
  4

  0
STYLE
  5
ADC
330
3
100
AcDbSymbolTableRecord
100
AcDbTextStyleTableRecord
  2
ACANSGDT
 70
     0
 40
0.0
 41
1.0
 50
0.0
 71
     0
 42
0.2
  3
amgdtans.shx
  4

  0
STYLE
  5
AF8
330
3
100
AcDbSymbolTableRecord
100
AcDbTextStyleTableRecord
  2

 70
     1
 40
0.0
 41
1.0
 50
0.0
 71
     0
 42
1.0
  3
symtb128
  4

  0
ENDTAB
  0
TABLE
  2
VIEW
  5
6
330
0
100
AcDbSymbolTable
 70
     0
  0
ENDTAB
  0
TABLE
  2
UCS
  5
7
330
0
100
AcDbSymbolTable
 70
     0
  0
ENDTAB
  0
TABLE
  2
APPID
  5
9
330
0
100
AcDbSymbolTable
 70
     6
  0
APPID
  5
12
330
9
100
AcDbSymbolTableRecord
100
AcDbRegAppTableRecord
  2
ACAD
 70
     0
  0
APPID
  5
51
330
9
100
AcDbSymbolTableRecord
100
AcDbRegAppTableRecord
  2
GENIUS_GENBLLY_14
 70
     0
  0
APPID
  5
52
330
9
100
AcDbSymbolTableRecord
100
AcDbRegAppTableRecord
  2
GENIUS_GENTRA_14
 70
     0
  0
APPID
  5
53
330
9
100
AcDbSymbolTableRecord
100
AcDbRegAppTableRecord
  2
MCAD_NO_VIS
 70
     0
  0
APPID
  5
54
330
9
100
AcDbSymbolTableRecord
100
AcDbRegAppTableRecord
  2
ACAD_TEMP_GRAPHIC
 70
     0
  0
APPID
  5
55
330
9
100
AcDbSymbolTableRecord
100
AcDbRegAppTableRecord
  2
ACATTRIBSERVICES
 70
     0
  0
ENDTAB
  0
TABLE
  2
DIMSTYLE
  5
A
330
0
100
AcDbSymbolTable
 70
     8
100
AcDbDimStyleTable
 71
     1
340
27
  0
DIMSTYLE
105
27
330
A
100
AcDbSymbolTableRecord
100
AcDbDimStyleTableRecord
  2
Standard
 70
     0
140
0.125
340
11
  0
DIMSTYLE
105
AE1
330
A
100
AcDbSymbolTableRecord
100
AcDbDimStyleTableRecord
  2
AM_ANSI
 70
     0
  4
mm
 41
0.1
 42
0.05
 43
0.5
 44
0.1
 47
0.1
 48
0.1
 78
     7
 79
     2
140
0.12
141
0.0
146
0.71
147
0.06
176
   256
177
   256
178
     2
274
     4
284
     7
340
11
371
    -1
372
    -1
  0
DIMSTYLE
105
AE2
330
A
100
AcDbSymbolTableRecord
100
AcDbDimStyleTableRecord
  2
AM_ANSI$3
 70
     0
  4
mm
 41
0.1
 42
0.05
 43
0.5
 44
0.1
 47
0.1
 48
0.1
 78
     7
 79
     2
140
0.12
141
0.0
146
0.71
147
0.06
176
   256
177
   256
178
     2
274
     4
284
     7
288
     1
289
     0
340
11
371
    -1
372
    -1
  0
DIMSTYLE
105
AE3
330
A
100
AcDbSymbolTableRecord
100
AcDbDimStyleTableRecord
  2
AM_ANSI$4
 70
     0
  4
mm
 41
0.1
 42
0.05
 43
0.5
 44
0.1
 47
0.1
 48
0.1
 78
     7
 79
     2
140
0.12
141
0.0
146
0.71
147
0.06
176
   256
177
   256
178
     2
274
     4
284
     7
288
     1
289
     0
340
11
371
    -1
372
    -1
  0
DIMSTYLE
105
AE4
330
A
100
AcDbSymbolTableRecord
100
AcDbDimStyleTableRecord
  2
AM_ANSI$7
 70
     0
  4
mm
 41
0.1
 42
0.05
 43
0.5
 44
0.1
 47
0.1
 48
0.1
 78
     7
 79
     2
140
0.24
141
0.0
146
0.71
147
0.06
176
   256
177
   256
178
     2
274
     4
284
     7
340
11
371
    -1
372
    -1
  0
DIMSTYLE
105
AE5
330
A
100
AcDbSymbolTableRecord
100
AcDbDimStyleTableRecord
  2
AM_ANSI$SF
 70
     0
  4
mm
 41
0.1
 42
0.05
 43
0.5
 44
0.1
 47
0.1
 48
0.1
 75
     1
 76
     1
 78
     7
 79
     2
140
0.12
141
0.0
146
0.71
147
0.06
176
   256
177
   256
178
     2
274
     4
284
     7
340
11
371
    -1
372
    -1
  0
DIMSTYLE
105
AEA
330
A
100
AcDbSymbolTableRecord
100
AcDbDimStyleTableRecord
  2
AM_ANSI$SH
 70
     0
  4
mm
 41
0.1
 42
0.05
 43
0.5
 44
0.1
 47
0.1
 48
0.1
 75
     1
 76
     1
 78
     7
 79
     2
140
0.12
141
0.0
146
0.71
147
0.06
173
     1
176
   256
177
   256
178
     2
274
     4
284
     7
340
11
343
AE6
371
    -1
372
    -1
  0
DIMSTYLE
105
AF9
330
A
100
AcDbSymbolTableRecord
100
AcDbDimStyleTableRecord
  2
GEN-ANSI
 70
     0
  3
<>
  4
mm
 41
0.14
 42
0.125
 43
0.5
 44
0.125
 47
0.1
 48
0.1
 73
     0
 74
     0
 77
     1
 78
     7
140
0.12
141
0.0
146
0.71
147
0.06
176
   256
177
   256
178
     2
274
     4
340
11
  0
ENDTAB
  0
TABLE
  2
BLOCK_RECORD
  5
1
330
0
100
AcDbSymbolTable
 70
     4
  0
BLOCK_RECORD
  5
1F
102
{ACAD_XDICTIONARY
360
BCC
102
}
330
1
100
AcDbSymbolTableRecord
100
AcDbBlockTableRecord
  2
*Model_Space
340
22
  0
BLOCK_RECORD
  5
1B
330
1
100
AcDbSymbolTableRecord
100
AcDbBlockTableRecord
  2
*Paper_Space
340
1E
  0
BLOCK_RECORD
  5
23
330
1
100
AcDbSymbolTableRecord
100
AcDbBlockTableRecord
  2
*Paper_Space0
340
26
  0
BLOCK_RECORD
  5
56
330
1
100
AcDbSymbolTableRecord
100
AcDbBlockTableRecord
  2
ASSEMBLY_D
340
0
  0
BLOCK_RECORD
  5
AE6
330
1
100
AcDbSymbolTableRecord
100
AcDbBlockTableRecord
  2
GENAXEH
340
0
  0
BLOCK_RECORD
  5
BFC
330
1
100
AcDbSymbolTableRecord
100
AcDbBlockTableRecord
  2
ASSEMBLY_C
340
0
102
{BLKREFS
331
CB4
102
}
  0
ENDTAB
  0
ENDSEC
  0
SECTION
  2
BLOCKS
  0
BLOCK
  5
20
330
1F
100
AcDbEntity
  8
0
100
AcDbBlockBegin
  2
*Model_Space
 70
     0
 10
0.0
 20
0.0
 30
0.0
  3
*Model_Space
  1

  0
ENDBLK
  5
21
330
1F
100
AcDbEntity
  8
0
100
AcDbBlockEnd
  0
BLOCK
  5
1C
330
1B
100
AcDbEntity
 67
     1
  8
0
100
AcDbBlockBegin
  2
*Paper_Space
 70
     0
 10
0.0
 20
0.0
 30
0.0
  3
*Paper_Space
  1

  0
ENDBLK
  5
1D
330
1B
100
AcDbEntity
 67
     1
  8
0
100
AcDbBlockEnd
  0
BLOCK
  5
24
330
23
100
AcDbEntity
  8
0
100
AcDbBlockBegin
  2
*Paper_Space0
 70
     0
 10
0.0
 20
0.0
 30
0.0
  3
*Paper_Space0
  1

  0
ENDBLK
  5
25
330
23
100
AcDbEntity
  8
0
100
AcDbBlockEnd
  0
BLOCK
  5
11A
330
56
100
AcDbEntity
  8
0
100
AcDbBlockBegin
  2
ASSEMBLY_D
 70
     2
 10
0.0
 20
0.0
 30
0.0
  3
ASSEMBLY_D
  1

  0
LINE
  5
AFA
330
56
100
AcDbEntity
  8
BORDER
100
AcDbLine
 10
1.0
 20
21.49999999999999
 30
0.0
 11
33.0
 21
21.49999999999999
 31
0.0
  0
LINE
  5
AFB
330
56
100
AcDbEntity
  8
BORDER
100
AcDbLine
 10
1.0
 20
0.5
 30
0.0
 11
33.0
 21
0.5
 31
0.0
  0
LINE
  5
AFC
330
56
100
AcDbEntity
  8
BORDER
100
AcDbLine
 10
1.0
 20
0.5
 30
0.0
 11
1.0
 21
21.49999999999999
 31
0.0
  0
TEXT
  5
AFD
330
56
100
AcDbEntity
  8
BORDER
100
AcDbText
 10
0.4285739999999976
 20
2.6499996
 30
0.0
 40
0.19999999
  1
A
  7
AE
100
AcDbText
  0
LINE
  5
AFE
330
56
100
AcDbEntity
  8
BORDER
100
AcDbLine
 10
4.25
 20
0.09999996
 30
0.0
 11
4.25
 21
0.5
 31
0.0
  0
TEXT
  5
AFF
330
56
100
AcDbEntity
  8
BORDER
100
AcDbText
 10
2.053573999999997
 20
0.14999998
 30
0.0
 40
0.19999999
  1
8
  7
AE
100
AcDbText
  0
LINE
  5
B00
330
56
100
AcDbEntity
  8
BORDER
100
AcDbLine
 10
0.6000060000000005
 20
5.5
 30
0.0
 11
1.0
 21
5.5
 31
0.0
  0
TEXT
  5
B01
330
56
100
AcDbEntity
  8
BORDER
100
AcDbText
 10
0.4285739999999976
 20
8.149999599999999
 30
0.0
 40
0.19999999
  1
B
  7
AE
100
AcDbText
  0
LINE
  5
B02
330
56
100
AcDbEntity
  8
BORDER
100
AcDbLine
 10
8.5
 20
0.09999996
 30
0.0
 11
8.5
 21
0.5
 31
0.0
  0
TEXT
  5
B03
330
56
100
AcDbEntity
  8
BORDER
100
AcDbText
 10
6.303573999999997
 20
0.14999998
 30
0.0
 40
0.19999999
  1
7
  7
AE
100
AcDbText
  0
LINE
  5
B04
330
56
100
AcDbEntity
  8
BORDER
100
AcDbLine
 10
12.75
 20
0.09999996
 30
0.0
 11
12.75
 21
0.5
 31
0.0
  0
TEXT
  5
B05
330
56
100
AcDbEntity
  8
BORDER
100
AcDbText
 10
10.55357399999999
 20
0.14999998
 30
0.0
 40
0.19999999
  1
6
  7
AE
100
AcDbText
  0
LINE
  5
B06
330
56
100
AcDbEntity
  8
BORDER
100
AcDbLine
 10
0.8000030000000037
 20
11.099969
 30
0.0
 11
1.0
 21
10.999971
 31
0.0
  0
LINE
  5
B07
330
56
100
AcDbEntity
  8
BORDER
100
AcDbLine
 10
0.7999879999999991
 20
10.899974
 30
0.0
 11
0.9999849999999952
 21
10.99997199999999
 31
0.0
  0
TEXT
  5
B08
330
56
100
AcDbEntity
  8
BORDER
100
AcDbText
 10
0.4285739999999976
 20
13.65
 30
0.0
 40
0.19999999
  1
C
  7
AE
100
AcDbText
  0
LINE
  5
B09
330
56
100
AcDbEntity
  8
BORDER
100
AcDbLine
 10
0.6000060000000005
 20
11.0
 30
0.0
 11
0.8000030000000037
 21
11.0
 31
0.0
  0
LINE
  5
B0A
330
56
100
AcDbEntity
  8
BORDER
100
AcDbLine
 10
0.8000030000000037
 20
10.89999399999999
 30
0.0
 11
0.8000030000000037
 21
11.099991
 31
0.0
  0
LINE
  5
B0B
330
56
100
AcDbEntity
  8
BORDER
100
AcDbLine
 10
0.6000060000000005
 20
16.5
 30
0.0
 11
1.0
 21
16.5
 31
0.0
  0
TEXT
  5
B0C
330
56
100
AcDbEntity
  8
BORDER
100
AcDbText
 10
0.4285739999999976
 20
19.149994
 30
0.0
 40
0.19999999
  1
D
  7
AE
100
AcDbText
  0
LINE
  5
B0D
330
56
100
AcDbEntity
  8
BORDER
100
AcDbLine
 10
4.25
 20
21.49999999999999
 30
0.0
 11
4.25
 21
21.899994
 31
0.0
  0
TEXT
  5
B0E
330
56
100
AcDbEntity
  8
BORDER
100
AcDbText
 10
2.053573999999997
 20
21.649994
 30
0.0
 40
0.19999999
  1
8
  7
AE
100
AcDbText
  0
LINE
  5
B0F
330
56
100
AcDbEntity
  8
BORDER
100
AcDbLine
 10
8.5
 20
21.49999999999999
 30
0.0
 11
8.5
 21
21.899994
 31
0.0
  0
TEXT
  5
B10
330
56
100
AcDbEntity
  8
BORDER
100
AcDbText
 10
6.303573999999997
 20
21.649994
 30
0.0
 40
0.19999999
  1
7
  7
AE
100
AcDbText
  0
LINE
  5
B11
330
56
100
AcDbEntity
  8
BORDER
100
AcDbLine
 10
12.75
 20
21.49999999999999
 30
0.0
 11
12.75
 21
21.899994
 31
0.0
  0
TEXT
  5
B12
330
56
100
AcDbEntity
  8
BORDER
100
AcDbText
 10
10.55357399999999
 20
21.649994
 30
0.0
 40
0.19999999
  1
6
  7
AE
100
AcDbText
  0
LINE
  5
B13
330
56
100
AcDbEntity
  8
BORDER
100
AcDbLine
 10
33.0
 20
0.5
 30
0.0
 11
33.0
 21
21.49999999999999
 31
0.0
  0
ATTDEF
  5
B14
330
56
100
AcDbEntity
  8
TITLE BLOCK
  6
Continuous
100
AcDbText
 10
28.925
 20
1.625
 30
0.0
 40
0.1010611419
  1

100
AcDbAttributeDefinition
  3
Drawn by
  2
GEN-TITLE-NAME{5}
 70
     0
1001
GENIUS_GENBLLY_14
1000
BOR2
  0
ATTDEF
  5
B15
330
56
100
AcDbEntity
  8
TITLE BLOCK
  6
Continuous
100
AcDbText
 10
28.925
 20
1.375
 30
0.0
 40
0.1010611419
  1

100
AcDbAttributeDefinition
  3
Check by
  2
GEN-TITLE-CHKM{5}
 70
     0
1001
GENIUS_GENBLLY_14
1000
BOR2
  0
ATTDEF
  5
B16
330
56
100
AcDbEntity
  8
TITLE BLOCK
  6
Continuous
100
AcDbText
 10
28.925
 20
1.125
 30
0.0
 40
0.1010611419
  1

100
AcDbAttributeDefinition
  3
Approved by
  2
GEN-TITLE-APPM{5}
 70
     0
1001
GENIUS_GENBLLY_14
1000
BOR2
1001
GENIUS_GENTRA_14
1002
{
1070
     3
1000
GENTRAPR,%s,(GENMSG gentitus 73)
1000
Approved by
1000
gb
1070
     0
1002
}
  0
TEXT
  5
B17
330
56
100
AcDbEntity
  8
TITLE BLOCK
  6
Continuous
100
AcDbText
 10
28.70669482722675
 20
2.096163262564664
 30
0.0
 40
0.1010611419
  1
  DRAWING
 50
0.09999996
  7
AE
100
AcDbText
  0
TEXT
  5
B18
330
56
100
AcDbEntity
  8
TITLE BLOCK
  6
Continuous
100
AcDbText
 10
28.70669482722675
 20
2.305546537751305
 30
0.0
 40
0.1010611419
  1
DO NOT SCALE
 50
0.09999996
  7
AE
100
AcDbText
  0
LINE
  5
B19
330
56
100
AcDbEntity
  8
TITLE BLOCK
  6
Continuous
100
AcDbLine
 10
27.09965639031853
 20
1.049999999999999
 30
0.0
 11
33.0
 21
1.049999999999999
 31
0.0
  0
LINE
  5
B1A
330
56
100
AcDbEntity
  8
TITLE BLOCK
  6
Continuous
100
AcDbLine
 10
28.57518995515351
 20
1.299999999999999
 30
0.0
 11
33.0
 21
1.299999999999999
 31
0.0
  0
LINE
  5
B1B
330
56
100
AcDbEntity
  8
TITLE BLOCK
  6
Continuous
100
AcDbLine
 10
28.57518995515351
 20
1.549999999999999
 30
0.0
 11
33.0
 21
1.549999999999999
 31
0.0
  0
LINE
  5
B1C
330
56
100
AcDbEntity
  8
TITLE BLOCK
  6
Continuous
100
AcDbLine
 10
28.57518995515351
 20
1.799999999999999
 30
0.0
 11
33.0
 21
1.799999999999999
 31
0.0
  0
LINE
  5
B1D
330
56
100
AcDbEntity
  8
TITLE BLOCK
  6
Continuous
100
AcDbLine
 10
24.25
 20
2.5
 30
0.0
 11
33.0
 21
2.5
 31
0.0
  0
LINE
  5
B1E
330
56
100
AcDbEntity
  8
BORDER
100
AcDbLine
 10
17.00001499999999
 20
0.49999857
 30
0.0
 11
17.100006
 21
0.2999993599999999
 31
0.0
  0
LINE
  5
B1F
330
56
100
AcDbEntity
  8
BORDER
100
AcDbLine
 10
16.900009
 20
0.30000037
 30
0.0
 11
17.00001499999999
 21
0.5
 31
0.0
  0
LINE
  5
B20
330
56
100
AcDbEntity
  8
BORDER
100
AcDbLine
 10
16.900009
 20
0.29999995
 30
0.0
 11
17.100006
 21
0.29999995
 31
0.0
  0
LINE
  5
B21
330
56
100
AcDbEntity
  8
BORDER
100
AcDbLine
 10
17.0
 20
0.0999999000000001
 30
0.0
 11
17.0
 21
0.29999995
 31
0.0
  0
LINE
  5
B22
330
56
100
AcDbEntity
  8
BORDER
100
AcDbLine
 10
17.0
 20
0.0999999000000001
 30
0.0
 11
17.0
 21
0.29999995
 31
0.0
  0
TEXT
  5
B23
330
56
100
AcDbEntity
  8
BORDER
100
AcDbText
 10
14.80357399999999
 20
0.14999998
 30
0.0
 40
0.19999999
  1
5
  7
AE
100
AcDbText
  0
LINE
  5
B24
330
56
100
AcDbEntity
  8
BORDER
100
AcDbLine
 10
21.25
 20
0.09999996
 30
0.0
 11
21.25
 21
0.5
 31
0.0
  0
TEXT
  5
B25
330
56
100
AcDbEntity
  8
BORDER
100
AcDbText
 10
19.053572
 20
0.14999998
 30
0.0
 40
0.19999999
  1
4
  7
AE
100
AcDbText
  0
TEXT
  5
B26
330
56
100
AcDbEntity
  8
TITLE BLOCK
  6
Continuous
100
AcDbText
 10
25.37354307850001
 20
0.5900242034427523
 30
0.0
 40
0.075937067150492
  1
REVISION
 50
0.09999996
  7
AE
100
AcDbText
  0
LINE
  5
B27
330
56
100
AcDbEntity
  8
TITLE BLOCK
  6
Continuous
100
AcDbLine
 10
24.25
 20
0.75
 30
0.0
 11
27.09965639031853
 21
0.75
 31
0.0
  0
LINE
  5
B28
330
56
100
AcDbEntity
  8
TITLE BLOCK
  6
Continuous
100
AcDbLine
 10
24.25
 20
1.5
 30
0.0
 11
27.09965639031853
 21
1.5
 31
0.0
  0
LINE
  5
B29
330
56
100
AcDbEntity
  8
TITLE BLOCK
  6
Continuous
100
AcDbLine
 10
24.25
 20
1.75
 30
0.0
 11
27.09965639031853
 21
1.75
 31
0.0
  0
LINE
  5
B2A
330
56
100
AcDbEntity
  8
TITLE BLOCK
  6
Continuous
100
AcDbLine
 10
24.25
 20
2.0
 30
0.0
 11
27.09965639031853
 21
2.0
 31
0.0
  0
LINE
  5
B2B
330
56
100
AcDbEntity
  8
TITLE BLOCK
  6
Continuous
100
AcDbLine
 10
24.25
 20
2.25
 30
0.0
 11
27.09965639031853
 21
2.25
 31
0.0
  0
LINE
  5
B2C
330
56
100
AcDbEntity
  8
TITLE BLOCK
  6
Continuous
100
AcDbLine
 10
24.25
 20
1.25
 30
0.0
 11
27.09965639031853
 21
1.25
 31
0.0
  0
LINE
  5
B2D
330
56
100
AcDbEntity
  8
TITLE BLOCK
  6
Continuous
100
AcDbLine
 10
24.25
 20
1.0
 30
0.0
 11
27.09965639031853
 21
1.0
 31
0.0
  0
TEXT
  5
B2E
330
56
100
AcDbEntity
  8
BORDER
100
AcDbText
 10
25.0829811
 20
0.08295244
 30
0.0
 40
0.04
  1
FULL SIZE   50   02
 50
0.0999999600000001
 41
0.7749084200000001
  7
AE
100
AcDbText
  0
LINE
  5
B2F
330
56
100
AcDbEntity
  8
TITLE BLOCK
  6
Continuous
100
AcDbLine
 10
25.4
 20
0.75
 30
0.0
 11
25.4
 21
2.5
 31
0.0
  0
TEXT
  5
B30
330
56
100
AcDbEntity
  8
TITLE BLOCK
  6
Continuous
100
AcDbText
 10
24.90137402234739
 20
0.8409580908741997
 30
0.0
 40
0.075937067150492
  1
DATE
 50
0.09999996
  7
AE
100
AcDbText
  0
TEXT
  5
B31
330
56
100
AcDbEntity
  8
TITLE BLOCK
  6
Continuous
100
AcDbText
 10
24.33824213224503
 20
0.8403498140978244
 30
0.0
 40
0.0771520776612738
  1
NO.
 50
0.09999996
  7
AE
100
AcDbText
  0
LINE
  5
B32
330
56
100
AcDbEntity
  8
TITLE BLOCK
  6
Continuous
100
AcDbLine
 10
24.25
 20
0.4999656890232619
 30
0.0
 11
24.25
 21
2.5
 31
0.0
  0
LINE
  5
B33
330
56
100
AcDbEntity
  8
TITLE BLOCK
  6
Continuous
100
AcDbLine
 10
24.6
 20
0.75
 30
0.0
 11
24.6
 21
2.5
 31
0.0
  0
LINE
  5
B34
330
56
100
AcDbEntity
  8
BORDER
  6
LS
100
AcDbLine
 10
25.28000159999999
 20
0.30999988
 30
0.0
 11
25.28000159999999
 21
0.4499999299999999
 31
0.0
  0
LINE
  5
B35
330
56
100
AcDbEntity
  8
BORDER
  6
LS
100
AcDbLine
 10
25.380002
 20
0.30999988
 30
0.0
 11
25.380002
 21
0.4499999299999999
 31
0.0
  0
LINE
  5
B36
330
56
100
AcDbEntity
  8
BORDER
  6
LS
100
AcDbLine
 10
25.2600021
 20
0.38999993
 30
0.0
 11
25.2600021
 21
0.4499999299999999
 31
0.0
  0
LINE
  5
B37
330
56
100
AcDbEntity
  8
BORDER
  6
LS
100
AcDbLine
 10
25.3000021
 20
0.38999993
 30
0.0
 11
25.3000021
 21
0.4499999299999999
 31
0.0
  0
LINE
  5
B38
330
56
100
AcDbEntity
  8
BORDER
  6
LS
100
AcDbLine
 10
25.3200026
 20
0.3499999
 30
0.0
 11
25.3200026
 21
0.4499999299999999
 31
0.0
  0
LINE
  5
B39
330
56
100
AcDbEntity
  8
BORDER
  6
LS
100
AcDbLine
 10
25.340003
 20
0.3499999
 30
0.0
 11
25.340003
 21
0.4499999299999999
 31
0.0
  0
LINE
  5
B3A
330
56
100
AcDbEntity
  8
BORDER
  6
LS
100
AcDbLine
 10
25.3600025
 20
0.38999993
 30
0.0
 11
25.3600025
 21
0.4499999299999999
 31
0.0
  0
LINE
  5
B3B
330
56
100
AcDbEntity
  8
BORDER
  6
LS
100
AcDbLine
 10
25.0800009
 20
0.30999988
 30
0.0
 11
25.0800009
 21
0.4499999299999999
 31
0.0
  0
LINE
  5
B3C
330
56
100
AcDbEntity
  8
BORDER
  6
LS
100
AcDbLine
 10
25.1800013
 20
0.30999988
 30
0.0
 11
25.1800013
 21
0.4499999299999999
 31
0.0
  0
LINE
  5
B3D
330
56
100
AcDbEntity
  8
BORDER
  6
LS
100
AcDbLine
 10
25.1000013
 20
0.38999993
 30
0.0
 11
25.1000013
 21
0.4499999299999999
 31
0.0
  0
LINE
  5
B3E
330
56
100
AcDbEntity
  8
BORDER
  6
LS
100
AcDbLine
 10
25.1200018
 20
0.3499999
 30
0.0
 11
25.1200018
 21
0.4499999299999999
 31
0.0
  0
LINE
  5
B3F
330
56
100
AcDbEntity
  8
BORDER
  6
LS
100
AcDbLine
 10
25.14000219999999
 20
0.3499999
 30
0.0
 11
25.14000219999999
 21
0.4499999299999999
 31
0.0
  0
LINE
  5
B40
330
56
100
AcDbEntity
  8
BORDER
  6
LS
100
AcDbLine
 10
25.16000169999999
 20
0.38999993
 30
0.0
 11
25.16000169999999
 21
0.4499999299999999
 31
0.0
  0
LINE
  5
B41
330
56
100
AcDbEntity
  8
BORDER
  6
LS
100
AcDbLine
 10
25.2000017
 20
0.38999993
 30
0.0
 11
25.2000017
 21
0.4499999299999999
 31
0.0
  0
LINE
  5
B42
330
56
100
AcDbEntity
  8
BORDER
  6
LS
100
AcDbLine
 10
25.2200022
 20
0.3499999
 30
0.0
 11
25.2200022
 21
0.4499999299999999
 31
0.0
  0
LINE
  5
B43
330
56
100
AcDbEntity
  8
BORDER
  6
LS
100
AcDbLine
 10
25.2400026
 20
0.3499999
 30
0.0
 11
25.2400026
 21
0.4499999299999999
 31
0.0
  0
LINE
  5
B44
330
56
100
AcDbEntity
  8
BORDER
  6
LS
100
AcDbLine
 10
25.4000025
 20
0.38999993
 30
0.0
 11
25.4000025
 21
0.4499999299999999
 31
0.0
  0
LINE
  5
B45
330
56
100
AcDbEntity
  8
BORDER
  6
LS
100
AcDbLine
 10
24.88000009999999
 20
0.2499998800000001
 30
0.0
 11
24.88000009999999
 21
0.4499999299999999
 31
0.0
  0
LINE
  5
B46
330
56
100
AcDbEntity
  8
BORDER
  6
LS
100
AcDbLine
 10
24.90000059999999
 20
0.38999993
 30
0.0
 11
24.90000059999999
 21
0.4499999299999999
 31
0.0
  0
LINE
  5
B47
330
56
100
AcDbEntity
  8
BORDER
  6
LS
100
AcDbLine
 10
24.920001
 20
0.3499999
 30
0.0
 11
24.920001
 21
0.4499999299999999
 31
0.0
  0
LINE
  5
B48
330
56
100
AcDbEntity
  8
BORDER
  6
LS
100
AcDbLine
 10
24.9800005
 20
0.30999988
 30
0.0
 11
24.9800005
 21
0.4499999299999999
 31
0.0
  0
LINE
  5
B49
330
56
100
AcDbEntity
  8
BORDER
  6
LS
100
AcDbLine
 10
24.9400015
 20
0.3499999
 30
0.0
 11
24.9400015
 21
0.4499999299999999
 31
0.0
  0
LINE
  5
B4A
330
56
100
AcDbEntity
  8
BORDER
  6
LS
100
AcDbLine
 10
24.96000099999999
 20
0.38999993
 30
0.0
 11
24.96000099999999
 21
0.4499999299999999
 31
0.0
  0
LINE
  5
B4B
330
56
100
AcDbEntity
  8
BORDER
  6
LS
100
AcDbLine
 10
25.0000009
 20
0.38999993
 30
0.0
 11
25.0000009
 21
0.4499999299999999
 31
0.0
  0
LINE
  5
B4C
330
56
100
AcDbEntity
  8
BORDER
  6
LS
100
AcDbLine
 10
25.0200014
 20
0.3499999
 30
0.0
 11
25.0200014
 21
0.4499999299999999
 31
0.0
  0
LINE
  5
B4D
330
56
100
AcDbEntity
  8
BORDER
  6
LS
100
AcDbLine
 10
25.0400019
 20
0.3499999
 30
0.0
 11
25.0400019
 21
0.4499999299999999
 31
0.0
  0
LINE
  5
B4E
330
56
100
AcDbEntity
  8
BORDER
  6
LS
100
AcDbLine
 10
25.0600014
 20
0.38999993
 30
0.0
 11
25.0600014
 21
0.4499999299999999
 31
0.0
  0
TEXT
  5
B4F
330
56
100
AcDbEntity
  8
BORDER
100
AcDbText
 10
24.85149859999999
 20
0.1099500099999999
 30
0.0
 40
0.07999998
  1
0
 50
0.0999999600000001
  7
AE
100
AcDbText
  0
TEXT
  5
B50
330
56
100
AcDbEntity
  8
BORDER
100
AcDbText
 10
25.2515001
 20
0.16995001
 30
0.0
 40
0.07999998
  1
4
 50
0.0999999600000001
  7
AE
100
AcDbText
  0
TEXT
  5
B51
330
56
100
AcDbEntity
  8
BORDER
100
AcDbText
 10
25.0514994
 20
0.16995001
 30
0.0
 40
0.07999998
  1
2
 50
0.0999999600000001
  7
AE
100
AcDbText
  0
TEXT
  5
B52
330
56
100
AcDbEntity
  8
BORDER
100
AcDbText
 10
23.303572
 20
0.14999998
 30
0.0
 40
0.19999999
  1
3
  7
AE
100
AcDbText
  0
TEXT
  5
B53
330
56
100
AcDbEntity
  8
TITLE BLOCK
  6
Continuous
100
AcDbText
 10
27.14999999999999
 20
0.9
 30
0.0
 40
0.075937067150492
  1
DRAWING NAME
 50
0.09999996
  7
AE
100
AcDbText
  0
TEXT
  5
B54
330
56
100
AcDbEntity
  8
TITLE BLOCK
  6
Continuous
100
AcDbText
 10
27.115
 20
2.35
 30
0.0
 40
0.0645465051491158
  1
NOTICE: This drawing or material
 50
0.09999996
 41
0.7005041199999999
  7
AE
100
AcDbText
  0
LINE
  5
B55
330
56
100
AcDbEntity
  8
TITLE BLOCK
  6
Continuous
100
AcDbLine
 10
28.57518995515351
 20
1.1
 30
0.0
 11
28.57518995515351
 21
2.5
 31
0.0
  0
LINE
  5
B56
330
56
100
AcDbEntity
  8
TITLE BLOCK
  6
Continuous
100
AcDbLine
 10
27.09965639031853
 20
0.4999656890232619
 30
0.0
 11
27.09965639031853
 21
2.5
 31
0.0
  0
TEXT
  5
B57
330
56
100
AcDbEntity
  8
TITLE BLOCK
  6
Continuous
100
AcDbText
 10
27.12129755351284
 20
1.706248812462206
 30
0.0
 40
0.0645465051491158
  1
reproduced, will be used only for
 50
0.09999996
 41
0.6799434399999999
  7
AE
100
AcDbText
  0
TEXT
  5
B58
330
56
100
AcDbEntity
  8
TITLE BLOCK
  6
Continuous
100
AcDbText
 10
27.13514394391218
 20
1.195039114516279
 30
0.0
 40
0.0645465051491158
  1
consent of G&L Motion Control.
 50
0.09999996
 41
0.79688752
  7
AE
100
AcDbText
  0
TEXT
  5
B59
330
56
100
AcDbEntity
  8
TITLE BLOCK
  6
Continuous
100
AcDbText
 10
27.11887681003094
 20
1.335049725173559
 30
0.0
 40
0.0645465051491158
  1
as authorized by specific written
 50
0.09999996
 41
0.6799434399999999
  7
AE
100
AcDbText
  0
TEXT
  5
B5A
330
56
100
AcDbEntity
  8
TITLE BLOCK
  6
Continuous
100
AcDbText
 10
27.11892001520521
 20
1.45690037169105
 30
0.0
 40
0.0645465051491158
  1
used or disclosed to anyone except
 50
0.09999996
 41
0.6605569100000001
  7
AE
100
AcDbText
  0
TEXT
  5
B5B
330
56
100
AcDbEntity
  8
TITLE BLOCK
  6
Continuous
100
AcDbText
 10
27.11564857341434
 20
1.585205659079424
 30
0.0
 40
0.0645465051491158
  1
your information, and will not be
 50
0.09999996
 41
0.6799434399999999
  7
AE
100
AcDbText
  0
TEXT
  5
B5C
330
56
100
AcDbEntity
  8
TITLE BLOCK
  6
Continuous
100
AcDbText
 10
27.12032080796545
 20
1.837377673718703
 30
0.0
 40
0.0645465051491158
  1
will not be copied or otherwise
 50
0.09999996
 41
0.72234601
  7
AE
100
AcDbText
  0
TEXT
  5
B5D
330
56
100
AcDbEntity
  8
TITLE BLOCK
  6
Continuous
100
AcDbText
 10
27.11448145506772
 20
1.968510103259664
 30
0.0
 40
0.0645465051491158
  1
in confidence on condition that it
 50
0.09999996
 41
0.6605569100000001
  7
AE
100
AcDbText
  0
TEXT
  5
B5E
330
56
100
AcDbEntity
  8
TITLE BLOCK
  6
Continuous
100
AcDbText
 10
27.11275421249727
 20
2.227540457117108
 30
0.0
 40
0.0645465051491158
  1
contains proprietary information
 50
0.09999996
 41
0.7005041199999999
  7
AE
100
AcDbText
  0
TEXT
  5
B5F
330
56
100
AcDbEntity
  8
TITLE BLOCK
  6
Continuous
100
AcDbText
 10
27.1184730152435
 20
2.096006933112137
 30
0.0
 40
0.0645465051491158
  1
of G&L Motion Control, is submitted
 50
0.09999996
 41
0.6799434399999999
  7
AE
100
AcDbText
  0
TEXT
  5
B60
330
56
100
AcDbEntity
  8
TITLE BLOCK
  6
Continuous
100
AcDbText
 10
28.6
 20
1.699999999999999
 30
0.0
 40
0.075937067150492
  1
DR
 50
0.09999996
  7
AE
100
AcDbText
  0
TEXT
  5
B61
330
56
100
AcDbEntity
  8
TITLE BLOCK
  6
Continuous
100
AcDbText
 10
28.6
 20
1.574999999999999
 30
0.0
 40
0.075937067150492
  1
BY
 50
0.09999996
  7
AE
100
AcDbText
  0
TEXT
  5
B62
330
56
100
AcDbEntity
  8
TITLE BLOCK
  6
Continuous
100
AcDbText
 10
28.60620037256117
 20
1.324999999999999
 30
0.0
 40
0.075937067150492
  1
BY
 50
0.09999996
  7
AE
100
AcDbText
  0
TEXT
  5
B63
330
56
100
AcDbEntity
  8
TITLE BLOCK
  6
Continuous
100
AcDbText
 10
28.6
 20
1.449999999999999
 30
0.0
 40
0.075937067150492
  1
CHK
 50
0.09999996
  7
AE
100
AcDbText
  0
TEXT
  5
B64
330
56
100
AcDbEntity
  8
TITLE BLOCK
  6
Continuous
100
AcDbText
 10
28.61
 20
1.2
 30
0.0
 40
0.075937067150492
  1
APPD
 50
0.09999996
  7
AE
100
AcDbText
  0
TEXT
  5
B65
330
56
100
AcDbEntity
  8
TITLE BLOCK
  6
Continuous
100
AcDbText
 10
28.6
 20
1.075
 30
0.0
 40
0.075937067150492
  1
BY
 50
0.09999996
  7
AE
100
AcDbText
  0
ATTDEF
  5
B66
330
56
100
AcDbEntity
  8
TITLE BLOCK
  6
Continuous
100
AcDbText
 10
27.2
 20
0.7000000000000001
 30
0.0
 40
0.126326427375
  1

 41
0.8
100
AcDbAttributeDefinition
  3
Drawing Name
  2
GEN-TITLE-DES1{15.54}
 70
     0
1001
GENIUS_GENBLLY_14
1000
BOR5
  0
TEXT
  5
B67
330
56
100
AcDbEntity
  8
BORDER
100
AcDbText
 10
28.6914072
 20
0.16796875
 30
0.0
 40
0.1640625
  1
2
  7
AE
100
AcDbText
  0
LINE
  5
B68
330
56
100
AcDbEntity
  8
BORDER
  6
LS
100
AcDbLine
 10
27.8800001
 20
0.2499998800000001
 30
0.0
 11
27.8800001
 21
0.4499999299999999
 31
0.0
  0
TEXT
  5
B69
330
56
100
AcDbEntity
  8
BORDER
100
AcDbText
 10
27.8514986
 20
0.1099500099999999
 30
0.0
 40
0.07999998
  1
3
 50
0.0999999600000001
  7
AE
100
AcDbText
  0
LINE
  5
B6A
330
56
100
AcDbEntity
  8
BORDER
  6
LS
100
AcDbLine
 10
26.8800001
 20
0.2499998800000001
 30
0.0
 11
26.8800001
 21
0.4499999299999999
 31
0.0
  0
LINE
  5
B6B
330
56
100
AcDbEntity
  8
BORDER
  6
LS
100
AcDbLine
 10
26.680006
 20
0.30999988
 30
0.0
 11
26.680006
 21
0.4499999299999999
 31
0.0
  0
LINE
  5
B6C
330
56
100
AcDbEntity
  8
BORDER
  6
LS
100
AcDbLine
 10
26.4800053
 20
0.30999988
 30
0.0
 11
26.4800053
 21
0.4499999299999999
 31
0.0
  0
TEXT
  5
B6D
330
56
100
AcDbEntity
  8
BORDER
100
AcDbText
 10
26.8514986
 20
0.1099500099999999
 30
0.0
 40
0.07999998
  1
2
 50
0.0999999600000001
  7
AE
100
AcDbText
  0
TEXT
  5
B6E
330
56
100
AcDbEntity
  8
BORDER
100
AcDbText
 10
26.6515045
 20
0.16995001
 30
0.0
 40
0.07999998
  1
8
 50
0.0999999600000001
  7
AE
100
AcDbText
  0
TEXT
  5
B6F
330
56
100
AcDbEntity
  8
BORDER
100
AcDbText
 10
26.4515037
 20
0.16995001
 30
0.0
 40
0.07999998
  1
6
 50
0.0999999600000001
  7
AE
100
AcDbText
  0
LINE
  5
B70
330
56
100
AcDbEntity
  8
BORDER
  6
LS
100
AcDbLine
 10
26.2800045
 20
0.30999988
 30
0.0
 11
26.2800045
 21
0.4499999299999999
 31
0.0
  0
LINE
  5
B71
330
56
100
AcDbEntity
  8
BORDER
  6
LS
100
AcDbLine
 10
26.0800047
 20
0.30999988
 30
0.0
 11
26.0800047
 21
0.4499999299999999
 31
0.0
  0
LINE
  5
B72
330
56
100
AcDbEntity
  8
BORDER
  6
LS
100
AcDbLine
 10
25.78000349999999
 20
0.30999988
 30
0.0
 11
25.78000349999999
 21
0.4499999299999999
 31
0.0
  0
LINE
  5
B73
330
56
100
AcDbEntity
  8
BORDER
  6
LS
100
AcDbLine
 10
25.800004
 20
0.38999993
 30
0.0
 11
25.800004
 21
0.4499999299999999
 31
0.0
  0
LINE
  5
B74
330
56
100
AcDbEntity
  8
BORDER
  6
LS
100
AcDbLine
 10
25.8200045
 20
0.3499999
 30
0.0
 11
25.8200045
 21
0.4499999299999999
 31
0.0
  0
LINE
  5
B75
330
56
100
AcDbEntity
  8
BORDER
  6
LS
100
AcDbLine
 10
25.70000359999999
 20
0.38999993
 30
0.0
 11
25.70000359999999
 21
0.4499999299999999
 31
0.0
  0
LINE
  5
B76
330
56
100
AcDbEntity
  8
BORDER
  6
LS
100
AcDbLine
 10
25.7200041
 20
0.3499999
 30
0.0
 11
25.7200041
 21
0.4499999299999999
 31
0.0
  0
LINE
  5
B77
330
56
100
AcDbEntity
  8
BORDER
  6
LS
100
AcDbLine
 10
25.74000449999999
 20
0.3499999
 30
0.0
 11
25.74000449999999
 21
0.4499999299999999
 31
0.0
  0
LINE
  5
B78
330
56
100
AcDbEntity
  8
BORDER
  6
LS
100
AcDbLine
 10
25.76000399999999
 20
0.38999993
 30
0.0
 11
25.76000399999999
 21
0.4499999299999999
 31
0.0
  0
LINE
  5
B79
330
56
100
AcDbEntity
  8
BORDER
  6
LS
100
AcDbLine
 10
25.5800028
 20
0.30999988
 30
0.0
 11
25.5800028
 21
0.4499999299999999
 31
0.0
  0
LINE
  5
B7A
330
56
100
AcDbEntity
  8
BORDER
  6
LS
100
AcDbLine
 10
25.6800032
 20
0.30999988
 30
0.0
 11
25.6800032
 21
0.4499999299999999
 31
0.0
  0
LINE
  5
B7B
330
56
100
AcDbEntity
  8
BORDER
  6
LS
100
AcDbLine
 10
25.5400038
 20
0.3499999
 30
0.0
 11
25.5400038
 21
0.4499999299999999
 31
0.0
  0
LINE
  5
B7C
330
56
100
AcDbEntity
  8
BORDER
  6
LS
100
AcDbLine
 10
25.5600033
 20
0.38999993
 30
0.0
 11
25.5600033
 21
0.4499999299999999
 31
0.0
  0
LINE
  5
B7D
330
56
100
AcDbEntity
  8
BORDER
  6
LS
100
AcDbLine
 10
25.6000032
 20
0.38999993
 30
0.0
 11
25.6000032
 21
0.4499999299999999
 31
0.0
  0
LINE
  5
B7E
330
56
100
AcDbEntity
  8
BORDER
  6
LS
100
AcDbLine
 10
25.62000369999999
 20
0.3499999
 30
0.0
 11
25.62000369999999
 21
0.4499999299999999
 31
0.0
  0
LINE
  5
B7F
330
56
100
AcDbEntity
  8
BORDER
  6
LS
100
AcDbLine
 10
25.6400042
 20
0.3499999
 30
0.0
 11
25.6400042
 21
0.4499999299999999
 31
0.0
  0
LINE
  5
B80
330
56
100
AcDbEntity
  8
BORDER
  6
LS
100
AcDbLine
 10
25.66000369999999
 20
0.38999993
 30
0.0
 11
25.66000369999999
 21
0.4499999299999999
 31
0.0
  0
LINE
  5
B81
330
56
100
AcDbEntity
  8
BORDER
  6
LS
100
AcDbLine
 10
25.8800001
 20
0.2499998800000001
 30
0.0
 11
25.8800001
 21
0.4499999299999999
 31
0.0
  0
LINE
  5
B82
330
56
100
AcDbEntity
  8
BORDER
  6
LS
100
AcDbLine
 10
25.8400049
 20
0.3499999
 30
0.0
 11
25.8400049
 21
0.4499999299999999
 31
0.0
  0
LINE
  5
B83
330
56
100
AcDbEntity
  8
BORDER
  6
LS
100
AcDbLine
 10
25.8600044
 20
0.38999993
 30
0.0
 11
25.8600044
 21
0.4499999299999999
 31
0.0
  0
TEXT
  5
B84
330
56
100
AcDbEntity
  8
BORDER
100
AcDbText
 10
25.8514986
 20
0.1099500099999999
 30
0.0
 40
0.07999998
  1
1
 50
0.0999999600000001
  7
AE
100
AcDbText
  0
TEXT
  5
B85
330
56
100
AcDbEntity
  8
BORDER
100
AcDbText
 10
25.6515017
 20
0.16995001
 30
0.0
 40
0.07999998
  1
8
 50
0.0999999600000001
  7
AE
100
AcDbText
  0
TEXT
  5
B86
330
56
100
AcDbEntity
  8
BORDER
100
AcDbText
 10
26.251503
 20
0.16995001
 30
0.0
 40
0.07999998
  1
4
 50
0.0999999600000001
  7
AE
100
AcDbText
  0
TEXT
  5
B87
330
56
100
AcDbEntity
  8
BORDER
100
AcDbText
 10
26.05150319999999
 20
0.16995001
 30
0.0
 40
0.07999998
  1
2
 50
0.0999999600000001
  7
AE
100
AcDbText
  0
LINE
  5
B88
330
56
100
AcDbEntity
  8
BORDER
  6
LS
100
AcDbLine
 10
25.4800024
 20
0.30999988
 30
0.0
 11
25.4800024
 21
0.4499999299999999
 31
0.0
  0
LINE
  5
B89
330
56
100
AcDbEntity
  8
BORDER
  6
LS
100
AcDbLine
 10
25.4200029
 20
0.3499999
 30
0.0
 11
25.4200029
 21
0.4499999299999999
 31
0.0
  0
LINE
  5
B8A
330
56
100
AcDbEntity
  8
BORDER
  6
LS
100
AcDbLine
 10
25.4400034
 20
0.3499999
 30
0.0
 11
25.4400034
 21
0.4499999299999999
 31
0.0
  0
LINE
  5
B8B
330
56
100
AcDbEntity
  8
BORDER
  6
LS
100
AcDbLine
 10
25.4600029
 20
0.38999993
 30
0.0
 11
25.4600029
 21
0.4499999299999999
 31
0.0
  0
LINE
  5
B8C
330
56
100
AcDbEntity
  8
BORDER
  6
LS
100
AcDbLine
 10
25.50000289999999
 20
0.38999993
 30
0.0
 11
25.50000289999999
 21
0.4499999299999999
 31
0.0
  0
LINE
  5
B8D
330
56
100
AcDbEntity
  8
BORDER
  6
LS
100
AcDbLine
 10
25.5200033
 20
0.3499999
 30
0.0
 11
25.5200033
 21
0.4499999299999999
 31
0.0
  0
TEXT
  5
B8E
330
56
100
AcDbEntity
  8
BORDER
100
AcDbText
 10
25.45150089999999
 20
0.16995001
 30
0.0
 40
0.07999998
  1
6
 50
0.0999999600000001
  7
AE
100
AcDbText
  0
ATTDEF
  5
B8F
330
56
100
AcDbEntity
  8
TITLE BLOCK
  6
Continuous
100
AcDbText
 10
32.4
 20
1.125
 30
0.0
 40
0.11808994431015
  1

 41
0.8
100
AcDbAttributeDefinition
  3
Sheet of
  2
GEN-TITLE-SHEET-OF{2.62}
 70
     0
1001
GENIUS_GENBLLY_14
1000
BOR3
  0
ATTDEF
  5
B90
330
56
100
AcDbEntity
  8
TITLE BLOCK
  6
Continuous
100
AcDbText
 10
32.0
 20
1.125
 30
0.0
 40
0.11808994431015
  1

 41
0.8
100
AcDbAttributeDefinition
  3
Sheet
  2
GEN-TITLE-SHEET{2.62}
 70
     0
1001
GENIUS_GENBLLY_14
1000
BOR3
  0
TEXT
  5
B91
330
56
100
AcDbEntity
  8
TITLE BLOCK
  6
Continuous
100
AcDbText
 10
31.575
 20
1.449999999999999
 30
0.0
 40
0.075937067150492
  1
DATE
 50
0.09999996
  7
AE
100
AcDbText
  0
TEXT
  5
B92
330
56
100
AcDbEntity
  8
TITLE BLOCK
  6
Continuous
100
AcDbText
 10
31.575
 20
1.2
 30
0.0
 40
0.075937067150492
  1
SHEET   OF
 50
0.09999996
  7
AE
100
AcDbText
  0
ATTDEF
  5
B93
330
56
100
AcDbEntity
  8
TITLE BLOCK
  6
Continuous
100
AcDbText
 10
30.44999999999999
 20
1.125
 30
0.0
 40
0.1010611419
  1

 41
0.8
100
AcDbAttributeDefinition
  3
Material
  2
GEN-TITLE-MAT{11.15}
 70
     0
1001
GENIUS_GENBLLY_14
1000
BOR3
  0
ATTDEF
  5
B94
330
56
100
AcDbEntity
  8
TITLE BLOCK
  6
Continuous
100
AcDbText
 10
30.44999999999999
 20
1.375
 30
0.0
 40
0.1010611419
  1

100
AcDbAttributeDefinition
  3
Machine
  2
GEN-TITLE-MACH{5}
 70
     0
1001
GENIUS_GENBLLY_14
1000
BOR2
  0
ATTDEF
  5
B95
330
56
100
AcDbEntity
  8
TITLE BLOCK
  6
Continuous
100
AcDbText
 10
30.44999999999999
 20
1.625
 30
0.0
 40
0.1010611419
  1

100
AcDbAttributeDefinition
  3
Ref. No.
  2
GEN-TITLE-REF{5}
 70
     0
1001
GENIUS_GENBLLY_14
1000
BOR2
  0
TEXT
  5
B96
330
56
100
AcDbEntity
  8
TITLE BLOCK
  6
Continuous
100
AcDbText
 10
30.1
 20
1.2
 30
0.0
 40
0.075937067150492
  1
MATL
 50
0.09999996
  7
AE
100
AcDbText
  0
TEXT
  5
B97
330
56
100
AcDbEntity
  8
TITLE BLOCK
  6
Continuous
100
AcDbText
 10
30.1
 20
1.449999999999999
 30
0.0
 40
0.075937067150492
  1
MACH
 50
0.09999996
  7
AE
100
AcDbText
  0
TEXT
  5
B98
330
56
100
AcDbEntity
  8
TITLE BLOCK
  6
Continuous
100
AcDbText
 10
30.1
 20
1.699999999999999
 30
0.0
 40
0.075937067150492
  1
REF
 50
0.09999996
  7
AE
100
AcDbText
  0
TEXT
  5
B99
330
56
100
AcDbEntity
  8
TITLE BLOCK
  6
Continuous
100
AcDbText
 10
30.1
 20
0.9
 30
0.0
 40
0.075937067150492
  1
DRAWING NUMBER
 50
0.09999996
  7
AE
100
AcDbText
  0
LINE
  5
B9A
330
56
100
AcDbEntity
  8
TITLE BLOCK
  6
Continuous
100
AcDbLine
 10
30.04999999999999
 20
0.4999656890232619
 30
0.0
 11
30.04999999999999
 21
2.5
 31
0.0
  0
LINE
  5
B9B
330
56
100
AcDbEntity
  8
TITLE BLOCK
  6
Continuous
100
AcDbLine
 10
31.52625718126357
 20
1.049999999999999
 30
0.0
 11
31.52625718126353
 21
1.549999999999999
 31
0.0
  0
ATTDEF
  5
B9C
330
56
100
AcDbEntity
  8
TITLE BLOCK
  6
Continuous
100
AcDbText
 10
31.92499999999999
 20
1.375
 30
0.0
 40
0.1010611419
  1

100
AcDbAttributeDefinition
  3
Date
  2
GEN-TITLE-PLOT{5}
 70
     0
1001
GENIUS_GENBLLY_14
1000
BOR2
  0
ATTDEF
  5
B9D
330
56
100
AcDbEntity
  8
TITLE BLOCK
  6
Continuous
100
AcDbText
 10
30.4
 20
0.6
 30
0.0
 40
0.196816573850279
  1

 41
0.8
100
AcDbAttributeDefinition
  3
Drawing Number
  2
GEN-TITLE-NR{13.37}
 70
     0
1001
GENIUS_GENBLLY_14
1000
BOR5
  0
TEXT
  5
B9E
330
56
100
AcDbEntity
  8
BORDER
100
AcDbText
 10
33.42857146
 20
2.6499996
 30
0.0
 40
0.19999999
  1
A
  7
AE
100
AcDbText
  0
TEXT
  5
B9F
330
56
100
AcDbEntity
  8
BORDER
100
AcDbText
 10
31.8035717
 20
0.14999998
 30
0.0
 40
0.19999999
  1
1
  7
AE
100
AcDbText
  0
LINE
  5
BA0
330
56
100
AcDbEntity
  8
BORDER
100
AcDbLine
 10
29.75
 20
0.09999996
 30
0.0
 11
29.75
 21
0.5
 31
0.0
  0
TEXT
  5
BA1
330
56
100
AcDbEntity
  8
BORDER
100
AcDbText
 10
33.42857146
 20
8.149999599999999
 30
0.0
 40
0.19999999
  1
B
  7
AE
100
AcDbText
  0
LINE
  5
BA2
330
56
100
AcDbEntity
  8
BORDER
100
AcDbLine
 10
33.0
 20
5.5
 30
0.0
 11
33.40000004
 21
5.5
 31
0.0
  0
LINE
  5
BA3
330
56
100
AcDbEntity
  8
BORDER
100
AcDbLine
 10
17.0
 20
21.69999699999999
 30
0.0
 11
17.0
 21
21.899994
 31
0.0
  0
LINE
  5
BA4
330
56
100
AcDbEntity
  8
BORDER
100
AcDbLine
 10
16.900009
 20
21.69999699999999
 30
0.0
 11
17.100006
 21
21.69999699999999
 31
0.0
  0
LINE
  5
BA5
330
56
100
AcDbEntity
  8
BORDER
100
AcDbLine
 10
16.90004
 20
21.69999699999999
 30
0.0
 11
17.00004599999999
 21
21.49999999999999
 31
0.0
  0
LINE
  5
BA6
330
56
100
AcDbEntity
  8
BORDER
100
AcDbLine
 10
17.00002999999999
 20
21.50001499999999
 30
0.0
 11
17.100037
 21
21.700012
 31
0.0
  0
TEXT
  5
BA7
330
56
100
AcDbEntity
  8
BORDER
100
AcDbText
 10
14.80357399999999
 20
21.649994
 30
0.0
 40
0.19999999
  1
5
  7
AE
100
AcDbText
  0
LINE
  5
BA8
330
56
100
AcDbEntity
  8
BORDER
100
AcDbLine
 10
21.25
 20
21.49999999999999
 30
0.0
 11
21.25
 21
21.899994
 31
0.0
  0
TEXT
  5
BA9
330
56
100
AcDbEntity
  8
BORDER
100
AcDbText
 10
19.053572
 20
21.649994
 30
0.0
 40
0.19999999
  1
4
  7
AE
100
AcDbText
  0
TEXT
  5
BAA
330
56
100
AcDbEntity
  8
BORDER
100
AcDbText
 10
23.303572
 20
21.649994
 30
0.0
 40
0.19999999
  1
3
  7
AE
100
AcDbText
  0
TEXT
  5
BAB
330
56
100
AcDbEntity
  8
BORDER
100
AcDbText
 10
27.55357169999999
 20
21.649994
 30
0.0
 40
0.19999999
  1
2
  7
AE
100
AcDbText
  0
LINE
  5
BAC
330
56
100
AcDbEntity
  8
BORDER
100
AcDbLine
 10
25.5
 20
21.49999999999999
 30
0.0
 11
25.5
 21
21.899994
 31
0.0
  0
TEXT
  5
BAD
330
56
100
AcDbEntity
  8
BORDER
100
AcDbText
 10
33.42857146
 20
13.65
 30
0.0
 40
0.19999999
  1
C
  7
AE
100
AcDbText
  0
LINE
  5
BAE
330
56
100
AcDbEntity
  8
BORDER
100
AcDbLine
 10
33.20000315
 20
11.0
 30
0.0
 11
33.4000001
 21
11.0
 31
0.0
  0
LINE
  5
BAF
330
56
100
AcDbEntity
  8
BORDER
100
AcDbLine
 10
32.999999
 20
10.999982
 30
0.0
 11
33.19999479999999
 21
11.09997899999999
 31
0.0
  0
LINE
  5
BB0
330
56
100
AcDbEntity
  8
BORDER
100
AcDbLine
 10
33.20000315
 20
10.89999399999999
 30
0.0
 11
33.20000315
 21
11.099991
 31
0.0
  0
LINE
  5
BB1
330
56
100
AcDbEntity
  8
BORDER
100
AcDbLine
 10
33.00001204
 20
10.99998
 30
0.0
 11
33.20000786
 21
10.899983
 31
0.0
  0
TEXT
  5
BB2
330
56
100
AcDbEntity
  8
BORDER
100
AcDbText
 10
33.42857146
 20
19.149994
 30
0.0
 40
0.19999999
  1
D
  7
AE
100
AcDbText
  0
LINE
  5
BB3
330
56
100
AcDbEntity
  8
BORDER
100
AcDbLine
 10
33.0
 20
16.5
 30
0.0
 11
33.40000004
 21
16.5
 31
0.0
  0
TEXT
  5
BB4
330
56
100
AcDbEntity
  8
BORDER
100
AcDbText
 10
31.8035717
 20
21.649994
 30
0.0
 40
0.19999999
  1
1
  7
AE
100
AcDbText
  0
LINE
  5
BB5
330
56
100
AcDbEntity
  8
BORDER
100
AcDbLine
 10
29.75
 20
21.49999999999999
 30
0.0
 11
29.75
 21
21.899994
 31
0.0
  0
LINE
  5
BB6
330
56
100
AcDbEntity
  8
BORDER
  6
Continuous
100
AcDbLine
 10
0.0
 20
0.0
 30
0.0
 11
0.0
 21
22.0
 31
0.0
  0
LINE
  5
BB7
330
56
100
AcDbEntity
  8
BORDER
  6
Continuous
100
AcDbLine
 10
0.0
 20
22.0
 30
0.0
 11
34.0
 21
22.0
 31
0.0
  0
LINE
  5
BB8
330
56
100
AcDbEntity
  8
BORDER
  6
Continuous
100
AcDbLine
 10
34.0
 20
22.0
 30
0.0
 11
34.0
 21
0.0
 31
0.0
  0
LINE
  5
BB9
330
56
100
AcDbEntity
  8
BORDER
  6
Continuous
100
AcDbLine
 10
34.0
 20
0.0
 30
0.0
 11
0.0
 21
0.0
 31
0.0
  0
LINE
  5
BBA
330
56
100
AcDbEntity
  8
BORDER
100
AcDbLine
 10
0.0
 20
0.0
 30
0.0
 11
0.0
 21
0.0
 31
0.0
  0
MTEXT
  5
BBB
330
56
100
AcDbEntity
  8
BORDER
  6
Continuous
100
AcDbMText
 10
31.50412857763948
 20
2.028264837305509
 30
0.0
 40
0.07874
 41
2.862
 71
     5
 72
     1
  1
{\Fromans.shx;\C9;Controls, Measurement, and Sensing\P672 South Military Road\PFond du Lac, Wisconsin 54936 U.S.A.}
 73
     1
 44
1.0
  0
MTEXT
  5
BBC
330
56
100
AcDbEntity
  8
BORDER
  6
Continuous
100
AcDbMText
 10
31.5030897933587
 20
2.424492635629308
 30
0.0
 40
0.15748
 41
2.662939556
 71
     2
 72
     5
  1
{\fArial|b0|i0|c0|p34;\C1;G & L Motion Control Inc.}
 73
     1
 44
1.0
  0
ENDBLK
  5
11B
330
56
100
AcDbEntity
  8
0
100
AcDbBlockEnd
  0
BLOCK
  5
AE8
330
AE6
100
AcDbEntity
  8
0
100
AcDbBlockBegin
  2
GENAXEH
 70
     0
 10
0.0
 20
0.0
 30
0.0
  3
GENAXEH
  1

  0
LINE
  5
AE7
330
AE6
100
AcDbEntity
  8
0
100
AcDbLine
 10
-1.0
 20
0.0
 30
0.0
 11
1.0
 21
0.0
 31
0.0
  0
ENDBLK
  5
AE9
330
AE6
100
AcDbEntity
  8
0
100
AcDbBlockEnd
  0
BLOCK
  5
CB1
330
BFC
100
AcDbEntity
  8
0
100
AcDbBlockBegin
  2
ASSEMBLY_C
 70
     2
 10
0.0
 20
0.0
 30
0.0
  3
ASSEMBLY_C
  1

  0
LINE
  5
BFD
330
BFC
100
AcDbEntity
  8
BORDER
  6
Continuous
100
AcDbLine
 10
0.0
 20
17.0
 30
0.0
 11
22.0
 21
17.0
 31
0.0
  0
LINE
  5
BFE
330
BFC
100
AcDbEntity
  8
BORDER
100
AcDbLine
 10
0.5
 20
0.75
 30
0.0
 11
21.49999999999999
 21
0.75
 31
0.0
  0
LINE
  5
BFF
330
BFC
100
AcDbEntity
  8
BORDER
100
AcDbLine
 10
0.5
 20
16.25
 30
0.0
 11
21.49999999999999
 21
16.25
 31
0.0
  0
ATTDEF
  5
C00
330
BFC
100
AcDbEntity
  8
TITLE BLOCK
  6
Continuous
100
AcDbText
 10
17.42499999999999
 20
1.875
 30
0.0
 40
0.1010611419
  1

100
AcDbAttributeDefinition
  3
Drawn by
  2
GEN-TITLE-NAME{5}
 70
     0
1001
GENIUS_GENBLLY_14
1000
BOR2
  0
ATTDEF
  5
C01
330
BFC
100
AcDbEntity
  8
TITLE BLOCK
  6
Continuous
100
AcDbText
 10
17.42499999999999
 20
1.625
 30
0.0
 40
0.1010611419
  1

100
AcDbAttributeDefinition
  3
Check by
  2
GEN-TITLE-CHKM{5}
 70
     0
1001
GENIUS_GENBLLY_14
1000
BOR2
  0
ATTDEF
  5
C02
330
BFC
100
AcDbEntity
  8
TITLE BLOCK
  6
Continuous
100
AcDbText
 10
17.42499999999999
 20
1.375
 30
0.0
 40
0.1010611419
  1

100
AcDbAttributeDefinition
  3
Approved by
  2
GEN-TITLE-APPM{5}
 70
     0
1001
GENIUS_GENBLLY_14
1000
BOR2
1001
GENIUS_GENTRA_14
1002
{
1070
     3
1000
GENTRAPR,%s,(GENMSG gentitus 73)
1000
Approved by
1000
gb
1070
     0
1002
}
  0
LINE
  5
C03
330
BFC
100
AcDbEntity
  8
TITLE BLOCK
  6
Continuous
100
AcDbLine
 10
15.59965639031853
 20
1.299999999999999
 30
0.0
 11
21.49999999999999
 21
1.299999999999999
 31
0.0
  0
LINE
  5
C04
330
BFC
100
AcDbEntity
  8
TITLE BLOCK
  6
Continuous
100
AcDbLine
 10
17.07518995515351
 20
1.549999999999999
 30
0.0
 11
21.49999999999999
 21
1.549999999999999
 31
0.0
  0
LINE
  5
C05
330
BFC
100
AcDbEntity
  8
TITLE BLOCK
  6
Continuous
100
AcDbLine
 10
17.07518995515351
 20
1.799999999999999
 30
0.0
 11
21.49999999999999
 21
1.799999999999999
 31
0.0
  0
LINE
  5
C06
330
BFC
100
AcDbEntity
  8
TITLE BLOCK
  6
Continuous
100
AcDbLine
 10
17.07518995515351
 20
2.049999999999999
 30
0.0
 11
21.49999999999999
 21
2.049999999999999
 31
0.0
  0
LINE
  5
C07
330
BFC
100
AcDbEntity
  8
TITLE BLOCK
  6
Continuous
100
AcDbLine
 10
12.75
 20
2.75
 30
0.0
 11
21.49999999999999
 21
2.75
 31
0.0
  0
TEXT
  5
C08
330
BFC
100
AcDbEntity
  8
TITLE BLOCK
  6
Continuous
100
AcDbText
 10
17.20669482722676
 20
2.346163262564664
 30
0.0
 40
0.1010611419
  1
  DRAWING
 50
0.09999996
  7
AE
100
AcDbText
  0
TEXT
  5
C09
330
BFC
100
AcDbEntity
  8
TITLE BLOCK
  6
Continuous
100
AcDbText
 10
17.20669482722676
 20
2.555546537751305
 30
0.0
 40
0.1010611419
  1
DO NOT SCALE
 50
0.09999996
  7
AE
100
AcDbText
  0
LINE
  5
C0A
330
BFC
100
AcDbEntity
  8
BORDER
  6
Continuous
100
AcDbLine
 10
0.0
 20
0.2456391960479891
 30
0.0
 11
0.0
 21
17.0
 31
0.0
  0
LINE
  5
C0B
330
BFC
100
AcDbEntity
  8
BORDER
100
AcDbLine
 10
0.5
 20
0.75
 30
0.0
 11
0.5
 21
16.25
 31
0.0
  0
TEXT
  5
C0C
330
BFC
100
AcDbEntity
  8
BORDER
100
AcDbText
 10
0.1785739999999976
 20
2.0249996
 30
0.0
 40
0.19999999
  1
A
  7
AE
100
AcDbText
  0
LINE
  5
C0D
330
BFC
100
AcDbEntity
  8
BORDER
100
AcDbLine
 10
0.1000060000000005
 20
8.4999991
 30
0.0
 11
0.3000030000000002
 21
8.4999991
 31
0.0
  0
LINE
  5
C0E
330
BFC
100
AcDbEntity
  8
BORDER
100
AcDbLine
 10
0.3000179999999979
 20
8.399978599999998
 30
0.0
 11
0.5000149999999977
 21
8.499977099999998
 31
0.0
  0
TEXT
  5
C0F
330
BFC
100
AcDbEntity
  8
BORDER
100
AcDbText
 10
0.1785739999999976
 20
6.2749996
 30
0.0
 40
0.19999999
  1
B
  7
AE
100
AcDbText
  0
LINE
  5
C10
330
BFC
100
AcDbEntity
  8
BORDER
100
AcDbLine
 10
0.1000060000000005
 20
4.25
 30
0.0
 11
0.5
 21
4.25
 31
0.0
  0
LINE
  5
C11
330
BFC
100
AcDbEntity
  8
BORDER
100
AcDbLine
 10
0.3000340000000001
 20
8.5999765
 30
0.0
 11
0.5000299999999989
 21
8.499978999999999
 31
0.0
  0
LINE
  5
C12
330
BFC
100
AcDbEntity
  8
BORDER
100
AcDbLine
 10
0.3000179999999979
 20
8.3999929
 30
0.0
 11
0.3000179999999979
 21
8.5999899
 31
0.0
  0
TEXT
  5
C13
330
BFC
100
AcDbEntity
  8
BORDER
100
AcDbText
 10
2.678573999999997
 20
0.27499998
 30
0.0
 40
0.19999999
  1
4
  7
AE
100
AcDbText
  0
LINE
  5
C14
330
BFC
100
AcDbEntity
  8
BORDER
100
AcDbLine
 10
5.5
 20
0.34999996
 30
0.0
 11
5.5
 21
0.75
 31
0.0
  0
TEXT
  5
C15
330
BFC
100
AcDbEntity
  8
BORDER
100
AcDbText
 10
8.178572
 20
0.27499998
 30
0.0
 40
0.19999999
  1
3
  7
AE
100
AcDbText
  0
TEXT
  5
C16
330
BFC
100
AcDbEntity
  8
BORDER
100
AcDbText
 10
13.5829811
 20
0.3329525
 30
0.0
 40
0.04
  1
FULL SIZE   50   02
 50
0.0999999600000013
 41
0.7749084200000001
  7
AE
100
AcDbText
  0
TEXT
  5
C17
330
BFC
100
AcDbEntity
  8
TITLE BLOCK
  6
Continuous
100
AcDbText
 10
13.87354307850001
 20
0.8400242034427522
 30
0.0
 40
0.075937067150492
  1
REVISION
 50
0.09999996
  7
AE
100
AcDbText
  0
LINE
  5
C18
330
BFC
100
AcDbEntity
  8
TITLE BLOCK
  6
Continuous
100
AcDbLine
 10
12.75
 20
1.0
 30
0.0
 11
15.59965639031853
 21
1.0
 31
0.0
  0
LINE
  5
C19
330
BFC
100
AcDbEntity
  8
TITLE BLOCK
  6
Continuous
100
AcDbLine
 10
12.75
 20
1.75
 30
0.0
 11
15.59965639031853
 21
1.75
 31
0.0
  0
LINE
  5
C1A
330
BFC
100
AcDbEntity
  8
TITLE BLOCK
  6
Continuous
100
AcDbLine
 10
12.75
 20
2.0
 30
0.0
 11
15.59965639031853
 21
2.0
 31
0.0
  0
LINE
  5
C1B
330
BFC
100
AcDbEntity
  8
TITLE BLOCK
  6
Continuous
100
AcDbLine
 10
12.75
 20
2.25
 30
0.0
 11
15.59965639031853
 21
2.25
 31
0.0
  0
LINE
  5
C1C
330
BFC
100
AcDbEntity
  8
TITLE BLOCK
  6
Continuous
100
AcDbLine
 10
12.75
 20
2.5
 30
0.0
 11
15.59965639031853
 21
2.5
 31
0.0
  0
LINE
  5
C1D
330
BFC
100
AcDbEntity
  8
TITLE BLOCK
  6
Continuous
100
AcDbLine
 10
12.75
 20
1.5
 30
0.0
 11
15.59965639031853
 21
1.5
 31
0.0
  0
LINE
  5
C1E
330
BFC
100
AcDbEntity
  8
TITLE BLOCK
  6
Continuous
100
AcDbLine
 10
12.75
 20
1.25
 30
0.0
 11
15.59965639031853
 21
1.25
 31
0.0
  0
LINE
  5
C1F
330
BFC
100
AcDbEntity
  8
BORDER
  6
LS
100
AcDbLine
 10
13.68000129999999
 20
0.55999994
 30
0.0
 11
13.68000129999999
 21
0.6999999900000001
 31
0.0
  0
LINE
  5
C20
330
BFC
100
AcDbEntity
  8
BORDER
  6
LS
100
AcDbLine
 10
13.7800016
 20
0.55999994
 30
0.0
 11
13.7800016
 21
0.6999999900000001
 31
0.0
  0
LINE
  5
C21
330
BFC
100
AcDbEntity
  8
BORDER
  6
LS
100
AcDbLine
 10
13.880002
 20
0.55999994
 30
0.0
 11
13.880002
 21
0.6999999900000001
 31
0.0
  0
LINE
  5
C22
330
BFC
100
AcDbEntity
  8
BORDER
  6
LS
100
AcDbLine
 10
13.7000017
 20
0.63999999
 30
0.0
 11
13.7000017
 21
0.6999999900000001
 31
0.0
  0
LINE
  5
C23
330
BFC
100
AcDbEntity
  8
BORDER
  6
LS
100
AcDbLine
 10
13.7200022
 20
0.59999996
 30
0.0
 11
13.7200022
 21
0.6999999900000001
 31
0.0
  0
LINE
  5
C24
330
BFC
100
AcDbEntity
  8
BORDER
  6
LS
100
AcDbLine
 10
13.7400026
 20
0.59999996
 30
0.0
 11
13.7400026
 21
0.6999999900000001
 31
0.0
  0
LINE
  5
C25
330
BFC
100
AcDbEntity
  8
BORDER
  6
LS
100
AcDbLine
 10
13.76000209999999
 20
0.63999999
 30
0.0
 11
13.76000209999999
 21
0.6999999900000001
 31
0.0
  0
LINE
  5
C26
330
BFC
100
AcDbEntity
  8
BORDER
  6
LS
100
AcDbLine
 10
13.80000209999999
 20
0.63999999
 30
0.0
 11
13.80000209999999
 21
0.6999999900000001
 31
0.0
  0
LINE
  5
C27
330
BFC
100
AcDbEntity
  8
BORDER
  6
LS
100
AcDbLine
 10
13.8200026
 20
0.59999996
 30
0.0
 11
13.8200026
 21
0.6999999900000001
 31
0.0
  0
LINE
  5
C28
330
BFC
100
AcDbEntity
  8
BORDER
  6
LS
100
AcDbLine
 10
13.840003
 20
0.59999996
 30
0.0
 11
13.840003
 21
0.6999999900000001
 31
0.0
  0
LINE
  5
C29
330
BFC
100
AcDbEntity
  8
BORDER
  6
LS
100
AcDbLine
 10
13.8600025
 20
0.63999999
 30
0.0
 11
13.8600025
 21
0.6999999900000001
 31
0.0
  0
LINE
  5
C2A
330
BFC
100
AcDbEntity
  8
BORDER
  6
LS
100
AcDbLine
 10
13.90000249999999
 20
0.63999999
 30
0.0
 11
13.90000249999999
 21
0.6999999900000001
 31
0.0
  0
LINE
  5
C2B
330
BFC
100
AcDbEntity
  8
BORDER
  6
LS
100
AcDbLine
 10
13.9200029
 20
0.59999996
 30
0.0
 11
13.9200029
 21
0.6999999900000001
 31
0.0
  0
LINE
  5
C2C
330
BFC
100
AcDbEntity
  8
BORDER
  6
LS
100
AcDbLine
 10
13.4800005
 20
0.55999994
 30
0.0
 11
13.4800005
 21
0.6999999900000001
 31
0.0
  0
LINE
  5
C2D
330
BFC
100
AcDbEntity
  8
BORDER
  6
LS
100
AcDbLine
 10
13.58000089999999
 20
0.55999994
 30
0.0
 11
13.58000089999999
 21
0.6999999900000001
 31
0.0
  0
LINE
  5
C2E
330
BFC
100
AcDbEntity
  8
BORDER
  6
LS
100
AcDbLine
 10
13.4000006
 20
0.63999999
 30
0.0
 11
13.4000006
 21
0.6999999900000001
 31
0.0
  0
LINE
  5
C2F
330
BFC
100
AcDbEntity
  8
BORDER
  6
LS
100
AcDbLine
 10
13.42000099999999
 20
0.59999996
 30
0.0
 11
13.42000099999999
 21
0.6999999900000001
 31
0.0
  0
LINE
  5
C30
330
BFC
100
AcDbEntity
  8
BORDER
  6
LS
100
AcDbLine
 10
13.4400015
 20
0.59999996
 30
0.0
 11
13.4400015
 21
0.6999999900000001
 31
0.0
  0
LINE
  5
C31
330
BFC
100
AcDbEntity
  8
BORDER
  6
LS
100
AcDbLine
 10
13.460001
 20
0.63999999
 30
0.0
 11
13.460001
 21
0.6999999900000001
 31
0.0
  0
LINE
  5
C32
330
BFC
100
AcDbEntity
  8
BORDER
  6
LS
100
AcDbLine
 10
13.50000089999999
 20
0.63999999
 30
0.0
 11
13.50000089999999
 21
0.6999999900000001
 31
0.0
  0
LINE
  5
C33
330
BFC
100
AcDbEntity
  8
BORDER
  6
LS
100
AcDbLine
 10
13.5200014
 20
0.59999996
 30
0.0
 11
13.5200014
 21
0.6999999900000001
 31
0.0
  0
LINE
  5
C34
330
BFC
100
AcDbEntity
  8
BORDER
  6
LS
100
AcDbLine
 10
13.5400019
 20
0.59999996
 30
0.0
 11
13.5400019
 21
0.6999999900000001
 31
0.0
  0
LINE
  5
C35
330
BFC
100
AcDbEntity
  8
BORDER
  6
LS
100
AcDbLine
 10
13.5600014
 20
0.63999999
 30
0.0
 11
13.5600014
 21
0.6999999900000001
 31
0.0
  0
LINE
  5
C36
330
BFC
100
AcDbEntity
  8
BORDER
  6
LS
100
AcDbLine
 10
13.6000013
 20
0.63999999
 30
0.0
 11
13.6000013
 21
0.6999999900000001
 31
0.0
  0
LINE
  5
C37
330
BFC
100
AcDbEntity
  8
BORDER
  6
LS
100
AcDbLine
 10
13.62000179999999
 20
0.59999996
 30
0.0
 11
13.62000179999999
 21
0.6999999900000001
 31
0.0
  0
LINE
  5
C38
330
BFC
100
AcDbEntity
  8
BORDER
  6
LS
100
AcDbLine
 10
13.6400022
 20
0.59999996
 30
0.0
 11
13.6400022
 21
0.6999999900000001
 31
0.0
  0
LINE
  5
C39
330
BFC
100
AcDbEntity
  8
BORDER
  6
LS
100
AcDbLine
 10
13.6600017
 20
0.63999999
 30
0.0
 11
13.6600017
 21
0.6999999900000001
 31
0.0
  0
TEXT
  5
C3A
330
BFC
100
AcDbEntity
  8
BORDER
100
AcDbText
 10
13.7515001
 20
0.41995007
 30
0.0
 40
0.07999998
  1
4
 50
0.0999999600000013
  7
AE
100
AcDbText
  0
TEXT
  5
C3B
330
BFC
100
AcDbEntity
  8
BORDER
100
AcDbText
 10
13.3514986
 20
0.35995007
 30
0.0
 40
0.07999998
  1
0
 50
0.0999999600000013
  7
AE
100
AcDbText
  0
TEXT
  5
C3C
330
BFC
100
AcDbEntity
  8
BORDER
100
AcDbText
 10
13.5514994
 20
0.41995007
 30
0.0
 40
0.07999998
  1
2
 50
0.0999999600000013
  7
AE
100
AcDbText
  0
TEXT
  5
C3D
330
BFC
100
AcDbEntity
  8
BORDER
100
AcDbText
 10
12.8087463
 20
0.27487546
 30
0.0
 40
0.19999999
  1
2
 50
0.0999999600000013
  7
AE
100
AcDbText
  0
LINE
  5
C3E
330
BFC
100
AcDbEntity
  8
BORDER
  6
LS
100
AcDbLine
 10
13.3800001
 20
0.49999994
 30
0.0
 11
13.3800001
 21
0.6999999900000001
 31
0.0
  0
LINE
  5
C3F
330
BFC
100
AcDbEntity
  8
BORDER
100
AcDbLine
 10
10.900002
 20
0.55000043
 30
0.0
 11
11.00000199999999
 21
0.75
 31
0.0
  0
LINE
  5
C40
330
BFC
100
AcDbEntity
  8
BORDER
100
AcDbLine
 10
11.000003
 20
0.7499994000000001
 30
0.0
 11
11.100003
 21
0.55000019
 31
0.0
  0
LINE
  5
C41
330
BFC
100
AcDbEntity
  8
BORDER
100
AcDbLine
 10
10.90000099999999
 20
0.5499999500000001
 30
0.0
 11
11.1
 21
0.5499999500000001
 31
0.0
  0
LINE
  5
C42
330
BFC
100
AcDbEntity
  8
BORDER
100
AcDbLine
 10
11.0
 20
0.3499999
 30
0.0
 11
11.0
 21
0.5499999500000001
 31
0.0
  0
LINE
  5
C43
330
BFC
100
AcDbEntity
  8
BORDER
100
AcDbLine
 10
11.0
 20
0.3499999
 30
0.0
 11
11.0
 21
0.5499999500000001
 31
0.0
  0
LINE
  5
C44
330
BFC
100
AcDbEntity
  8
TITLE BLOCK
  6
Continuous
100
AcDbLine
 10
13.9
 20
1.0
 30
0.0
 11
13.9
 21
2.75
 31
0.0
  0
TEXT
  5
C45
330
BFC
100
AcDbEntity
  8
TITLE BLOCK
  6
Continuous
100
AcDbText
 10
12.83824213224503
 20
1.090349814097824
 30
0.0
 40
0.0771520776612738
  1
NO.
 50
0.09999996
  7
AE
100
AcDbText
  0
LINE
  5
C46
330
BFC
100
AcDbEntity
  8
TITLE BLOCK
  6
Continuous
100
AcDbLine
 10
12.75
 20
0.7499656890232619
 30
0.0
 11
12.75
 21
2.75
 31
0.0
  0
LINE
  5
C47
330
BFC
100
AcDbEntity
  8
TITLE BLOCK
  6
Continuous
100
AcDbLine
 10
13.1
 20
1.0
 30
0.0
 11
13.1
 21
2.75
 31
0.0
  0
TEXT
  5
C48
330
BFC
100
AcDbEntity
  8
TITLE BLOCK
  6
Continuous
100
AcDbText
 10
13.40137402234739
 20
1.090958090874199
 30
0.0
 40
0.075937067150492
  1
DATE
 50
0.09999996
  7
AE
100
AcDbText
  0
LINE
  5
C49
330
BFC
100
AcDbEntity
  8
BORDER
  6
LS
100
AcDbLine
 10
15.18000599999999
 20
0.55999994
 30
0.0
 11
15.18000599999999
 21
0.6999999900000001
 31
0.0
  0
LINE
  5
C4A
330
BFC
100
AcDbEntity
  8
BORDER
  6
LS
100
AcDbLine
 10
14.9800053
 20
0.55999994
 30
0.0
 11
14.9800053
 21
0.6999999900000001
 31
0.0
  0
LINE
  5
C4B
330
BFC
100
AcDbEntity
  8
BORDER
  6
LS
100
AcDbLine
 10
14.7800045
 20
0.55999994
 30
0.0
 11
14.7800045
 21
0.6999999900000001
 31
0.0
  0
LINE
  5
C4C
330
BFC
100
AcDbEntity
  8
BORDER
  6
LS
100
AcDbLine
 10
14.58000469999999
 20
0.55999994
 30
0.0
 11
14.58000469999999
 21
0.6999999900000001
 31
0.0
  0
LINE
  5
C4D
330
BFC
100
AcDbEntity
  8
BORDER
  6
LS
100
AcDbLine
 10
14.3600044
 20
0.63999999
 30
0.0
 11
14.3600044
 21
0.6999999900000001
 31
0.0
  0
LINE
  5
C4E
330
BFC
100
AcDbEntity
  8
BORDER
  6
LS
100
AcDbLine
 10
14.08000279999999
 20
0.55999994
 30
0.0
 11
14.08000279999999
 21
0.6999999900000001
 31
0.0
  0
LINE
  5
C4F
330
BFC
100
AcDbEntity
  8
BORDER
  6
LS
100
AcDbLine
 10
14.1800032
 20
0.55999994
 30
0.0
 11
14.1800032
 21
0.6999999900000001
 31
0.0
  0
LINE
  5
C50
330
BFC
100
AcDbEntity
  8
BORDER
  6
LS
100
AcDbLine
 10
14.2800035
 20
0.55999994
 30
0.0
 11
14.2800035
 21
0.6999999900000001
 31
0.0
  0
LINE
  5
C51
330
BFC
100
AcDbEntity
  8
BORDER
  6
LS
100
AcDbLine
 10
14.30000399999999
 20
0.63999999
 30
0.0
 11
14.30000399999999
 21
0.6999999900000001
 31
0.0
  0
LINE
  5
C52
330
BFC
100
AcDbEntity
  8
BORDER
  6
LS
100
AcDbLine
 10
14.3200045
 20
0.59999996
 30
0.0
 11
14.3200045
 21
0.6999999900000001
 31
0.0
  0
LINE
  5
C53
330
BFC
100
AcDbEntity
  8
BORDER
  6
LS
100
AcDbLine
 10
14.3400049
 20
0.59999996
 30
0.0
 11
14.3400049
 21
0.6999999900000001
 31
0.0
  0
LINE
  5
C54
330
BFC
100
AcDbEntity
  8
BORDER
  6
LS
100
AcDbLine
 10
14.02000329999999
 20
0.59999996
 30
0.0
 11
14.02000329999999
 21
0.6999999900000001
 31
0.0
  0
LINE
  5
C55
330
BFC
100
AcDbEntity
  8
BORDER
  6
LS
100
AcDbLine
 10
14.0400038
 20
0.59999996
 30
0.0
 11
14.0400038
 21
0.6999999900000001
 31
0.0
  0
LINE
  5
C56
330
BFC
100
AcDbEntity
  8
BORDER
  6
LS
100
AcDbLine
 10
14.0600033
 20
0.63999999
 30
0.0
 11
14.0600033
 21
0.6999999900000001
 31
0.0
  0
LINE
  5
C57
330
BFC
100
AcDbEntity
  8
BORDER
  6
LS
100
AcDbLine
 10
14.10000319999999
 20
0.63999999
 30
0.0
 11
14.10000319999999
 21
0.6999999900000001
 31
0.0
  0
LINE
  5
C58
330
BFC
100
AcDbEntity
  8
BORDER
  6
LS
100
AcDbLine
 10
14.1200037
 20
0.59999996
 30
0.0
 11
14.1200037
 21
0.6999999900000001
 31
0.0
  0
LINE
  5
C59
330
BFC
100
AcDbEntity
  8
BORDER
  6
LS
100
AcDbLine
 10
14.14000419999999
 20
0.59999996
 30
0.0
 11
14.14000419999999
 21
0.6999999900000001
 31
0.0
  0
LINE
  5
C5A
330
BFC
100
AcDbEntity
  8
BORDER
  6
LS
100
AcDbLine
 10
14.1600037
 20
0.63999999
 30
0.0
 11
14.1600037
 21
0.6999999900000001
 31
0.0
  0
LINE
  5
C5B
330
BFC
100
AcDbEntity
  8
BORDER
  6
LS
100
AcDbLine
 10
14.20000359999999
 20
0.63999999
 30
0.0
 11
14.20000359999999
 21
0.6999999900000001
 31
0.0
  0
LINE
  5
C5C
330
BFC
100
AcDbEntity
  8
BORDER
  6
LS
100
AcDbLine
 10
14.2200041
 20
0.59999996
 30
0.0
 11
14.2200041
 21
0.6999999900000001
 31
0.0
  0
LINE
  5
C5D
330
BFC
100
AcDbEntity
  8
BORDER
  6
LS
100
AcDbLine
 10
14.2400045
 20
0.59999996
 30
0.0
 11
14.2400045
 21
0.6999999900000001
 31
0.0
  0
LINE
  5
C5E
330
BFC
100
AcDbEntity
  8
BORDER
  6
LS
100
AcDbLine
 10
14.26000399999999
 20
0.63999999
 30
0.0
 11
14.26000399999999
 21
0.6999999900000001
 31
0.0
  0
LINE
  5
C5F
330
BFC
100
AcDbEntity
  8
BORDER
  6
LS
100
AcDbLine
 10
13.9800024
 20
0.55999994
 30
0.0
 11
13.9800024
 21
0.6999999900000001
 31
0.0
  0
LINE
  5
C60
330
BFC
100
AcDbEntity
  8
BORDER
  6
LS
100
AcDbLine
 10
13.9400034
 20
0.59999996
 30
0.0
 11
13.9400034
 21
0.6999999900000001
 31
0.0
  0
LINE
  5
C61
330
BFC
100
AcDbEntity
  8
BORDER
  6
LS
100
AcDbLine
 10
13.9600029
 20
0.63999999
 30
0.0
 11
13.9600029
 21
0.6999999900000001
 31
0.0
  0
LINE
  5
C62
330
BFC
100
AcDbEntity
  8
BORDER
  6
LS
100
AcDbLine
 10
14.0000029
 20
0.63999999
 30
0.0
 11
14.0000029
 21
0.6999999900000001
 31
0.0
  0
TEXT
  5
C63
330
BFC
100
AcDbEntity
  8
BORDER
100
AcDbText
 10
16.3514986
 20
0.35995007
 30
0.0
 40
0.07999998
  1
3
 50
0.0999999600000013
  7
AE
100
AcDbText
  0
TEXT
  5
C64
330
BFC
100
AcDbEntity
  8
BORDER
100
AcDbText
 10
15.35149859999999
 20
0.35995007
 30
0.0
 40
0.07999998
  1
2
 50
0.0999999600000013
  7
AE
100
AcDbText
  0
TEXT
  5
C65
330
BFC
100
AcDbEntity
  8
BORDER
100
AcDbText
 10
15.1515045
 20
0.41995007
 30
0.0
 40
0.07999998
  1
8
 50
0.0999999600000013
  7
AE
100
AcDbText
  0
TEXT
  5
C66
330
BFC
100
AcDbEntity
  8
BORDER
100
AcDbText
 10
14.751503
 20
0.41995007
 30
0.0
 40
0.07999998
  1
4
 50
0.0999999600000013
  7
AE
100
AcDbText
  0
TEXT
  5
C67
330
BFC
100
AcDbEntity
  8
BORDER
100
AcDbText
 10
14.3514986
 20
0.35995007
 30
0.0
 40
0.07999998
  1
1
 50
0.0999999600000013
  7
AE
100
AcDbText
  0
TEXT
  5
C68
330
BFC
100
AcDbEntity
  8
BORDER
100
AcDbText
 10
14.5515032
 20
0.41995007
 30
0.0
 40
0.07999998
  1
2
 50
0.0999999600000013
  7
AE
100
AcDbText
  0
TEXT
  5
C69
330
BFC
100
AcDbEntity
  8
BORDER
100
AcDbText
 10
14.9515037
 20
0.41995007
 30
0.0
 40
0.07999998
  1
6
 50
0.0999999600000013
  7
AE
100
AcDbText
  0
TEXT
  5
C6A
330
BFC
100
AcDbEntity
  8
BORDER
100
AcDbText
 10
14.1515017
 20
0.41995007
 30
0.0
 40
0.07999998
  1
8
 50
0.0999999600000013
  7
AE
100
AcDbText
  0
TEXT
  5
C6B
330
BFC
100
AcDbEntity
  8
BORDER
100
AcDbText
 10
13.9515009
 20
0.41995007
 30
0.0
 40
0.07999998
  1
6
 50
0.0999999600000013
  7
AE
100
AcDbText
  0
LINE
  5
C6C
330
BFC
100
AcDbEntity
  8
BORDER
  6
LS
100
AcDbLine
 10
16.3800001
 20
0.49999994
 30
0.0
 11
16.3800001
 21
0.6999999900000001
 31
0.0
  0
LINE
  5
C6D
330
BFC
100
AcDbEntity
  8
BORDER
  6
LS
100
AcDbLine
 10
14.3800001
 20
0.49999994
 30
0.0
 11
14.3800001
 21
0.6999999900000001
 31
0.0
  0
LINE
  5
C6E
330
BFC
100
AcDbEntity
  8
BORDER
  6
LS
100
AcDbLine
 10
15.3800001
 20
0.49999994
 30
0.0
 11
15.3800001
 21
0.6999999900000001
 31
0.0
  0
TEXT
  5
C6F
330
BFC
100
AcDbEntity
  8
TITLE BLOCK
  6
Continuous
100
AcDbText
 10
17.1
 20
1.949999999999999
 30
0.0
 40
0.075937067150492
  1
DR
 50
0.09999996
  7
AE
100
AcDbText
  0
TEXT
  5
C70
330
BFC
100
AcDbEntity
  8
TITLE BLOCK
  6
Continuous
100
AcDbText
 10
17.1
 20
1.824999999999999
 30
0.0
 40
0.075937067150492
  1
BY
 50
0.09999996
  7
AE
100
AcDbText
  0
TEXT
  5
C71
330
BFC
100
AcDbEntity
  8
TITLE BLOCK
  6
Continuous
100
AcDbText
 10
17.10620037256117
 20
1.574999999999999
 30
0.0
 40
0.075937067150492
  1
BY
 50
0.09999996
  7
AE
100
AcDbText
  0
TEXT
  5
C72
330
BFC
100
AcDbEntity
  8
TITLE BLOCK
  6
Continuous
100
AcDbText
 10
17.1
 20
1.699999999999999
 30
0.0
 40
0.075937067150492
  1
CHK
 50
0.09999996
  7
AE
100
AcDbText
  0
TEXT
  5
C73
330
BFC
100
AcDbEntity
  8
TITLE BLOCK
  6
Continuous
100
AcDbText
 10
17.11
 20
1.45
 30
0.0
 40
0.075937067150492
  1
APPD
 50
0.09999996
  7
AE
100
AcDbText
  0
TEXT
  5
C74
330
BFC
100
AcDbEntity
  8
TITLE BLOCK
  6
Continuous
100
AcDbText
 10
17.1
 20
1.325
 30
0.0
 40
0.075937067150492
  1
BY
 50
0.09999996
  7
AE
100
AcDbText
  0
TEXT
  5
C75
330
BFC
100
AcDbEntity
  8
TITLE BLOCK
  6
Continuous
100
AcDbText
 10
15.65
 20
1.149999999999999
 30
0.0
 40
0.075937067150492
  1
DRAWING NAME
 50
0.09999996
  7
AE
100
AcDbText
  0
LINE
  5
C76
330
BFC
100
AcDbEntity
  8
TITLE BLOCK
  6
Continuous
100
AcDbLine
 10
17.07518995515351
 20
1.35
 30
0.0
 11
17.07518995515351
 21
2.75
 31
0.0
  0
LINE
  5
C77
330
BFC
100
AcDbEntity
  8
TITLE BLOCK
  6
Continuous
100
AcDbLine
 10
15.59965639031853
 20
0.7499656890232619
 30
0.0
 11
15.59965639031853
 21
2.75
 31
0.0
  0
ATTDEF
  5
C78
330
BFC
100
AcDbEntity
  8
TITLE BLOCK
  6
Continuous
100
AcDbText
 10
15.72840859477629
 20
0.8861235259562903
 30
0.0
 40
0.14
  1

 41
0.8
100
AcDbAttributeDefinition
  3
Drawing Name
  2
GEN-TITLE-DES1{15.54}
 70
     0
1001
GENIUS_GENBLLY_14
1000
BOR5
  0
TEXT
  5
C79
330
BFC
100
AcDbEntity
  8
BORDER
100
AcDbText
 10
0.1785739999999976
 20
14.775
 30
0.0
 40
0.19999999
  1
D
  7
AE
100
AcDbText
  0
LINE
  5
C7A
330
BFC
100
AcDbEntity
  8
BORDER
100
AcDbLine
 10
0.1000060000000005
 20
12.75
 30
0.0
 11
0.5
 21
12.75
 31
0.0
  0
TEXT
  5
C7B
330
BFC
100
AcDbEntity
  8
BORDER
100
AcDbText
 10
0.1785739999999976
 20
10.52499999999999
 30
0.0
 40
0.19999999
  1
C
  7
AE
100
AcDbText
  0
TEXT
  5
C7C
330
BFC
100
AcDbEntity
  8
BORDER
100
AcDbText
 10
2.678573999999997
 20
16.52499399999999
 30
0.0
 40
0.19999999
  1
4
  7
AE
100
AcDbText
  0
LINE
  5
C7D
330
BFC
100
AcDbEntity
  8
BORDER
100
AcDbLine
 10
5.5
 20
16.25
 30
0.0
 11
5.5
 21
16.649994
 31
0.0
  0
TEXT
  5
C7E
330
BFC
100
AcDbEntity
  8
BORDER
100
AcDbText
 10
8.178572
 20
16.52499399999999
 30
0.0
 40
0.19999999
  1
3
  7
AE
100
AcDbText
  0
TEXT
  5
C7F
330
BFC
100
AcDbEntity
  8
BORDER
100
AcDbText
 10
13.6785717
 20
16.52499399999999
 30
0.0
 40
0.19999999
  1
2
  7
AE
100
AcDbText
  0
LINE
  5
C80
330
BFC
100
AcDbEntity
  8
BORDER
100
AcDbLine
 10
10.900011
 20
16.449982
 30
0.0
 11
11.000015
 21
16.249985
 31
0.0
  0
LINE
  5
C81
330
BFC
100
AcDbEntity
  8
BORDER
100
AcDbLine
 10
10.90000099999999
 20
16.449997
 30
0.0
 11
11.1
 21
16.449997
 31
0.0
  0
LINE
  5
C82
330
BFC
100
AcDbEntity
  8
BORDER
100
AcDbLine
 10
11.000011
 20
16.25
 30
0.0
 11
11.10001
 21
16.449997
 31
0.0
  0
LINE
  5
C83
330
BFC
100
AcDbEntity
  8
BORDER
100
AcDbLine
 10
10.90000099999999
 20
16.449997
 30
0.0
 11
11.1
 21
16.449997
 31
0.0
  0
LINE
  5
C84
330
BFC
100
AcDbEntity
  8
BORDER
100
AcDbLine
 10
11.0
 20
16.449997
 30
0.0
 11
11.0
 21
16.649994
 31
0.0
  0
LINE
  5
C85
330
BFC
100
AcDbEntity
  8
BORDER
100
AcDbLine
 10
16.5
 20
16.25
 30
0.0
 11
16.5
 21
16.649994
 31
0.0
  0
LINE
  5
C86
330
BFC
100
AcDbEntity
  8
BORDER
  6
Continuous
100
AcDbLine
 10
22.0
 20
0.2456391960479891
 30
0.0
 11
22.0
 21
17.0
 31
0.0
  0
LINE
  5
C87
330
BFC
100
AcDbEntity
  8
BORDER
100
AcDbLine
 10
21.49999999999999
 20
0.75
 30
0.0
 11
21.49999999999999
 21
16.25
 31
0.0
  0
ATTDEF
  5
C88
330
BFC
100
AcDbEntity
  8
TITLE BLOCK
  6
Continuous
100
AcDbText
 10
20.89999999999999
 20
1.375
 30
0.0
 40
0.11808994431015
  1

 41
0.8
100
AcDbAttributeDefinition
  3
Sheet of
  2
GEN-TITLE-SHEET-OF{2.62}
 70
     0
1001
GENIUS_GENBLLY_14
1000
BOR3
  0
ATTDEF
  5
C89
330
BFC
100
AcDbEntity
  8
TITLE BLOCK
  6
Continuous
100
AcDbText
 10
20.5
 20
1.375
 30
0.0
 40
0.11808994431015
  1

 41
0.8
100
AcDbAttributeDefinition
  3
Sheet
  2
GEN-TITLE-SHEET{2.62}
 70
     0
1001
GENIUS_GENBLLY_14
1000
BOR3
  0
TEXT
  5
C8A
330
BFC
100
AcDbEntity
  8
BORDER
100
AcDbText
 10
21.67857146
 20
2.0249996
 30
0.0
 40
0.19999999
  1
A
  7
AE
100
AcDbText
  0
TEXT
  5
C8B
330
BFC
100
AcDbEntity
  8
BORDER
100
AcDbText
 10
19.17857169999999
 20
0.27499998
 30
0.0
 40
0.19999999
  1
1
  7
AE
100
AcDbText
  0
TEXT
  5
C8C
330
BFC
100
AcDbEntity
  8
TITLE BLOCK
  6
Continuous
100
AcDbText
 10
20.07499999999999
 20
1.699999999999999
 30
0.0
 40
0.075937067150492
  1
DATE
 50
0.09999996
  7
AE
100
AcDbText
  0
TEXT
  5
C8D
330
BFC
100
AcDbEntity
  8
TITLE BLOCK
  6
Continuous
100
AcDbText
 10
20.07499999999999
 20
1.45
 30
0.0
 40
0.075937067150492
  1
SHEET   OF
 50
0.09999996
  7
AE
100
AcDbText
  0
ATTDEF
  5
C8E
330
BFC
100
AcDbEntity
  8
TITLE BLOCK
  6
Continuous
100
AcDbText
 10
18.94999999999999
 20
1.375
 30
0.0
 40
0.1010611419
  1

 41
0.8
100
AcDbAttributeDefinition
  3
Material
  2
GEN-TITLE-MAT{11.15}
 70
     0
1001
GENIUS_GENBLLY_14
1000
BOR3
  0
ATTDEF
  5
C8F
330
BFC
100
AcDbEntity
  8
TITLE BLOCK
  6
Continuous
100
AcDbText
 10
18.94999999999999
 20
1.625
 30
0.0
 40
0.1010611419
  1

100
AcDbAttributeDefinition
  3
Machine
  2
GEN-TITLE-MACH{5}
 70
     0
1001
GENIUS_GENBLLY_14
1000
BOR2
  0
ATTDEF
  5
C90
330
BFC
100
AcDbEntity
  8
TITLE BLOCK
  6
Continuous
100
AcDbText
 10
18.94999999999999
 20
1.875
 30
0.0
 40
0.1010611419
  1

100
AcDbAttributeDefinition
  3
Ref. No.
  2
GEN-TITLE-REF{5}
 70
     0
1001
GENIUS_GENBLLY_14
1000
BOR2
  0
TEXT
  5
C91
330
BFC
100
AcDbEntity
  8
TITLE BLOCK
  6
Continuous
100
AcDbText
 10
18.6
 20
1.45
 30
0.0
 40
0.075937067150492
  1
MATL
 50
0.09999996
  7
AE
100
AcDbText
  0
TEXT
  5
C92
330
BFC
100
AcDbEntity
  8
TITLE BLOCK
  6
Continuous
100
AcDbText
 10
18.6
 20
1.699999999999999
 30
0.0
 40
0.075937067150492
  1
MACH
 50
0.09999996
  7
AE
100
AcDbText
  0
TEXT
  5
C93
330
BFC
100
AcDbEntity
  8
TITLE BLOCK
  6
Continuous
100
AcDbText
 10
18.6
 20
1.949999999999999
 30
0.0
 40
0.075937067150492
  1
REF
 50
0.09999996
  7
AE
100
AcDbText
  0
TEXT
  5
C94
330
BFC
100
AcDbEntity
  8
TITLE BLOCK
  6
Continuous
100
AcDbText
 10
18.6
 20
1.149999999999999
 30
0.0
 40
0.075937067150492
  1
DRAWING NUMBER
 50
0.09999996
  7
AE
100
AcDbText
  0
LINE
  5
C95
330
BFC
100
AcDbEntity
  8
TITLE BLOCK
  6
Continuous
100
AcDbLine
 10
18.54999999999999
 20
0.7499656890232619
 30
0.0
 11
18.54999999999999
 21
2.75
 31
0.0
  0
LINE
  5
C96
330
BFC
100
AcDbEntity
  8
TITLE BLOCK
  6
Continuous
100
AcDbLine
 10
20.02625718126358
 20
1.299999999999999
 30
0.0
 11
20.02625718126354
 21
1.799999999999999
 31
0.0
  0
ATTDEF
  5
C97
330
BFC
100
AcDbEntity
  8
TITLE BLOCK
  6
Continuous
100
AcDbText
 10
20.42499999999999
 20
1.625
 30
0.0
 40
0.1010611419
  1

100
AcDbAttributeDefinition
  3
Date
  2
GEN-TITLE-PLOT{5}
 70
     0
1001
GENIUS_GENBLLY_14
1000
BOR2
  0
ATTDEF
  5
C98
330
BFC
100
AcDbEntity
  8
TITLE BLOCK
  6
Continuous
100
AcDbText
 10
18.67273124178957
 20
0.8925842766853463
 30
0.0
 40
0.14
  1

 41
0.8
100
AcDbAttributeDefinition
  3
Drawing Number
  2
GEN-TITLE-NR{13.37}
 70
     0
1001
GENIUS_GENBLLY_14
1000
BOR5
  0
LINE
  5
C99
330
BFC
100
AcDbEntity
  8
BORDER
100
AcDbLine
 10
21.70000315
 20
8.5
 30
0.0
 11
21.90000009999999
 21
8.5
 31
0.0
  0
LINE
  5
C9A
330
BFC
100
AcDbEntity
  8
BORDER
100
AcDbLine
 10
21.50001131999999
 20
8.499981899999999
 30
0.0
 11
21.70000713999999
 21
8.399983399999999
 31
0.0
  0
TEXT
  5
C9B
330
BFC
100
AcDbEntity
  8
BORDER
100
AcDbText
 10
21.67857146
 20
6.2749996
 30
0.0
 40
0.19999999
  1
B
  7
AE
100
AcDbText
  0
LINE
  5
C9C
330
BFC
100
AcDbEntity
  8
BORDER
100
AcDbLine
 10
21.49999951999999
 20
8.499982800000001
 30
0.0
 11
21.69999569999999
 21
8.599980399999999
 31
0.0
  0
LINE
  5
C9D
330
BFC
100
AcDbEntity
  8
BORDER
100
AcDbLine
 10
21.70000315
 20
8.3999939
 30
0.0
 11
21.70000315
 21
8.5999908
 31
0.0
  0
TEXT
  5
C9E
330
BFC
100
AcDbEntity
  8
BORDER
100
AcDbText
 10
21.67857146
 20
14.775
 30
0.0
 40
0.19999999
  1
D
  7
AE
100
AcDbText
  0
LINE
  5
C9F
330
BFC
100
AcDbEntity
  8
BORDER
100
AcDbLine
 10
21.49999999999999
 20
12.75
 30
0.0
 11
21.90000003999999
 21
12.75
 31
0.0
  0
TEXT
  5
CA0
330
BFC
100
AcDbEntity
  8
BORDER
100
AcDbText
 10
21.67857146
 20
10.52499999999999
 30
0.0
 40
0.19999999
  1
C
  7
AE
100
AcDbText
  0
TEXT
  5
CA1
330
BFC
100
AcDbEntity
  8
BORDER
100
AcDbText
 10
19.17857169999999
 20
16.52499399999999
 30
0.0
 40
0.19999999
  1
1
  7
AE
100
AcDbText
  0
LINE
  5
CA2
330
BFC
100
AcDbEntity
  8
BORDER
  6
Continuous
 62
    15
100
AcDbLine
 10
0.0
 20
0.2456391960479891
 30
0.0
 11
22.0
 21
0.2456391960479891
 31
0.0
  0
MTEXT
  5
CA3
330
BFC
100
AcDbEntity
  8
BORDER
  6
Continuous
100
AcDbMText
 10
20.00308979335871
 20
2.6
 30
0.0
 40
0.125
 41
2.663
 71
     2
 72
     5
  1
{\fArial|b0|i0|c0|p34;\C1;G & L Motion Control Inc.}
 73
     1
 44
1.0
  0
MTEXT
  5
CA4
330
BFC
100
AcDbEntity
  8
BORDER
  6
Continuous
100
AcDbMText
 10
20.00412857763948
 20
2.278264837305509
 30
0.0
 40
0.07874
 41
2.862
 71
     5
 72
     1
  1
{\Fromans.shx;\C9;672 South Military Road\PFond du Lac, Wisconsin 54936 U.S.A.}
 73
     1
 44
1.0
  0
TEXT
  5
CA5
330
BFC
100
AcDbEntity
  8
TITLE BLOCK
  6
Continuous
 62
     2
100
AcDbText
 10
15.61881861560131
 20
2.386049281269596
 30
0.0
 40
0.0645465051491158
  1
of G&L Motion Control, is
 50
0.0999999600000011
 41
0.6799434399999999
  7
AE
100
AcDbText
  0
TEXT
  5
CA6
330
BFC
100
AcDbEntity
  8
TITLE BLOCK
  6
Continuous
 62
     2
100
AcDbText
 10
15.61741487412047
 20
2.494627598463487
 30
0.0
 40
0.0645465051491158
  1
contains proprietary information
 50
0.0999999600000011
 41
0.7005041199999999
  7
AE
100
AcDbText
  0
TEXT
  5
CA7
330
BFC
100
AcDbEntity
  8
TITLE BLOCK
  6
Continuous
 62
     2
100
AcDbText
 10
15.62248667991201
 20
2.274616885729644
 30
0.0
 40
0.0645465051491158
  1
submitted in confidence on
 50
0.0999999600000011
 41
0.6605569100000001
  7
AE
100
AcDbText
  0
TEXT
  5
CA8
330
BFC
100
AcDbEntity
  8
TITLE BLOCK
  6
Continuous
 62
     2
100
AcDbText
 10
15.61679449751522
 20
2.16708586876793
 30
0.0
 40
0.0645465051491158
  1
condition that it will not be
 50
0.0999999600000011
 41
0.72234601
  7
AE
100
AcDbText
  0
TEXT
  5
CA9
330
BFC
100
AcDbEntity
  8
TITLE BLOCK
  6
Continuous
 62
     2
100
AcDbText
 10
15.61416899531685
 20
1.947796107226088
 30
0.0
 40
0.0645465051491158
  1
will be used only for your
 50
0.0999999600000011
 41
0.6799434399999999
  7
AE
100
AcDbText
  0
TEXT
  5
CAA
330
BFC
100
AcDbEntity
  8
TITLE BLOCK
  6
Continuous
 62
     2
100
AcDbText
 10
15.61948721212293
 20
1.839000640399515
 30
0.0
 40
0.0645465051491158
  1
information, and will not be used
 50
0.0999999600000011
 41
0.6605569100000001
  7
AE
100
AcDbText
  0
TEXT
  5
CAB
330
BFC
100
AcDbEntity
  8
TITLE BLOCK
  6
Continuous
 62
     2
100
AcDbText
 10
15.61739723193345
 20
1.728476657741246
 30
0.0
 40
0.0645465051491158
  1
or disclosed to anyone except as
 50
0.0999999600000011
 41
0.6799434399999999
  7
AE
100
AcDbText
  0
TEXT
  5
CAC
330
BFC
100
AcDbEntity
  8
TITLE BLOCK
  6
Continuous
 62
     2
100
AcDbText
 10
15.61540499165808
 20
1.617047562975569
 30
0.0
 40
0.0645465051491158
  1
authorized by specific
 50
0.0999999600000011
 41
0.79688752
  7
AE
100
AcDbText
  0
TEXT
  5
CAD
330
BFC
100
AcDbEntity
  8
TITLE BLOCK
  6
Continuous
 62
     2
100
AcDbText
 10
15.61777124306261
 20
2.055466828073234
 30
0.0
 40
0.0645465051491158
  1
copied or otherwise reproduced,
 50
0.0999999600000011
 41
0.6799434399999999
  7
AE
100
AcDbText
  0
TEXT
  5
CAE
330
BFC
100
AcDbEntity
  8
TITLE BLOCK
  6
Continuous
 62
     2
100
AcDbText
 10
15.62050994356058
 20
2.602555955563673
 30
0.0
 40
0.0645465051491158
  1
NOTICE: This drawing or material
 50
0.0999999600000011
 41
0.7005041199999999
  7
AE
100
AcDbText
  0
TEXT
  5
CAF
330
BFC
100
AcDbEntity
  8
TITLE BLOCK
  6
Continuous
 62
     2
100
AcDbText
 10
15.62096632443385
 20
1.509697406318199
 30
0.0
 40
0.0645465051491158
  1
written consent of G&L Motion Control
 50
0.0999999600000011
 41
0.79688752
  7
AE
100
AcDbText
  0
TEXT
  5
CB0
330
BFC
100
AcDbEntity
  8
TITLE BLOCK
  6
Continuous
 62
     2
100
AcDbText
 10
15.61875
 20
1.396874999999999
 30
0.0
 40
0.0645465051491158
  1
Automation, LLC
 50
0.0999999600000011
 41
0.79688752
  7
AE
100
AcDbText
  0
ENDBLK
  5
CB2
330
BFC
100
AcDbEntity
  8
0
100
AcDbBlockEnd
  0
ENDSEC
  0
SECTION
  2
ENTITIES
  0
LINE
  5
338
330
1F
100
AcDbEntity
  8
1
100
AcDbLine
 10
18.47939622521058
 20
15.69229974696936
 30
0.0
 11
12.04042156540597
 21
15.69229974696936
 31
0.0
  0
LINE
  5
339
330
1F
100
AcDbEntity
  8
1
 62
     2
100
AcDbLine
 10
16.59674420399841
 20
13.6597784482313
 30
0.0
 11
16.09674420399842
 21
13.6597784482313
 31
0.0
  0
LINE
  5
33A
330
1F
100
AcDbEntity
  8
1
 62
     2
100
AcDbLine
 10
16.59674420399841
 20
13.27373697364445
 30
0.0
 11
16.09674420399842
 21
13.27373697364445
 31
0.0
  0
LINE
  5
33B
330
1F
100
AcDbEntity
  8
1
100
AcDbLine
 10
3.96756941635239
 20
15.69229974696936
 30
0.0
 11
8.141111248884406
 21
15.69229974696936
 31
0.0
  0
LINE
  5
33C
330
1F
100
AcDbEntity
  8
1
 62
     2
100
AcDbLine
 10
6.572569416352386
 20
13.22732655263904
 30
0.0
 11
6.41656941635238
 21
13.21915093907088
 31
0.0
  0
LINE
  5
33D
330
1F
100
AcDbEntity
  8
1
 62
     2
100
AcDbLine
 10
6.572569416352386
 20
13.70732655263904
 30
0.0
 11
6.41656941635238
 21
13.71550216620719
 31
0.0
  0
LINE
  5
348
330
1F
100
AcDbEntity
  8
1
 62
     2
100
AcDbLine
 10
5.106569416352378
 20
14.28832655263905
 30
0.0
 11
4.01756941635238
 21
14.28832655263904
 31
0.0
  0
LINE
  5
349
330
1F
100
AcDbEntity
  8
1
 62
     2
100
AcDbLine
 10
5.106569416352378
 20
12.64632655263904
 30
0.0
 11
4.01756941635238
 21
12.64632655263904
 31
0.0
  0
LINE
  5
34A
330
1F
100
AcDbEntity
  8
1
 62
     2
100
AcDbLine
 10
4.01756941635238
 20
12.64632655263904
 30
0.0
 11
4.01756941635238
 21
14.28832655263904
 31
0.0
  0
ARC
  5
34B
330
1F
100
AcDbEntity
  8
1
 62
     2
100
AcDbCircle
 10
2.664012695124164
 20
14.19532655263904
 30
0.0
 40
0.093
100
AcDbArc
 50
0.0
 51
90.0
  0
ARC
  5
34C
330
1F
100
AcDbEntity
  8
1
 62
     2
100
AcDbCircle
 10
2.226012695124175
 20
14.19532655263904
 30
0.0
 40
0.093
100
AcDbArc
 50
90.0
 51
180.0
  0
LINE
  5
34D
330
1F
100
AcDbEntity
  8
1
100
AcDbLine
 10
3.78756941635239
 20
14.07278078234863
 30
0.0
 11
3.78756941635239
 21
15.81729974696936
 31
0.0
  0
TEXT
  5
34E
330
1F
100
AcDbEntity
  8
1
100
AcDbText
 10
2.913859547735889
 20
13.79620003651734
 30
0.0
 40
0.125
  1
8
  7
ROMANS
100
AcDbText
  0
CIRCLE
  5
34F
330
1F
100
AcDbEntity
  8
1
 62
     7
100
AcDbCircle
 10
2.38851269512417
 20
13.35652655263904
 30
0.0
 40
0.02
  0
LINE
  5
350
330
1F
100
AcDbEntity
  8
1
 62
     2
100
AcDbLine
 10
2.289012695124178
 20
13.09854375220831
 30
0.0
 11
2.289012695124164
 21
13.83610935306978
 31
0.0
  0
LINE
  5
351
330
1F
100
AcDbEntity
  8
1
 62
     2
100
AcDbLine
 10
2.601012695124175
 20
13.07632655263904
 30
0.0
 11
2.601012695124175
 21
13.85832655263904
 31
0.0
  0
LINE
  5
352
330
1F
100
AcDbEntity
  8
1
 62
     2
100
AcDbLine
 10
2.133012695124172
 20
12.73932655263904
 30
0.0
 11
2.133012695124172
 21
14.19532655263904
 31
0.0
  0
LINE
  5
353
330
1F
100
AcDbEntity
  8
1
 62
     2
100
AcDbLine
 10
2.757012695124181
 20
12.73932655263904
 30
0.0
 11
2.757012695124181
 21
14.19532655263904
 31
0.0
  0
LINE
  5
354
330
1F
100
AcDbEntity
  8
1
 62
     2
100
AcDbLine
 10
2.195012695124169
 20
12.75432655263904
 30
0.0
 11
2.195012695124169
 21
14.18032655263904
 31
0.0
  0
LINE
  5
355
330
1F
100
AcDbEntity
  8
1
 62
     2
100
AcDbLine
 10
2.695012695124169
 20
12.75432655263904
 30
0.0
 11
2.695012695124169
 21
14.18032655263904
 31
0.0
  0
LINE
  5
356
330
1F
100
AcDbEntity
  8
1
100
AcDbLine
 10
2.38851269512417
 20
13.13852655263904
 30
0.0
 11
1.985727859920494
 21
13.13852655263904
 31
0.0
  0
ARC
  5
357
330
1F
100
AcDbEntity
  8
1
 62
     2
100
AcDbCircle
 10
2.382012695124181
 20
13.09854375220831
 30
0.0
 40
0.093
100
AcDbArc
 50
180.0
 51
259.9999999999998
  0
LINE
  5
358
330
1F
100
AcDbEntity
  8
1
 62
     2
100
AcDbLine
 10
2.664012695124164
 20
12.64632655263904
 30
0.0
 11
2.226012695124175
 21
12.64632655263904
 31
0.0
  0
LINE
  5
359
330
1F
100
AcDbEntity
  8
1
 62
     2
100
AcDbLine
 10
2.633012695124172
 20
12.69232655263904
 30
0.0
 11
2.257012695124181
 21
12.69232655263904
 31
0.0
  0
TEXT
  5
35A
330
1F
100
AcDbEntity
  8
1
100
AcDbText
 10
1.844168044766384
 20
13.05913517662491
 30
0.0
 40
0.125
  1
9
  7
ROMANS
100
AcDbText
  0
ARC
  5
35B
330
1F
100
AcDbEntity
  8
1
 62
     2
100
AcDbCircle
 10
2.257012695124181
 20
12.75432655263904
 30
0.0
 40
0.062
100
AcDbArc
 50
180.0
 51
270.0
  0
ARC
  5
35C
330
1F
100
AcDbEntity
  8
1
 62
     2
100
AcDbCircle
 10
2.226012695124175
 20
12.73932655263904
 30
0.0
 40
0.093
100
AcDbArc
 50
180.0
 51
270.0
  0
CIRCLE
  5
35D
330
1F
100
AcDbEntity
  8
1
 62
     7
100
AcDbCircle
 10
2.500512695124164
 20
13.30202655263904
 30
0.0
 40
0.02
  0
CIRCLE
  5
35E
330
1F
100
AcDbEntity
  8
1
 62
     7
100
AcDbCircle
 10
2.500512695124164
 20
13.19302655263904
 30
0.0
 40
0.02
  0
CIRCLE
  5
35F
330
1F
100
AcDbEntity
  8
1
 62
     7
100
AcDbCircle
 10
2.500512695124164
 20
13.08402655263904
 30
0.0
 40
0.02
  0
LINE
  5
360
330
1F
100
AcDbEntity
  8
1
100
AcDbLine
 10
2.500512695124164
 20
13.08402655263904
 30
0.0
 11
2.873664609888301
 21
13.08402655263904
 31
0.0
  0
ARC
  5
361
330
1F
100
AcDbEntity
  8
1
 62
     2
100
AcDbCircle
 10
2.508012695124172
 20
13.07632655263904
 30
0.0
 40
0.093
100
AcDbArc
 50
259.9999999999993
 51
0.0
  0
CIRCLE
  5
362
330
1F
100
AcDbEntity
  8
1
 62
     7
100
AcDbCircle
 10
2.38851269512417
 20
13.13852655263904
 30
0.0
 40
0.02
  0
LINE
  5
363
330
1F
100
AcDbEntity
  8
1
 62
     2
100
AcDbLine
 10
2.491863414601148
 20
12.98473943160891
 30
0.0
 11
2.365863414601157
 21
13.00695663117817
 31
0.0
  0
CIRCLE
  5
364
330
1F
100
AcDbEntity
  8
1
 62
     7
100
AcDbCircle
 10
2.38851269512417
 20
13.24752655263904
 30
0.0
 40
0.02
  0
ARC
  5
365
330
1F
100
AcDbEntity
  8
1
 62
     2
100
AcDbCircle
 10
2.633012695124172
 20
12.75432655263904
 30
0.0
 40
0.062
100
AcDbArc
 50
270.0
 51
0.0
  0
ARC
  5
366
330
1F
100
AcDbEntity
  8
1
 62
     2
100
AcDbCircle
 10
2.664012695124164
 20
12.73932655263904
 30
0.0
 40
0.093
100
AcDbArc
 50
270.0
 51
0.0
  0
CIRCLE
  5
367
330
1F
100
AcDbEntity
  8
1
 62
     2
100
AcDbCircle
 10
2.445012695124169
 20
12.81132655263904
 30
0.0
 40
0.041
  0
CIRCLE
  5
368
330
1F
100
AcDbEntity
  8
1
 62
     2
100
AcDbCircle
 10
2.445012695124169
 20
12.81132655263904
 30
0.0
 40
0.053
  0
LINE
  5
369
330
1F
100
AcDbEntity
  8
1
 62
     2
100
AcDbLine
 10
2.633012695124172
 20
14.24232655263904
 30
0.0
 11
2.257012695124181
 21
14.24232655263904
 31
0.0
  0
LINE
  5
36A
330
1F
100
AcDbEntity
  8
1
100
AcDbLine
 10
2.38851269512417
 20
13.79252655263905
 30
0.0
 11
1.985727859920494
 21
13.79252655263905
 31
0.0
  0
ARC
  5
36B
330
1F
100
AcDbEntity
  8
1
 62
     2
100
AcDbCircle
 10
2.382012695124181
 20
13.83610935306978
 30
0.0
 40
0.093
100
AcDbArc
 50
99.99999999999976
 51
180.0
  0
ARC
  5
36C
330
1F
100
AcDbEntity
  8
1
 62
     2
100
AcDbCircle
 10
2.257012695124181
 20
14.18032655263904
 30
0.0
 40
0.062
100
AcDbArc
 50
90.0
 51
180.0
  0
TEXT
  5
36D
330
1F
100
AcDbEntity
  8
1
100
AcDbText
 10
1.721250800984101
 20
13.73194062826045
 30
0.0
 40
0.125
  1
15
  7
ROMANS
100
AcDbText
  0
ARC
  5
36E
330
1F
100
AcDbEntity
  8
1
 62
     2
100
AcDbCircle
 10
2.633012695124172
 20
14.18032655263904
 30
0.0
 40
0.062
100
AcDbArc
 50
359.9999999999998
 51
90.0
  0
CIRCLE
  5
36F
330
1F
100
AcDbEntity
  8
1
 62
     7
100
AcDbCircle
 10
2.500512695124164
 20
13.73802655263905
 30
0.0
 40
0.02
  0
CIRCLE
  5
370
330
1F
100
AcDbEntity
  8
1
 62
     7
100
AcDbCircle
 10
2.500512695124164
 20
13.84702655263905
 30
0.0
 40
0.02
  0
LINE
  5
371
330
1F
100
AcDbEntity
  8
1
100
AcDbLine
 10
2.500512695124164
 20
13.84702655263905
 30
0.0
 11
2.873664609888301
 21
13.84702655263905
 31
0.0
  0
ARC
  5
372
330
1F
100
AcDbEntity
  8
1
 62
     2
100
AcDbCircle
 10
2.508012695124172
 20
13.85832655263904
 30
0.0
 40
0.093
100
AcDbArc
 50
0.0
 51
100.0000000000005
  0
CIRCLE
  5
373
330
1F
100
AcDbEntity
  8
1
 62
     7
100
AcDbCircle
 10
2.38851269512417
 20
13.79252655263905
 30
0.0
 40
0.02
  0
LINE
  5
374
330
1F
100
AcDbEntity
  8
1
 62
     2
100
AcDbLine
 10
2.491863414601148
 20
13.94991367366918
 30
0.0
 11
2.365863414601157
 21
13.92769647409991
 31
0.0
  0
CIRCLE
  5
375
330
1F
100
AcDbEntity
  8
1
 62
     2
100
AcDbCircle
 10
2.445012695124169
 20
14.12332655263904
 30
0.0
 40
0.053
  0
CIRCLE
  5
376
330
1F
100
AcDbEntity
  8
1
 62
     2
100
AcDbCircle
 10
2.445012695124169
 20
14.12332655263904
 30
0.0
 40
0.041
  0
CIRCLE
  5
377
330
1F
100
AcDbEntity
  8
1
 62
     7
100
AcDbCircle
 10
2.500512695124164
 20
13.52002655263905
 30
0.0
 40
0.02
  0
CIRCLE
  5
378
330
1F
100
AcDbEntity
  8
1
 62
     7
100
AcDbCircle
 10
2.500512695124164
 20
13.41102655263904
 30
0.0
 40
0.02
  0
CIRCLE
  5
379
330
1F
100
AcDbEntity
  8
1
 62
     7
100
AcDbCircle
 10
2.500512695124164
 20
13.62902655263905
 30
0.0
 40
0.02
  0
CIRCLE
  5
37A
330
1F
100
AcDbEntity
  8
1
 62
     7
100
AcDbCircle
 10
2.38851269512417
 20
13.68352655263904
 30
0.0
 40
0.02
  0
CIRCLE
  5
37B
330
1F
100
AcDbEntity
  8
1
 62
     7
100
AcDbCircle
 10
2.38851269512417
 20
13.57452655263904
 30
0.0
 40
0.02
  0
CIRCLE
  5
37C
330
1F
100
AcDbEntity
  8
1
 62
     7
100
AcDbCircle
 10
2.38851269512417
 20
13.46552655263904
 30
0.0
 40
0.02
  0
LINE
  5
37D
330
1F
100
AcDbEntity
  8
1
 62
     2
100
AcDbLine
 10
3.78756941635239
 20
12.98332655263904
 30
0.0
 11
3.78756941635239
 21
13.95132655263904
 31
0.0
  0
TEXT
  5
37E
330
1F
100
AcDbEntity
  8
1
100
AcDbText
 10
2.929797210429335
 20
13.01958775708051
 30
0.0
 40
0.125
  1
1
  7
ROMANS
100
AcDbText
  0
LINE
  5
37F
330
1F
100
AcDbEntity
  8
1
 62
     2
100
AcDbLine
 10
3.78756941635239
 20
12.98332655263904
 30
0.0
 11
4.01756941635238
 21
12.98332655263904
 31
0.0
  0
LINE
  5
380
330
1F
100
AcDbEntity
  8
1
 62
     7
100
AcDbLine
 10
3.90756941635238
 20
12.84744762180158
 30
0.0
 11
4.01756941635238
 21
12.84744762180158
 31
0.0
  0
LINE
  5
381
330
1F
100
AcDbEntity
  8
1
 62
     7
100
AcDbLine
 10
3.923448347189854
 20
12.86332655263904
 30
0.0
 11
3.90756941635238
 21
12.84744762180158
 31
0.0
  0
LINE
  5
382
330
1F
100
AcDbEntity
  8
1
 62
     7
100
AcDbLine
 10
4.01756941635238
 20
12.86332655263904
 30
0.0
 11
3.923448347189854
 21
12.86332655263904
 31
0.0
  0
LINE
  5
383
330
1F
100
AcDbEntity
  8
1
 62
     7
100
AcDbLine
 10
3.90756941635238
 20
12.77520548347651
 30
0.0
 11
4.01756941635238
 21
12.77520548347651
 31
0.0
  0
LINE
  5
384
330
1F
100
AcDbEntity
  8
1
 62
     7
100
AcDbLine
 10
3.923448347189854
 20
12.75932655263904
 30
0.0
 11
3.90756941635238
 21
12.77520548347651
 31
0.0
  0
LINE
  5
385
330
1F
100
AcDbEntity
  8
1
 62
     7
100
AcDbLine
 10
4.01756941635238
 20
12.75932655263904
 30
0.0
 11
3.923448347189854
 21
12.75932655263904
 31
0.0
  0
LINE
  5
386
330
1F
100
AcDbEntity
  8
1
 62
     7
100
AcDbLine
 10
3.923448347189854
 20
12.75932655263904
 30
0.0
 11
3.923448347189854
 21
12.86332655263904
 31
0.0
  0
LINE
  5
387
330
1F
100
AcDbEntity
  8
1
 62
     7
100
AcDbLine
 10
3.90756941635238
 20
12.77520548347651
 30
0.0
 11
3.90756941635238
 21
12.84744762180158
 31
0.0
  0
TEXT
  5
388
330
1F
100
AcDbEntity
  8
1
 62
     4
100
AcDbText
 10
4.275473589096428
 20
13.39227790081308
 30
0.0
 40
0.1395
  1
P1
  7
ROMANS
100
AcDbText
  0
LINE
  5
389
330
1F
100
AcDbEntity
  8
1
 62
     7
100
AcDbLine
 10
3.923448347189854
 20
14.17532655263904
 30
0.0
 11
3.90756941635238
 21
14.15944762180157
 31
0.0
  0
LINE
  5
38A
330
1F
100
AcDbEntity
  8
1
 62
     7
100
AcDbLine
 10
3.90756941635238
 20
14.15944762180157
 30
0.0
 11
4.01756941635238
 21
14.15944762180157
 31
0.0
  0
LINE
  5
38B
330
1F
100
AcDbEntity
  8
1
 62
     7
100
AcDbLine
 10
4.01756941635238
 20
14.17532655263904
 30
0.0
 11
3.923448347189854
 21
14.17532655263904
 31
0.0
  0
LINE
  5
38C
330
1F
100
AcDbEntity
  8
1
 62
     2
100
AcDbLine
 10
3.78756941635239
 20
13.95132655263904
 30
0.0
 11
4.01756941635238
 21
13.95132655263904
 31
0.0
  0
LINE
  5
38D
330
1F
100
AcDbEntity
  8
1
 62
     7
100
AcDbLine
 10
3.923448347189854
 20
14.07132655263904
 30
0.0
 11
3.90756941635238
 21
14.08720548347651
 31
0.0
  0
LINE
  5
38E
330
1F
100
AcDbEntity
  8
1
 62
     7
100
AcDbLine
 10
4.01756941635238
 20
14.07132655263904
 30
0.0
 11
3.923448347189854
 21
14.07132655263904
 31
0.0
  0
LINE
  5
38F
330
1F
100
AcDbEntity
  8
1
 62
     7
100
AcDbLine
 10
3.90756941635238
 20
14.08720548347651
 30
0.0
 11
4.01756941635238
 21
14.08720548347651
 31
0.0
  0
LINE
  5
390
330
1F
100
AcDbEntity
  8
1
 62
     7
100
AcDbLine
 10
3.923448347189854
 20
14.17532655263904
 30
0.0
 11
3.923448347189854
 21
14.07132655263904
 31
0.0
  0
LINE
  5
391
330
1F
100
AcDbEntity
  8
1
 62
     7
100
AcDbLine
 10
3.90756941635238
 20
14.15944762180157
 30
0.0
 11
3.90756941635238
 21
14.08720548347651
 31
0.0
  0
LINE
  5
392
330
1F
100
AcDbEntity
  8
1
 62
     2
100
AcDbLine
 10
2.664012695124164
 20
14.28832655263905
 30
0.0
 11
2.226012695124175
 21
14.28832655263904
 31
0.0
  0
SOLID
  5
393
330
1F
100
AcDbEntity
  8
1
100
AcDbTrace
 10
3.96756941635239
 20
15.72229974696936
 30
0.0
 11
3.96756941635239
 21
15.66229974696936
 31
0.0
 12
3.78756941635239
 22
15.69229974696936
 32
0.0
 13
3.78756941635239
 23
15.69229974696936
 33
0.0
  0
LINE
  5
394
330
1F
100
AcDbEntity
  8
1
 62
     7
100
AcDbLine
 10
5.275569416352375
 20
14.26962799211501
 30
0.0
 11
5.275569416352375
 21
14.20432655263905
 31
0.0
  0
LINE
  5
395
330
1F
100
AcDbEntity
  8
1
 62
     7
100
AcDbLine
 10
5.760569416352375
 20
14.26962799211501
 30
0.0
 11
5.760569416352375
 21
14.20432655263905
 31
0.0
  0
LINE
  5
396
330
1F
100
AcDbEntity
  8
1
 62
     2
100
AcDbLine
 10
5.822569416352372
 20
14.25932655263904
 30
0.0
 11
5.822569416352386
 21
13.98732655263905
 31
0.0
  0
LINE
  5
397
330
1F
100
AcDbEntity
  8
1
 62
     2
100
AcDbLine
 10
5.182569416352372
 20
14.27932655263904
 30
0.0
 11
5.182569416352386
 21
13.96732655263904
 31
0.0
  0
LINE
  5
398
330
1F
100
AcDbEntity
  8
1
 62
     2
100
AcDbLine
 10
5.137569416352384
 20
13.95959171263416
 30
0.0
 11
5.137569416352384
 21
14.25732655263904
 31
0.0
  0
LINE
  5
399
330
1F
100
AcDbEntity
  8
1
 62
     2
100
AcDbLine
 10
4.173569416352385
 20
14.06332655263904
 30
0.0
 11
4.173569416352385
 21
14.28832655263904
 31
0.0
  0
LINE
  5
39A
330
1F
100
AcDbEntity
  8
1
 62
     7
100
AcDbLine
 10
5.760569416352375
 20
14.16832655263904
 30
0.0
 11
5.275569416352375
 21
14.16832655263904
 31
0.0
  0
LINE
  5
39B
330
1F
100
AcDbEntity
  8
1
 62
     7
100
AcDbLine
 10
5.760569416352375
 20
14.20432655263905
 30
0.0
 11
5.275569416352375
 21
14.20432655263905
 31
0.0
  0
LINE
  5
39C
330
1F
100
AcDbEntity
  8
1
 62
     7
100
AcDbLine
 10
5.760569416352375
 20
14.22157597028997
 30
0.0
 11
5.275569416352375
 21
14.22157597028997
 31
0.0
  0
LINE
  5
39D
330
1F
100
AcDbEntity
  8
1
 62
     7
100
AcDbLine
 10
5.760569416352375
 20
14.07832655263904
 30
0.0
 11
5.275569416352389
 21
14.07832655263904
 31
0.0
  0
LINE
  5
39E
330
1F
100
AcDbEntity
  8
1
 62
     7
100
AcDbLine
 10
5.760569416352375
 20
13.97702511316308
 30
0.0
 11
5.275569416352375
 21
13.97702511316308
 31
0.0
  0
LINE
  5
39F
330
1F
100
AcDbEntity
  8
1
 62
     7
100
AcDbLine
 10
5.760569416352375
 20
14.02507713498812
 30
0.0
 11
5.275569416352375
 21
14.02507713498812
 31
0.0
  0
LINE
  5
3A0
330
1F
100
AcDbEntity
  8
1
 62
     7
100
AcDbLine
 10
5.760569416352375
 20
14.04232655263905
 30
0.0
 11
5.275569416352375
 21
14.04232655263905
 31
0.0
  0
LINE
  5
3A1
330
1F
100
AcDbEntity
  8
1
 62
     7
100
AcDbLine
 10
5.760569416352375
 20
14.12332655263905
 30
0.0
 11
5.275569416352389
 21
14.12332655263905
 31
0.0
  0
LINE
  5
3A2
330
1F
100
AcDbEntity
  8
1
 62
     2
100
AcDbLine
 10
5.802569416352376
 20
13.96732655263904
 30
0.0
 11
5.182569416352386
 21
13.96732655263904
 31
0.0
  0
LINE
  5
3A3
330
1F
100
AcDbEntity
  8
1
 62
     2
100
AcDbLine
 10
5.456335603367726
 20
13.85136045619281
 30
0.0
 11
5.188803229337032
 21
13.89853363194741
 31
0.0
  0
LINE
  5
3A4
330
1F
100
AcDbEntity
  8
1
 62
     7
100
AcDbLine
 10
5.760569416352375
 20
12.89232655263904
 30
0.0
 11
5.275569416352375
 21
12.89232655263904
 31
0.0
  0
LINE
  5
3A5
330
1F
100
AcDbEntity
  8
1
 62
     7
100
AcDbLine
 10
5.760569416352375
 20
12.90957597028996
 30
0.0
 11
5.275569416352375
 21
12.90957597028996
 31
0.0
  0
LINE
  5
3A6
330
1F
100
AcDbEntity
  8
1
 62
     7
100
AcDbLine
 10
5.760569416352375
 20
12.95762799211501
 30
0.0
 11
5.275569416352375
 21
12.95762799211501
 31
0.0
  0
LINE
  5
3A7
330
1F
100
AcDbEntity
  8
1
 62
     7
100
AcDbLine
 10
5.760569416352375
 20
12.85632655263904
 30
0.0
 11
5.275569416352389
 21
12.85632655263904
 31
0.0
  0
ARC
  5
3A8
330
1F
100
AcDbEntity
  8
1
 62
     2
100
AcDbCircle
 10
5.289569416352371
 20
13.27525027223569
 30
0.0
 40
0.062
100
AcDbArc
 50
280.0000000000001
 51
0.0000000000002036
  0
LINE
  5
3A9
330
1F
100
AcDbEntity
  8
1
 62
     7
100
AcDbLine
 10
5.760569416352375
 20
12.71307713498812
 30
0.0
 11
5.275569416352375
 21
12.71307713498812
 31
0.0
  0
LINE
  5
3AA
330
1F
100
AcDbEntity
  8
1
 62
     7
100
AcDbLine
 10
5.760569416352375
 20
12.66502511316307
 30
0.0
 11
5.275569416352375
 21
12.66502511316307
 31
0.0
  0
LINE
  5
3AB
330
1F
100
AcDbEntity
  8
1
 62
     7
100
AcDbLine
 10
5.760569416352375
 20
12.73032655263904
 30
0.0
 11
5.275569416352375
 21
12.73032655263904
 31
0.0
  0
LINE
  5
3AC
330
1F
100
AcDbEntity
  8
1
 62
     7
100
AcDbLine
 10
5.760569416352375
 20
12.76632655263904
 30
0.0
 11
5.275569416352375
 21
12.76632655263904
 31
0.0
  0
LINE
  5
3AD
330
1F
100
AcDbEntity
  8
1
 62
     7
100
AcDbLine
 10
5.760569416352375
 20
12.81132655263904
 30
0.0
 11
5.275569416352389
 21
12.81132655263904
 31
0.0
  0
LINE
  5
3AE
330
1F
100
AcDbEntity
  8
1
 62
     2
100
AcDbLine
 10
5.802569416352376
 20
12.65532655263904
 30
0.0
 11
5.182569416352372
 21
12.65532655263904
 31
0.0
  0
LINE
  5
3AF
330
1F
100
AcDbEntity
  8
1
 62
     2
100
AcDbLine
 10
5.802569416352376
 20
12.96732655263904
 30
0.0
 11
5.182569416352386
 21
12.96732655263904
 31
0.0
  0
LINE
  5
3B0
330
1F
100
AcDbEntity
  8
1
 62
     2
100
AcDbLine
 10
5.456335603367726
 20
13.08329264908528
 30
0.0
 11
5.188803229337032
 21
13.03611947333068
 31
0.0
  0
ARC
  5
3B1
330
1F
100
AcDbEntity
  8
1
 62
     2
100
AcDbCircle
 10
5.289569416352371
 20
13.65940283304239
 30
0.0
 40
0.062
100
AcDbArc
 50
0.0000000000002036
 51
80.00000000000023
  0
LINE
  5
3B2
330
1F
100
AcDbEntity
  8
1
 62
     7
100
AcDbLine
 10
5.177569416352376
 20
13.2910119912037
 30
0.0
 11
5.177569416352376
 21
13.64364111407439
 31
0.0
  0
LINE
  5
3B3
330
1F
100
AcDbEntity
  8
1
 62
     7
100
AcDbLine
 10
5.14856941635238
 20
13.29699134658743
 30
0.0
 11
5.14856941635238
 21
13.63766175869066
 31
0.0
  0
LINE
  5
3B4
330
1F
100
AcDbEntity
  8
1
 62
     7
100
AcDbLine
 10
4.858569416352388
 20
13.1525840400256
 30
0.0
 11
4.858569416352388
 21
13.78206906525233
 31
0.0
  0
LINE
  5
3B5
330
1F
100
AcDbEntity
  8
1
 62
     7
100
AcDbLine
 10
4.91656941635238
 20
13.14652385849451
 30
0.0
 11
4.91656941635238
 21
13.78812924678357
 31
0.0
  0
LINE
  5
3B6
330
1F
100
AcDbEntity
  8
1
 62
     7
100
AcDbLine
 10
4.974569416352373
 20
13.15675082337561
 30
0.0
 11
4.974569416352373
 21
13.77790228190248
 31
0.0
  0
LINE
  5
3B7
330
1F
100
AcDbEntity
  8
1
 62
     7
100
AcDbLine
 10
5.03256941635238
 20
13.1669777882567
 30
0.0
 11
5.032569416352366
 21
13.76767531702139
 31
0.0
  0
LINE
  5
3B8
330
1F
100
AcDbEntity
  8
1
 62
     7
100
AcDbLine
 10
5.090569416352387
 20
13.17720475313779
 30
0.0
 11
5.090569416352387
 21
13.75744835214029
 31
0.0
  0
LINE
  5
3B9
330
1F
100
AcDbEntity
  8
1
 62
     7
100
AcDbLine
 10
5.206569416352373
 20
13.19765868289997
 30
0.0
 11
5.206569416352373
 21
13.73699442237811
 31
0.0
  0
LINE
  5
3BA
330
1F
100
AcDbEntity
  8
1
 62
     7
100
AcDbLine
 10
5.264569416352379
 20
13.20788564778106
 30
0.0
 11
5.264569416352365
 21
13.72676745749702
 31
0.0
  0
LINE
  5
3BB
330
1F
100
AcDbEntity
  8
1
 62
     7
100
AcDbLine
 10
5.293569416352376
 20
13.21299913022161
 30
0.0
 11
5.293569416352376
 21
13.72165397505648
 31
0.0
  0
LINE
  5
3BC
330
1F
100
AcDbEntity
  8
1
 62
     7
100
AcDbLine
 10
5.235569416352369
 20
13.20277216534051
 30
0.0
 11
5.235569416352369
 21
13.73188093993757
 31
0.0
  0
LINE
  5
3BD
330
1F
100
AcDbEntity
  8
1
 62
     7
100
AcDbLine
 10
5.119569416352383
 20
13.18231823557834
 30
0.0
 11
5.119569416352383
 21
13.75233486969975
 31
0.0
  0
LINE
  5
3BE
330
1F
100
AcDbEntity
  8
1
 62
     7
100
AcDbLine
 10
5.061569416352377
 20
13.17209127069724
 30
0.0
 11
5.061569416352377
 21
13.76256183458084
 31
0.0
  0
LINE
  5
3BF
330
1F
100
AcDbEntity
  8
1
 62
     7
100
AcDbLine
 10
5.00356941635237
 20
13.16186430581615
 30
0.0
 11
5.00356941635237
 21
13.77278879946193
 31
0.0
  0
LINE
  5
3C0
330
1F
100
AcDbEntity
  8
1
 62
     7
100
AcDbLine
 10
4.945569416352377
 20
13.15163734093506
 30
0.0
 11
4.945569416352377
 21
13.78301576434302
 31
0.0
  0
LINE
  5
3C1
330
1F
100
AcDbEntity
  8
1
 62
     7
100
AcDbLine
 10
4.887569416352384
 20
13.14320130072062
 30
0.0
 11
4.887569416352384
 21
13.79145180455733
 31
0.0
  0
LINE
  5
3C2
330
1F
100
AcDbEntity
  8
1
 62
     2
100
AcDbLine
 10
4.829569416352377
 20
13.20507213391372
 30
0.0
 11
4.829569416352377
 21
13.72958097136436
 31
0.0
  0
LINE
  5
3C3
330
1F
100
AcDbEntity
  8
1
 62
     2
100
AcDbLine
 10
4.673569416352385
 20
13.18532655263904
 30
0.0
 11
4.673569416352385
 21
13.74932655263904
 31
0.0
  0
LINE
  5
3C4
330
1F
100
AcDbEntity
  8
1
 62
     2
100
AcDbLine
 10
4.173569416352385
 20
13.18532655263904
 30
0.0
 11
4.173569416352385
 21
13.74932655263904
 31
0.0
  0
LINE
  5
3C5
330
1F
100
AcDbEntity
  8
1
 62
     7
100
AcDbLine
 10
5.322569416352386
 20
13.22276217834765
 30
0.0
 11
5.322569416352386
 21
13.71189092693044
 31
0.0
  0
LINE
  5
3C6
330
1F
100
AcDbEntity
  8
1
 62
     2
100
AcDbLine
 10
5.137569416352384
 20
12.87132655263904
 30
0.0
 11
4.173569416352385
 21
12.87132655263904
 31
0.0
  0
ARC
  5
3C7
330
1F
100
AcDbEntity
  8
1
 62
     2
100
AcDbCircle
 10
4.235569416352369
 20
13.18532655263904
 30
0.0
 40
0.062
100
AcDbArc
 50
180.0
 51
270.0
  0
LINE
  5
3C8
330
1F
100
AcDbEntity
  8
1
 62
     2
100
AcDbLine
 10
4.611569416352374
 20
13.12332655263904
 30
0.0
 11
4.235569416352369
 21
13.12332655263904
 31
0.0
  0
ARC
  5
3C9
330
1F
100
AcDbEntity
  8
1
 62
     2
100
AcDbCircle
 10
4.611569416352374
 20
13.18532655263904
 30
0.0
 40
0.062
100
AcDbArc
 50
270.0
 51
0.0
  0
LINE
  5
3CA
330
1F
100
AcDbEntity
  8
1
 62
     2
100
AcDbLine
 10
4.173569416352385
 20
12.64632655263904
 30
0.0
 11
4.173569416352385
 21
12.87132655263904
 31
0.0
  0
LINE
  5
3CB
330
1F
100
AcDbEntity
  8
1
 62
     7
100
AcDbLine
 10
5.275569416352375
 20
12.95762799211501
 30
0.0
 11
5.275569416352375
 21
12.89232655263904
 31
0.0
  0
LINE
  5
3CC
330
1F
100
AcDbEntity
  8
1
 62
     7
100
AcDbLine
 10
5.275569416352375
 20
12.66502511316307
 30
0.0
 11
5.275569416352375
 21
12.73032655263904
 31
0.0
  0
LINE
  5
3CD
330
1F
100
AcDbEntity
  8
1
 62
     7
100
AcDbLine
 10
5.275569416352375
 20
12.76632655263904
 30
0.0
 11
5.275569416352389
 21
12.85632655263904
 31
0.0
  0
LINE
  5
3CE
330
1F
100
AcDbEntity
  8
1
 62
     7
100
AcDbLine
 10
5.14856941635238
 20
13.18743171801888
 30
0.0
 11
5.14856941635238
 21
13.23766175869066
 31
0.0
  0
LINE
  5
3CF
330
1F
100
AcDbEntity
  8
1
 62
     7
100
AcDbLine
 10
5.177569416352376
 20
13.19254520045943
 30
0.0
 11
5.177569416352376
 21
13.24364111407439
 31
0.0
  0
LINE
  5
3D0
330
1F
100
AcDbEntity
  8
1
 62
     2
100
AcDbLine
 10
5.182569416352372
 20
12.90432655263904
 30
0.0
 11
5.137569416352384
 21
12.90432655263904
 31
0.0
  0
ARC
  5
3D1
330
1F
100
AcDbEntity
  8
1
 62
     2
100
AcDbCircle
 10
4.891569416352375
 20
13.20507213391372
 30
0.0
 40
0.062
100
AcDbArc
 50
180.0000000000002
 51
280.0000000000001
  0
ARC
  5
3D2
330
1F
100
AcDbEntity
  8
1
 62
     2
100
AcDbCircle
 10
5.199569416352382
 20
12.97506139264392
 30
0.0
 40
0.062
100
AcDbArc
 50
99.99999999999976
 51
179.9999999999998
  0
CIRCLE
  5
3D3
330
1F
100
AcDbEntity
  8
1
 62
     7
100
AcDbCircle
 10
5.157569416352366
 20
13.26732655263904
 30
0.0
 40
0.031
  0
LINE
  5
3D4
330
1F
100
AcDbEntity
  8
1
 62
     2
100
AcDbLine
 10
5.182569416352372
 20
12.71832655263904
 30
0.0
 11
5.137569416352384
 21
12.71832655263904
 31
0.0
  0
ARC
  5
3D5
330
1F
100
AcDbEntity
  8
1
 62
     2
100
AcDbCircle
 10
5.106569416352378
 20
12.67732655263904
 30
0.0
 40
0.031
100
AcDbArc
 50
270.0
 51
359.9999999999997
  0
LINE
  5
3D6
330
1F
100
AcDbEntity
  8
1
 62
     2
100
AcDbLine
 10
5.182569416352372
 20
12.65532655263904
 30
0.0
 11
5.182569416352386
 21
12.96732655263904
 31
0.0
  0
LINE
  5
3D7
330
1F
100
AcDbEntity
  8
1
 62
     2
100
AcDbLine
 10
5.137569416352384
 20
12.67732655263904
 30
0.0
 11
5.137569416352384
 21
12.97506139264392
 31
0.0
  0
LINE
  5
3D8
330
1F
100
AcDbEntity
  8
1
 62
     2
100
AcDbLine
 10
5.30033560336772
 20
13.21419219154893
 30
0.0
 11
4.902335603367724
 21
13.14401405322696
 31
0.0
  0
LINE
  5
3D9
330
1F
100
AcDbEntity
  8
1
 62
     2
100
AcDbLine
 10
5.137569416352384
 20
14.06332655263904
 30
0.0
 11
4.173569416352385
 21
14.06332655263904
 31
0.0
  0
ARC
  5
3DA
330
1F
100
AcDbEntity
  8
1
 62
     2
100
AcDbCircle
 10
4.235569416352369
 20
13.74932655263904
 30
0.0
 40
0.062
100
AcDbArc
 50
90.0
 51
180.0000000000002
  0
LINE
  5
3DB
330
1F
100
AcDbEntity
  8
1
 62
     2
100
AcDbLine
 10
4.611569416352374
 20
13.81132655263904
 30
0.0
 11
4.235569416352369
 21
13.81132655263904
 31
0.0
  0
ARC
  5
3DC
330
1F
100
AcDbEntity
  8
1
 62
     2
100
AcDbCircle
 10
4.611569416352374
 20
13.74932655263904
 30
0.0
 40
0.062
100
AcDbArc
 50
0.0
 51
90.0
  0
LINE
  5
3DD
330
1F
100
AcDbEntity
  8
1
 62
     7
100
AcDbLine
 10
5.275569416352375
 20
13.97702511316308
 30
0.0
 11
5.275569416352375
 21
14.04232655263905
 31
0.0
  0
LINE
  5
3DE
330
1F
100
AcDbEntity
  8
1
 62
     7
100
AcDbLine
 10
5.275569416352375
 20
14.16832655263904
 30
0.0
 11
5.275569416352389
 21
14.07832655263904
 31
0.0
  0
LINE
  5
3DF
330
1F
100
AcDbEntity
  8
1
 62
     2
100
AcDbLine
 10
5.182569416352372
 20
14.21632655263905
 30
0.0
 11
5.137569416352384
 21
14.21632655263905
 31
0.0
  0
LINE
  5
3E0
330
1F
100
AcDbEntity
  8
1
 62
     2
100
AcDbLine
 10
5.182569416352372
 20
14.03032655263904
 30
0.0
 11
5.137569416352384
 21
14.03032655263904
 31
0.0
  0
ARC
  5
3E1
330
1F
100
AcDbEntity
  8
1
 62
     2
100
AcDbCircle
 10
4.891569416352375
 20
13.72958097136436
 30
0.0
 40
0.062
100
AcDbArc
 50
80.00000000000023
 51
180.0000000000001
  0
ARC
  5
3E2
330
1F
100
AcDbEntity
  8
1
 62
     2
100
AcDbCircle
 10
5.199569416352382
 20
13.95959171263416
 30
0.0
 40
0.062
100
AcDbArc
 50
180.0000000000002
 51
260.0000000000002
  0
LINE
  5
3E3
330
1F
100
AcDbEntity
  8
1
 62
     2
100
AcDbLine
 10
5.30033560336772
 20
13.72046091372915
 30
0.0
 11
4.902335603367724
 21
13.79063905205112
 31
0.0
  0
CIRCLE
  5
3E4
330
1F
100
AcDbEntity
  8
1
 62
     7
100
AcDbCircle
 10
5.157569416352366
 20
13.66732655263904
 30
0.0
 40
0.031
  0
LINE
  5
3E5
330
1F
100
AcDbEntity
  8
1
 62
     7
100
AcDbLine
 10
5.14856941635238
 20
13.69699134658743
 30
0.0
 11
5.14856941635238
 21
13.7472213872592
 31
0.0
  0
LINE
  5
3E6
330
1F
100
AcDbEntity
  8
1
 62
     7
100
AcDbLine
 10
5.177569416352376
 20
13.6910119912037
 30
0.0
 11
5.177569416352376
 21
13.74210790481866
 31
0.0
  0
LINE
  5
3E7
330
1F
100
AcDbEntity
  8
1
 62
     2
100
AcDbLine
 10
6.41656941635238
 20
13.37482655263904
 30
0.0
 11
6.41656941635238
 21
13.21915093907088
 31
0.0
  0
ARC
  5
3E8
330
1F
100
AcDbEntity
  8
1
 62
     2
100
AcDbCircle
 10
6.071069416352379
 20
13.35932655263904
 30
0.0
 40
0.03
100
AcDbArc
 50
90.0
 51
180.0
  0
ARC
  5
3E9
330
1F
100
AcDbEntity
  8
1
 62
     2
100
AcDbCircle
 10
6.073569416352391
 20
13.35932655263904
 30
0.0
 40
0.03
100
AcDbArc
 50
359.9999999999993
 51
90.0
  0
ARC
  5
3EA
330
1F
100
AcDbEntity
  8
1
 62
     2
100
AcDbCircle
 10
5.758069416352377
 20
13.34332655263904
 30
0.0
 40
0.03
100
AcDbArc
 50
89.99999999999836
 51
180.0
  0
ARC
  5
3EB
330
1F
100
AcDbEntity
  8
1
 62
     2
100
AcDbCircle
 10
5.760569416352375
 20
13.34332655263904
 30
0.0
 40
0.03
100
AcDbArc
 50
0.0
 51
90.0
  0
LINE
  5
3EC
330
1F
100
AcDbEntity
  8
1
 62
     2
100
AcDbLine
 10
5.351569416352383
 20
13.27525027223569
 30
0.0
 11
5.351569416352383
 21
13.65940283304239
 31
0.0
  0
LINE
  5
3ED
330
1F
100
AcDbEntity
  8
1
 62
     2
100
AcDbLine
 10
6.35406941635238
 20
13.37482655263904
 30
0.0
 11
6.35406941635238
 21
13.21587545286569
 31
0.0
  0
LINE
  5
3EE
330
1F
100
AcDbEntity
  8
1
 62
     2
100
AcDbLine
 10
5.632569416352389
 20
13.15532655263904
 30
0.0
 11
5.632569416352389
 21
13.77932655263904
 31
0.0
  0
LINE
  5
3EF
330
1F
100
AcDbEntity
  8
1
 62
     2
100
AcDbLine
 10
5.507569416352389
 20
13.14435072977204
 30
0.0
 11
5.507569416352374
 21
13.79030237550605
 31
0.0
  0
LINE
  5
3F0
330
1F
100
AcDbEntity
  8
1
 62
     2
100
AcDbLine
 10
5.884569416352384
 20
13.74338310478577
 30
0.0
 11
5.884569416352384
 21
13.19127000049231
 31
0.0
  0
LINE
  5
3F1
330
1F
100
AcDbEntity
  8
1
 62
     2
100
AcDbLine
 10
5.947069416352384
 20
13.74010761858058
 30
0.0
 11
5.947069416352384
 21
13.19454548669749
 31
0.0
  0
LINE
  5
3F2
330
1F
100
AcDbEntity
  8
1
 62
     2
100
AcDbLine
 10
6.197569416352386
 20
13.72697946987018
 30
0.0
 11
6.197569416352386
 21
13.2076736354079
 31
0.0
  0
LINE
  5
3F3
330
1F
100
AcDbEntity
  8
1
 62
     2
100
AcDbLine
 10
6.260069416352386
 20
13.72370398366499
 30
0.0
 11
6.260069416352386
 21
13.21094912161309
 31
0.0
  0
LINE
  5
3F4
330
1F
100
AcDbEntity
  8
1
 62
     2
100
AcDbLine
 10
5.947069416352384
 20
13.27373697364447
 30
0.0
 11
5.884569416352384
 21
13.27373697364447
 31
0.0
  0
LINE
  5
3F5
330
1F
100
AcDbEntity
  8
1
 62
     2
100
AcDbLine
 10
6.041069416352378
 20
13.19947181795011
 30
0.0
 11
5.632569416352389
 21
13.17806324011298
 31
0.0
  0
LINE
  5
3F6
330
1F
100
AcDbEntity
  8
1
 62
     2
100
AcDbLine
 10
5.790569416352376
 20
13.27373697364447
 30
0.0
 11
5.728069416352376
 21
13.27373697364447
 31
0.0
  0
LINE
  5
3F7
330
1F
100
AcDbEntity
  8
1
 62
     7
100
AcDbLine
 10
5.760569416352375
 20
12.95762799211501
 30
0.0
 11
5.760569416352375
 21
12.89232655263904
 31
0.0
  0
LINE
  5
3F8
330
1F
100
AcDbEntity
  8
1
 62
     2
100
AcDbLine
 10
5.632569416352389
 20
13.15532655263904
 30
0.0
 11
5.507569416352389
 21
13.15532655263904
 31
0.0
  0
ARC
  5
3F9
330
1F
100
AcDbEntity
  8
1
 62
     2
100
AcDbCircle
 10
5.445569416352377
 20
13.14435072977204
 30
0.0
 40
0.062
100
AcDbArc
 50
280.0000000000001
 51
0.0000000000002036
  0
ARC
  5
3FA
330
1F
100
AcDbEntity
  8
1
 62
     2
100
AcDbCircle
 10
5.802569416352376
 20
12.94732655263904
 30
0.0
 40
0.02
100
AcDbArc
 50
359.9999999999965
 51
90.0
  0
LINE
  5
3FB
330
1F
100
AcDbEntity
  8
1
 62
     2
100
AcDbLine
 10
5.728069416352376
 20
13.34332655263904
 30
0.0
 11
5.728069416352376
 21
13.18306818303451
 31
0.0
  0
LINE
  5
3FC
330
1F
100
AcDbEntity
  8
1
 62
     2
100
AcDbLine
 10
5.790569416352376
 20
13.34332655263904
 30
0.0
 11
5.790569416352376
 21
13.1863436692397
 31
0.0
  0
LINE
  5
3FD
330
1F
100
AcDbEntity
  8
1
 62
     7
100
AcDbLine
 10
5.760569416352375
 20
12.66502511316307
 30
0.0
 11
5.760569416352375
 21
12.73032655263905
 31
0.0
  0
ARC
  5
3FE
330
1F
100
AcDbEntity
  8
1
 62
     2
100
AcDbCircle
 10
5.802569416352376
 20
12.67532655263905
 30
0.0
 40
0.02
100
AcDbArc
 50
270.0
 51
359.9999999999967
  0
LINE
  5
3FF
330
1F
100
AcDbEntity
  8
1
 62
     2
100
AcDbLine
 10
5.822569416352372
 20
12.67532655263904
 30
0.0
 11
5.822569416352386
 21
12.94732655263904
 31
0.0
  0
LINE
  5
400
330
1F
100
AcDbEntity
  8
1
 62
     7
100
AcDbLine
 10
5.760569416352375
 20
12.76632655263904
 30
0.0
 11
5.760569416352375
 21
12.85632655263904
 31
0.0
  0
LINE
  5
401
330
1F
100
AcDbEntity
  8
1
 62
     2
100
AcDbLine
 10
6.103569416352378
 20
13.27373697364446
 30
0.0
 11
6.041069416352378
 21
13.27373697364447
 31
0.0
  0
LINE
  5
402
330
1F
100
AcDbEntity
  8
1
 62
     2
100
AcDbLine
 10
6.260069416352386
 20
13.27373697364447
 30
0.0
 11
6.197569416352386
 21
13.27373697364446
 31
0.0
  0
LINE
  5
403
330
1F
100
AcDbEntity
  8
1
 62
     2
100
AcDbLine
 10
6.35406941635238
 20
13.21587545286569
 30
0.0
 11
6.103569416352378
 21
13.2027473041553
 31
0.0
  0
LINE
  5
404
330
1F
100
AcDbEntity
  8
1
 62
     2
100
AcDbLine
 10
6.041069416352378
 20
13.35932655263904
 30
0.0
 11
6.041069416352378
 21
13.19947181795011
 31
0.0
  0
LINE
  5
405
330
1F
100
AcDbEntity
  8
1
 62
     2
100
AcDbLine
 10
6.103569416352378
 20
13.35932655263904
 30
0.0
 11
6.103569416352378
 21
13.2027473041553
 31
0.0
  0
LINE
  5
406
330
1F
100
AcDbEntity
  8
1
 62
     2
100
AcDbLine
 10
6.41656941635238
 20
13.27373697364447
 30
0.0
 11
6.354069416352388
 21
13.27373697364447
 31
0.0
  0
LINE
  5
407
330
1F
100
AcDbEntity
  8
1
 62
     2
100
AcDbLine
 10
6.041069416352392
 20
13.73518128732797
 30
0.0
 11
5.632569416352389
 21
13.7565898651651
 31
0.0
  0
LINE
  5
408
330
1F
100
AcDbEntity
  8
1
 62
     2
100
AcDbLine
 10
5.947069416352384
 20
13.6597784482313
 30
0.0
 11
5.884569416352384
 21
13.6597784482313
 31
0.0
  0
LINE
  5
409
330
1F
100
AcDbEntity
  8
1
 62
     7
100
AcDbLine
 10
5.760569416352375
 20
13.97702511316308
 30
0.0
 11
5.760569416352375
 21
14.04232655263905
 31
0.0
  0
LINE
  5
40A
330
1F
100
AcDbEntity
  8
1
 62
     2
100
AcDbLine
 10
5.632569416352389
 20
13.77932655263904
 30
0.0
 11
5.507569416352374
 21
13.77932655263904
 31
0.0
  0
ARC
  5
40B
330
1F
100
AcDbEntity
  8
1
 62
     2
100
AcDbCircle
 10
5.445569416352377
 20
13.79030237550605
 30
0.0
 40
0.062
100
AcDbArc
 50
0.0000000000002036
 51
80.00000000000023
  0
ARC
  5
40C
330
1F
100
AcDbEntity
  8
1
 62
     2
100
AcDbCircle
 10
5.802569416352376
 20
13.98732655263904
 30
0.0
 40
0.02
100
AcDbArc
 50
270.0
 51
0.0000000000034604
  0
LINE
  5
40D
330
1F
100
AcDbEntity
  8
1
 62
     7
100
AcDbLine
 10
5.760569416352375
 20
14.16832655263904
 30
0.0
 11
5.760569416352375
 21
14.07832655263904
 31
0.0
  0
LINE
  5
40E
330
1F
100
AcDbEntity
  8
1
 62
     2
100
AcDbLine
 10
5.758069416352377
 20
13.37332655263904
 30
0.0
 11
5.760569416352375
 21
13.37332655263904
 31
0.0
  0
ARC
  5
40F
330
1F
100
AcDbEntity
  8
1
 62
     2
100
AcDbCircle
 10
5.760569416352375
 20
13.59132655263904
 30
0.0
 40
0.03
100
AcDbArc
 50
270.0
 51
0.0
  0
LINE
  5
410
330
1F
100
AcDbEntity
  8
1
 62
     2
100
AcDbLine
 10
5.758069416352377
 20
13.56132655263904
 30
0.0
 11
5.760569416352375
 21
13.56132655263904
 31
0.0
  0
ARC
  5
411
330
1F
100
AcDbEntity
  8
1
 62
     2
100
AcDbCircle
 10
5.758069416352377
 20
13.59132655263904
 30
0.0
 40
0.03
100
AcDbArc
 50
180.0
 51
270.0
  0
LINE
  5
412
330
1F
100
AcDbEntity
  8
1
 62
     2
100
AcDbLine
 10
5.790569416352376
 20
13.6597784482313
 30
0.0
 11
5.728069416352376
 21
13.6597784482313
 31
0.0
  0
LINE
  5
413
330
1F
100
AcDbEntity
  8
1
 62
     2
100
AcDbLine
 10
5.790569416352376
 20
13.74830943603837
 30
0.0
 11
5.790569416352376
 21
13.59132655263904
 31
0.0
  0
LINE
  5
414
330
1F
100
AcDbEntity
  8
1
 62
     2
100
AcDbLine
 10
5.728069416352376
 20
13.75158492224357
 30
0.0
 11
5.728069416352376
 21
13.59132655263904
 31
0.0
  0
LINE
  5
415
330
1F
100
AcDbEntity
  8
1
 62
     2
100
AcDbLine
 10
6.35406941635238
 20
13.71877765241238
 30
0.0
 11
6.103569416352392
 21
13.73190580112279
 31
0.0
  0
LINE
  5
416
330
1F
100
AcDbEntity
  8
1
 62
     2
100
AcDbLine
 10
6.384069416352382
 20
13.40482655263904
 30
0.0
 11
6.386569416352379
 21
13.40482655263904
 31
0.0
  0
ARC
  5
417
330
1F
100
AcDbEntity
  8
1
 62
     2
100
AcDbCircle
 10
6.386569416352379
 20
13.37482655263904
 30
0.0
 40
0.03
100
AcDbArc
 50
0.0
 51
90.0
  0
ARC
  5
418
330
1F
100
AcDbEntity
  8
1
 62
     2
100
AcDbCircle
 10
6.386569416352379
 20
13.55982655263904
 30
0.0
 40
0.03
100
AcDbArc
 50
270.0
 51
0.0
  0
LINE
  5
419
330
1F
100
AcDbEntity
  8
1
 62
     2
100
AcDbLine
 10
6.384069416352382
 20
13.52982655263904
 30
0.0
 11
6.386569416352379
 21
13.52982655263904
 31
0.0
  0
LINE
  5
41A
330
1F
100
AcDbEntity
  8
1
 62
     2
100
AcDbLine
 10
6.071069416352379
 20
13.38932655263904
 30
0.0
 11
6.073569416352391
 21
13.38932655263904
 31
0.0
  0
ARC
  5
41B
330
1F
100
AcDbEntity
  8
1
 62
     2
100
AcDbCircle
 10
6.073569416352391
 20
13.57532655263904
 30
0.0
 40
0.03
100
AcDbArc
 50
269.9999999999983
 51
0.0
  0
LINE
  5
41C
330
1F
100
AcDbEntity
  8
1
 62
     2
100
AcDbLine
 10
6.071069416352379
 20
13.54532655263904
 30
0.0
 11
6.073569416352391
 21
13.54532655263904
 31
0.0
  0
ARC
  5
41D
330
1F
100
AcDbEntity
  8
1
 62
     2
100
AcDbCircle
 10
6.071069416352379
 20
13.57532655263904
 30
0.0
 40
0.03
100
AcDbArc
 50
180.0
 51
270.0
  0
LINE
  5
41E
330
1F
100
AcDbEntity
  8
1
 62
     2
100
AcDbLine
 10
6.260069416352379
 20
13.6597784482313
 30
0.0
 11
6.197569416352394
 21
13.6597784482313
 31
0.0
  0
LINE
  5
41F
330
1F
100
AcDbEntity
  8
1
 62
     2
100
AcDbLine
 10
6.103569416352378
 20
13.6597784482313
 30
0.0
 11
6.041069416352378
 21
13.6597784482313
 31
0.0
  0
ARC
  5
420
330
1F
100
AcDbEntity
  8
1
 62
     2
100
AcDbCircle
 10
6.384069416352382
 20
13.37482655263904
 30
0.0
 40
0.03
100
AcDbArc
 50
90.0
 51
180.0
  0
ARC
  5
421
330
1F
100
AcDbEntity
  8
1
 62
     2
100
AcDbCircle
 10
6.384069416352382
 20
13.55982655263904
 30
0.0
 40
0.03
100
AcDbArc
 50
180.0
 51
270.0
  0
LINE
  5
422
330
1F
100
AcDbEntity
  8
1
 62
     2
100
AcDbLine
 10
6.416569416352388
 20
13.6597784482313
 30
0.0
 11
6.35406941635238
 21
13.6597784482313
 31
0.0
  0
LINE
  5
423
330
1F
100
AcDbEntity
  8
1
 62
     2
100
AcDbLine
 10
6.103569416352378
 20
13.73190580112279
 30
0.0
 11
6.103569416352378
 21
13.57532655263904
 31
0.0
  0
LINE
  5
424
330
1F
100
AcDbEntity
  8
1
 62
     2
100
AcDbLine
 10
6.041069416352378
 20
13.73518128732797
 30
0.0
 11
6.041069416352378
 21
13.57532655263904
 31
0.0
  0
LINE
  5
425
330
1F
100
AcDbEntity
  8
1
 62
     2
100
AcDbLine
 10
6.41656941635238
 20
13.71550216620719
 30
0.0
 11
6.41656941635238
 21
13.55982655263904
 31
0.0
  0
LINE
  5
426
330
1F
100
AcDbEntity
  8
1
 62
     2
100
AcDbLine
 10
6.35406941635238
 20
13.71877765241238
 30
0.0
 11
6.35406941635238
 21
13.55982655263904
 31
0.0
  0
LINE
  5
427
330
1F
100
AcDbEntity
  8
1
 62
     7
100
AcDbLine
 10
5.760569416352375
 20
14.26962799211501
 30
0.0
 11
5.275569416352375
 21
14.26962799211501
 31
0.0
  0
LINE
  5
428
330
1F
100
AcDbEntity
  8
1
 62
     2
100
AcDbLine
 10
5.802569416352376
 20
14.27932655263904
 30
0.0
 11
5.182569416352372
 21
14.27932655263904
 31
0.0
  0
ARC
  5
429
330
1F
100
AcDbEntity
  8
1
 62
     2
100
AcDbCircle
 10
5.106569416352378
 20
14.25732655263904
 30
0.0
 40
0.031
100
AcDbArc
 50
0.0000000000003053
 51
90.0
  0
ARC
  5
42A
330
1F
100
AcDbEntity
  8
1
 62
     2
100
AcDbCircle
 10
5.802569416352376
 20
14.25932655263904
 30
0.0
 40
0.02
100
AcDbArc
 50
0.0000000000032569
 51
90.0
  0
LINE
  5
435
330
1F
100
AcDbEntity
  8
1
 62
     4
100
AcDbLine
 10
9.632242902849931
 20
15.51055063151046
 30
0.0
 11
11.50824290284992
 21
15.51055063151046
 31
0.0
  0
LINE
  5
436
330
1F
100
AcDbEntity
  8
1
 62
     4
100
AcDbLine
 10
11.50824290284992
 20
15.88555063151046
 30
0.0
 11
9.632242902849931
 21
15.88555063151046
 31
0.0
  0
LINE
  5
437
330
1F
100
AcDbEntity
  8
1
 62
     4
100
AcDbLine
 10
9.632242902849931
 20
15.28555063151046
 30
0.0
 11
11.50824290284992
 21
15.28555063151046
 31
0.0
  0
TEXT
  5
438
330
1F
100
AcDbEntity
  8
1
 62
     7
100
AcDbText
 10
9.720466117135639
 20
15.35461889381352
 30
0.0
 40
0.09375
  1
UP TO 2.99M = +4", -0"
 41
0.9
  7
SIMPLEX
 72
     4
 11
10.57024290284992
 21
15.40149389381352
 31
0.0
100
AcDbText
  0
TEXT
  5
439
330
1F
100
AcDbEntity
  8
1
 62
     7
100
AcDbText
 10
9.718457188564212
 20
14.45461889381352
 30
0.0
 40
0.09375
  1
M30 AND OVER = +24", -0"
 41
0.8
  7
SIMPLEX
 72
     4
 11
10.57024290284992
 21
14.50149389381352
 31
0.0
100
AcDbText
  0
TEXT
  5
43A
330
1F
100
AcDbEntity
  8
1
 62
     7
100
AcDbText
 10
9.720242902849927
 20
14.67961889381351
 30
0.0
 40
0.09375
  1
M15 TO 29.99M = +18", -0"
 41
0.8
  7
SIMPLEX
 72
     4
 11
10.57024290284992
 21
14.72649389381351
 31
0.0
100
AcDbText
  0
TEXT
  5
43B
330
1F
100
AcDbEntity
  8
1
 62
     7
100
AcDbText
 10
9.705064331421356
 20
14.90461889381352
 30
0.0
 40
0.09375
  1
M9 TO 14.99M = +12", -0"
 41
0.85
  7
SIMPLEX
 72
     4
 11
10.57024290284992
 21
14.95149389381352
 31
0.0
100
AcDbText
  0
TEXT
  5
43C
330
1F
100
AcDbEntity
  8
1
 62
     7
100
AcDbText
 10
9.718457188564212
 20
15.12961889381352
 30
0.0
 40
0.09375
  1
3M TO 8.99M = +6", -0"
 41
0.9
  7
SIMPLEX
 72
     4
 11
10.57024290284992
 21
15.17649389381352
 31
0.0
100
AcDbText
  0
LINE
  5
43D
330
1F
100
AcDbEntity
  8
1
 62
     4
100
AcDbLine
 10
9.632242902849931
 20
14.38555063151047
 30
0.0
 11
11.50824290284992
 21
14.38555063151047
 31
0.0
  0
LINE
  5
43E
330
1F
100
AcDbEntity
  8
1
 62
     4
100
AcDbLine
 10
9.632242902849931
 20
14.61055063151047
 30
0.0
 11
11.50824290284992
 21
14.61055063151046
 31
0.0
  0
LINE
  5
43F
330
1F
100
AcDbEntity
  8
1
 62
     4
100
AcDbLine
 10
9.632242902849931
 20
14.83555063151046
 30
0.0
 11
11.50824290284992
 21
14.83555063151046
 31
0.0
  0
LINE
  5
440
330
1F
100
AcDbEntity
  8
1
 62
     4
100
AcDbLine
 10
9.632242902849931
 20
15.06055063151046
 30
0.0
 11
11.50824290284992
 21
15.06055063151046
 31
0.0
  0
TEXT
  5
441
330
1F
100
AcDbEntity
  8
1
 62
     2
100
AcDbText
 10
8.316471158656435
 20
15.60558611807675
 30
0.0
 40
0.156
  1
L(meters)
  7
SIMPLEX
 72
     1
 11
8.866185444370721
 21
15.68358611807675
 31
0.0
100
AcDbText
 73
     2
  0
LINE
  5
442
330
1F
100
AcDbEntity
  8
1
 62
     2
100
AcDbLine
 10
9.872637033773038
 20
13.27373697364447
 30
0.0
 11
8.947569416352385
 21
13.27373697364446
 31
0.0
  0
LINE
  5
443
330
1F
100
AcDbEntity
  8
1
 62
     2
100
AcDbLine
 10
9.872637033773024
 20
13.6597784482313
 30
0.0
 11
8.947569416352386
 21
13.6597784482313
 31
0.0
  0
LINE
  5
444
330
1F
100
AcDbEntity
  8
1
 62
     2
100
AcDbLine
 10
6.572569416352386
 20
13.70732655263904
 30
0.0
 11
6.572569416352386
 21
13.22732655263904
 31
0.0
  0
LWPOLYLINE
  5
445
330
1F
100
AcDbEntity
  8
1
 62
     2
100
AcDbPolyline
 90
       16
 70
     1
 43
0.0
 10
10.05719174662315
 20
13.27373697364447
 42
-0.1651101938485735
 10
10.03924804976542
 20
13.2798284090903
 42
-0.1057171946168217
 10
10.02035600104395
 20
13.30200420616627
 42
-0.068856886749243
 10
10.00939274516189
 20
13.3313565046984
 42
-0.0550463385251803
 10
10.00509813564492
 20
13.37024734229117
 42
-0.0550463385251606
 10
10.00939274516189
 20
13.40913817988395
 42
-0.0688568867492447
 10
10.02035600104395
 20
13.43849047841607
 42
-0.1057171946168379
 10
10.03924804976542
 20
13.46066627549205
 42
-0.1651101938485961
 10
10.05719174662314
 20
13.46675771093788
 42
-0.1651101938486415
 10
10.07513544348088
 20
13.46066627549204
 42
-0.10571719461683
 10
10.09402749220235
 20
13.43849047841607
 42
-0.0688568867492207
 10
10.10499074808441
 20
13.40913817988395
 42
-0.0550463385251664
 10
10.10928535760138
 20
13.37024734229117
 42
-0.0550463385251983
 10
10.1049907480844
 20
13.3313565046984
 42
-0.0688568867492642
 10
10.09402749220235
 20
13.30200420616627
 42
-0.1057171946168379
 10
10.07513544348088
 20
13.2798284090903
 42
-0.1651101938485961
  0
LWPOLYLINE
  5
446
330
1F
100
AcDbEntity
  8
1
 62
     2
100
AcDbPolyline
 90
        9
 70
     0
 43
0.0
 10
9.872637033773031
 20
13.46675771093789
 42
-0.1651101938485705
 10
9.890580730630759
 20
13.46066627549205
 42
-0.1057171946168217
 10
9.909472779352235
 20
13.43849047841608
 42
-0.068856886749243
 10
9.920436035234281
 20
13.40913817988396
 42
-0.0550463385251803
 10
9.924730644751257
 20
13.37024734229118
 42
-0.0550463385251606
 10
9.920436035234288
 20
13.33135650469841
 42
-0.0688568867492447
 10
9.909472779352235
 20
13.30200420616628
 42
-0.1057171946168379
 10
9.890580730630759
 20
13.27982840909031
 42
-0.1651101938485962
 10
9.872637033773031
 20
13.27373697364448
 42
-0.1651101938486415
  0
LWPOLYLINE
  5
447
330
1F
100
AcDbEntity
  8
1
 62
     2
100
AcDbPolyline
 90
        9
 70
     0
 43
0.0
 10
10.05719174662314
 20
13.46675771093788
 42
-0.1651101938485705
 10
10.03924804976541
 20
13.47284914638371
 42
-0.1057171946168217
 10
10.02035600104394
 20
13.49502494345969
 42
-0.068856886749243
 10
10.00939274516189
 20
13.52437724199181
 42
-0.0550463385251803
 10
10.00509813564492
 20
13.56326807958458
 42
-0.0550463385251606
 10
10.00939274516189
 20
13.60215891717736
 42
-0.0688568867492447
 10
10.02035600104394
 20
13.63151121570949
 42
-0.1057171946168379
 10
10.03924804976541
 20
13.65368701278546
 42
-0.1651101938485962
 10
10.05719174662314
 20
13.65977844823129
 42
-0.1651101938486415
  0
LWPOLYLINE
  5
448
330
1F
100
AcDbEntity
  8
1
 62
     2
100
AcDbPolyline
 90
       16
 70
     1
 43
0.0
 10
9.872637033773024
 20
13.6597784482313
 42
-0.1651101938485735
 10
9.890580730630752
 20
13.65368701278546
 42
-0.1057171946168217
 10
9.909472779352228
 20
13.6315112157095
 42
-0.068856886749243
 10
9.920436035234281
 20
13.60215891717737
 42
-0.0550463385251803
 10
9.924730644751257
 20
13.56326807958459
 42
-0.0550463385251606
 10
9.920436035234281
 20
13.52437724199182
 42
-0.0688568867492447
 10
9.909472779352228
 20
13.49502494345969
 42
-0.1057171946168379
 10
9.890580730630759
 20
13.47284914638372
 42
-0.1651101938485961
 10
9.872637033773031
 20
13.46675771093789
 42
-0.1651101938486415
 10
9.854693336915296
 20
13.47284914638372
 42
-0.10571719461683
 10
9.835801288193827
 20
13.49502494345969
 42
-0.0688568867492207
 10
9.824838032311767
 20
13.52437724199181
 42
-0.0550463385251664
 10
9.820543422794798
 20
13.56326807958459
 42
-0.0550463385251983
 10
9.824838032311774
 20
13.60215891717737
 42
-0.0688568867492642
 10
9.835801288193827
 20
13.6315112157095
 42
-0.1057171946168379
 10
9.854693336915296
 20
13.65368701278546
 42
-0.1651101938485961
  0
TEXT
  5
449
330
1F
100
AcDbEntity
  8
1
 62
     2
100
AcDbText
 10
10.04940956951659
 20
15.60305063151047
 30
0.0
 40
0.125
  1
TOLERANCE
  7
SIMPLEX
 72
     1
 11
10.57024290284992
 21
15.66555063151047
 31
0.0
100
AcDbText
 73
     2
  0
LINE
  5
44A
330
1F
100
AcDbEntity
  8
1
 62
     4
100
AcDbLine
 10
9.632242902849931
 20
15.88555063151046
 30
0.0
 11
9.632242902849931
 21
14.38555063151047
 31
0.0
  0
LINE
  5
44B
330
1F
100
AcDbEntity
  8
1
 62
     4
100
AcDbLine
 10
11.50824290284992
 20
14.38555063151047
 30
0.0
 11
11.50824290284992
 21
15.88555063151046
 31
0.0
  0
LINE
  5
44C
330
1F
100
AcDbEntity
  8
1
 62
     2
100
AcDbLine
 10
17.92448577843159
 20
12.46482959421161
 30
0.0
 11
18.24596525934261
 21
12.78630907512262
 31
0.0
  0
LINE
  5
44D
330
1F
100
AcDbEntity
  8
1
 62
     7
100
AcDbLine
 10
18.27048749555798
 20
12.48556219199219
 30
0.0
 11
18.22523266156204
 21
12.44030735799624
 31
0.0
  0
LINE
  5
44E
330
1F
100
AcDbEntity
  8
1
100
AcDbLine
 10
18.32564182449053
 20
12.43040786305964
 30
0.0
 11
18.27048749555798
 21
12.48556219199219
 31
0.0
  0
LINE
  5
44F
330
1F
100
AcDbEntity
  8
1
 62
     2
100
AcDbLine
 10
18.61061389837705
 20
12.60507127908105
 30
0.0
 11
18.10572357447318
 21
12.10018095517717
 31
0.0
  0
LINE
  5
450
330
1F
100
AcDbEntity
  8
1
 62
     2
100
AcDbLine
 10
17.77551274872739
 20
12.31585656450742
 30
0.0
 11
17.43504083358607
 21
12.65632847964875
 31
0.0
  0
LINE
  5
451
330
1F
100
AcDbEntity
  8
1
 62
     2
100
AcDbLine
 10
17.65932073548663
 20
12.64160628950825
 30
0.0
 11
17.83609743078327
 21
12.46482959421161
 31
0.0
  0
LINE
  5
452
330
1F
100
AcDbEntity
  8
1
 62
     2
100
AcDbLine
 10
17.73167212829382
 20
12.05139862834365
 30
0.0
 11
17.25861769168002
 21
12.52445306495745
 31
0.0
  0
LINE
  5
453
330
1F
100
AcDbEntity
  8
1
 62
     2
100
AcDbLine
 10
18.65939622521057
 20
12.97912272526039
 30
0.0
 11
17.73167212829382
 21
12.05139862834365
 31
0.0
  0
TEXT
  5
455
330
1F
100
AcDbEntity
  8
1
100
AcDbText
 10
18.37556308296209
 20
11.60532014817539
 30
0.0
 40
0.0749991111216187
  1
PIN 1
  7
ROMANS
100
AcDbText
  0
ARC
  5
45B
330
1F
100
AcDbEntity
  8
1
 62
     2
100
AcDbCircle
 10
17.88029160460743
 20
12.50902376803577
 30
0.0
 40
0.0625
100
AcDbArc
 50
225.0
 51
314.9999999999991
  0
LINE
  5
45C
330
1F
100
AcDbEntity
  8
1
100
AcDbLine
 10
17.88971049388901
 20
12.05811614276492
 30
0.0
 11
17.81405006830206
 21
12.13377656835188
 31
0.0
  0
LINE
  5
45D
330
1F
100
AcDbEntity
  8
1
 62
     2
100
AcDbLine
 10
17.81970692255155
 20
12.36005073833157
 30
0.0
 11
17.62136347042872
 21
12.16170728620875
 31
0.0
  0
LINE
  5
45E
330
1F
100
AcDbEntity
  8
1
100
AcDbLine
 10
18.28038699049459
 20
12.38515302906369
 30
0.0
 11
18.22523266156204
 21
12.44030735799624
 31
0.0
  0
LINE
  5
45F
330
1F
100
AcDbEntity
  8
1
100
AcDbLine
 10
17.92789426007309
 20
12.13448367513307
 30
0.0
 11
17.88334653285833
 21
12.08993594791832
 31
0.0
  0
LINE
  5
460
330
1F
100
AcDbEntity
  8
1
100
AcDbLine
 10
17.95971406522648
 20
12.12811971410238
 30
0.0
 11
17.88971049388901
 21
12.05811614276492
 31
0.0
  0
LINE
  5
461
330
1F
100
AcDbEntity
  8
1
100
AcDbLine
 10
17.95971406522648
 20
12.10266386997967
 30
0.0
 11
17.91516633801172
 21
12.05811614276491
 31
0.0
  0
LINE
  5
462
330
1F
100
AcDbEntity
  8
1
100
AcDbLine
 10
17.95971406522648
 20
12.12811971410238
 30
0.0
 11
17.88405363963952
 21
12.20378013968935
 31
0.0
  0
LINE
  5
463
330
1F
100
AcDbEntity
  8
1
100
AcDbLine
 10
17.88971049388901
 20
12.05811614276492
 30
0.0
 11
17.91516633801172
 21
12.05811614276491
 31
0.0
  0
LINE
  5
464
330
1F
100
AcDbEntity
  8
1
100
AcDbLine
 10
17.90880237698106
 20
12.1535755582251
 30
0.0
 11
17.8642546497663
 21
12.10902783101035
 31
0.0
  0
LINE
  5
465
330
1F
100
AcDbEntity
  8
1
100
AcDbLine
 10
17.88971049388901
 20
12.17266744131714
 30
0.0
 11
17.84516276667427
 21
12.12811971410238
 31
0.0
  0
LINE
  5
466
330
1F
100
AcDbEntity
  8
1
100
AcDbLine
 10
18.18422046825322
 20
12.28898650682232
 30
0.0
 11
18.12906613932067
 21
12.34414083575487
 31
0.0
  0
LINE
  5
467
330
1F
100
AcDbEntity
  8
1
100
AcDbLine
 10
17.95971406522648
 20
12.12811971410238
 30
0.0
 11
17.95971406522648
 21
12.10266386997967
 31
0.0
  0
LINE
  5
468
330
1F
100
AcDbEntity
  8
1
 62
     2
100
AcDbLine
 10
18.10572357447318
 20
12.10018095517717
 30
0.0
 11
17.94308901480027
 21
12.26281551485009
 31
0.0
  0
LINE
  5
469
330
1F
100
AcDbEntity
  8
1
 62
     7
100
AcDbLine
 10
18.17432097331661
 20
12.38939566975082
 30
0.0
 11
18.12906613932067
 21
12.34414083575487
 31
0.0
  0
LINE
  5
46A
330
1F
100
AcDbEntity
  8
1
100
AcDbLine
 10
18.22947530224916
 20
12.33424134081826
 30
0.0
 11
18.17432097331661
 21
12.38939566975082
 31
0.0
  0
LINE
  5
46B
330
1F
100
AcDbEntity
  8
1
100
AcDbLine
 10
19.13256988063488
 20
11.13024713964731
 30
0.0
 11
19.2754218461741
 21
10.54819804148227
 31
0.0
  0
LINE
  5
46C
330
1F
100
AcDbEntity
  8
1
100
AcDbLine
 10
18.62741940752677
 20
10.77709422649056
 30
0.0
 11
18.79369417393911
 21
10.65942376553475
 31
0.0
  0
TEXT
  5
46D
330
1F
100
AcDbEntity
  8
1
100
AcDbText
 10
19.41608337784765
 20
10.50737651588101
 30
0.0
 40
0.0749991111216187
  1
PIN 6
  7
ROMANS
100
AcDbText
  0
LINE
  5
46E
330
1F
100
AcDbEntity
  8
1
100
AcDbLine
 10
19.2754218461741
 20
10.54819804148227
 30
0.0
 11
19.38077070696932
 21
10.54819804148227
 31
0.0
  0
CIRCLE
  5
46F
330
1F
100
AcDbEntity
  8
1
 62
     2
100
AcDbCircle
 10
19.63924099356453
 20
11.75381950401062
 30
0.0
 40
0.060265741854928
  0
CIRCLE
  5
470
330
1F
100
AcDbEntity
  8
1
 62
     7
100
AcDbCircle
 10
19.63924099356453
 20
11.75381950401062
 30
0.0
 40
0.047265741854928
  0
LINE
  5
471
330
1F
100
AcDbEntity
  8
1
100
AcDbLine
 10
19.62237375749516
 20
11.4764841901744
 30
0.0
 11
19.87245003501667
 21
11.29818839097475
 31
0.0
  0
ARC
  5
472
330
1F
100
AcDbEntity
  8
1
 62
     2
100
AcDbCircle
 10
19.49201875846899
 20
11.51795949425824
 30
0.0
 40
0.1333536907072424
100
AcDbArc
 50
314.9999999999998
 51
35.00000000000007
  0
LINE
  5
473
330
1F
100
AcDbEntity
  8
1
100
AcDbLine
 10
19.50591846252115
 20
11.57191848035
 30
0.0
 11
20.08601534297763
 21
11.72250216478433
 31
0.0
  0
TEXT
  5
474
330
1F
100
AcDbEntity
  8
1
100
AcDbText
 10
19.58252001777559
 20
10.8489240715499
 30
0.0
 40
0.0749991111216187
  1
PIN 11
  7
ROMANS
100
AcDbText
  0
LINE
  5
475
330
1F
100
AcDbEntity
  8
1
 62
     2
100
AcDbLine
 10
19.12154360829178
 20
10.79418038049628
 30
0.0
 11
19.91661447305794
 21
11.58925124526243
 31
0.0
  0
LINE
  5
476
330
1F
100
AcDbEntity
  8
1
 62
     2
100
AcDbLine
 10
19.09612673436578
 20
10.85715185421861
 30
0.0
 11
19.85364299933562
 21
11.61466811918842
 31
0.0
  0
LINE
  5
477
330
1F
100
AcDbEntity
  8
1
 62
     2
100
AcDbLine
 10
19.85364299933562
 20
11.70305646683674
 30
0.0
 11
19.58847795639067
 21
11.9682215097817
 31
0.0
  0
LINE
  5
478
330
1F
100
AcDbEntity
  8
1
 62
     2
100
AcDbLine
 10
19.91661447305794
 20
11.72190447741302
 30
0.0
 11
19.60732596696695
 21
12.03119298350402
 31
0.0
  0
SOLID
  5
479
330
1F
100
AcDbEntity
  8
1
100
AcDbTrace
 10
19.50312675798844
 20
11.58267302588173
 30
0.0
 11
19.50871016705389
 21
11.56116393481827
 31
0.0
 12
19.44139118933073
 22
11.5551682531537
 32
0.0
 13
19.44139118933073
 23
11.5551682531537
 33
0.0
  0
CIRCLE
  5
47A
330
1F
100
AcDbEntity
  8
1
 62
     2
100
AcDbCircle
 10
19.33619990646547
 20
11.59164961944997
 30
0.0
 40
0.0235025
  0
LINE
  5
47B
330
1F
100
AcDbEntity
  8
1
 62
     2
100
AcDbLine
 10
19.33178598381064
 20
11.7094507312805
 30
0.0
 11
19.00134412227372
 21
11.37900886974359
 31
0.0
  0
ARC
  5
47C
330
1F
100
AcDbEntity
  8
1
 62
     2
100
AcDbCircle
 10
19.49201875846899
 20
11.51795949425824
 30
0.0
 40
0.1233536907072424
100
AcDbArc
 50
314.9999999999998
 51
35.00000000000007
  0
LINE
  5
47D
330
1F
100
AcDbEntity
  8
1
 62
     2
100
AcDbLine
 10
19.32471491599878
 20
11.71652179909236
 30
0.0
 11
18.99427305446185
 21
11.38607993755545
 31
0.0
  0
LINE
  5
47E
330
1F
100
AcDbEntity
  8
1
100
AcDbLine
 10
19.03583107459441
 20
11.41868976522874
 30
0.0
 11
18.79434004364745
 21
11.648723664125
 31
0.0
  0
LINE
  5
47F
330
1F
100
AcDbEntity
  8
1
 62
     2
100
AcDbLine
 10
18.74257334377251
 20
11.21070524481188
 30
0.0
 11
19.50008960874234
 21
11.9682215097817
 31
0.0
  0
LINE
  5
480
330
1F
100
AcDbEntity
  8
1
 62
     2
100
AcDbLine
 10
18.67960187005019
 20
11.23612211873787
 30
0.0
 11
19.47467273481636
 21
12.03119298350402
 31
0.0
  0
LINE
  5
481
330
1F
100
AcDbEntity
  8
1
 62
     2
100
AcDbLine
 10
19.01781558313059
 20
11.19073921064668
 30
0.0
 11
19.12208258896936
 21
11.11773066717181
 31
0.0
  0
SOLID
  5
482
330
1F
100
AcDbEntity
  8
1
100
AcDbTrace
 10
19.04349456040792
 20
11.42673494073822
 30
0.0
 11
19.02816758878092
 21
11.41064458971926
 31
0.0
 12
19.08410212765133
 22
11.3727088503477
 32
0.0
 13
19.08410212765133
 23
11.3727088503477
 33
0.0
  0
LINE
  5
483
330
1F
100
AcDbEntity
  8
1
 62
     2
100
AcDbLine
 10
19.01207981876707
 20
11.18254769020379
 30
0.0
 11
19.11634682460585
 21
11.10953914672892
 31
0.0
  0
ARC
  5
484
330
1F
100
AcDbEntity
  8
1
 62
     2
100
AcDbCircle
 10
19.05193256054162
 20
10.90134602804277
 30
0.0
 40
0.0625
100
AcDbArc
 50
225.0
 51
314.9999999999998
  0
ARC
  5
485
330
1F
100
AcDbEntity
  8
1
 62
     2
100
AcDbCircle
 10
19.05521699221647
 20
10.86050699657158
 30
0.0
 40
0.0938
100
AcDbArc
 50
225.0
 51
314.9999999999998
  0
ARC
  5
486
330
1F
100
AcDbEntity
  8
1
 62
     2
100
AcDbCircle
 10
19.08856835345719
 20
11.29178463856011
 30
0.0
 40
0.1233536907072424
100
AcDbArc
 50
134.9999999999998
 51
235.0
  0
ARC
  5
487
330
1F
100
AcDbEntity
  8
1
 62
     2
100
AcDbCircle
 10
19.08856835345719
 20
11.29178463856011
 30
0.0
 40
0.1333536907072424
100
AcDbArc
 50
134.9999999999998
 51
235.0
  0
CIRCLE
  5
488
330
1F
100
AcDbEntity
  8
1
 62
     2
100
AcDbCircle
 10
18.95697534954359
 20
11.0715538599897
 30
0.0
 40
0.060265741854928
  0
CIRCLE
  5
489
330
1F
100
AcDbEntity
  8
1
 62
     7
100
AcDbCircle
 10
18.95697534954359
 20
11.0715538599897
 30
0.0
 40
0.047265741854928
  0
ARC
  5
48A
330
1F
100
AcDbEntity
  8
1
 62
     2
100
AcDbCircle
 10
18.78676751759667
 20
11.16651107098772
 30
0.0
 40
0.0625
100
AcDbArc
 50
134.9999999999998
 51
225.0
  0
ARC
  5
48B
330
1F
100
AcDbEntity
  8
1
 62
     2
100
AcDbCircle
 10
18.74592848612548
 20
11.16979550266258
 30
0.0
 40
0.0938
100
AcDbArc
 50
134.9999999999998
 51
225.0000000000001
  0
LINE
  5
48C
330
1F
100
AcDbEntity
  8
1
 62
     2
100
AcDbLine
 10
18.74585777544736
 20
11.0372129811901
 30
0.0
 11
18.56288561785783
 21
10.85424082360057
 31
0.0
  0
LINE
  5
48D
330
1F
100
AcDbEntity
  8
1
100
AcDbLine
 10
18.52568460246899
 20
10.87579133323912
 30
0.0
 11
18.70259218729634
 21
10.77330895279581
 31
0.0
  0
LINE
  5
48E
330
1F
100
AcDbEntity
  8
1
100
AcDbLine
 10
18.70259218729634
 20
10.77330895279581
 30
0.0
 11
18.62741940752677
 21
10.77709422649056
 31
0.0
  0
LINE
  5
48F
330
1F
100
AcDbEntity
  8
1
 62
     2
100
AcDbLine
 10
18.922634470744
 20
10.86043628589346
 30
0.0
 11
18.75148958311958
 21
10.68929139826905
 31
0.0
  0
LINE
  5
490
330
1F
100
AcDbEntity
  8
1
 62
     2
100
AcDbLine
 10
19.00773838671747
 20
10.85715185421861
 30
0.0
 11
18.74257334377251
 21
11.12231689716356
 31
0.0
  0
LINE
  5
491
330
1F
100
AcDbEntity
  8
1
 62
     2
100
AcDbLine
 10
18.98889037614118
 20
10.79418038049629
 30
0.0
 11
18.67960187005018
 21
11.10346888658728
 31
0.0
  0
CIRCLE
  5
492
330
1F
100
AcDbEntity
  8
1
 62
     2
100
AcDbCircle
 10
19.55622325249948
 20
11.52789687205819
 30
0.0
 40
0.0235025
  0
CIRCLE
  5
493
330
1F
100
AcDbEntity
  8
1
 62
     2
100
AcDbCircle
 10
19.25806460714435
 20
11.51351432012885
 30
0.0
 40
0.0235025
  0
CIRCLE
  5
494
330
1F
100
AcDbEntity
  8
1
 62
     2
100
AcDbCircle
 10
19.42487993566103
 20
11.53844160193264
 30
0.0
 40
0.0235025
  0
CIRCLE
  5
495
330
1F
100
AcDbEntity
  8
1
 62
     2
100
AcDbCircle
 10
19.47808795317836
 20
11.44976157273708
 30
0.0
 40
0.0235025
  0
ARC
  5
496
330
1F
100
AcDbEntity
  8
1
 62
     2
100
AcDbCircle
 10
19.19283535929597
 20
11.21877609508524
 30
0.0
 40
0.1233536907072424
100
AcDbArc
 50
235.0
 51
314.9999999999998
  0
CIRCLE
  5
497
330
1F
100
AcDbEntity
  8
1
 62
     2
100
AcDbCircle
 10
19.39995265385724
 20
11.37162627341596
 30
0.0
 40
0.0235025
  0
CIRCLE
  5
498
330
1F
100
AcDbEntity
  8
1
 62
     2
100
AcDbCircle
 10
19.24368205521502
 20
11.21535567477373
 30
0.0
 40
0.0235025
  0
CIRCLE
  5
499
330
1F
100
AcDbEntity
  8
1
 62
     2
100
AcDbCircle
 10
19.11233873837658
 20
11.22590040464818
 30
0.0
 40
0.0235025
  0
CIRCLE
  5
49A
330
1F
100
AcDbEntity
  8
1
 62
     2
100
AcDbCircle
 10
19.2686093370188
 20
11.38217100329041
 30
0.0
 40
0.0235025
  0
CIRCLE
  5
49B
330
1F
100
AcDbEntity
  8
1
 62
     2
100
AcDbCircle
 10
19.32181735453614
 20
11.29349097409485
 30
0.0
 40
0.0235025
  0
CIRCLE
  5
49C
330
1F
100
AcDbEntity
  8
1
 62
     2
100
AcDbCircle
 10
19.19047403769769
 20
11.3040357039693
 30
0.0
 40
0.0235025
  0
CIRCLE
  5
49D
330
1F
100
AcDbEntity
  8
1
 62
     2
100
AcDbCircle
 10
19.34674463633991
 20
11.46030630261152
 30
0.0
 40
0.0235025
  0
CIRCLE
  5
49E
330
1F
100
AcDbEntity
  8
1
 62
     2
100
AcDbCircle
 10
19.10179400850213
 20
11.35724372148662
 30
0.0
 40
0.0235025
  0
CIRCLE
  5
49F
330
1F
100
AcDbEntity
  8
1
 62
     2
100
AcDbCircle
 10
19.17992930782324
 20
11.43537902080774
 30
0.0
 40
0.0235025
  0
SOLID
  5
4A0
330
1F
100
AcDbEntity
  8
1
100
AcDbTrace
 10
19.2818842593714
 20
11.13103242997611
 30
0.0
 11
19.30030417910031
 21
11.14346311830577
 31
0.0
 12
19.25380215424685
 22
11.19250753332767
 32
0.0
 13
19.25380215424685
 23
11.19250753332767
 33
0.0
  0
SOLID
  5
4A1
330
1F
100
AcDbEntity
  8
1
100
AcDbTrace
 10
19.12177914250336
 20
11.12759877517674
 30
0.0
 11
19.14336061876641
 21
11.13289550411788
 31
0.0
 12
19.11667969381147
 22
11.19499156843649
 32
0.0
 13
19.11667969381147
 23
11.19499156843649
 33
0.0
  0
ARC
  5
4A2
330
1F
100
AcDbEntity
  8
1
 62
     2
100
AcDbCircle
 10
19.19283535929597
 20
11.21877609508524
 30
0.0
 40
0.1333536907072424
100
AcDbArc
 50
235.0
 51
314.9999999999998
  0
LINE
  5
4A3
330
1F
100
AcDbEntity
  8
1
 62
     2
100
AcDbLine
 10
19.57924298965247
 20
11.43073526307476
 30
0.0
 11
19.28005959047945
 21
11.13155186390176
 31
0.0
  0
LINE
  5
4A4
330
1F
100
AcDbEntity
  8
1
 62
     2
100
AcDbLine
 10
19.58631405746434
 20
11.4236641952629
 30
0.0
 11
19.28713065829131
 21
11.12448079608989
 31
0.0
  0
SOLID
  5
4A5
330
1F
100
AcDbEntity
  8
1
100
AcDbTrace
 10
19.61592354224148
 20
11.46743716928499
 30
0.0
 11
19.62882397274885
 21
11.48553121106381
 31
0.0
 12
19.56809163215871
 22
11.51518548169649
 32
0.0
 13
19.56809163215871
 23
11.51518548169649
 33
0.0
  0
LINE
  5
4A6
330
1F
100
AcDbEntity
  8
1
100
AcDbLine
 10
19.46144394915686
 20
10.88482182090564
 30
0.0
 11
19.54718834952232
 21
10.88482182090564
 31
0.0
  0
LINE
  5
4A7
330
1F
100
AcDbEntity
  8
1
100
AcDbLine
 10
19.29109421923585
 20
11.13724777414093
 30
0.0
 11
19.46144394915686
 21
10.88482182090564
 31
0.0
  0
TEXT
  5
4A8
330
1F
100
AcDbEntity
  8
1
100
AcDbText
 10
18.80318581930112
 20
11.93242070680274
 30
0.0
 40
0.0749991111216187
  1
PIN 5
  7
ROMANS
100
AcDbText
  0
LINE
  5
4A9
330
1F
100
AcDbEntity
  8
1
100
AcDbLine
 10
18.79434004364745
 20
11.648723664125
 30
0.0
 11
18.72662298878308
 21
11.648723664125
 31
0.0
  0
ARC
  5
4AA
330
1F
100
AcDbEntity
  8
1
 62
     2
100
AcDbCircle
 10
19.54099935089166
 20
11.96486636742872
 30
0.0
 40
0.0938
100
AcDbArc
 50
44.99999999999971
 51
134.9999999999998
  0
ARC
  5
4AB
330
1F
100
AcDbEntity
  8
1
 62
     2
100
AcDbCircle
 10
19.5442837825665
 20
11.92402733595754
 30
0.0
 40
0.0625
100
AcDbArc
 50
45.0
 51
134.9999999999998
  0
LINE
  5
4AC
330
1F
100
AcDbEntity
  8
1
100
AcDbLine
 10
19.23241944277749
 20
11.96821589148706
 30
0.0
 11
19.17363389463702
 21
11.96821589148706
 31
0.0
  0
LINE
  5
4AD
330
1F
100
AcDbEntity
  8
1
 62
     2
100
AcDbLine
 10
19.52005564290755
 20
11.69297927042363
 30
0.0
 11
19.59306418638242
 21
11.58871226458485
 31
0.0
  0
LINE
  5
4AE
330
1F
100
AcDbEntity
  8
1
 62
     2
100
AcDbLine
 10
19.52824716335045
 20
11.69871503478714
 30
0.0
 11
19.60125570682532
 21
11.59444802894836
 31
0.0
  0
SOLID
  5
4AF
330
1F
100
AcDbEntity
  8
1
100
AcDbTrace
 10
19.37208169951139
 20
11.74141813160124
 30
0.0
 11
19.35269009340965
 21
11.73056543295237
 31
0.0
 12
19.39494399240715
 22
11.67781696397155
 32
0.0
 13
19.39494399240715
 23
11.67781696397155
 33
0.0
  0
ARC
  5
4B0
330
1F
100
AcDbEntity
  8
1
 62
     2
100
AcDbCircle
 10
19.41901021499412
 20
11.62222650009702
 30
0.0
 40
0.1233536907072424
100
AcDbArc
 50
35.00000000000007
 51
134.9999999999998
  0
CIRCLE
  5
4B1
330
1F
100
AcDbEntity
  8
1
 62
     2
100
AcDbCircle
 10
19.41433520578659
 20
11.66978491877108
 30
0.0
 40
0.0235025
  0
ARC
  5
4B2
330
1F
100
AcDbEntity
  8
1
 62
     2
100
AcDbCircle
 10
19.41901021499412
 20
11.62222650009702
 30
0.0
 40
0.1333536907072424
100
AcDbArc
 50
35.00000000000007
 51
134.9999999999998
  0
LINE
  5
4B3
330
1F
100
AcDbEntity
  8
1
100
AcDbLine
 10
19.36238589646051
 20
11.73599178227681
 30
0.0
 11
19.23241944277749
 21
11.96821589148706
 31
0.0
  0
TEXT
  5
4B4
330
1F
100
AcDbEntity
  8
1
100
AcDbText
 10
20.00991068631539
 20
11.26140830064353
 30
0.0
 40
0.0749991111216187
  1
PIN 15
  7
ROMANS
100
AcDbText
  0
LINE
  5
4B5
330
1F
100
AcDbEntity
  8
1
100
AcDbLine
 10
19.87245003501667
 20
11.29818839097475
 30
0.0
 11
19.98290986822062
 21
11.29818839097475
 31
0.0
  0
TEXT
  5
4B6
330
1F
100
AcDbEntity
  8
1
100
AcDbText
 10
20.18983972573381
 20
11.68762603552361
 30
0.0
 40
0.0749991111216187
  1
PIN 10
  7
ROMANS
100
AcDbText
  0
LINE
  5
4B7
330
1F
100
AcDbEntity
  8
1
100
AcDbLine
 10
20.08601534297763
 20
11.72250216478433
 30
0.0
 11
20.16532486742693
 21
11.72250216478433
 31
0.0
  0
ARC
  5
4B8
330
1F
100
AcDbEntity
  8
1
 62
     2
100
AcDbCircle
 10
19.80944882551145
 20
11.65886229301258
 30
0.0
 40
0.0625
100
AcDbArc
 50
314.9999999999998
 51
45.0
  0
ARC
  5
4B9
330
1F
100
AcDbEntity
  8
1
 62
     2
100
AcDbCircle
 10
19.85028785698264
 20
11.65557786133773
 30
0.0
 40
0.0938
100
AcDbArc
 50
314.9999999999998
 51
44.99999999999971
  0
LINE
  5
4BA
330
1F
100
AcDbEntity
  8
1
 62
     2
100
AcDbLine
 10
18.35074411522265
 20
12.89108793100266
 30
0.0
 11
18.54908756734547
 21
13.08943138312549
 31
0.0
  0
LINE
  5
4BB
330
1F
100
AcDbEntity
  8
1
 62
     2
100
AcDbLine
 10
18.65939622521057
 20
12.97912272526039
 30
0.0
 11
18.18634178859677
 21
13.45217716187419
 31
0.0
  0
LINE
  5
4BC
330
1F
100
AcDbEntity
  8
1
 62
     2
100
AcDbLine
 10
17.32729404881248
 20
13.74832655263904
 30
0.0
 11
17.10768056824068
 21
13.74832655263904
 31
0.0
  0
LINE
  5
4BD
330
1F
100
AcDbEntity
  8
1
 62
     2
100
AcDbLine
 10
17.32729404881247
 20
13.74832655263904
 30
0.0
 11
17.00274420399843
 21
13.74832655263904
 31
0.0
  0
LINE
  5
4BE
330
1F
100
AcDbEntity
  8
1
 62
     2
100
AcDbLine
 10
17.49216556358437
 20
12.80184155729535
 30
0.0
 11
17.10768056824067
 21
13.18632655263904
 31
0.0
  0
LINE
  5
4BF
330
1F
100
AcDbEntity
  8
1
100
AcDbLine
 10
17.43892992088259
 20
12.74860591459358
 30
0.0
 11
17.08537653028931
 21
13.10215930518686
 31
0.0
  0
LINE
  5
4C0
330
1F
100
AcDbEntity
  8
1
100
AcDbLine
 10
17.42832331916479
 20
12.73799931287578
 30
0.0
 11
17.07476992857151
 21
13.09155270346906
 31
0.0
  0
LINE
  5
4C1
330
1F
100
AcDbEntity
  8
1
100
AcDbLine
 10
17.41771671744699
 20
12.72739271115798
 30
0.0
 11
17.06416332685372
 21
13.08094610175126
 31
0.0
  0
LINE
  5
4C2
330
1F
100
AcDbEntity
  8
1
100
AcDbLine
 10
17.40357458182326
 20
12.71325057553426
 30
0.0
 11
17.05002119122999
 21
13.06680396612753
 31
0.0
  0
LINE
  5
4C3
330
1F
100
AcDbEntity
  8
1
100
AcDbLine
 10
17.45307205650632
 20
12.76274805021732
 30
0.0
 11
17.10012526763113
 21
13.11569483909252
 31
0.0
  0
LINE
  5
4C4
330
1F
100
AcDbEntity
  8
1
100
AcDbLine
 10
17.44600098869445
 20
12.75567698240545
 30
0.0
 11
17.09244759810118
 21
13.10923037299873
 31
0.0
  0
LINE
  5
4C5
330
1F
100
AcDbEntity
  8
1
100
AcDbLine
 10
17.46014312431818
 20
12.76981911802918
 30
0.0
 11
17.11719633544272
 21
13.11276590690466
 31
0.0
  0
LINE
  5
4C6
330
1F
100
AcDbEntity
  8
1
100
AcDbLine
 10
17.38943244619953
 20
12.69910843991053
 30
0.0
 11
17.03587905560626
 21
13.0526618305038
 31
0.0
  0
LINE
  5
4C7
330
1F
100
AcDbEntity
  8
1
100
AcDbLine
 10
17.37175477666986
 20
12.68143077038086
 30
0.0
 11
17.01820138607659
 21
13.03498416097414
 31
0.0
  0
LINE
  5
4C8
330
1F
100
AcDbEntity
  8
1
100
AcDbLine
 10
17.29043749683341
 20
12.60011349054442
 30
0.0
 11
16.93688410624015
 21
12.95366688113769
 31
0.0
  0
LINE
  5
4C9
330
1F
100
AcDbEntity
  8
1
100
AcDbLine
 10
17.24801108996222
 20
12.55768708367322
 30
0.0
 11
16.90506430108675
 21
12.9006338725487
 31
0.0
  0
LINE
  5
4CA
330
1F
100
AcDbEntity
  8
1
100
AcDbLine
 10
17.27983089511561
 20
12.58950688882662
 30
0.0
 11
16.92627750452235
 21
12.94306027941989
 31
0.0
  0
LINE
  5
4CB
330
1F
100
AcDbEntity
  8
1
100
AcDbLine
 10
17.26922429339782
 20
12.57890028710882
 30
0.0
 11
16.91567090280455
 21
12.9324536777021
 31
0.0
  0
LINE
  5
4CC
330
1F
100
AcDbEntity
  8
1
100
AcDbLine
 10
17.26215322558596
 20
12.57182921929696
 30
0.0
 11
16.90859983499269
 21
12.92538260989024
 31
0.0
  0
LINE
  5
4CD
330
1F
100
AcDbEntity
  8
1
100
AcDbLine
 10
17.25508215777409
 20
12.56475815148509
 30
0.0
 11
16.90213536889845
 21
12.91770494036073
 31
0.0
  0
LINE
  5
4CE
330
1F
100
AcDbEntity
  8
1
100
AcDbLine
 10
17.3540771071402
 20
12.66375310085121
 30
0.0
 11
17.00052371654694
 21
13.01730649144448
 31
0.0
  0
LINE
  5
4CF
330
1F
100
AcDbEntity
  8
1
100
AcDbLine
 10
17.33639943761054
 20
12.64607543132154
 30
0.0
 11
16.98284604701727
 21
12.99962882191481
 31
0.0
  0
LINE
  5
4D0
330
1F
100
AcDbEntity
  8
1
100
AcDbLine
 10
17.31872176808088
 20
12.62839776179188
 30
0.0
 11
16.96516837748761
 21
12.98195115238516
 31
0.0
  0
LINE
  5
4D1
330
1F
100
AcDbEntity
  8
1
100
AcDbLine
 10
17.30457963245715
 20
12.61425562616815
 30
0.0
 11
16.95102624186388
 21
12.96780901676142
 31
0.0
  0
LINE
  5
4D2
330
1F
100
AcDbEntity
  8
1
100
AcDbLine
 10
17.3540771071402
 20
12.66375310085121
 30
0.0
 11
17.00052371654694
 21
13.01730649144448
 31
0.0
  0
ARC
  5
4D3
330
1F
100
AcDbEntity
  8
1
 62
     2
100
AcDbCircle
 10
16.96374420399843
 20
13.35032655263905
 30
0.0
 40
0.0389999999999986
100
AcDbArc
 50
359.999999999998
 51
179.9999999999998
  0
LINE
  5
4D4
330
1F
100
AcDbEntity
  8
1
100
AcDbLine
 10
17.10768056824067
 20
13.27983882263845
 30
0.0
 11
17.10768056824065
 21
13.65481428263963
 31
0.0
  0
LINE
  5
4D5
330
1F
100
AcDbEntity
  8
1
 62
     2
100
AcDbLine
 10
16.75274420399841
 20
13.18632655263904
 30
0.0
 11
16.75274420399842
 21
13.36582655263904
 31
0.0
  0
LINE
  5
4D6
330
1F
100
AcDbEntity
  8
1
 62
     2
100
AcDbLine
 10
16.83074420399842
 20
13.18632655263904
 30
0.0
 11
16.83074420399842
 21
13.36582655263904
 31
0.0
  0
LINE
  5
4D7
330
1F
100
AcDbEntity
  8
1
 62
     2
100
AcDbLine
 10
16.59674420399841
 20
13.18632655263904
 30
0.0
 11
16.59674420399841
 21
13.74832655263904
 31
0.0
  0
LINE
  5
4D8
330
1F
100
AcDbEntity
  8
1
 62
     2
100
AcDbLine
 10
16.75274420399842
 20
13.18632655263904
 30
0.0
 11
16.59674420399841
 21
13.18632655263904
 31
0.0
  0
LINE
  5
4D9
330
1F
100
AcDbEntity
  8
1
  6
CENTER
 62
     2
100
AcDbLine
 10
17.00274420399842
 20
13.26732655263904
 30
0.0
 11
16.92474420399842
 21
13.26732655263904
 31
0.0
  0
LINE
  5
4DA
330
1F
100
AcDbEntity
  8
1
  6
CENTER
 62
     2
100
AcDbLine
 10
16.83074420399842
 20
13.26732655263904
 30
0.0
 11
16.75274420399842
 21
13.26732655263904
 31
0.0
  0
LINE
  5
4DB
330
1F
100
AcDbEntity
  8
1
100
AcDbLine
 10
17.09598313200712
 20
13.11276590690466
 30
0.0
 11
16.90506430108675
 21
12.9218470759843
 31
0.0
  0
ARC
  5
4DC
330
1F
100
AcDbEntity
  8
1
100
AcDbCircle
 10
16.91567090280455
 20
12.9112404742665
 30
0.0
 40
0.015
100
AcDbArc
 50
134.9999999999993
 51
224.9999999999993
  0
ARC
  5
4DD
330
1F
100
AcDbEntity
  8
1
100
AcDbCircle
 10
17.10658973372491
 20
13.10215930518686
 30
0.0
 40
0.015
100
AcDbArc
 50
44.99999999999942
 51
134.9999999999993
  0
LINE
  5
4DE
330
1F
100
AcDbEntity
  8
1
 62
     2
100
AcDbLine
 10
17.10768056824067
 20
13.18632655263904
 30
0.0
 11
17.00274420399843
 21
13.18632655263904
 31
0.0
  0
LINE
  5
4DF
330
1F
100
AcDbEntity
  8
1
 62
     2
100
AcDbLine
 10
16.92474420399842
 20
13.18632655263904
 30
0.0
 11
16.83074420399842
 21
13.18632655263904
 31
0.0
  0
LINE
  5
4E0
330
1F
100
AcDbEntity
  8
1
 62
     2
100
AcDbLine
 10
17.00274420399843
 20
13.18632655263904
 30
0.0
 11
17.00274420399843
 21
13.35032655263905
 31
0.0
  0
LINE
  5
4E1
330
1F
100
AcDbEntity
  8
1
 62
     2
100
AcDbLine
 10
16.92474420399842
 20
13.18632655263904
 30
0.0
 11
16.92474420399842
 21
13.35032655263905
 31
0.0
  0
LINE
  5
4E2
330
1F
100
AcDbEntity
  8
1
 62
     2
100
AcDbLine
 10
17.00274420399842
 20
13.18632655263904
 30
0.0
 11
17.00274420399842
 21
13.35032655263905
 31
0.0
  0
LINE
  5
4E3
330
1F
100
AcDbEntity
  8
1
 62
     2
100
AcDbLine
 10
16.75274420399842
 20
13.74832655263904
 30
0.0
 11
16.59674420399841
 21
13.74832655263904
 31
0.0
  0
POINT
  5
4E4
330
1F
100
AcDbEntity
  8
1
  6
ByBlock
 62
     0
100
AcDbPoint
 10
16.59674420399841
 20
13.74832655263904
 30
0.0
  0
LINE
  5
4E5
330
1F
100
AcDbEntity
  8
1
 62
     2
100
AcDbLine
 10
16.92474420399842
 20
13.74832655263904
 30
0.0
 11
16.83074420399842
 21
13.74832655263904
 31
0.0
  0
ARC
  5
4E6
330
1F
100
AcDbEntity
  8
1
 62
     2
100
AcDbCircle
 10
16.79174420399842
 20
13.36582655263904
 30
0.0
 40
0.0390000000000024
100
AcDbArc
 50
359.9999999999998
 51
179.9999999999998
  0
ARC
  5
4E7
330
1F
100
AcDbEntity
  8
1
 62
     2
100
AcDbCircle
 10
16.79174420399842
 20
13.56882655263905
 30
0.0
 40
0.0390000000000011
100
AcDbArc
 50
179.9999999999998
 51
359.9999999999998
  0
ARC
  5
4E8
330
1F
100
AcDbEntity
  8
1
 62
     2
100
AcDbCircle
 10
16.96374420399842
 20
13.58432655263904
 30
0.0
 40
0.0390000000000011
100
AcDbArc
 50
179.999999999998
 51
359.9999999999998
  0
LINE
  5
4E9
330
1F
100
AcDbEntity
  8
1
  6
CENTER
 62
     2
100
AcDbLine
 10
17.00274420399842
 20
13.66732655263904
 30
0.0
 11
16.92474420399842
 21
13.66732655263904
 31
0.0
  0
LINE
  5
4EA
330
1F
100
AcDbEntity
  8
1
  6
CENTER
 62
     2
100
AcDbLine
 10
16.83074420399842
 20
13.66732655263904
 30
0.0
 11
16.75274420399842
 21
13.66732655263904
 31
0.0
  0
LINE
  5
4EB
330
1F
100
AcDbEntity
  8
1
 62
     2
100
AcDbLine
 10
16.92474420399842
 20
13.58432655263904
 30
0.0
 11
16.92474420399842
 21
13.74832655263904
 31
0.0
  0
LINE
  5
4EC
330
1F
100
AcDbEntity
  8
1
 62
     2
100
AcDbLine
 10
16.75274420399842
 20
13.56882655263905
 30
0.0
 11
16.75274420399842
 21
13.74832655263904
 31
0.0
  0
LINE
  5
4ED
330
1F
100
AcDbEntity
  8
1
 62
     2
100
AcDbLine
 10
16.83074420399842
 20
13.56882655263905
 30
0.0
 11
16.83074420399842
 21
13.74832655263904
 31
0.0
  0
LINE
  5
4EE
330
1F
100
AcDbEntity
  8
1
 62
     2
100
AcDbLine
 10
17.00274420399842
 20
13.58432655263904
 30
0.0
 11
17.00274420399842
 21
13.74832655263904
 31
0.0
  0
LINE
  5
4EF
330
1F
100
AcDbEntity
  8
1
 62
     2
100
AcDbLine
 10
18.14250116816321
 20
13.45217716187419
 30
0.0
 11
17.90886065151858
 21
13.21853664522957
 31
0.0
  0
LINE
  5
4F0
330
1F
100
AcDbEntity
  8
1
 62
     2
100
AcDbLine
 10
17.33059166408324
 20
13.27242112017499
 30
0.0
 11
17.43828108863894
 21
13.38011054473069
 31
0.0
  0
LINE
  5
4F1
330
1F
100
AcDbEntity
  8
1
 62
     7
100
AcDbLine
 10
17.320492293046
 20
13.19726792526859
 30
0.0
 11
17.5134342835457
 21
13.39020991576829
 31
0.0
  0
LINE
  5
4F2
330
1F
100
AcDbEntity
  8
1
100
AcDbLine
 10
17.94097573552505
 20
13.25065172923604
 30
0.0
 11
17.59802894664957
 21
13.59359851811151
 31
0.0
  0
LINE
  5
4F3
330
1F
100
AcDbEntity
  8
1
100
AcDbLine
 10
17.95511787114878
 20
13.26479386485976
 30
0.0
 11
17.6015644805555
 21
13.61834725545304
 31
0.0
  0
LINE
  5
4F4
330
1F
100
AcDbEntity
  8
1
100
AcDbLine
 10
17.94804680333691
 20
13.2577227970479
 30
0.0
 11
17.59510001446171
 21
13.61066958592309
 31
0.0
  0
LINE
  5
4F5
330
1F
100
AcDbEntity
  8
1
100
AcDbLine
 10
18.02936408317337
 20
13.33904007688436
 30
0.0
 11
17.67581069258009
 21
13.69259346747763
 31
0.0
  0
LINE
  5
4F6
330
1F
100
AcDbEntity
  8
1
100
AcDbLine
 10
18.0116864136437
 20
13.32136240735469
 30
0.0
 11
17.65813302305043
 21
13.67491579794796
 31
0.0
  0
LINE
  5
4F7
330
1F
100
AcDbEntity
  8
1
100
AcDbLine
 10
17.99754427801997
 20
13.30722027173096
 30
0.0
 11
17.6439908874267
 21
13.66077366232423
 31
0.0
  0
LINE
  5
4F8
330
1F
100
AcDbEntity
  8
1
100
AcDbLine
 10
17.98340214239624
 20
13.29307813610723
 30
0.0
 11
17.62984875180297
 21
13.64663152670051
 31
0.0
  0
LINE
  5
4F9
330
1F
100
AcDbEntity
  8
1
100
AcDbLine
 10
17.97279554067844
 20
13.28247153438943
 30
0.0
 11
17.61924215008517
 21
13.63602492498271
 31
0.0
  0
LINE
  5
4FA
330
1F
100
AcDbEntity
  8
1
100
AcDbLine
 10
17.96218893896065
 20
13.27186493267164
 30
0.0
 11
17.60863554836737
 21
13.62541832326491
 31
0.0
  0
LINE
  5
4FB
330
1F
100
AcDbEntity
  8
1
 62
     2
100
AcDbLine
 10
17.76355020798475
 20
13.1432297730332
 30
0.0
 11
17.52666943628726
 21
13.38011054473069
 31
0.0
  0
LINE
  5
4FC
330
1F
100
AcDbEntity
  8
1
 62
     2
100
AcDbLine
 10
17.90886065151858
 20
13.21853664522957
 30
0.0
 11
17.41568239646079
 21
13.71171490028736
 31
0.0
  0
LINE
  5
4FD
330
1F
100
AcDbEntity
  8
1
100
AcDbLine
 10
18.04704175270303
 20
13.35671774641401
 30
0.0
 11
17.69348836210975
 21
13.71027113700729
 31
0.0
  0
LINE
  5
4FE
330
1F
100
AcDbEntity
  8
1
100
AcDbLine
 10
18.04704175270303
 20
13.35671774641401
 30
0.0
 11
17.69348836210975
 21
13.71027113700729
 31
0.0
  0
LINE
  5
4FF
330
1F
100
AcDbEntity
  8
1
 62
     2
100
AcDbLine
 10
17.65932073548663
 20
12.72999463715657
 30
0.0
 11
17.98080021639766
 21
13.05147411806758
 31
0.0
  0
ARC
  5
500
330
1F
100
AcDbEntity
  8
1
 62
     2
100
AcDbCircle
 10
17.71935603416059
 20
13.09903559920904
 30
0.0
 40
0.0625
100
AcDbArc
 50
314.9999999999991
 51
45.0
  0
LINE
  5
501
330
1F
100
AcDbEntity
  8
1
 62
     7
100
AcDbLine
 10
17.44903204993199
 20
13.06559238667793
 30
0.0
 11
17.52497384912192
 21
13.14153418586786
 31
0.0
  0
LINE
  5
502
330
1F
100
AcDbEntity
  8
1
 62
     2
100
AcDbLine
 10
17.56747243578073
 20
12.94715200082918
 30
0.0
 11
17.33059166408324
 21
13.18403277252667
 31
0.0
  0
LINE
  5
503
330
1F
100
AcDbEntity
  8
1
 62
     7
100
AcDbLine
 10
17.51408587380115
 20
13.00053856280877
 30
0.0
 11
17.71016364600517
 21
13.19661633501278
 31
0.0
  0
ARC
  5
504
330
1F
100
AcDbEntity
  8
1
 62
     2
100
AcDbCircle
 10
17.61166660960489
 20
12.99134617465334
 30
0.0
 40
0.0625
100
AcDbArc
 50
225.0000000000006
 51
314.9999999999987
  0
CIRCLE
  5
505
330
1F
100
AcDbEntity
  8
1
100
AcDbCircle
 10
17.54707093603399
 20
13.16363127277993
 30
0.0
 40
0.03125
  0
LINE
  5
506
330
1F
100
AcDbEntity
  8
1
 62
     7
100
AcDbLine
 10
17.48155896186657
 20
13.03306547474335
 30
0.0
 11
17.67763673407058
 21
13.22914324694736
 31
0.0
  0
LINE
  5
507
330
1F
100
AcDbEntity
  8
1
 62
     7
100
AcDbLine
 10
17.56916802294608
 20
13.18572835969202
 30
0.0
 11
17.645109822136
 21
13.26167015888194
 31
0.0
  0
LINE
  5
508
330
1F
100
AcDbEntity
  8
1
 62
     7
100
AcDbLine
 10
17.41650513799741
 20
13.09811929861252
 30
0.0
 11
17.61258291020142
 21
13.29419707081653
 31
0.0
  0
LINE
  5
509
330
1F
100
AcDbEntity
  8
1
 62
     7
100
AcDbLine
 10
17.38397822606283
 20
13.13064621054709
 30
0.0
 11
17.58005599826685
 21
13.3267239827511
 31
0.0
  0
LINE
  5
50A
330
1F
100
AcDbEntity
  8
1
 62
     7
100
AcDbLine
 10
17.35145131412824
 20
13.16317312248167
 30
0.0
 11
17.54752908633227
 21
13.35925089468569
 31
0.0
  0
ARC
  5
50B
330
1F
100
AcDbEntity
  8
1
 62
     2
100
AcDbCircle
 10
17.3747858379074
 20
13.22822694635083
 30
0.0
 40
0.0625
100
AcDbArc
 50
134.9999999999988
 51
225.0000000000006
  0
LINE
  5
50C
330
1F
100
AcDbEntity
  8
1
 62
     2
100
AcDbLine
 10
17.65586078342905
 20
12.94715200082918
 30
0.0
 11
17.76355020798475
 21
13.05484142538488
 31
0.0
  0
LINE
  5
50D
330
1F
100
AcDbEntity
  8
1
 62
     7
100
AcDbLine
 10
17.58070758852257
 20
12.93705262979187
 30
0.0
 11
17.77364957902206
 21
13.12999462029135
 31
0.0
  0
LINE
  5
50E
330
1F
100
AcDbEntity
  8
1
 62
     7
100
AcDbLine
 10
17.54661278573573
 20
12.96801165087419
 30
0.0
 11
17.74269055793974
 21
13.1640894230782
 31
0.0
  0
LINE
  5
50F
330
1F
100
AcDbEntity
  8
1
 62
     2
100
AcDbLine
 10
17.25861769168002
 20
12.56829368539102
 30
0.0
 11
17.49225820832465
 21
12.80193420203564
 31
0.0
  0
ARC
  5
510
330
1F
100
AcDbEntity
  8
1
 62
     2
100
AcDbCircle
 10
17.2805380018968
 20
12.54637337517424
 30
0.0
 40
0.031
100
AcDbArc
 50
134.9999999999993
 51
224.9999999999996
  0
ARC
  5
511
330
1F
100
AcDbEntity
  8
1
 62
     2
100
AcDbCircle
 10
17.47923500741023
 20
12.7005226534729
 30
0.0
 40
0.0625
100
AcDbArc
 50
134.9999999999993
 51
224.9999999999993
  0
ARC
  5
512
330
1F
100
AcDbEntity
  8
1
 62
     2
100
AcDbCircle
 10
17.70351490931079
 20
12.68580046333241
 30
0.0
 40
0.0625
100
AcDbArc
 50
134.9999999999988
 51
225.0000000000001
  0
ARC
  5
513
330
1F
100
AcDbEntity
  8
1
 62
     2
100
AcDbCircle
 10
18.01027220008132
 20
13.23155984614399
 30
0.0
 40
0.0625
100
AcDbArc
 50
45.0
 51
134.9999999999998
  0
LINE
  5
514
330
1F
100
AcDbEntity
  8
1
 62
     2
100
AcDbLine
 10
18.06918856404598
 20
13.05147411806758
 30
0.0
 11
18.24596525934262
 21
12.87469742277094
 31
0.0
  0
ARC
  5
515
330
1F
100
AcDbEntity
  8
1
 62
     2
100
AcDbCircle
 10
18.02499439022181
 20
13.00727994424342
 30
0.0
 40
0.0625
100
AcDbArc
 50
45.0
 51
134.9999999999991
  0
LINE
  5
516
330
1F
100
AcDbEntity
  8
1
 62
     2
100
AcDbLine
 10
18.39493828904681
 20
12.93528210482683
 30
0.0
 11
18.05446637390549
 21
13.27575401996815
 31
0.0
  0
LINE
  5
517
330
1F
100
AcDbEntity
  8
1
 62
     7
100
AcDbLine
 10
18.36665401779935
 20
12.58172871423355
 30
0.0
 11
18.32139918380341
 21
12.53647388023762
 31
0.0
  0
LINE
  5
518
330
1F
100
AcDbEntity
  8
1
100
AcDbLine
 10
18.37655351273597
 20
12.48131955130507
 30
0.0
 11
18.32139918380341
 21
12.53647388023762
 31
0.0
  0
LINE
  5
519
330
1F
100
AcDbEntity
  8
1
100
AcDbLine
 10
18.4218083467319
 20
12.52657438530101
 30
0.0
 11
18.36665401779935
 21
12.58172871423355
 31
0.0
  0
ARC
  5
51A
330
1F
100
AcDbEntity
  8
1
 62
     2
100
AcDbCircle
 10
18.20177108551845
 20
12.83050324894678
 30
0.0
 40
0.0625
100
AcDbArc
 50
314.9999999999991
 51
45.0
  0
LINE
  5
51B
330
1F
100
AcDbEntity
  8
1
100
AcDbLine
 10
18.09653922738608
 20
13.40621522109707
 30
0.0
 11
17.74298583679281
 21
13.75976861169034
 31
0.0
  0
LINE
  5
51C
330
1F
100
AcDbEntity
  8
1
100
AcDbLine
 10
18.08239709176235
 20
13.39207308547334
 30
0.0
 11
17.72884370116907
 21
13.74562647606661
 31
0.0
  0
LINE
  5
51D
330
1F
100
AcDbEntity
  8
1
100
AcDbLine
 10
18.06471942223269
 20
13.37439541594368
 30
0.0
 11
17.71116603163942
 21
13.72794880653695
 31
0.0
  0
LINE
  5
51E
330
1F
100
AcDbEntity
  8
1
100
AcDbLine
 10
18.14603670206914
 20
13.45571269578013
 30
0.0
 11
17.7930899131935
 21
13.80865948465577
 31
0.0
  0
LINE
  5
51F
330
1F
100
AcDbEntity
  8
1
100
AcDbLine
 10
18.13896563425727
 20
13.44864162796826
 30
0.0
 11
17.785412243664
 21
13.80219501856154
 31
0.0
  0
LINE
  5
520
330
1F
100
AcDbEntity
  8
1
100
AcDbLine
 10
18.13189456644541
 20
13.4415705601564
 30
0.0
 11
17.77834117585214
 21
13.79512395074968
 31
0.0
  0
LINE
  5
521
330
1F
100
AcDbEntity
  8
1
100
AcDbLine
 10
18.12128796472762
 20
13.4309639584386
 30
0.0
 11
17.76773457413434
 21
13.78451734903188
 31
0.0
  0
LINE
  5
522
330
1F
100
AcDbEntity
  8
1
100
AcDbLine
 10
18.15310776988101
 20
13.462783763592
 30
0.0
 11
17.81016098100553
 21
13.80573055246748
 31
0.0
  0
LINE
  5
523
330
1F
100
AcDbEntity
  8
1
100
AcDbLine
 10
18.11068136300981
 20
13.4203573567208
 30
0.0
 11
17.75712797241654
 21
13.77391074731408
 31
0.0
  0
ARC
  5
524
330
1F
100
AcDbEntity
  8
1
100
AcDbCircle
 10
17.79955437928774
 20
13.79512395074968
 30
0.0
 40
0.015
100
AcDbArc
 50
45.0
 51
134.9999999999997
  0
ARC
  5
525
330
1F
100
AcDbEntity
  8
1
 62
     2
100
AcDbCircle
 10
17.32729404881247
 20
13.62332655263904
 30
0.0
 40
0.125
100
AcDbArc
 50
45.0
 51
89.9999999999992
  0
ARC
  5
526
330
1F
100
AcDbEntity
  8
1
 62
     2
100
AcDbCircle
 10
17.4824752624631
 20
13.33591637090653
 30
0.0
 40
0.0625
100
AcDbArc
 50
45.0
 51
134.9999999999986
  0
ARC
  5
527
330
1F
100
AcDbEntity
  8
1
100
AcDbCircle
 10
17.60863554836737
 20
13.60420511982931
 30
0.0
 40
0.015
100
AcDbArc
 50
134.9999999999997
 51
225.0
  0
LINE
  5
528
330
1F
100
AcDbEntity
  8
1
100
AcDbLine
 10
17.59802894664957
 20
13.61481172154711
 30
0.0
 11
17.78894777756993
 21
13.80573055246748
 31
0.0
  0
ARC
  5
529
330
1F
100
AcDbEntity
  8
1
 62
     2
100
AcDbCircle
 10
18.16442147837999
 20
13.43025685165741
 30
0.0
 40
0.031
100
AcDbArc
 50
44.99999999999956
 51
134.9999999999998
  0
LINE
  5
52A
330
1F
100
AcDbEntity
  8
1
100
AcDbLine
 10
18.65939622521057
 20
13.09212473511887
 30
0.0
 11
18.65939622521057
 21
15.81729974696936
 31
0.0
  0
LINE
  5
52B
330
1F
100
AcDbEntity
  8
1
100
AcDbLine
 10
18.53812741223708
 20
12.8210843596652
 30
0.0
 11
18.58267513945184
 21
12.86563208687995
 31
0.0
  0
LINE
  5
52C
330
1F
100
AcDbEntity
  8
1
100
AcDbLine
 10
18.6526787107893
 20
12.8210843596652
 30
0.0
 11
18.57701828520235
 21
12.89674478525216
 31
0.0
  0
LINE
  5
52D
330
1F
100
AcDbEntity
  8
1
 62
     2
100
AcDbLine
 10
18.61061389837706
 20
12.60507127908105
 30
0.0
 11
18.44797933870415
 21
12.76770583875396
 31
0.0
  0
LINE
  5
52E
330
1F
100
AcDbEntity
  8
1
100
AcDbLine
 10
18.60813098357455
 20
12.75108078832773
 30
0.0
 11
18.6526787107893
 21
12.79562851554248
 31
0.0
  0
LINE
  5
52F
330
1F
100
AcDbEntity
  8
1
100
AcDbLine
 10
18.58267513945183
 20
12.75108078832773
 30
0.0
 11
18.60813098357455
 21
12.75108078832773
 31
0.0
  0
LINE
  5
530
330
1F
100
AcDbEntity
  8
1
100
AcDbLine
 10
18.57631117842115
 20
12.78290059348113
 30
0.0
 11
18.62085890563591
 21
12.82744832069588
 31
0.0
  0
LINE
  5
531
330
1F
100
AcDbEntity
  8
1
100
AcDbLine
 10
18.55721929532912
 20
12.80199247657316
 30
0.0
 11
18.60176702254387
 21
12.84654020378792
 31
0.0
  0
LINE
  5
532
330
1F
100
AcDbEntity
  8
1
100
AcDbLine
 10
18.58267513945183
 20
12.75108078832773
 30
0.0
 11
18.50701471386488
 21
12.82674121391469
 31
0.0
  0
LINE
  5
533
330
1F
100
AcDbEntity
  8
1
100
AcDbLine
 10
18.58267513945183
 20
12.75108078832773
 30
0.0
 11
18.6526787107893
 21
12.8210843596652
 31
0.0
  0
LINE
  5
534
330
1F
100
AcDbEntity
  8
1
100
AcDbLine
 10
18.6526787107893
 20
12.8210843596652
 30
0.0
 11
18.6526787107893
 21
12.79562851554248
 31
0.0
  0
SOLID
  5
536
330
1F
100
AcDbEntity
  8
1
100
AcDbTrace
 10
18.47939622521058
 20
15.72229974696936
 30
0.0
 11
18.47939622521058
 21
15.66229974696936
 31
0.0
 12
18.65939622521057
 22
15.69229974696936
 32
0.0
 13
18.65939622521057
 23
15.69229974696936
 33
0.0
  0
TEXT
  5
60A
330
1F
100
AcDbEntity
  8
1
100
AcDbText
 10
8.658129174692788
 20
6.499495431054976
 30
0.0
 40
0.0938
  1
22 AWG
  7
SIMPLEX
 72
     4
 11
8.926129174692789
 21
6.546395431054976
 31
0.0
100
AcDbText
  0
TEXT
  5
60B
330
1F
100
AcDbEntity
  8
1
100
AcDbText
 10
1.816114260708268
 20
6.499495431054976
 30
0.0
 40
0.0938
  1
22 AWG
  7
SIMPLEX
 72
     4
 11
2.084114260708268
 21
6.546395431054976
 31
0.0
100
AcDbText
  0
LINE
  5
60C
330
1F
100
AcDbEntity
  8
1
 62
     2
100
AcDbLine
 10
9.885514729679087
 20
2.023749039240797
 30
0.0
 11
9.88551472967908
 21
9.486858392901989
 31
0.0
  0
LINE
  5
60D
330
1F
100
AcDbEntity
  8
1
 62
     2
100
AcDbLine
 10
9.443409363979462
 20
9.486858392901989
 30
0.0
 11
9.443409363979448
 21
2.023749039240797
 31
0.0
  0
LINE
  5
60E
330
1F
100
AcDbEntity
  8
1
 62
     2
100
AcDbLine
 10
1.040128872319485
 20
9.484575677450376
 30
0.0
 11
1.040128872319485
 21
2.023749039240799
 31
0.0
  0
LINE
  5
60F
330
1F
100
AcDbEntity
  8
1
 62
     2
100
AcDbLine
 10
1.568903750389274
 20
2.023749039240799
 30
0.0
 11
1.568903750389274
 21
9.484575677450376
 31
0.0
  0
LWPOLYLINE
  5
610
330
1F
100
AcDbEntity
  8
1
  6
HIDDEN
100
AcDbPolyline
 90
       16
 70
     1
 43
0.0
 10
3.890207359549016
 20
9.588127129416147
 42
0.3789366401638117
 10
3.84410188839444
 20
9.547326314223024
 42
0.0178055196675726
 10
3.745294567374251
 20
8.405495172725832
 42
0.0074229734922827
 10
3.702843966376356
 20
7.222417509881391
 42
0.0043441356910063
 10
3.685269723494101
 20
5.19968316463492
 42
0.0073556569874181
 10
3.702843966376356
 20
4.005172159621634
 42
0.0074229734922834
 10
3.745294567374251
 20
2.822094496777145
 42
0.0178055196675723
 10
3.84410188839444
 20
1.680263355279967
 42
0.3789366401637266
 10
3.890207359549016
 20
1.639462540086844
 42
0.3789366401637266
 10
3.936312830703592
 20
1.680263355279967
 42
0.0178055196675723
 10
4.035120151723781
 20
2.822094496777145
 42
0.0074229734922822
 10
4.077570752721676
 20
4.00517215962162
 42
0.0073556569874171
 10
4.095144995603931
 20
5.19968316463492
 42
0.0043441356910063
 10
4.077570752721676
 20
7.222417509881419
 42
0.0074229734922824
 10
4.035120151723781
 20
8.405495172725832
 42
0.0178055196675735
 10
3.936312830703592
 20
9.547326314223024
 42
0.3789366401638242
  0
LWPOLYLINE
  5
611
330
1F
100
AcDbEntity
  8
1
  6
HIDDEN
100
AcDbPolyline
 90
       16
 70
     1
 43
0.0
 10
7.575932858608574
 20
9.588127129416147
 42
0.3789366401638117
 10
7.529827387453998
 20
9.547326314223024
 42
0.0178055196675726
 10
7.431020066433809
 20
8.405495172725832
 42
0.0074229734922827
 10
7.388569465435914
 20
7.222417509881391
 42
0.0043441356910063
 10
7.370995222553666
 20
5.19968316463492
 42
0.0073556569874181
 10
7.388569465435914
 20
4.005172159621634
 42
0.0074229734922834
 10
7.431020066433809
 20
2.822094496777145
 42
0.0178055196675723
 10
7.529827387453998
 20
1.680263355279967
 42
0.3789366401637266
 10
7.575932858608574
 20
1.639462540086844
 42
0.3789366401637266
 10
7.622038329763157
 20
1.680263355279967
 42
0.0178055196675723
 10
7.720845650783346
 20
2.822094496777145
 42
0.0074229734922822
 10
7.763296251781241
 20
4.00517215962162
 42
0.0073556569874171
 10
7.780870494663496
 20
5.19968316463492
 42
0.0043441356910063
 10
7.763296251781241
 20
7.222417509881419
 42
0.0074229734922824
 10
7.720845650783346
 20
8.405495172725832
 42
0.0178055196675735
 10
7.622038329763157
 20
9.547326314223024
 42
0.3789366401638242
  0
LINE
  5
612
330
1F
100
AcDbEntity
  8
1
100
AcDbLine
 10
3.490207359549005
 20
4.701074579803258
 30
0.0
 11
7.975932858608564
 21
4.701074579803243
 31
0.0
  0
LINE
  5
613
330
1F
100
AcDbEntity
  8
1
100
AcDbLine
 10
1.568903750389274
 20
5.008371442176936
 30
0.0
 11
9.443409363979448
 21
5.008371442176924
 31
0.0
  0
LINE
  5
614
330
1F
100
AcDbEntity
  8
1
100
AcDbLine
 10
1.568903750389274
 20
2.695006689767883
 30
0.0
 11
9.443409363979448
 21
2.695006689767859
 31
0.0
  0
LINE
  5
615
330
1F
100
AcDbEntity
  8
1
100
AcDbLine
 10
1.568903750389274
 20
3.002303552141569
 30
0.0
 11
9.443409363979448
 21
3.002303552141524
 31
0.0
  0
LINE
  5
616
330
1F
100
AcDbEntity
  8
1
100
AcDbLine
 10
1.568903750389281
 20
5.332389171914694
 30
0.0
 11
9.443409363979448
 21
5.332389171914672
 31
0.0
  0
LINE
  5
617
330
1F
100
AcDbEntity
  8
1
100
AcDbLine
 10
3.490207359549011
 20
4.053039289868782
 30
0.0
 11
7.975932858608569
 21
4.053039289868783
 31
0.0
  0
LINE
  5
618
330
1F
100
AcDbEntity
  8
1
100
AcDbLine
 10
1.568903750389274
 20
4.357615888618089
 30
0.0
 11
9.443409363979455
 21
4.357615888618089
 31
0.0
  0
LINE
  5
619
330
1F
100
AcDbEntity
  8
1
  6
HIDDEN
100
AcDbLine
 10
1.568903750389274
 20
2.3034953289332
 30
0.0
 11
9.443409363979462
 21
2.303495328933186
 31
0.0
  0
LINE
  5
61A
330
1F
100
AcDbEntity
  8
1
  6
HIDDEN
100
AcDbLine
 10
1.39586343808029
 20
1.639462540086844
 30
0.0
 11
9.599145645057554
 21
1.639462540086843
 31
0.0
  0
LINE
  5
61C
330
1F
100
AcDbEntity
  8
1
 62
     2
100
AcDbLine
 10
1.568903750389274
 20
2.023749039240799
 30
0.0
 11
1.040128872319485
 21
2.023749039240799
 31
0.0
  0
TEXT
  5
61D
330
1F
100
AcDbEntity
  8
1
100
AcDbText
 10
1.172956384229776
 20
2.271961443157144
 30
0.0
 40
0.0938
  1
GND
  7
SIMPLEX
 72
     4
 11
1.300256384229776
 21
2.318861443157144
 31
0.0
100
AcDbText
  0
LINE
  5
61F
330
1F
100
AcDbEntity
  8
1
  6
HIDDEN
100
AcDbLine
 10
1.39586343808029
 20
2.023749039240799
 30
0.0
 11
1.39586343808029
 21
1.639462540086844
 31
0.0
  0
LWPOLYLINE
  5
620
330
1F
100
AcDbEntity
  8
1
100
AcDbPolyline
 90
        2
 70
     1
 43
0.0205
 10
1.556153750389277
 20
2.3034953289332
 42
1.0
 10
1.581653750389278
 20
2.3034953289332
 42
1.0
  0
LINE
  5
626
330
1F
100
AcDbEntity
  8
1
100
AcDbLine
 10
1.568903750389274
 20
3.690285776286622
 30
0.0
 11
9.443409363979451
 21
3.690285776286578
 31
0.0
  0
LINE
  5
627
330
1F
100
AcDbEntity
  8
1
100
AcDbLine
 10
3.490207359549017
 20
3.382988913912923
 30
0.0
 11
7.975932858608574
 21
3.382988913912916
 31
0.0
  0
LINE
  5
628
330
1F
100
AcDbEntity
  8
1
100
AcDbLine
 10
1.568903750389274
 20
5.656406901652466
 30
0.0
 11
9.443409363979457
 21
5.65640690165244
 31
0.0
  0
TEXT
  5
629
330
1F
100
AcDbEntity
  8
1
100
AcDbText
 10
3.709747004891775
 20
1.039120276677104
 30
0.0
 40
0.105525
  1
CONNECTOR BACKSHELL SHIELDED 360%%D (BOTH ENDS)
  7
SIMPLEX
 72
     4
 11
5.880547004891774
 21
1.084345276677104
 31
0.0
100
AcDbText
  0
LWPOLYLINE
  5
62A
330
1F
100
AcDbEntity
  8
1
100
AcDbPolyline
 90
        8
 70
     0
 43
0.0
 10
6.925592691839575
 20
3.086787609997243
 42
0.1890967565172952
 10
6.910369861522077
 20
3.080816937501891
 42
0.1011022539154333
 10
6.892996102373281
 20
3.056568961241536
 42
0.0593679155220318
 10
6.883340230269034
 20
3.025530154678646
 42
0.0457828118957912
 10
6.879494152929233
 20
2.983614689578898
 42
0.0457828118957761
 10
6.883340230269034
 20
2.941699224479149
 42
0.0593679155220343
 10
6.892996102373281
 20
2.910660417916259
 42
0.0239592340273769
 10
6.896216390262729
 20
2.904290994918268
 42
0.1890967565172952
  0
LWPOLYLINE
  5
62B
330
1F
100
AcDbEntity
  8
1
100
AcDbPolyline
 90
        8
 70
     0
 43
0.0
 10
6.954968993416422
 20
2.904290994918268
 42
0.0239592340273769
 10
6.95818928130587
 20
2.910660417916259
 42
0.0593679155220198
 10
6.967845153410117
 20
2.941699224479135
 42
0.0457828118957962
 10
6.971691230749918
 20
2.983614689578898
 42
0.0457828118957892
 10
6.967845153410117
 20
3.025530154678646
 42
0.0593679155220232
 10
6.95818928130587
 20
3.056568961241536
 42
0.1011022539154426
 10
6.940815522157073
 20
3.080816937501891
 42
0.1890967565173229
 10
6.925592691839575
 20
3.086787609997243
 42
0.1890967565172952
  0
LWPOLYLINE
  5
62C
330
1F
100
AcDbEntity
  8
1
100
AcDbPolyline
 90
        8
 70
     0
 43
0.0
 10
4.563410906309847
 20
2.904290994918268
 42
0.0239592340273769
 10
4.566631194199295
 20
2.910660417916259
 42
0.0593679155220198
 10
4.576287066303542
 20
2.941699224479135
 42
0.0457828118957962
 10
4.580133143643344
 20
2.983614689578898
 42
0.0457828118957892
 10
4.576287066303542
 20
3.025530154678646
 42
0.0593679155220232
 10
4.566631194199295
 20
3.056568961241536
 42
0.1011022539154426
 10
4.549257435050499
 20
3.080816937501891
 42
0.1890967565173229
 10
4.534034604733001
 20
3.086787609997243
 42
0.1890967565172952
  0
LWPOLYLINE
  5
62D
330
1F
100
AcDbEntity
  8
1
100
AcDbPolyline
 90
        8
 70
     0
 43
0.0
 10
4.534034604733001
 20
3.086787609997243
 42
0.1890967565172952
 10
4.518811774415503
 20
3.080816937501891
 42
0.1011022539154333
 10
4.501438015266707
 20
3.056568961241536
 42
0.0593679155220318
 10
4.49178214316246
 20
3.025530154678646
 42
0.0457828118957912
 10
4.487936065822658
 20
2.983614689578898
 42
0.0457828118957761
 10
4.49178214316246
 20
2.941699224479149
 42
0.0593679155220343
 10
4.501438015266707
 20
2.910660417916259
 42
0.0239592340273769
 10
4.504658303156155
 20
2.904290994918268
 42
0.1890967565172952
  0
TEXT
  5
62E
330
1F
100
AcDbEntity
  8
1
100
AcDbText
 10
4.842237921247158
 20
2.752199705372984
 30
0.0
 40
0.0938
  1
WHITE/ORANGE 28 AWG
  7
SIMPLEX
 72
     4
 11
5.688671254580491
 21
2.792399705372984
 31
0.0
100
AcDbText
  0
LWPOLYLINE
  5
635
330
1F
100
AcDbEntity
  8
1
100
AcDbPolyline
 90
       15
 70
     0
 43
0.0
 10
4.504658303156155
 20
2.800722554015818
 42
0.0239592340273769
 10
4.501438015266707
 20
2.794353131017855
 42
0.0593679155220318
 10
4.49178214316246
 20
2.763314324454965
 42
0.0457828118957912
 10
4.487936065822658
 20
2.721398859355202
 42
0.0457828118957761
 10
4.49178214316246
 20
2.67948339425544
 42
0.0593679155220343
 10
4.501438015266707
 20
2.64844458769255
 42
0.1011022539154333
 10
4.518811774415503
 20
2.624196611432195
 42
0.1890967565172952
 10
4.534034604733001
 20
2.618225938936857
 42
0.189096756517312
 10
4.549257435050499
 20
2.624196611432195
 42
0.1011022539154296
 10
4.566631194199295
 20
2.64844458769255
 42
0.0593679155220198
 10
4.576287066303542
 20
2.679483394255425
 42
0.0457828118957962
 10
4.580133143643344
 20
2.721398859355202
 42
0.0457828118957892
 10
4.576287066303542
 20
2.763314324454965
 42
0.0593679155220232
 10
4.566631194199295
 20
2.794353131017855
 42
0.0239592340273797
 10
4.563410906309847
 20
2.800722554015818
 42
0.1890967565173229
  0
LINE
  5
636
330
1F
100
AcDbEntity
  8
1
100
AcDbLine
 10
4.563410906309847
 20
2.904290994918268
 30
0.0
 11
4.504658303156155
 21
2.800722554015818
 31
0.0
  0
LINE
  5
637
330
1F
100
AcDbEntity
  8
1
100
AcDbLine
 10
4.504658303156155
 20
2.904290994918268
 30
0.0
 11
4.563410906309847
 21
2.800722554015818
 31
0.0
  0
TEXT
  5
638
330
1F
100
AcDbEntity
  8
1
100
AcDbText
 10
5.496604587913824
 20
2.361918509263381
 30
0.0
 40
0.0938
  1
DRAIN
  7
SIMPLEX
 72
     4
 11
5.688671254580491
 21
2.408818509263381
 31
0.0
100
AcDbText
  0
LWPOLYLINE
  5
639
330
1F
100
AcDbEntity
  8
1
100
AcDbPolyline
 90
       15
 70
     0
 43
0.0
 10
6.896216390262729
 20
2.800722554015818
 42
0.0239592340273769
 10
6.892996102373281
 20
2.794353131017855
 42
0.0593679155220318
 10
6.883340230269034
 20
2.763314324454965
 42
0.0457828118957912
 10
6.879494152929233
 20
2.721398859355202
 42
0.0457828118957761
 10
6.883340230269034
 20
2.67948339425544
 42
0.0593679155220343
 10
6.892996102373281
 20
2.64844458769255
 42
0.1011022539154333
 10
6.910369861522077
 20
2.624196611432195
 42
0.1890967565172952
 10
6.925592691839575
 20
2.618225938936857
 42
0.189096756517312
 10
6.940815522157073
 20
2.624196611432195
 42
0.1011022539154296
 10
6.95818928130587
 20
2.64844458769255
 42
0.0593679155220198
 10
6.967845153410117
 20
2.679483394255425
 42
0.0457828118957962
 10
6.971691230749918
 20
2.721398859355202
 42
0.0457828118957892
 10
6.967845153410117
 20
2.763314324454965
 42
0.0593679155220232
 10
6.95818928130587
 20
2.794353131017855
 42
0.0239592340273797
 10
6.954968993416422
 20
2.800722554015818
 42
0.1890967565173229
  0
LINE
  5
63A
330
1F
100
AcDbEntity
  8
1
100
AcDbLine
 10
6.896216390262729
 20
2.904290994918268
 30
0.0
 11
6.954968993416422
 21
2.800722554015818
 31
0.0
  0
LINE
  5
63B
330
1F
100
AcDbEntity
  8
1
100
AcDbLine
 10
6.954968993416422
 20
2.904290994918268
 30
0.0
 11
6.896216390262729
 21
2.800722554015818
 31
0.0
  0
TEXT
  5
63C
330
1F
100
AcDbEntity
  8
1
100
AcDbText
 10
4.989637921247157
 20
4.758267595408364
 30
0.0
 40
0.0938
  1
WHITE/RED 28 AWG
  7
SIMPLEX
 72
     4
 11
5.688671254580491
 21
4.798467595408364
 31
0.0
100
AcDbText
  0
TEXT
  5
63D
330
1F
100
AcDbEntity
  8
1
100
AcDbText
 10
4.880204587913825
 20
3.440181929518037
 30
0.0
 40
0.0938
  1
WHITE/BROWN 28 AWG
  7
SIMPLEX
 72
     4
 11
5.688671254580491
 21
3.480381929518037
 31
0.0
100
AcDbText
  0
TEXT
  5
63E
330
1F
100
AcDbEntity
  8
1
100
AcDbText
 10
4.89807125458047
 20
4.110232305473902
 30
0.0
 40
0.0938
  1
WHITE/GREEN 28 AWG
  7
SIMPLEX
 72
     4
 11
5.688671254580469
 21
4.150432305473902
 31
0.0
100
AcDbText
  0
LWPOLYLINE
  5
63F
330
1F
100
AcDbEntity
  8
1
100
AcDbPolyline
 90
       15
 70
     0
 43
0.0
 10
4.504658303156155
 20
4.806790444051198
 42
0.0239592340273769
 10
4.501438015266707
 20
4.800421021053235
 42
0.0593679155220318
 10
4.49178214316246
 20
4.769382214490345
 42
0.0457828118957912
 10
4.487936065822658
 20
4.727466749390583
 42
0.0457828118957761
 10
4.49178214316246
 20
4.685551284290827
 42
0.0593679155220343
 10
4.501438015266707
 20
4.654512477727937
 42
0.1011022539154333
 10
4.518811774415503
 20
4.630264501467582
 42
0.1890967565172952
 10
4.534034604733001
 20
4.624293828972238
 42
0.189096756517312
 10
4.549257435050499
 20
4.630264501467582
 42
0.1011022539154296
 10
4.566631194199295
 20
4.654512477727937
 42
0.0593679155220198
 10
4.576287066303542
 20
4.685551284290813
 42
0.0457828118957962
 10
4.580133143643344
 20
4.727466749390583
 42
0.0457828118957892
 10
4.576287066303542
 20
4.769382214490345
 42
0.0593679155220232
 10
4.566631194199295
 20
4.800421021053235
 42
0.0239592340273797
 10
4.563410906309847
 20
4.806790444051198
 42
0.1890967565173229
  0
LINE
  5
640
330
1F
100
AcDbEntity
  8
1
100
AcDbLine
 10
4.504658303156155
 20
3.59227321906332
 30
0.0
 11
4.563410906309847
 21
3.488704778160871
 31
0.0
  0
LINE
  5
641
330
1F
100
AcDbEntity
  8
1
100
AcDbLine
 10
4.563410906309847
 20
3.59227321906332
 30
0.0
 11
4.504658303156155
 21
3.488704778160871
 31
0.0
  0
LWPOLYLINE
  5
642
330
1F
100
AcDbEntity
  8
1
100
AcDbPolyline
 90
        8
 70
     0
 43
0.0
 10
4.563410906309847
 20
3.59227321906332
 42
0.0239592340273769
 10
4.566631194199295
 20
3.598642642061312
 42
0.0593679155220198
 10
4.576287066303542
 20
3.629681448624188
 42
0.0457828118957962
 10
4.580133143643344
 20
3.67159691372395
 42
0.0457828118957892
 10
4.576287066303542
 20
3.713512378823699
 42
0.0593679155220232
 10
4.566631194199295
 20
3.744551185386589
 42
0.1011022539154426
 10
4.549257435050499
 20
3.768799161646944
 42
0.1890967565173229
 10
4.534034604733001
 20
3.774769834142295
 42
0.1890967565172952
  0
LWPOLYLINE
  5
643
330
1F
100
AcDbEntity
  8
1
100
AcDbPolyline
 90
        8
 70
     0
 43
0.0
 10
4.534034604733001
 20
3.774769834142295
 42
0.1890967565172952
 10
4.518811774415503
 20
3.768799161646944
 42
0.1011022539154333
 10
4.501438015266707
 20
3.744551185386589
 42
0.0593679155220318
 10
4.49178214316246
 20
3.713512378823699
 42
0.0457828118957912
 10
4.487936065822658
 20
3.67159691372395
 42
0.0457828118957761
 10
4.49178214316246
 20
3.629681448624202
 42
0.0593679155220343
 10
4.501438015266707
 20
3.598642642061312
 42
0.0239592340273769
 10
4.504658303156155
 20
3.59227321906332
 42
0.1890967565172952
  0
LWPOLYLINE
  5
644
330
1F
100
AcDbEntity
  8
1
100
AcDbPolyline
 90
       15
 70
     0
 43
0.0
 10
4.504658303156155
 20
3.488704778160871
 42
0.0239592340273769
 10
4.501438015266707
 20
3.482335355162907
 42
0.0593679155220318
 10
4.49178214316246
 20
3.451296548600017
 42
0.0457828118957912
 10
4.487936065822658
 20
3.409381083500255
 42
0.0457828118957761
 10
4.49178214316246
 20
3.367465618400492
 42
0.0593679155220343
 10
4.501438015266707
 20
3.336426811837602
 42
0.1011022539154333
 10
4.518811774415503
 20
3.312178835577247
 42
0.1890967565172952
 10
4.534034604733001
 20
3.30620816308191
 42
0.189096756517312
 10
4.549257435050499
 20
3.312178835577247
 42
0.1011022539154296
 10
4.566631194199295
 20
3.336426811837602
 42
0.0593679155220198
 10
4.576287066303542
 20
3.367465618400478
 42
0.0457828118957962
 10
4.580133143643344
 20
3.409381083500255
 42
0.0457828118957892
 10
4.576287066303542
 20
3.451296548600017
 42
0.0593679155220232
 10
4.566631194199295
 20
3.482335355162907
 42
0.0239592340273797
 10
4.563410906309847
 20
3.488704778160871
 42
0.1890967565173229
  0
LWPOLYLINE
  5
645
330
1F
100
AcDbEntity
  8
1
100
AcDbPolyline
 90
       15
 70
     0
 43
0.0
 10
4.504658303156134
 20
4.156034890492353
 42
0.0239592340273769
 10
4.501438015266685
 20
4.14966546749439
 42
0.0593679155220318
 10
4.491782143162438
 20
4.1186266609315
 42
0.0457828118957912
 10
4.487936065822637
 20
4.076711195831737
 42
0.0457828118957761
 10
4.491782143162438
 20
4.034795730731989
 42
0.0593679155220343
 10
4.501438015266685
 20
4.003756924169099
 42
0.1011022539154333
 10
4.518811774415482
 20
3.979508947908744
 42
0.1890967565172952
 10
4.53403460473298
 20
3.973538275413392
 42
0.189096756517312
 10
4.549257435050478
 20
3.979508947908744
 42
0.1011022539154296
 10
4.566631194199274
 20
4.003756924169099
 42
0.0593679155220198
 10
4.576287066303521
 20
4.034795730731975
 42
0.0457828118957962
 10
4.580133143643323
 20
4.076711195831737
 42
0.0457828118957892
 10
4.576287066303521
 20
4.1186266609315
 42
0.0593679155220232
 10
4.566631194199274
 20
4.14966546749439
 42
0.0239592340273797
 10
4.563410906309826
 20
4.156034890492353
 42
0.1890967565173229
  0
LINE
  5
646
330
1F
100
AcDbEntity
  8
1
100
AcDbLine
 10
4.563410906309826
 20
4.259603331394817
 30
0.0
 11
4.504658303156134
 21
4.156034890492353
 31
0.0
  0
LINE
  5
647
330
1F
100
AcDbEntity
  8
1
100
AcDbLine
 10
4.504658303156134
 20
4.259603331394817
 30
0.0
 11
4.563410906309826
 21
4.156034890492353
 31
0.0
  0
LWPOLYLINE
  5
648
330
1F
100
AcDbEntity
  8
1
100
AcDbPolyline
 90
        8
 70
     0
 43
0.0
 10
4.53403460473298
 20
4.442099946473778
 42
0.1890967565172952
 10
4.518811774415482
 20
4.436129273978441
 42
0.1011022539154333
 10
4.501438015266685
 20
4.411881297718071
 42
0.0593679155220318
 10
4.491782143162438
 20
4.380842491155181
 42
0.0457828118957912
 10
4.487936065822637
 20
4.338927026055433
 42
0.0457828118957761
 10
4.491782143162438
 20
4.297011560955684
 42
0.0593679155220343
 10
4.501438015266685
 20
4.265972754392794
 42
0.0239592340273769
 10
4.504658303156134
 20
4.259603331394817
 42
0.1890967565172952
  0
LWPOLYLINE
  5
649
330
1F
100
AcDbEntity
  8
1
100
AcDbPolyline
 90
        8
 70
     0
 43
0.0
 10
4.563410906309826
 20
4.259603331394817
 42
0.0239592340273769
 10
4.566631194199274
 20
4.265972754392794
 42
0.0593679155220198
 10
4.576287066303521
 20
4.29701156095567
 42
0.0457828118957962
 10
4.580133143643323
 20
4.338927026055433
 42
0.0457828118957892
 10
4.576287066303521
 20
4.380842491155181
 42
0.0593679155220232
 10
4.566631194199274
 20
4.411881297718071
 42
0.1011022539154426
 10
4.549257435050478
 20
4.436129273978441
 42
0.1890967565173229
 10
4.53403460473298
 20
4.442099946473778
 42
0.1890967565172952
  0
LWPOLYLINE
  5
64A
330
1F
100
AcDbEntity
  8
1
100
AcDbPolyline
 90
        8
 70
     0
 43
0.0
 10
4.581589643298947
 20
5.55839434442918
 42
0.0239592340273769
 10
4.584809931188395
 20
5.564763767427157
 42
0.0593679155220198
 10
4.594465803292642
 20
5.595802573990047
 42
0.0457828118957962
 10
4.598311880632444
 20
5.637718039089795
 42
0.0457828118957892
 10
4.594465803292642
 20
5.679633504189544
 42
0.0593679155220232
 10
4.584809931188395
 20
5.710672310752434
 42
0.1011022539154426
 10
4.567436172039599
 20
5.734920287012803
 42
0.1890967565173229
 10
4.552213341722101
 20
5.740890959508154
 42
0.1890967565172952
  0
LWPOLYLINE
  5
64B
330
1F
100
AcDbEntity
  8
1
100
AcDbPolyline
 90
        8
 70
     0
 43
0.0
 10
4.552213341722101
 20
5.740890959508154
 42
0.1890967565172952
 10
4.536990511404603
 20
5.734920287012803
 42
0.1011022539154333
 10
4.519616752255807
 20
5.710672310752434
 42
0.0593679155220318
 10
4.50996088015156
 20
5.679633504189544
 42
0.0457828118957912
 10
4.506114802811758
 20
5.637718039089795
 42
0.0457828118957761
 10
4.50996088015156
 20
5.595802573990047
 42
0.0593679155220343
 10
4.519616752255807
 20
5.564763767427157
 42
0.0239592340273769
 10
4.522837040145255
 20
5.55839434442918
 42
0.1890967565172952
  0
LWPOLYLINE
  5
64C
330
1F
100
AcDbEntity
  8
1
100
AcDbPolyline
 90
       15
 70
     0
 43
0.0
 10
4.522837040145255
 20
5.45482590352673
 42
0.0239592340273769
 10
4.519616752255807
 20
5.448456480528752
 42
0.0593679155220318
 10
4.50996088015156
 20
5.417417673965863
 42
0.0457828118957912
 10
4.506114802811758
 20
5.375502208866114
 42
0.0457828118957761
 10
4.50996088015156
 20
5.333586743766337
 42
0.0593679155220343
 10
4.519616752255807
 20
5.302547937203447
 42
0.1011022539154333
 10
4.536990511404603
 20
5.278299960943106
 42
0.1890967565172952
 10
4.552213341722101
 20
5.272329288447755
 42
0.189096756517312
 10
4.567436172039599
 20
5.278299960943106
 42
0.1011022539154296
 10
4.584809931188395
 20
5.302547937203447
 42
0.0593679155220198
 10
4.594465803292642
 20
5.333586743766337
 42
0.0457828118957962
 10
4.598311880632444
 20
5.375502208866114
 42
0.0457828118957892
 10
4.594465803292642
 20
5.417417673965863
 42
0.0593679155220232
 10
4.584809931188395
 20
5.448456480528752
 42
0.0239592340273797
 10
4.581589643298947
 20
5.45482590352673
 42
0.1890967565173229
  0
LINE
  5
64D
330
1F
100
AcDbEntity
  8
1
100
AcDbLine
 10
4.522837040145255
 20
5.55839434442918
 30
0.0
 11
4.581589643298947
 21
5.45482590352673
 31
0.0
  0
LINE
  5
64E
330
1F
100
AcDbEntity
  8
1
100
AcDbLine
 10
4.581589643298947
 20
5.55839434442918
 30
0.0
 11
4.522837040145255
 21
5.45482590352673
 31
0.0
  0
LWPOLYLINE
  5
64F
330
1F
100
AcDbEntity
  8
1
100
AcDbPolyline
 90
        8
 70
     0
 43
0.0
 10
4.534034604733001
 20
5.092855500032623
 42
0.1890967565172952
 10
4.518811774415503
 20
5.086884827537286
 42
0.1011022539154333
 10
4.501438015266707
 20
5.062636851276916
 42
0.0593679155220318
 10
4.49178214316246
 20
5.031598044714026
 42
0.0457828118957912
 10
4.487936065822658
 20
4.989682579614278
 42
0.0457828118957761
 10
4.49178214316246
 20
4.94776711451453
 42
0.0593679155220343
 10
4.501438015266707
 20
4.91672830795164
 42
0.0239592340273769
 10
4.504658303156155
 20
4.910358884953655
 42
0.1890967565172952
  0
LWPOLYLINE
  5
650
330
1F
100
AcDbEntity
  8
1
100
AcDbPolyline
 90
        8
 70
     0
 43
0.0
 10
4.563410906309847
 20
4.910358884953655
 42
0.0239592340273769
 10
4.566631194199295
 20
4.91672830795164
 42
0.0593679155220198
 10
4.576287066303542
 20
4.947767114514515
 42
0.0457828118957962
 10
4.580133143643344
 20
4.989682579614278
 42
0.0457828118957892
 10
4.576287066303542
 20
5.031598044714026
 42
0.0593679155220232
 10
4.566631194199295
 20
5.062636851276916
 42
0.1011022539154426
 10
4.549257435050499
 20
5.086884827537286
 42
0.1890967565173229
 10
4.534034604733001
 20
5.092855500032623
 42
0.1890967565172952
  0
LINE
  5
651
330
1F
100
AcDbEntity
  8
1
100
AcDbLine
 10
4.563410906309847
 20
4.910358884953655
 30
0.0
 11
4.504658303156155
 21
4.806790444051198
 31
0.0
  0
LINE
  5
652
330
1F
100
AcDbEntity
  8
1
100
AcDbLine
 10
4.504658303156155
 20
4.910358884953655
 30
0.0
 11
4.563410906309847
 21
4.806790444051198
 31
0.0
  0
LWPOLYLINE
  5
653
330
1F
100
AcDbEntity
  8
1
100
AcDbPolyline
 90
       15
 70
     0
 43
0.0
 10
6.896216390262729
 20
4.806790444051198
 42
0.0239592340273769
 10
6.892996102373281
 20
4.800421021053235
 42
0.0593679155220318
 10
6.883340230269034
 20
4.769382214490345
 42
0.0457828118957912
 10
6.879494152929233
 20
4.727466749390583
 42
0.0457828118957761
 10
6.883340230269034
 20
4.685551284290827
 42
0.0593679155220343
 10
6.892996102373281
 20
4.654512477727937
 42
0.1011022539154333
 10
6.910369861522077
 20
4.630264501467582
 42
0.1890967565172952
 10
6.925592691839575
 20
4.624293828972238
 42
0.189096756517312
 10
6.940815522157073
 20
4.630264501467582
 42
0.1011022539154296
 10
6.95818928130587
 20
4.654512477727937
 42
0.0593679155220198
 10
6.967845153410117
 20
4.685551284290813
 42
0.0457828118957962
 10
6.971691230749918
 20
4.727466749390583
 42
0.0457828118957892
 10
6.967845153410117
 20
4.769382214490345
 42
0.0593679155220232
 10
6.95818928130587
 20
4.800421021053235
 42
0.0239592340273797
 10
6.954968993416422
 20
4.806790444051198
 42
0.1890967565173229
  0
TEXT
  5
654
330
1F
100
AcDbEntity
  8
1
100
AcDbText
 10
5.065571254580469
 20
4.408108904223209
 30
0.0
 40
0.0938
  1
 GREEN 28 AWG
  7
SIMPLEX
 72
     4
 11
5.688671254580469
 21
4.455008904223209
 31
0.0
100
AcDbText
  0
TEXT
  5
655
330
1F
100
AcDbEntity
  8
1
100
AcDbText
 10
5.132571254580491
 20
3.740778791891712
 30
0.0
 40
0.0938
  1
BROWN 28 AWG
  7
SIMPLEX
 72
     4
 11
5.688671254580491
 21
3.787678791891712
 31
0.0
100
AcDbText
  0
TEXT
  5
656
330
1F
100
AcDbEntity
  8
1
100
AcDbText
 10
5.094604587913824
 20
3.05279656774666
 30
0.0
 40
0.0938
  1
ORANGE 28 AWG
  7
SIMPLEX
 72
     4
 11
5.688671254580491
 21
3.09969656774666
 31
0.0
100
AcDbText
  0
LWPOLYLINE
  5
657
330
1F
100
AcDbEntity
  8
1
100
AcDbPolyline
 90
        8
 70
     0
 43
0.0
 10
6.925592691839575
 20
3.774769834142295
 42
0.1890967565172952
 10
6.910369861522077
 20
3.768799161646944
 42
0.1011022539154333
 10
6.892996102373281
 20
3.744551185386589
 42
0.0593679155220318
 10
6.883340230269034
 20
3.713512378823699
 42
0.0457828118957912
 10
6.879494152929233
 20
3.67159691372395
 42
0.0457828118957761
 10
6.883340230269034
 20
3.629681448624202
 42
0.0593679155220343
 10
6.892996102373281
 20
3.598642642061312
 42
0.0239592340273769
 10
6.896216390262729
 20
3.59227321906332
 42
0.1890967565172952
  0
LINE
  5
658
330
1F
100
AcDbEntity
  8
1
100
AcDbLine
 10
6.954968993416422
 20
3.59227321906332
 30
0.0
 11
6.896216390262729
 21
3.488704778160871
 31
0.0
  0
LINE
  5
659
330
1F
100
AcDbEntity
  8
1
100
AcDbLine
 10
6.896216390262729
 20
3.59227321906332
 30
0.0
 11
6.954968993416422
 21
3.488704778160871
 31
0.0
  0
LWPOLYLINE
  5
65A
330
1F
100
AcDbEntity
  8
1
100
AcDbPolyline
 90
        8
 70
     0
 43
0.0
 10
6.954968993416422
 20
3.59227321906332
 42
0.0239592340273769
 10
6.95818928130587
 20
3.598642642061312
 42
0.0593679155220198
 10
6.967845153410117
 20
3.629681448624188
 42
0.0457828118957962
 10
6.971691230749918
 20
3.67159691372395
 42
0.0457828118957892
 10
6.967845153410117
 20
3.713512378823699
 42
0.0593679155220232
 10
6.95818928130587
 20
3.744551185386589
 42
0.1011022539154426
 10
6.940815522157073
 20
3.768799161646944
 42
0.1890967565173229
 10
6.925592691839575
 20
3.774769834142295
 42
0.1890967565172952
  0
LWPOLYLINE
  5
65B
330
1F
100
AcDbEntity
  8
1
100
AcDbPolyline
 90
       15
 70
     0
 43
0.0
 10
6.896216390262729
 20
3.488704778160871
 42
0.0239592340273769
 10
6.892996102373281
 20
3.482335355162907
 42
0.0593679155220318
 10
6.883340230269034
 20
3.451296548600017
 42
0.0457828118957912
 10
6.879494152929233
 20
3.409381083500255
 42
0.0457828118957761
 10
6.883340230269034
 20
3.367465618400492
 42
0.0593679155220343
 10
6.892996102373281
 20
3.336426811837602
 42
0.1011022539154333
 10
6.910369861522077
 20
3.312178835577247
 42
0.1890967565172952
 10
6.925592691839575
 20
3.30620816308191
 42
0.189096756517312
 10
6.940815522157073
 20
3.312178835577247
 42
0.1011022539154296
 10
6.95818928130587
 20
3.336426811837602
 42
0.0593679155220198
 10
6.967845153410117
 20
3.367465618400478
 42
0.0457828118957962
 10
6.971691230749918
 20
3.409381083500255
 42
0.0457828118957892
 10
6.967845153410117
 20
3.451296548600017
 42
0.0593679155220232
 10
6.95818928130587
 20
3.482335355162907
 42
0.0239592340273797
 10
6.954968993416422
 20
3.488704778160871
 42
0.1890967565173229
  0
LWPOLYLINE
  5
65C
330
1F
100
AcDbEntity
  8
1
100
AcDbPolyline
 90
       15
 70
     0
 43
0.0
 10
6.896216390262708
 20
4.156034890492353
 42
0.0239592340273769
 10
6.89299610237326
 20
4.14966546749439
 42
0.0593679155220318
 10
6.883340230269013
 20
4.1186266609315
 42
0.0457828118957912
 10
6.879494152929211
 20
4.076711195831737
 42
0.0457828118957761
 10
6.883340230269013
 20
4.034795730731989
 42
0.0593679155220343
 10
6.89299610237326
 20
4.003756924169099
 42
0.1011022539154333
 10
6.910369861522056
 20
3.979508947908744
 42
0.1890967565172952
 10
6.925592691839554
 20
3.973538275413392
 42
0.189096756517312
 10
6.940815522157052
 20
3.979508947908744
 42
0.1011022539154296
 10
6.958189281305848
 20
4.003756924169099
 42
0.0593679155220198
 10
6.967845153410095
 20
4.034795730731975
 42
0.0457828118957962
 10
6.971691230749897
 20
4.076711195831737
 42
0.0457828118957892
 10
6.967845153410095
 20
4.1186266609315
 42
0.0593679155220232
 10
6.958189281305848
 20
4.14966546749439
 42
0.0239592340273797
 10
6.9549689934164
 20
4.156034890492353
 42
0.1890967565173229
  0
LINE
  5
65D
330
1F
100
AcDbEntity
  8
1
100
AcDbLine
 10
6.896216390262708
 20
4.259603331394817
 30
0.0
 11
6.9549689934164
 21
4.156034890492353
 31
0.0
  0
LINE
  5
65E
330
1F
100
AcDbEntity
  8
1
100
AcDbLine
 10
6.9549689934164
 20
4.259603331394817
 30
0.0
 11
6.896216390262708
 21
4.156034890492353
 31
0.0
  0
LWPOLYLINE
  5
65F
330
1F
100
AcDbEntity
  8
1
100
AcDbPolyline
 90
        8
 70
     0
 43
0.0
 10
6.925592691839554
 20
4.442099946473778
 42
0.1890967565172952
 10
6.910369861522056
 20
4.436129273978441
 42
0.1011022539154333
 10
6.89299610237326
 20
4.411881297718071
 42
0.0593679155220318
 10
6.883340230269013
 20
4.380842491155181
 42
0.0457828118957912
 10
6.879494152929211
 20
4.338927026055433
 42
0.0457828118957761
 10
6.883340230269013
 20
4.297011560955684
 42
0.0593679155220343
 10
6.89299610237326
 20
4.265972754392794
 42
0.0239592340273769
 10
6.896216390262708
 20
4.259603331394817
 42
0.1890967565172952
  0
LWPOLYLINE
  5
660
330
1F
100
AcDbEntity
  8
1
100
AcDbPolyline
 90
        8
 70
     0
 43
0.0
 10
6.9549689934164
 20
4.259603331394817
 42
0.0239592340273769
 10
6.958189281305848
 20
4.265972754392794
 42
0.0593679155220198
 10
6.967845153410095
 20
4.29701156095567
 42
0.0457828118957962
 10
6.971691230749897
 20
4.338927026055433
 42
0.0457828118957892
 10
6.967845153410095
 20
4.380842491155181
 42
0.0593679155220232
 10
6.958189281305848
 20
4.411881297718071
 42
0.1011022539154426
 10
6.940815522157052
 20
4.436129273978441
 42
0.1890967565173229
 10
6.925592691839554
 20
4.442099946473778
 42
0.1890967565172952
  0
TEXT
  5
661
330
1F
100
AcDbEntity
  8
1
100
AcDbText
 10
5.242004587913824
 20
5.05886445778204
 30
0.0
 40
0.0938
  1
RED 28 AWG
  7
SIMPLEX
 72
     4
 11
5.688671254580491
 21
5.10576445778204
 31
0.0
100
AcDbText
  0
TEXT
  5
662
330
1F
100
AcDbEntity
  8
1
100
AcDbText
 10
4.971267949448571
 20
5.389582187519796
 30
0.0
 40
0.0938
  1
WHITE/VIOLET 28 AWG
  7
SIMPLEX
 72
     4
 11
5.766334616115237
 21
5.429782187519796
 31
0.0
100
AcDbText
  0
TEXT
  5
663
330
1F
100
AcDbEntity
  8
1
100
AcDbText
 10
5.223634616115237
 20
5.706899917257557
 30
0.0
 40
0.0938
  1
VIOLET 28 AWG
  7
SIMPLEX
 72
     4
 11
5.766334616115237
 21
5.753799917257557
 31
0.0
100
AcDbText
  0
LWPOLYLINE
  5
664
330
1F
100
AcDbEntity
  8
1
100
AcDbPolyline
 90
        8
 70
     0
 43
0.0
 10
7.007014500653831
 20
5.55839434442918
 42
0.0239592340273769
 10
7.010234788543279
 20
5.564763767427157
 42
0.0593679155220198
 10
7.019890660647526
 20
5.595802573990047
 42
0.0457828118957962
 10
7.023736737987313
 20
5.637718039089795
 42
0.0457828118957892
 10
7.019890660647526
 20
5.679633504189544
 42
0.0593679155220232
 10
7.010234788543279
 20
5.710672310752434
 42
0.1011022539154426
 10
6.992861029394482
 20
5.734920287012803
 42
0.1890967565173229
 10
6.977638199076984
 20
5.740890959508154
 42
0.1890967565172952
  0
LWPOLYLINE
  5
665
330
1F
100
AcDbEntity
  8
1
100
AcDbPolyline
 90
        8
 70
     0
 43
0.0
 10
6.977638199076984
 20
5.740890959508154
 42
0.1890967565172952
 10
6.962415368759486
 20
5.734920287012803
 42
0.1011022539154333
 10
6.94504160961069
 20
5.710672310752434
 42
0.0593679155220318
 10
6.935385737506429
 20
5.679633504189544
 42
0.0457828118957912
 10
6.931539660166642
 20
5.637718039089795
 42
0.0457828118957761
 10
6.935385737506429
 20
5.595802573990047
 42
0.0593679155220343
 10
6.94504160961069
 20
5.564763767427157
 42
0.0239592340273769
 10
6.948261897500138
 20
5.55839434442918
 42
0.1890967565172952
  0
LINE
  5
666
330
1F
100
AcDbEntity
  8
1
100
AcDbLine
 10
6.948261897500138
 20
5.55839434442918
 30
0.0
 11
7.007014500653831
 21
5.45482590352673
 31
0.0
  0
LINE
  5
667
330
1F
100
AcDbEntity
  8
1
100
AcDbLine
 10
7.007014500653831
 20
5.55839434442918
 30
0.0
 11
6.948261897500138
 21
5.45482590352673
 31
0.0
  0
LWPOLYLINE
  5
668
330
1F
100
AcDbEntity
  8
1
100
AcDbPolyline
 90
       15
 70
     0
 43
0.0
 10
6.948261897500138
 20
5.45482590352673
 42
0.0239592340273769
 10
6.94504160961069
 20
5.448456480528752
 42
0.0593679155220318
 10
6.935385737506429
 20
5.417417673965863
 42
0.0457828118957912
 10
6.931539660166642
 20
5.375502208866114
 42
0.0457828118957761
 10
6.935385737506429
 20
5.333586743766337
 42
0.0593679155220343
 10
6.94504160961069
 20
5.302547937203447
 42
0.1011022539154333
 10
6.962415368759486
 20
5.278299960943106
 42
0.1890967565172952
 10
6.977638199076984
 20
5.272329288447755
 42
0.189096756517312
 10
6.992861029394482
 20
5.278299960943106
 42
0.1011022539154296
 10
7.010234788543279
 20
5.302547937203447
 42
0.0593679155220198
 10
7.019890660647526
 20
5.333586743766337
 42
0.0457828118957962
 10
7.023736737987313
 20
5.375502208866114
 42
0.0457828118957892
 10
7.019890660647526
 20
5.417417673965863
 42
0.0593679155220232
 10
7.010234788543279
 20
5.448456480528752
 42
0.0239592340273797
 10
7.007014500653831
 20
5.45482590352673
 42
0.1890967565173229
  0
LWPOLYLINE
  5
669
330
1F
100
AcDbEntity
  8
1
100
AcDbPolyline
 90
        8
 70
     0
 43
0.0
 10
6.925592691839575
 20
5.092855500032623
 42
0.1890967565172952
 10
6.910369861522077
 20
5.086884827537286
 42
0.1011022539154333
 10
6.892996102373281
 20
5.062636851276916
 42
0.0593679155220318
 10
6.883340230269034
 20
5.031598044714026
 42
0.0457828118957912
 10
6.879494152929233
 20
4.989682579614278
 42
0.0457828118957761
 10
6.883340230269034
 20
4.94776711451453
 42
0.0593679155220343
 10
6.892996102373281
 20
4.91672830795164
 42
0.0239592340273769
 10
6.896216390262729
 20
4.910358884953655
 42
0.1890967565172952
  0
LWPOLYLINE
  5
66A
330
1F
100
AcDbEntity
  8
1
100
AcDbPolyline
 90
        8
 70
     0
 43
0.0
 10
6.954968993416422
 20
4.910358884953655
 42
0.0239592340273769
 10
6.95818928130587
 20
4.91672830795164
 42
0.0593679155220198
 10
6.967845153410117
 20
4.947767114514515
 42
0.0457828118957962
 10
6.971691230749918
 20
4.989682579614278
 42
0.0457828118957892
 10
6.967845153410117
 20
5.031598044714026
 42
0.0593679155220232
 10
6.95818928130587
 20
5.062636851276916
 42
0.1011022539154426
 10
6.940815522157073
 20
5.086884827537286
 42
0.1890967565173229
 10
6.925592691839575
 20
5.092855500032623
 42
0.1890967565172952
  0
LINE
  5
66B
330
1F
100
AcDbEntity
  8
1
100
AcDbLine
 10
6.896216390262729
 20
4.910358884953655
 30
0.0
 11
6.954968993416422
 21
4.806790444051198
 31
0.0
  0
LINE
  5
66C
330
1F
100
AcDbEntity
  8
1
100
AcDbLine
 10
6.954968993416422
 20
4.910358884953655
 30
0.0
 11
6.896216390262729
 21
4.806790444051198
 31
0.0
  0
TEXT
  5
66D
330
1F
100
AcDbEntity
  8
1
100
AcDbText
 10
9.574799236788049
 20
5.265089737467119
 30
0.0
 40
0.1125
  1
13
  7
SIMPLEX
 72
     4
 11
9.655156379645191
 21
5.321339737467119
 31
0.0
100
AcDbText
  0
TEXT
  5
66E
330
1F
100
AcDbEntity
  8
1
100
AcDbText
 10
9.537591362162791
 20
2.269328230447693
 30
0.0
 40
0.0938
  1
GND
  7
SIMPLEX
 72
     4
 11
9.664891362162791
 21
2.316228230447693
 31
0.0
100
AcDbText
  0
LINE
  5
66F
330
1F
100
AcDbEntity
  8
1
 62
     2
100
AcDbLine
 10
9.443409363979462
 20
2.023749039240799
 30
0.0
 11
9.885514729679087
 21
2.023749039240799
 31
0.0
  0
LINE
  5
670
330
1F
100
AcDbEntity
  8
1
  6
HIDDEN
100
AcDbLine
 10
9.599145645057561
 20
2.023749039240799
 30
0.0
 11
9.599145645057554
 21
1.639462540086843
 31
0.0
  0
TEXT
  5
671
330
1F
100
AcDbEntity
  8
1
100
AcDbText
 10
9.617656379645191
 20
4.957792875093454
 30
0.0
 40
0.1125
  1
8
  7
SIMPLEX
 72
     4
 11
9.655156379645191
 21
5.014042875093454
 31
0.0
100
AcDbText
  0
LWPOLYLINE
  5
672
330
1F
100
AcDbEntity
  8
1
100
AcDbPolyline
 90
        2
 70
     1
 43
0.01845
 10
9.431934363979465
 20
2.303495328933189
 42
1.0
 10
9.454884363979459
 20
2.303495328933189
 42
1.0
  0
TEXT
  5
673
330
1F
100
AcDbEntity
  8
1
100
AcDbText
 10
9.574799236788058
 20
5.589107467204886
 30
0.0
 40
0.1125
  1
12
  7
SIMPLEX
 72
     4
 11
9.6551563796452
 21
5.645357467204886
 31
0.0
100
AcDbText
  0
TEXT
  5
674
330
1F
100
AcDbEntity
  8
1
100
AcDbText
 10
9.574799236788049
 20
2.627707255320285
 30
0.0
 40
0.1125
  1
15
  7
SIMPLEX
 72
     4
 11
9.655156379645191
 21
2.683957255320285
 31
0.0
100
AcDbText
  0
TEXT
  5
675
330
1F
100
AcDbEntity
  8
1
100
AcDbText
 10
9.598906379645205
 20
4.322574637510955
 30
0.0
 40
0.1125
  1
11
  7
SIMPLEX
 72
     4
 11
9.655156379645205
 21
4.378824637510955
 31
0.0
100
AcDbText
  0
TEXT
  5
676
330
1F
100
AcDbEntity
  8
1
100
AcDbText
 10
9.617656379645206
 20
3.642281164236059
 30
0.0
 40
0.1125
  1
7
  7
SIMPLEX
 72
     4
 11
9.655156379645205
 21
3.698531164236058
 31
0.0
100
AcDbText
  0
TEXT
  5
677
330
1F
100
AcDbEntity
  8
1
100
AcDbText
 10
9.620334951073763
 20
2.935004117693971
 30
0.0
 40
0.1125
  1
9
  7
SIMPLEX
 72
     4
 11
9.655156379645191
 21
2.991254117693971
 31
0.0
100
AcDbText
  0
LINE
  5
678
330
1F
100
AcDbEntity
  8
1
  6
HIDDEN
100
AcDbLine
 10
3.890207359549016
 20
10.0041314659282
 30
0.0
 11
1.39586343808029
 21
10.0041314659282
 31
0.0
  0
LINE
  5
679
330
1F
100
AcDbEntity
  8
1
100
AcDbLine
 10
2.601394449994934
 20
7.300254166768787
 30
0.0
 11
1.568903750389274
 21
7.300254166768787
 31
0.0
  0
LINE
  5
67A
330
1F
100
AcDbEntity
  8
1
100
AcDbLine
 10
2.601394449994934
 20
6.662355298308468
 30
0.0
 11
1.568903750389274
 21
6.662355298308468
 31
0.0
  0
LINE
  5
67B
330
1F
100
AcDbEntity
  8
1
100
AcDbLine
 10
1.568903750389274
 20
7.974703567086304
 30
0.0
 11
9.443409363979462
 21
7.974703567086289
 31
0.0
  0
LINE
  5
67C
330
1F
100
AcDbEntity
  8
1
100
AcDbLine
 10
1.568903750389274
 20
7.657166291590892
 30
0.0
 11
9.443409363979462
 21
7.657166291590864
 31
0.0
  0
LINE
  5
67D
330
1F
100
AcDbEntity
  8
1
100
AcDbLine
 10
1.568903750389274
 20
8.951060278274265
 30
0.0
 11
9.443409363979462
 21
8.951060278274265
 31
0.0
  0
LINE
  5
67E
330
1F
100
AcDbEntity
  8
1
100
AcDbLine
 10
1.568903750389274
 20
9.275077892142743
 30
0.0
 11
9.443409363979462
 21
9.275077892142714
 31
0.0
  0
LINE
  5
67F
330
1F
100
AcDbEntity
  8
1
100
AcDbLine
 10
1.568903750389274
 20
8.631625106875926
 30
0.0
 11
9.443409363979462
 21
8.631625106875926
 31
0.0
  0
LINE
  5
680
330
1F
100
AcDbEntity
  8
1
100
AcDbLine
 10
1.568903750389274
 20
8.307607493007449
 30
0.0
 11
9.443409363979462
 21
8.307607493007449
 31
0.0
  0
TEXT
  5
681
330
1F
100
AcDbEntity
  8
1
100
AcDbText
 10
1.255032072741732
 20
8.255681215598739
 30
0.0
 40
0.1125
  1
4
  7
SIMPLEX
 72
     4
 11
1.295210644170303
 21
8.31193121559874
 31
0.0
100
AcDbText
  0
TEXT
  5
682
330
1F
100
AcDbEntity
  8
1
100
AcDbText
 10
1.21485350131316
 20
7.593505729664269
 30
0.0
 40
0.1125
  1
10
  7
SIMPLEX
 72
     4
 11
1.295210644170303
 21
7.64975572966427
 31
0.0
100
AcDbText
  0
TEXT
  5
683
330
1F
100
AcDbEntity
  8
1
100
AcDbText
 10
1.212174929884589
 20
7.22710928431153
 30
0.0
 40
0.1125
  1
14
  7
SIMPLEX
 72
     4
 11
1.295210644170303
 21
7.28335928431153
 31
0.0
100
AcDbText
  0
TEXT
  5
684
330
1F
100
AcDbEntity
  8
1
100
AcDbText
 10
1.260389215598875
 20
6.592773148409302
 30
0.0
 40
0.1125
  1
6
  7
SIMPLEX
 72
     4
 11
1.295210644170303
 21
6.649023148409303
 31
0.0
100
AcDbText
  0
TEXT
  5
685
330
1F
100
AcDbEntity
  8
1
100
AcDbText
 10
1.257710644170303
 20
7.91485860104757
 30
0.0
 40
0.1125
  1
5
  7
SIMPLEX
 72
     4
 11
1.295210644170303
 21
7.97110860104757
 31
0.0
100
AcDbText
  0
TEXT
  5
686
330
1F
100
AcDbEntity
  8
1
100
AcDbText
 10
1.816114260708261
 20
7.137394299515294
 30
0.0
 40
0.0938
  1
22 AWG
  7
SIMPLEX
 72
     4
 11
2.084114260708261
 21
7.184294299515294
 31
0.0
100
AcDbText
  0
TEXT
  5
687
330
1F
100
AcDbEntity
  8
1
100
AcDbText
 10
1.905447594041594
 20
7.336350075387139
 30
0.0
 40
0.0938
  1
GRAY
  7
SIMPLEX
 72
     4
 11
2.084114260708261
 21
7.383250075387139
 31
0.0
100
AcDbText
  0
TEXT
  5
688
330
1F
100
AcDbEntity
  8
1
100
AcDbText
 10
1.653080927374935
 20
6.705151206926821
 30
0.0
 40
0.0938
  1
WHITE/GRAY
  7
SIMPLEX
 72
     4
 11
2.084114260708268
 21
6.74535120692682
 31
0.0
100
AcDbText
  0
LINE
  5
689
330
1F
100
AcDbEntity
  8
1
 62
     2
100
AcDbLine
 10
1.568903750389274
 20
9.484575677450376
 30
0.0
 11
1.040128872319485
 21
9.484575677450383
 31
0.0
  0
TEXT
  5
68A
330
1F
100
AcDbEntity
  8
1
100
AcDbText
 10
1.281817787027446
 20
9.215904617557418
 30
0.0
 40
0.1125
  1
1
  7
SIMPLEX
 72
     4
 11
1.295210644170303
 21
9.272154617557418
 31
0.0
100
AcDbText
  0
TEXT
  5
68B
330
1F
100
AcDbEntity
  8
1
100
AcDbText
 10
1.257710644170303
 20
8.890159967300183
 30
0.0
 40
0.1125
  1
2
  7
SIMPLEX
 72
     4
 11
1.295210644170303
 21
8.946409967300184
 31
0.0
100
AcDbText
  0
TEXT
  5
68C
330
1F
100
AcDbEntity
  8
1
100
AcDbText
 10
1.257710644170303
 20
8.568836422093367
 30
0.0
 40
0.1125
  1
3
  7
SIMPLEX
 72
     4
 11
1.295210644170303
 21
8.625086422093367
 31
0.0
100
AcDbText
  0
TEXT
  5
68D
330
1F
100
AcDbEntity
  8
1
 62
     2
100
AcDbText
 10
0.9843059471500248
 20
9.610901338004772
 30
0.0
 40
0.156
  1
P1
  7
ROMANS
 72
     1
 11
1.11802023286431
 21
9.688901338004772
 31
0.0
100
AcDbText
 73
     2
  0
LINE
  5
68E
330
1F
100
AcDbEntity
  8
1
  6
HIDDEN
100
AcDbLine
 10
1.39586343808029
 20
9.484575677450376
 30
0.0
 11
1.39586343808029
 21
10.0041314659282
 31
0.0
  0
LINE
  5
68F
330
1F
100
AcDbEntity
  8
1
  6
HIDDEN
100
AcDbLine
 10
3.890207359549016
 20
9.588127129416147
 30
0.0
 11
7.575932858608574
 21
9.588127129416147
 31
0.0
  0
LINE
  5
690
330
1F
100
AcDbEntity
  8
1
 62
     2
100
AcDbLine
 10
2.601394449994934
 20
7.300254166768787
 30
0.0
 11
8.410918664373802
 21
7.300254166768787
 31
0.0
  0
LINE
  5
691
330
1F
100
AcDbEntity
  8
1
 62
     2
100
AcDbLine
 10
2.601394449994934
 20
6.662355298308468
 30
0.0
 11
8.410918664373802
 21
6.662355298308468
 31
0.0
  0
TEXT
  5
692
330
1F
100
AcDbEntity
  8
1
100
AcDbText
 10
4.860104587913824
 20
9.008253293879386
 30
0.0
 40
0.0938
  1
WHITE/YELLOW 28 AWG
  7
SIMPLEX
 72
     4
 11
5.688671254580491
 21
9.048453293879386
 31
0.0
100
AcDbText
  0
TEXT
  5
693
330
1F
100
AcDbEntity
  8
1
100
AcDbText
 10
4.898071254580491
 20
7.714359307195985
 30
0.0
 40
0.0938
  1
WHITE/BLACK 28 AWG
  7
SIMPLEX
 72
     4
 11
5.688671254580491
 21
7.754559307195985
 31
0.0
100
AcDbText
  0
LWPOLYLINE
  5
694
330
1F
100
AcDbEntity
  8
1
100
AcDbPolyline
 90
       15
 70
     0
 43
0.0
 10
4.504658303156155
 20
8.430044108750191
 42
0.0239592340273769
 10
4.501438015266707
 20
8.423674685752242
 42
0.0593679155220318
 10
4.49178214316246
 20
8.392635879189352
 42
0.0457828118957912
 10
4.487936065822658
 20
8.350720414089575
 42
0.0457828118957761
 10
4.49178214316246
 20
8.308804948989827
 42
0.0593679155220343
 10
4.501438015266707
 20
8.277766142426937
 42
0.1011022539154333
 10
4.518811774415503
 20
8.253518166166568
 42
0.1890967565172952
 10
4.534034604733001
 20
8.247547493671245
 42
0.189096756517312
 10
4.549257435050499
 20
8.253518166166568
 42
0.1011022539154296
 10
4.566631194199295
 20
8.277766142426937
 42
0.0593679155220198
 10
4.576287066303542
 20
8.308804948989799
 42
0.0457828118957962
 10
4.580133143643344
 20
8.350720414089575
 42
0.0457828118957892
 10
4.576287066303542
 20
8.392635879189352
 42
0.0593679155220232
 10
4.566631194199295
 20
8.423674685752242
 42
0.0239592340273797
 10
4.563410906309847
 20
8.430044108750191
 42
0.1890967565173229
  0
LWPOLYLINE
  5
695
330
1F
100
AcDbEntity
  8
1
100
AcDbPolyline
 90
        2
 70
     1
 43
0.0205
 10
2.588644449994937
 20
7.300254166768787
 42
1.0
 10
2.614144449994931
 20
7.300254166768787
 42
1.0
  0
LWPOLYLINE
  5
696
330
1F
100
AcDbEntity
  8
1
100
AcDbPolyline
 90
        2
 70
     1
 43
0.0205
 10
2.588644449994937
 20
6.662355298308468
 42
1.0
 10
2.614144449994931
 20
6.662355298308468
 42
1.0
  0
LWPOLYLINE
  5
697
330
1F
100
AcDbEntity
  8
1
100
AcDbPolyline
 90
        8
 70
     0
 43
0.0
 10
4.59031517884911
 20
7.076606892059783
 42
0.0239592340273769
 10
4.59595068265564
 20
7.087753382306272
 42
0.0593679155220198
 10
4.612848458838087
 20
7.142071293791286
 42
0.0457828118957962
 10
4.619579094182725
 20
7.215423357715889
 42
0.0457828118957892
 10
4.612848458838087
 20
7.288775421640434
 42
0.0593679155220232
 10
4.59595068265564
 20
7.343093333125506
 42
0.1011022539154426
 10
4.565546604145254
 20
7.385527291581138
 42
0.1890967565173229
 10
4.538906651089632
 20
7.395975968447982
 42
0.1890967565172952
  0
LWPOLYLINE
  5
698
330
1F
100
AcDbEntity
  8
1
100
AcDbPolyline
 90
        8
 70
     0
 43
0.0
 10
4.538906651089632
 20
7.395975968447982
 42
0.1890967565172952
 10
4.512266698034011
 20
7.385527291581138
 42
0.1011022539154333
 10
4.481862619523624
 20
7.343093333125506
 42
0.0593679155220318
 10
4.464964843341178
 20
7.288775421640434
 42
0.0457828118957912
 10
4.45823420799654
 20
7.215423357715889
 42
0.0457828118957761
 10
4.464964843341178
 20
7.142071293791315
 42
0.0593679155220343
 10
4.481862619523624
 20
7.087753382306272
 42
0.0239592340273769
 10
4.487498123330155
 20
7.076606892059783
 42
0.1890967565172952
  0
LWPOLYLINE
  5
699
330
1F
100
AcDbEntity
  8
1
100
AcDbPolyline
 90
       15
 70
     0
 43
0.0
 10
4.487498123330155
 20
6.895362120480496
 42
0.0239592340273769
 10
4.481862619523624
 20
6.884215630234064
 42
0.0593679155220318
 10
4.464964843341178
 20
6.829897718748992
 42
0.0457828118957912
 10
4.45823420799654
 20
6.756545654824418
 42
0.0457828118957761
 10
4.464964843341178
 20
6.683193590899844
 42
0.0593679155220343
 10
4.481862619523624
 20
6.628875679414773
 42
0.1011022539154333
 10
4.512266698034011
 20
6.586441720959169
 42
0.1890967565172952
 10
4.538906651089632
 20
6.575993044092297
 42
0.189096756517312
 10
4.565546604145254
 20
6.586441720959169
 42
0.1011022539154296
 10
4.59595068265564
 20
6.628875679414773
 42
0.0593679155220198
 10
4.612848458838087
 20
6.683193590899816
 42
0.0457828118957962
 10
4.619579094182725
 20
6.756545654824418
 42
0.0457828118957892
 10
4.612848458838087
 20
6.829897718748992
 42
0.0593679155220232
 10
4.59595068265564
 20
6.884215630234064
 42
0.0239592340273797
 10
4.59031517884911
 20
6.895362120480496
 42
0.1890967565173229
  0
LINE
  5
69A
330
1F
100
AcDbEntity
  8
1
100
AcDbLine
 10
4.59031517884911
 20
7.076606892059783
 30
0.0
 11
4.487498123330155
 21
6.895362120480496
 31
0.0
  0
LINE
  5
69B
330
1F
100
AcDbEntity
  8
1
100
AcDbLine
 10
4.487498123330155
 20
7.076606892059783
 30
0.0
 11
4.59031517884911
 21
6.895362120480496
 31
0.0
  0
LWPOLYLINE
  5
69C
330
1F
100
AcDbEntity
  8
1
100
AcDbPolyline
 90
        8
 70
     0
 43
0.0
 10
4.563410906309847
 20
7.876691009863004
 42
0.0239592340273769
 10
4.566631194199295
 20
7.88306043286101
 42
0.0593679155220198
 10
4.576287066303542
 20
7.914099239423872
 42
0.0457828118957962
 10
4.580133143643344
 20
7.956014704523648
 42
0.0457828118957892
 10
4.576287066303542
 20
7.997930169623397
 42
0.0593679155220232
 10
4.566631194199295
 20
8.028968976186288
 42
0.1011022539154426
 10
4.549257435050499
 20
8.053216952446629
 42
0.1890967565173229
 10
4.534034604733001
 20
8.05918762494198
 42
0.1890967565172952
  0
LWPOLYLINE
  5
69D
330
1F
100
AcDbEntity
  8
1
100
AcDbPolyline
 90
        8
 70
     0
 43
0.0
 10
4.534034604733001
 20
8.05918762494198
 42
0.1890967565172952
 10
4.518811774415503
 20
8.053216952446629
 42
0.1011022539154333
 10
4.501438015266707
 20
8.028968976186288
 42
0.0593679155220318
 10
4.49178214316246
 20
7.997930169623397
 42
0.0457828118957912
 10
4.487936065822658
 20
7.956014704523648
 42
0.0457828118957761
 10
4.49178214316246
 20
7.9140992394239
 42
0.0593679155220343
 10
4.501438015266707
 20
7.88306043286101
 42
0.0239592340273769
 10
4.504658303156155
 20
7.876691009863004
 42
0.1890967565172952
  0
LWPOLYLINE
  5
69E
330
1F
100
AcDbEntity
  8
1
100
AcDbPolyline
 90
       15
 70
     0
 43
0.0
 10
4.504658303156155
 20
7.773122568960554
 42
0.0239592340273769
 10
4.501438015266707
 20
7.766753145962606
 42
0.0593679155220318
 10
4.49178214316246
 20
7.735714339399716
 42
0.0457828118957912
 10
4.487936065822658
 20
7.693798874299939
 42
0.0457828118957761
 10
4.49178214316246
 20
7.65188340920019
 42
0.0593679155220343
 10
4.501438015266707
 20
7.6208446026373
 42
0.1011022539154333
 10
4.518811774415503
 20
7.596596626376931
 42
0.1890967565172952
 10
4.534034604733001
 20
7.590625953881608
 42
0.189096756517312
 10
4.549257435050499
 20
7.596596626376931
 42
0.1011022539154296
 10
4.566631194199295
 20
7.6208446026373
 42
0.0593679155220198
 10
4.576287066303542
 20
7.651883409200162
 42
0.0457828118957962
 10
4.580133143643344
 20
7.693798874299939
 42
0.0457828118957892
 10
4.576287066303542
 20
7.735714339399716
 42
0.0593679155220232
 10
4.566631194199295
 20
7.766753145962606
 42
0.0239592340273797
 10
4.563410906309847
 20
7.773122568960554
 42
0.1890967565173229
  0
LINE
  5
69F
330
1F
100
AcDbEntity
  8
1
100
AcDbLine
 10
4.504658303156155
 20
7.876691009863004
 30
0.0
 11
4.563410906309847
 21
7.773122568960554
 31
0.0
  0
LINE
  5
6A0
330
1F
100
AcDbEntity
  8
1
100
AcDbLine
 10
4.563410906309847
 20
7.876691009863004
 30
0.0
 11
4.504658303156155
 21
7.773122568960554
 31
0.0
  0
LWPOLYLINE
  5
6A1
330
1F
100
AcDbEntity
  8
1
100
AcDbPolyline
 90
        8
 70
     0
 43
0.0
 10
4.534034604733001
 20
9.359561949998433
 42
0.1890967565172952
 10
4.518811774415503
 20
9.353591277503081
 42
0.1011022539154333
 10
4.501438015266707
 20
9.329343301242712
 42
0.0593679155220318
 10
4.49178214316246
 20
9.298304494679822
 42
0.0457828118957912
 10
4.487936065822658
 20
9.256389029580073
 42
0.0457828118957761
 10
4.49178214316246
 20
9.214473564480325
 42
0.0593679155220343
 10
4.501438015266707
 20
9.183434757917435
 42
0.0239592340273769
 10
4.504658303156155
 20
9.177065334919458
 42
0.1890967565172952
  0
LWPOLYLINE
  5
6A2
330
1F
100
AcDbEntity
  8
1
100
AcDbPolyline
 90
        8
 70
     0
 43
0.0
 10
4.563410906309847
 20
9.177065334919458
 42
0.0239592340273769
 10
4.566631194199295
 20
9.183434757917435
 42
0.0593679155220198
 10
4.576287066303542
 20
9.214473564480325
 42
0.0457828118957962
 10
4.580133143643344
 20
9.256389029580073
 42
0.0457828118957892
 10
4.576287066303542
 20
9.298304494679822
 42
0.0593679155220232
 10
4.566631194199295
 20
9.329343301242712
 42
0.1011022539154426
 10
4.549257435050499
 20
9.353591277503081
 42
0.1890967565173229
 10
4.534034604733001
 20
9.359561949998433
 42
0.1890967565172952
  0
LWPOLYLINE
  5
6A3
330
1F
100
AcDbEntity
  8
1
100
AcDbPolyline
 90
       15
 70
     0
 43
0.0
 10
4.504658303156155
 20
9.073496894017008
 42
0.0239592340273769
 10
4.501438015266707
 20
9.067127471019031
 42
0.0593679155220318
 10
4.49178214316246
 20
9.036088664456141
 42
0.0457828118957912
 10
4.487936065822658
 20
8.994173199356392
 42
0.0457828118957761
 10
4.49178214316246
 20
8.952257734256615
 42
0.0593679155220343
 10
4.501438015266707
 20
8.921218927693725
 42
0.1011022539154333
 10
4.518811774415503
 20
8.896970951433385
 42
0.1890967565172952
 10
4.534034604733001
 20
8.891000278938033
 42
0.189096756517312
 10
4.549257435050499
 20
8.896970951433385
 42
0.1011022539154296
 10
4.566631194199295
 20
8.921218927693725
 42
0.0593679155220198
 10
4.576287066303542
 20
8.952257734256615
 42
0.0457828118957962
 10
4.580133143643344
 20
8.994173199356392
 42
0.0457828118957892
 10
4.576287066303542
 20
9.036088664456141
 42
0.0593679155220232
 10
4.566631194199295
 20
9.067127471019031
 42
0.0239592340273797
 10
4.563410906309847
 20
9.073496894017008
 42
0.1890967565173229
  0
LINE
  5
6A4
330
1F
100
AcDbEntity
  8
1
100
AcDbLine
 10
4.563410906309847
 20
9.177065334919458
 30
0.0
 11
4.504658303156155
 21
9.073496894017008
 31
0.0
  0
LINE
  5
6A5
330
1F
100
AcDbEntity
  8
1
100
AcDbLine
 10
4.504658303156155
 20
9.177065334919458
 30
0.0
 11
4.563410906309847
 21
9.073496894017008
 31
0.0
  0
LINE
  5
6A6
330
1F
100
AcDbEntity
  8
1
100
AcDbLine
 10
4.504658303156155
 20
8.533612549652641
 30
0.0
 11
4.563410906309847
 21
8.430044108750191
 31
0.0
  0
LINE
  5
6A7
330
1F
100
AcDbEntity
  8
1
100
AcDbLine
 10
4.563410906309847
 20
8.533612549652641
 30
0.0
 11
4.504658303156155
 21
8.430044108750191
 31
0.0
  0
LWPOLYLINE
  5
6A8
330
1F
100
AcDbEntity
  8
1
100
AcDbPolyline
 90
        8
 70
     0
 43
0.0
 10
4.563410906309847
 20
8.533612549652641
 42
0.0239592340273769
 10
4.566631194199295
 20
8.539981972650647
 42
0.0593679155220198
 10
4.576287066303542
 20
8.571020779213508
 42
0.0457828118957962
 10
4.580133143643344
 20
8.612936244313285
 42
0.0457828118957892
 10
4.576287066303542
 20
8.654851709413033
 42
0.0593679155220232
 10
4.566631194199295
 20
8.685890515975923
 42
0.1011022539154426
 10
4.549257435050499
 20
8.710138492236264
 42
0.1890967565173229
 10
4.534034604733001
 20
8.716109164731616
 42
0.1890967565172952
  0
LWPOLYLINE
  5
6A9
330
1F
100
AcDbEntity
  8
1
100
AcDbPolyline
 90
        8
 70
     0
 43
0.0
 10
4.534034604733001
 20
8.716109164731616
 42
0.1890967565172952
 10
4.518811774415503
 20
8.710138492236264
 42
0.1011022539154333
 10
4.501438015266707
 20
8.685890515975923
 42
0.0593679155220318
 10
4.49178214316246
 20
8.654851709413033
 42
0.0457828118957912
 10
4.487936065822658
 20
8.612936244313285
 42
0.0457828118957761
 10
4.49178214316246
 20
8.571020779213537
 42
0.0593679155220343
 10
4.501438015266707
 20
8.539981972650647
 42
0.0239592340273769
 10
4.504658303156155
 20
8.533612549652641
 42
0.1890967565172952
  0
LINE
  5
6AA
330
1F
100
AcDbEntity
  8
1
  6
HIDDEN
100
AcDbLine
 10
3.890207359549016
 20
9.588127129416147
 30
0.0
 11
3.890207359549016
 21
10.0041314659282
 31
0.0
  0
LWPOLYLINE
  5
6AB
330
1F
100
AcDbEntity
  8
1
100
AcDbPolyline
 90
       15
 70
     0
 43
0.0
 10
6.896216390262729
 20
8.430044108750191
 42
0.0239592340273769
 10
6.892996102373281
 20
8.423674685752242
 42
0.0593679155220318
 10
6.883340230269034
 20
8.392635879189352
 42
0.0457828118957912
 10
6.879494152929233
 20
8.350720414089575
 42
0.0457828118957761
 10
6.883340230269034
 20
8.308804948989827
 42
0.0593679155220343
 10
6.892996102373281
 20
8.277766142426937
 42
0.1011022539154333
 10
6.910369861522077
 20
8.253518166166568
 42
0.1890967565172952
 10
6.925592691839575
 20
8.247547493671245
 42
0.189096756517312
 10
6.940815522157073
 20
8.253518166166568
 42
0.1011022539154296
 10
6.95818928130587
 20
8.277766142426937
 42
0.0593679155220198
 10
6.967845153410117
 20
8.308804948989799
 42
0.0457828118957962
 10
6.971691230749918
 20
8.350720414089575
 42
0.0457828118957892
 10
6.967845153410117
 20
8.392635879189352
 42
0.0593679155220232
 10
6.95818928130587
 20
8.423674685752242
 42
0.0239592340273797
 10
6.954968993416422
 20
8.430044108750191
 42
0.1890967565173229
  0
TEXT
  5
6AC
330
1F
100
AcDbEntity
  8
1
100
AcDbText
 10
4.949437921247158
 20
8.364800508612569
 30
0.0
 40
0.0938
  1
WHITE/BLUE 28 AWG
  7
SIMPLEX
 72
     4
 11
5.688671254580491
 21
8.40500050861257
 31
0.0
100
AcDbText
  0
TEXT
  5
6AD
330
1F
100
AcDbEntity
  8
1
100
AcDbText
 10
5.150437921247157
 20
8.02519658269141
 30
0.0
 40
0.0938
  1
BLACK 28 AWG
  7
SIMPLEX
 72
     4
 11
5.688671254580491
 21
8.072096582691411
 31
0.0
100
AcDbText
  0
TEXT
  5
6AE
330
1F
100
AcDbEntity
  8
1
100
AcDbText
 10
5.011561258816095
 20
6.714455862769369
 30
0.0
 40
0.0938
  1
WHITE/GRAY 16 AWG
  7
SIMPLEX
 72
     4
 11
5.753027925482761
 21
6.754655862769369
 31
0.0
100
AcDbText
  0
TEXT
  5
6AF
330
1F
100
AcDbEntity
  8
1
100
AcDbText
 10
5.263927925482762
 20
7.336350075387139
 30
0.0
 40
0.0938
  1
GRAY 16 AWG
  7
SIMPLEX
 72
     4
 11
5.753027925482761
 21
7.383250075387139
 31
0.0
100
AcDbText
  0
LWPOLYLINE
  5
6B0
330
1F
100
AcDbEntity
  8
1
100
AcDbPolyline
 90
        8
 70
     0
 43
0.0
 10
7.015740036203986
 20
7.076606892059783
 42
0.0239592340273769
 10
7.021375540010517
 20
7.087753382306272
 42
0.0593679155220198
 10
7.038273316192963
 20
7.142071293791286
 42
0.0457828118957962
 10
7.045003951537601
 20
7.215423357715889
 42
0.0457828118957892
 10
7.038273316192963
 20
7.288775421640434
 42
0.0593679155220232
 10
7.021375540010517
 20
7.343093333125506
 42
0.1011022539154426
 10
6.99097146150013
 20
7.385527291581138
 42
0.1890967565173229
 10
6.964331508444509
 20
7.395975968447982
 42
0.1890967565172952
  0
LWPOLYLINE
  5
6B1
330
1F
100
AcDbEntity
  8
1
100
AcDbPolyline
 90
        8
 70
     0
 43
0.0
 10
6.964331508444509
 20
7.395975968447982
 42
0.1890967565172952
 10
6.937691555388887
 20
7.385527291581138
 42
0.1011022539154333
 10
6.907287476878494
 20
7.343093333125506
 42
0.0593679155220318
 10
6.890389700696054
 20
7.288775421640434
 42
0.0457828118957912
 10
6.883659065351416
 20
7.215423357715889
 42
0.0457828118957761
 10
6.890389700696054
 20
7.142071293791315
 42
0.0593679155220343
 10
6.907287476878494
 20
7.087753382306272
 42
0.0239592340273769
 10
6.912922980685031
 20
7.076606892059783
 42
0.1890967565172952
  0
LWPOLYLINE
  5
6B2
330
1F
100
AcDbEntity
  8
1
100
AcDbPolyline
 90
       15
 70
     0
 43
0.0
 10
6.912922980685031
 20
6.895362120480496
 42
0.0239592340273769
 10
6.907287476878494
 20
6.884215630234064
 42
0.0593679155220318
 10
6.890389700696054
 20
6.829897718748992
 42
0.0457828118957912
 10
6.883659065351416
 20
6.756545654824418
 42
0.0457828118957761
 10
6.890389700696054
 20
6.683193590899844
 42
0.0593679155220343
 10
6.907287476878494
 20
6.628875679414773
 42
0.1011022539154333
 10
6.937691555388887
 20
6.586441720959169
 42
0.1890967565172952
 10
6.964331508444509
 20
6.575993044092297
 42
0.189096756517312
 10
6.99097146150013
 20
6.586441720959169
 42
0.1011022539154296
 10
7.021375540010517
 20
6.628875679414773
 42
0.0593679155220198
 10
7.038273316192963
 20
6.683193590899816
 42
0.0457828118957962
 10
7.045003951537601
 20
6.756545654824418
 42
0.0457828118957892
 10
7.038273316192963
 20
6.829897718748992
 42
0.0593679155220232
 10
7.021375540010517
 20
6.884215630234064
 42
0.0239592340273797
 10
7.015740036203986
 20
6.895362120480496
 42
0.1890967565173229
  0
LINE
  5
6B3
330
1F
100
AcDbEntity
  8
1
100
AcDbLine
 10
6.912922980685031
 20
7.076606892059783
 30
0.0
 11
7.015740036203986
 21
6.895362120480496
 31
0.0
  0
LINE
  5
6B4
330
1F
100
AcDbEntity
  8
1
100
AcDbLine
 10
7.015740036203986
 20
7.076606892059783
 30
0.0
 11
6.912922980685031
 21
6.895362120480496
 31
0.0
  0
LWPOLYLINE
  5
6B5
330
1F
100
AcDbEntity
  8
1
100
AcDbPolyline
 90
        8
 70
     0
 43
0.0
 10
6.925592691839575
 20
8.05918762494198
 42
0.1890967565172952
 10
6.910369861522077
 20
8.053216952446629
 42
0.1011022539154333
 10
6.892996102373281
 20
8.028968976186288
 42
0.0593679155220318
 10
6.883340230269034
 20
7.997930169623397
 42
0.0457828118957912
 10
6.879494152929233
 20
7.956014704523648
 42
0.0457828118957761
 10
6.883340230269034
 20
7.9140992394239
 42
0.0593679155220343
 10
6.892996102373281
 20
7.88306043286101
 42
0.0239592340273769
 10
6.896216390262729
 20
7.876691009863004
 42
0.1890967565172952
  0
LWPOLYLINE
  5
6B6
330
1F
100
AcDbEntity
  8
1
100
AcDbPolyline
 90
        8
 70
     0
 43
0.0
 10
6.954968993416422
 20
7.876691009863004
 42
0.0239592340273769
 10
6.95818928130587
 20
7.88306043286101
 42
0.0593679155220198
 10
6.967845153410117
 20
7.914099239423872
 42
0.0457828118957962
 10
6.971691230749918
 20
7.956014704523648
 42
0.0457828118957892
 10
6.967845153410117
 20
7.997930169623397
 42
0.0593679155220232
 10
6.95818928130587
 20
8.028968976186288
 42
0.1011022539154426
 10
6.940815522157073
 20
8.053216952446629
 42
0.1890967565173229
 10
6.925592691839575
 20
8.05918762494198
 42
0.1890967565172952
  0
LWPOLYLINE
  5
6B7
330
1F
100
AcDbEntity
  8
1
100
AcDbPolyline
 90
       15
 70
     0
 43
0.0
 10
6.896216390262729
 20
7.773122568960554
 42
0.0239592340273769
 10
6.892996102373281
 20
7.766753145962606
 42
0.0593679155220318
 10
6.883340230269034
 20
7.735714339399716
 42
0.0457828118957912
 10
6.879494152929233
 20
7.693798874299939
 42
0.0457828118957761
 10
6.883340230269034
 20
7.65188340920019
 42
0.0593679155220343
 10
6.892996102373281
 20
7.6208446026373
 42
0.1011022539154333
 10
6.910369861522077
 20
7.596596626376931
 42
0.1890967565172952
 10
6.925592691839575
 20
7.590625953881608
 42
0.189096756517312
 10
6.940815522157073
 20
7.596596626376931
 42
0.1011022539154296
 10
6.95818928130587
 20
7.6208446026373
 42
0.0593679155220198
 10
6.967845153410117
 20
7.651883409200162
 42
0.0457828118957962
 10
6.971691230749918
 20
7.693798874299939
 42
0.0457828118957892
 10
6.967845153410117
 20
7.735714339399716
 42
0.0593679155220232
 10
6.95818928130587
 20
7.766753145962606
 42
0.0239592340273797
 10
6.954968993416422
 20
7.773122568960554
 42
0.1890967565173229
  0
LINE
  5
6B8
330
1F
100
AcDbEntity
  8
1
100
AcDbLine
 10
6.954968993416422
 20
7.876691009863004
 30
0.0
 11
6.896216390262729
 21
7.773122568960554
 31
0.0
  0
LINE
  5
6B9
330
1F
100
AcDbEntity
  8
1
100
AcDbLine
 10
6.896216390262729
 20
7.876691009863004
 30
0.0
 11
6.954968993416422
 21
7.773122568960554
 31
0.0
  0
TEXT
  5
6BA
330
1F
100
AcDbEntity
  8
1
100
AcDbText
 10
5.112471254580491
 20
9.325570907747835
 30
0.0
 40
0.0938
  1
YELLOW 28 AWG
  7
SIMPLEX
 72
     4
 11
5.688671254580491
 21
9.372470907747835
 31
0.0
100
AcDbText
  0
TEXT
  5
6BB
330
1F
100
AcDbEntity
  8
1
100
AcDbText
 10
5.201804587913824
 20
8.682118122481046
 30
0.0
 40
0.0938
  1
BLUE 28 AWG
  7
SIMPLEX
 72
     4
 11
5.688671254580491
 21
8.729018122481047
 31
0.0
100
AcDbText
  0
LWPOLYLINE
  5
6BC
330
1F
100
AcDbEntity
  8
1
100
AcDbPolyline
 90
        8
 70
     0
 43
0.0
 10
6.925592691839575
 20
9.359561949998433
 42
0.1890967565172952
 10
6.910369861522077
 20
9.353591277503081
 42
0.1011022539154333
 10
6.892996102373281
 20
9.329343301242712
 42
0.0593679155220318
 10
6.883340230269034
 20
9.298304494679822
 42
0.0457828118957912
 10
6.879494152929233
 20
9.256389029580073
 42
0.0457828118957761
 10
6.883340230269034
 20
9.214473564480325
 42
0.0593679155220343
 10
6.892996102373281
 20
9.183434757917435
 42
0.0239592340273769
 10
6.896216390262729
 20
9.177065334919458
 42
0.1890967565172952
  0
LWPOLYLINE
  5
6BD
330
1F
100
AcDbEntity
  8
1
100
AcDbPolyline
 90
        8
 70
     0
 43
0.0
 10
6.954968993416422
 20
9.177065334919458
 42
0.0239592340273769
 10
6.95818928130587
 20
9.183434757917435
 42
0.0593679155220198
 10
6.967845153410117
 20
9.214473564480325
 42
0.0457828118957962
 10
6.971691230749918
 20
9.256389029580073
 42
0.0457828118957892
 10
6.967845153410117
 20
9.298304494679822
 42
0.0593679155220232
 10
6.95818928130587
 20
9.329343301242712
 42
0.1011022539154426
 10
6.940815522157073
 20
9.353591277503081
 42
0.1890967565173229
 10
6.925592691839575
 20
9.359561949998433
 42
0.1890967565172952
  0
LWPOLYLINE
  5
6BE
330
1F
100
AcDbEntity
  8
1
100
AcDbPolyline
 90
       15
 70
     0
 43
0.0
 10
6.896216390262729
 20
9.073496894017008
 42
0.0239592340273769
 10
6.892996102373281
 20
9.067127471019031
 42
0.0593679155220318
 10
6.883340230269034
 20
9.036088664456141
 42
0.0457828118957912
 10
6.879494152929233
 20
8.994173199356392
 42
0.0457828118957761
 10
6.883340230269034
 20
8.952257734256615
 42
0.0593679155220343
 10
6.892996102373281
 20
8.921218927693725
 42
0.1011022539154333
 10
6.910369861522077
 20
8.896970951433385
 42
0.1890967565172952
 10
6.925592691839575
 20
8.891000278938033
 42
0.189096756517312
 10
6.940815522157073
 20
8.896970951433385
 42
0.1011022539154296
 10
6.95818928130587
 20
8.921218927693725
 42
0.0593679155220198
 10
6.967845153410117
 20
8.952257734256615
 42
0.0457828118957962
 10
6.971691230749918
 20
8.994173199356392
 42
0.0457828118957892
 10
6.967845153410117
 20
9.036088664456141
 42
0.0593679155220232
 10
6.95818928130587
 20
9.067127471019031
 42
0.0239592340273797
 10
6.954968993416422
 20
9.073496894017008
 42
0.1890967565173229
  0
LINE
  5
6BF
330
1F
100
AcDbEntity
  8
1
100
AcDbLine
 10
6.896216390262729
 20
9.177065334919458
 30
0.0
 11
6.954968993416422
 21
9.073496894017008
 31
0.0
  0
LINE
  5
6C0
330
1F
100
AcDbEntity
  8
1
100
AcDbLine
 10
6.954968993416422
 20
9.177065334919458
 30
0.0
 11
6.896216390262729
 21
9.073496894017008
 31
0.0
  0
LINE
  5
6C1
330
1F
100
AcDbEntity
  8
1
100
AcDbLine
 10
6.954968993416422
 20
8.533612549652641
 30
0.0
 11
6.896216390262729
 21
8.430044108750191
 31
0.0
  0
LINE
  5
6C2
330
1F
100
AcDbEntity
  8
1
100
AcDbLine
 10
6.896216390262729
 20
8.533612549652641
 30
0.0
 11
6.954968993416422
 21
8.430044108750191
 31
0.0
  0
LWPOLYLINE
  5
6C3
330
1F
100
AcDbEntity
  8
1
100
AcDbPolyline
 90
        8
 70
     0
 43
0.0
 10
6.954968993416422
 20
8.533612549652641
 42
0.0239592340273769
 10
6.95818928130587
 20
8.539981972650647
 42
0.0593679155220198
 10
6.967845153410117
 20
8.571020779213508
 42
0.0457828118957962
 10
6.971691230749918
 20
8.612936244313285
 42
0.0457828118957892
 10
6.967845153410117
 20
8.654851709413033
 42
0.0593679155220232
 10
6.95818928130587
 20
8.685890515975923
 42
0.1011022539154426
 10
6.940815522157073
 20
8.710138492236264
 42
0.1890967565173229
 10
6.925592691839575
 20
8.716109164731616
 42
0.1890967565172952
  0
LWPOLYLINE
  5
6C4
330
1F
100
AcDbEntity
  8
1
100
AcDbPolyline
 90
        8
 70
     0
 43
0.0
 10
6.925592691839575
 20
8.716109164731616
 42
0.1890967565172952
 10
6.910369861522077
 20
8.710138492236264
 42
0.1011022539154333
 10
6.892996102373281
 20
8.685890515975923
 42
0.0593679155220318
 10
6.883340230269034
 20
8.654851709413033
 42
0.0457828118957912
 10
6.879494152929233
 20
8.612936244313285
 42
0.0457828118957761
 10
6.883340230269034
 20
8.571020779213537
 42
0.0593679155220343
 10
6.892996102373281
 20
8.539981972650647
 42
0.0239592340273769
 10
6.896216390262729
 20
8.533612549652641
 42
0.1890967565172952
  0
LINE
  5
6C5
330
1F
100
AcDbEntity
  8
1
 62
     2
100
AcDbLine
 10
9.885514729679087
 20
9.486858392901989
 30
0.0
 11
9.443409363979462
 21
9.486858392901989
 31
0.0
  0
TEXT
  5
6C6
330
1F
100
AcDbEntity
  8
1
100
AcDbText
 10
9.574799236788056
 20
7.595788445115879
 30
0.0
 40
0.1125
  1
10
  7
SIMPLEX
 72
     4
 11
9.655156379645198
 21
7.65203844511588
 31
0.0
100
AcDbText
  0
TEXT
  5
6C7
330
1F
100
AcDbEntity
  8
1
100
AcDbText
 10
9.572120665359484
 20
7.22939199976314
 30
0.0
 40
0.1125
  1
14
  7
SIMPLEX
 72
     4
 11
9.655156379645198
 21
7.28564199976314
 31
0.0
100
AcDbText
  0
TEXT
  5
6C8
330
1F
100
AcDbEntity
  8
1
100
AcDbText
 10
9.614977808216627
 20
8.257963931050349
 30
0.0
 40
0.1125
  1
4
  7
SIMPLEX
 72
     4
 11
9.655156379645198
 21
8.31421393105035
 31
0.0
100
AcDbText
  0
LINE
  5
6C9
330
1F
100
AcDbEntity
  8
1
100
AcDbLine
 10
8.410918664373802
 20
7.300254166768787
 30
0.0
 11
9.443409363979448
 21
7.300254166768785
 31
0.0
  0
LINE
  5
6CA
330
1F
100
AcDbEntity
  8
1
100
AcDbLine
 10
8.410918664373802
 20
6.662355298308468
 30
0.0
 11
9.443409363979455
 21
6.662355298308466
 31
0.0
  0
TEXT
  5
6CB
330
1F
100
AcDbEntity
  8
1
100
AcDbText
 10
8.495095841359455
 20
6.705151206926821
 30
0.0
 40
0.0938
  1
WHITE/GRAY
  7
SIMPLEX
 72
     4
 11
8.926129174692789
 21
6.74535120692682
 31
0.0
100
AcDbText
  0
LWPOLYLINE
  5
6CC
330
1F
100
AcDbEntity
  8
1
100
AcDbPolyline
 90
        2
 70
     1
 43
0.0205
 10
8.423668664373799
 20
7.300254166768787
 42
-1.0
 10
8.398168664373805
 20
7.300254166768787
 42
-1.0
  0
LWPOLYLINE
  5
6CD
330
1F
100
AcDbEntity
  8
1
100
AcDbPolyline
 90
        2
 70
     1
 43
0.0205
 10
8.423668664373799
 20
6.662355298308468
 42
-1.0
 10
8.398168664373805
 20
6.662355298308468
 42
-1.0
  0
TEXT
  5
6CE
330
1F
100
AcDbEntity
  8
1
100
AcDbText
 10
8.658129174692781
 20
7.137394299515294
 30
0.0
 40
0.0938
  1
22 AWG
  7
SIMPLEX
 72
     4
 11
8.926129174692782
 21
7.184294299515294
 31
0.0
100
AcDbText
  0
TEXT
  5
6CF
330
1F
100
AcDbEntity
  8
1
100
AcDbText
 10
8.747462508026115
 20
7.336350075387139
 30
0.0
 40
0.0938
  1
GRAY
  7
SIMPLEX
 72
     4
 11
8.926129174692782
 21
7.383250075387139
 31
0.0
100
AcDbText
  0
TEXT
  5
6D0
330
1F
100
AcDbEntity
  8
1
100
AcDbText
 10
9.62033495107377
 20
6.595055863860912
 30
0.0
 40
0.1125
  1
6
  7
SIMPLEX
 72
     4
 11
9.655156379645198
 21
6.651305863860913
 31
0.0
100
AcDbText
  0
TEXT
  5
6D1
330
1F
100
AcDbEntity
  8
1
100
AcDbText
 10
9.617656379645199
 20
7.91714131649918
 30
0.0
 40
0.1125
  1
5
  7
SIMPLEX
 72
     4
 11
9.655156379645198
 21
7.97339131649918
 31
0.0
100
AcDbText
  0
LINE
  5
6D2
330
1F
100
AcDbEntity
  8
1
  6
HIDDEN
100
AcDbLine
 10
7.575932858608574
 20
9.970588863467533
 30
0.0
 11
9.599145645057554
 21
9.970588863467536
 31
0.0
  0
LINE
  5
6D3
330
1F
100
AcDbEntity
  8
1
  6
HIDDEN
100
AcDbLine
 10
7.575932858608574
 20
9.588127129416147
 30
0.0
 11
7.575932858608574
 21
9.970588863467533
 31
0.0
  0
TEXT
  5
6D4
330
1F
100
AcDbEntity
  8
1
100
AcDbText
 10
9.641763522502341
 20
9.218187333009028
 30
0.0
 40
0.1125
  1
1
  7
SIMPLEX
 72
     4
 11
9.655156379645198
 21
9.274437333009029
 31
0.0
100
AcDbText
  0
TEXT
  5
6D5
330
1F
100
AcDbEntity
  8
1
100
AcDbText
 10
9.617656379645199
 20
8.892442682751793
 30
0.0
 40
0.1125
  1
2
  7
SIMPLEX
 72
     4
 11
9.655156379645198
 21
8.948692682751794
 31
0.0
100
AcDbText
  0
TEXT
  5
6D6
330
1F
100
AcDbEntity
  8
1
100
AcDbText
 10
9.617656379645199
 20
8.571119137544977
 30
0.0
 40
0.1125
  1
3
  7
SIMPLEX
 72
     4
 11
9.655156379645198
 21
8.627369137544977
 31
0.0
100
AcDbText
  0
TEXT
  5
6D7
330
1F
100
AcDbEntity
  8
1
 62
     2
100
AcDbText
 10
9.758583735033198
 20
9.610901338004772
 30
0.0
 40
0.156
  1
F1/F2
  7
ROMANS
 72
     1
 11
10.12629802074748
 21
9.688901338004772
 31
0.0
100
AcDbText
 73
     2
  0
LINE
  5
6D8
330
1F
100
AcDbEntity
  8
1
  6
HIDDEN
100
AcDbLine
 10
9.599145645057554
 20
9.486858392901989
 30
0.0
 11
9.599145645057554
 21
9.970588863467536
 31
0.0
  0
LINE
  5
A73
330
1F
100
AcDbEntity
  8
0
 62
     4
100
AcDbLine
 10
14.22174420399842
 20
13.6797784482313
 30
0.0
 11
16.09674420399842
 21
13.6797784482313
 31
0.0
  0
LINE
  5
A74
330
1F
100
AcDbEntity
  8
0
 62
     4
100
AcDbLine
 10
14.22174420399842
 20
13.25373697364447
 30
0.0
 11
14.22174420399842
 21
13.6797784482313
 31
0.0
  0
LINE
  5
A75
330
1F
100
AcDbEntity
  8
0
 62
     4
100
AcDbLine
 10
14.22174420399842
 20
13.25373697364447
 30
0.0
 11
16.09674420399842
 21
13.25373697364447
 31
0.0
  0
LINE
  5
A76
330
1F
100
AcDbEntity
  8
0
 62
     4
100
AcDbLine
 10
16.09674420399842
 20
13.6797784482313
 30
0.0
 11
16.09674420399842
 21
13.25373697364447
 31
0.0
  0
LINE
  5
A77
330
1F
100
AcDbEntity
  8
0
 62
     4
100
AcDbLine
 10
7.072569416352386
 20
13.67977844823129
 30
0.0
 11
8.947569416352386
 21
13.67977844823129
 31
0.0
  0
LINE
  5
A78
330
1F
100
AcDbEntity
  8
0
 62
     4
100
AcDbLine
 10
7.072569416352386
 20
13.25373697364447
 30
0.0
 11
7.072569416352386
 21
13.67977844823129
 31
0.0
  0
LINE
  5
A79
330
1F
100
AcDbEntity
  8
0
 62
     4
100
AcDbLine
 10
7.072569416352386
 20
13.25373697364447
 30
0.0
 11
8.947569416352386
 21
13.25373697364447
 31
0.0
  0
LINE
  5
A7A
330
1F
100
AcDbEntity
  8
0
 62
     4
100
AcDbLine
 10
8.947569416352386
 20
13.67977844823129
 30
0.0
 11
8.947569416352386
 21
13.25373697364447
 31
0.0
  0
LINE
  5
A7B
330
1F
100
AcDbEntity
  8
1
 62
     2
100
AcDbLine
 10
7.072569416352386
 20
13.6597784482313
 30
0.0
 11
6.572569416352386
 21
13.6597784482313
 31
0.0
  0
LINE
  5
A7C
330
1F
100
AcDbEntity
  8
1
 62
     2
100
AcDbLine
 10
7.072569416352385
 20
13.27373697364447
 30
0.0
 11
6.572569416352386
 21
13.27373697364447
 31
0.0
  0
LINE
  5
A7D
330
1F
100
AcDbEntity
  8
1
 62
     2
100
AcDbLine
 10
14.22174420399842
 20
13.6597784482313
 30
0.0
 11
10.05719174662313
 21
13.6597784482313
 31
0.0
  0
LINE
  5
A7E
330
1F
100
AcDbEntity
  8
1
 62
     2
100
AcDbLine
 10
14.22174420399841
 20
13.27373697364446
 30
0.0
 11
10.05719174662315
 21
13.27373697364447
 31
0.0
  0
LEADER
  5
A7F
330
1F
100
AcDbEntity
  8
0
100
AcDbLeader
  3
Standard
 73
     0
 40
0.5416666666666666
 41
1.976190476190476
 76
     3
 10
9.444822478473575
 20
13.27373697364447
 30
0.0
 10
9.863471811642902
 20
12.71312566653715
 30
0.0
 10
10.10973613492941
 20
12.71312566653715
 30
0.0
340
A80
213
0.0
223
-0.0625
233
0.0
1001
ACAD
1000
DSTYLE
1002
{
1070
   147
1040
0.09
1070
    77
1070
     0
1002
}
  0
MTEXT
  5
A80
102
{ACAD_REACTORS
330
A7F
102
}
330
1F
100
AcDbEntity
  8
0
100
AcDbMText
 10
10.19973613492941
 20
12.77562566653715
 30
0.0
 40
0.125
 41
0.0
 71
     1
 72
     1
  1
CABLE, KA-56027\P28G-8PR, 16G-1PR,\PSHLD
 73
     1
 44
1.0
  0
LEADER
  5
A81
330
1F
100
AcDbEntity
  8
0
100
AcDbLeader
  3
Standard
 73
     0
 40
0.1488095238095238
 41
1.839285714285713
 76
     3
 10
15.72456258546507
 20
13.25373697364447
 30
0.0
 10
15.37979251097365
 20
12.73773498489896
 30
0.0
 10
15.13352818768714
 20
12.73773498489896
 30
0.0
340
A82
213
0.0
223
0.0625
233
0.0
1001
ACAD
1000
DSTYLE
1002
{
1070
   147
1040
0.09
1070
    77
1070
     0
1002
}
  0
MTEXT
  5
A82
102
{ACAD_REACTORS
330
A81
102
}
330
1F
100
AcDbEntity
  8
0
100
AcDbMText
 10
15.04352818768714
 20
12.67523498489896
 30
0.0
 40
0.125
 41
0.0
 71
     9
 72
     1
  1
LABEL, SEE NOTE 1
 73
     1
 44
1.0
  0
LEADER
  5
A83
330
1F
100
AcDbEntity
  8
0
100
AcDbLeader
  3
Standard
 73
     0
 40
0.3571428571428571
 41
1.083333333333333
 76
     3
 10
16.67187134748582
 20
13.18632655263904
 30
0.0
 10
16.25933368021819
 20
12.40928125163458
 30
0.0
 10
16.12182108797846
 20
12.40928125163458
 30
0.0
340
A84
213
0.0
223
0.0625
233
0.0
1001
ACAD
1000
DSTYLE
1002
{
1070
   147
1040
0.09
1070
    77
1070
     0
1002
}
  0
MTEXT
  5
A84
102
{ACAD_REACTORS
330
A83
102
}
330
1F
100
AcDbEntity
  8
0
100
AcDbMText
 10
16.03182108797846
 20
12.34678125163458
 30
0.0
 40
0.125
 41
0.0
 71
     6
 72
     1
  1
OVERMOLD,\PPVC, BLACK
 73
     1
 44
1.0
  0
LEADER
  5
A85
330
1F
100
AcDbEntity
  8
0
100
AcDbLeader
  3
Standard
 73
     0
 40
0.3571428571428571
 41
2.392857142857143
 76
     3
 10
17.13046342128807
 20
12.67523475234738
 30
0.0
 10
16.45185126557318
 20
11.67639020470194
 30
0.0
 10
16.323506172186
 20
11.67639020470194
 30
0.0
340
A86
213
0.0
223
0.0625
233
0.0
1001
ACAD
1000
DSTYLE
1002
{
1070
   147
1040
0.09
1070
    77
1070
     0
1002
}
  0
MTEXT
  5
A86
102
{ACAD_REACTORS
330
A85
102
}
330
1F
100
AcDbEntity
  8
0
100
AcDbMText
 10
16.233506172186
 20
11.61389020470194
 30
0.0
 40
0.125
 41
0.0
 71
     9
 72
     1
  1
JACKSCREWS, 4-40 THD,\P20-51034, QTY 2
 73
     1
 44
1.0
  0
LEADER
  5
A87
330
1F
100
AcDbEntity
  8
0
100
AcDbLeader
  3
Standard
 73
     0
 40
0.3571428571428571
 41
3.791666666666667
 76
     3
 10
18.79873223051758
 20
11.18168872090122
 30
0.0
 10
17.81780930603749
 20
10.84272661508503
 30
0.0
 10
17.62529172068249
 20
10.84272661508503
 30
0.0
340
A88
213
0.0
223
0.0625
233
0.0
1001
ACAD
1000
DSTYLE
1002
{
1070
   147
1040
0.09
1070
    77
1070
     0
1002
}
  0
MTEXT
  5
A88
102
{ACAD_REACTORS
330
A87
102
}
330
1F
100
AcDbEntity
  8
0
100
AcDbMText
 10
17.53529172068249
 20
10.78022661508503
 30
0.0
 40
0.125
 41
0.0
 71
     9
 72
     1
  1
CONNECTOR, HD, AM-748364-1 \PCONTACTS, HD, AM-748333-5, QTY 15 
 73
     1
 44
1.0
  0
LEADER
  5
A89
330
1F
100
AcDbEntity
  8
0
100
AcDbLeader
  3
Standard
 73
     0
 40
0.3571428571428571
 41
1.083333333333333
 76
     3
 10
6.497590396485216
 20
13.22339706871498
 30
0.0
 10
6.993527676332263
 20
12.33053317541261
 30
0.0
 10
7.23924069208914
 20
12.33053317541261
 30
0.0
340
A8A
213
0.0
223
-0.0625
233
0.0
1001
ACAD
1000
DSTYLE
1002
{
1070
   147
1040
0.09
1070
    77
1070
     0
1002
}
  0
MTEXT
  5
A8A
102
{ACAD_REACTORS
330
A89
102
}
330
1F
100
AcDbEntity
  8
0
100
AcDbMText
 10
7.32924069208914
 20
12.39303317541261
 30
0.0
 40
0.125
 41
0.0
 71
     1
 72
     1
  1
OVERMOLD,\PPVC, BLACK
 73
     1
 44
1.0
  0
LEADER
  5
A8B
330
1F
100
AcDbEntity
  8
0
100
AcDbLeader
  3
Standard
 73
     0
 40
0.3571428571428571
 41
2.065476190476191
 76
     3
 10
5.519249800694105
 20
12.65532655263904
 30
0.0
 10
6.098430429875669
 20
11.59390611807904
 30
0.0
 10
6.326592449482895
 20
11.59390611807904
 30
0.0
340
A8C
213
0.0
223
-0.0625
233
0.0
1001
ACAD
1000
DSTYLE
1002
{
1070
   147
1040
0.09
1070
    77
1070
     0
1002
}
  0
MTEXT
  5
A8C
102
{ACAD_REACTORS
330
A8B
102
}
330
1F
100
AcDbEntity
  8
0
100
AcDbMText
 10
6.416592449482894
 20
11.65640611807904
 30
0.0
 40
0.125
 41
0.0
 71
     1
 72
     1
  1
JACKSCREWS, 106373\P4-40 THD, QTY 2
 73
     1
 44
1.0
  0
LEADER
  5
A8E
330
1F
100
AcDbEntity
  8
0
100
AcDbLeader
  3
Standard
 73
     0
 40
0.5654761904761905
 41
2.767857142857142
 76
     3
 10
2.607429277960321
 20
12.74515798416727
 30
0.0
 10
3.412401917300478
 20
11.00037335788304
 30
0.0
 10
3.752531190737713
 20
11.00037335788304
 30
0.0
340
A8F
213
0.0
223
-0.0625
233
0.0
1001
ACAD
1000
DSTYLE
1002
{
1070
   147
1040
0.09
1070
    77
1070
     0
1002
}
  0
MTEXT
  5
A8F
102
{ACAD_REACTORS
330
A8E
102
}
330
1F
100
AcDbEntity
  8
0
100
AcDbMText
 10
3.842531190737712
 20
11.06287335788304
 30
0.0
 40
0.125
 41
0.0
 71
     1
 72
     1
  1
CONNECTOR, 78-53584-15S\PCONTACT, 77-53595 QTY 2\PCONTACT, 77-53593 QTY 13
 73
     1
 44
1.0
  0
LEADER
  5
A90
330
1F
100
AcDbEntity
  8
0
100
AcDbLeader
  3
Standard
 73
     0
 40
0.1488095238095238
 41
1.839285714285713
 76
     3
 10
8.34033163830967
 20
13.67977844823129
 30
0.0
 10
8.650183599129881
 20
14.04783753688395
 30
0.0
 10
9.063319583374031
 20
14.04783753688395
 30
0.0
340
A91
213
0.0
223
-0.0625
233
0.0
1001
ACAD
1000
DSTYLE
1002
{
1070
   147
1040
0.09
1070
    77
1070
     0
1002
}
  0
MTEXT
  5
A91
102
{ACAD_REACTORS
330
A90
102
}
330
1F
100
AcDbEntity
  8
0
100
AcDbMText
 10
9.153319583374031
 20
14.11033753688395
 30
0.0
 40
0.125
 41
0.0
 71
     1
 72
     1
  1
LABEL, SEE NOTE 1
 73
     1
 44
1.0
  0
INSERT
  5
CB4
330
1F
100
AcDbEntity
  8
0
100
AcDbBlockReference
 66
     1
  2
ASSEMBLY_C
 10
0.0
 20
0.0
 30
0.0
  0
ATTRIB
  5
CB6
330
CB4
100
AcDbEntity
  8
TITLE BLOCK
  6
Continuous
100
AcDbText
 10
17.42499999999999
 20
1.875
 30
0.0
 40
0.1010611419
  1
G. MUMM
100
AcDbAttribute
  2
GEN-TITLE-NAME{5}
 70
     0
  0
ATTRIB
  5
CB7
330
CB4
100
AcDbEntity
  8
TITLE BLOCK
  6
Continuous
100
AcDbText
 10
17.42499999999999
 20
1.625
 30
0.0
 40
0.1010611419
  1

100
AcDbAttribute
  2
GEN-TITLE-CHKM{5}
 70
     0
  0
ATTRIB
  5
CB8
330
CB4
100
AcDbEntity
  8
TITLE BLOCK
  6
Continuous
100
AcDbText
 10
17.42499999999999
 20
1.375
 30
0.0
 40
0.1010611419
  1

100
AcDbAttribute
  2
GEN-TITLE-APPM{5}
 70
     0
  0
ATTRIB
  5
CB9
330
CB4
100
AcDbEntity
  8
TITLE BLOCK
  6
Continuous
100
AcDbText
 10
15.72840859477629
 20
0.8861235259562903
 30
0.0
 40
0.14
  1
CABLE, BKOUT BD, F1/F2
 41
0.8
100
AcDbAttribute
  2
GEN-TITLE-DES1{15.54}
 70
     0
  0
ATTRIB
  5
CBA
330
CB4
100
AcDbEntity
  8
TITLE BLOCK
  6
Continuous
100
AcDbText
 10
20.89999999999999
 20
1.375
 30
0.0
 40
0.11808994431015
  1
1
 41
0.8
100
AcDbAttribute
  2
GEN-TITLE-SHEET-OF{2.62}
 70
     0
  0
ATTRIB
  5
CBB
330
CB4
100
AcDbEntity
  8
TITLE BLOCK
  6
Continuous
100
AcDbText
 10
20.5
 20
1.375
 30
0.0
 40
0.11808994431015
  1
1
 41
0.8
100
AcDbAttribute
  2
GEN-TITLE-SHEET{2.62}
 70
     0
  0
ATTRIB
  5
CBC
330
CB4
100
AcDbEntity
  8
TITLE BLOCK
  6
Continuous
100
AcDbText
 10
18.94999999999999
 20
1.375
 30
0.0
 40
0.1010611419
  1

 41
0.8
100
AcDbAttribute
  2
GEN-TITLE-MAT{11.15}
 70
     0
  0
ATTRIB
  5
CBD
330
CB4
100
AcDbEntity
  8
TITLE BLOCK
  6
Continuous
100
AcDbText
 10
18.94999999999999
 20
1.625
 30
0.0
 40
0.1010611419
  1

100
AcDbAttribute
  2
GEN-TITLE-MACH{5}
 70
     0
  0
ATTRIB
  5
CBE
330
CB4
100
AcDbEntity
  8
TITLE BLOCK
  6
Continuous
100
AcDbText
 10
18.94999999999999
 20
1.875
 30
0.0
 40
0.1010611419
  1

100
AcDbAttribute
  2
GEN-TITLE-REF{5}
 70
     0
  0
ATTRIB
  5
CBF
330
CB4
100
AcDbEntity
  8
TITLE BLOCK
  6
Continuous
100
AcDbText
 10
20.42499999999999
 20
1.625
 30
0.0
 40
0.1010611419
  1
16.06.03
100
AcDbAttribute
  2
GEN-TITLE-PLOT{5}
 70
     0
  0
ATTRIB
  5
CC0
330
CB4
100
AcDbEntity
  8
TITLE BLOCK
  6
Continuous
100
AcDbText
 10
18.67273124178957
 20
0.8925842766853463
 30
0.0
 40
0.14
  1
MD.1000.8494
 41
0.8
100
AcDbAttribute
  2
GEN-TITLE-NR{13.37}
 70
     0
  0
SEQEND
  5
CB5
330
CB4
100
AcDbEntity
  8
0
  0
LINE
  5
D17
330
1F
100
AcDbEntity
  8
0
 62
     4
100
AcDbLine
 10
21.25875822341138
 20
4.487959862813077
 30
0.0
 11
12.9759735891598
 21
4.487959862813077
 31
0.0
  0
LINE
  5
D18
330
1F
100
AcDbEntity
  8
0
 62
     4
100
AcDbLine
 10
21.25875822341138
 20
3.237959862813092
 30
0.0
 11
12.9759735891598
 21
3.237959862813085
 31
0.0
  0
LINE
  5
D19
330
1F
100
AcDbEntity
  8
0
 62
     4
100
AcDbLine
 10
21.25875822341138
 20
3.487959862813099
 30
0.0
 11
12.9759735891598
 21
3.487959862813085
 31
0.0
  0
LINE
  5
D1A
330
1F
100
AcDbEntity
  8
0
 62
     4
100
AcDbLine
 10
21.25875822341138
 20
3.737959862813084
 30
0.0
 11
12.9759735891598
 21
3.737959862813085
 31
0.0
  0
LINE
  5
D1B
330
1F
100
AcDbEntity
  8
0
 62
     4
100
AcDbLine
 10
21.25875822341138
 20
3.987959862813085
 30
0.0
 11
12.9759735891598
 21
3.987959862813085
 31
0.0
  0
LINE
  5
D1C
330
1F
100
AcDbEntity
  8
0
 62
     4
100
AcDbLine
 10
16.1009735891598
 20
2.987959862813088
 30
0.0
 11
16.1009735891598
 21
4.487959862813077
 31
0.0
  0
LINE
  5
D1D
330
1F
100
AcDbEntity
  8
0
 62
     4
100
AcDbLine
 10
14.8509735891598
 20
2.987959862813086
 30
0.0
 11
14.8509735891598
 21
4.487959862813077
 31
0.0
  0
LINE
  5
D1E
330
1F
100
AcDbEntity
  8
0
 62
     4
100
AcDbLine
 10
12.9759735891598
 20
2.987959862813085
 30
0.0
 11
12.9759735891598
 21
4.487959862813077
 31
0.0
  0
TEXT
  5
D1F
330
1F
100
AcDbEntity
  8
0
100
AcDbText
 10
13.37791898552006
 20
4.254895141872154
 30
0.0
 40
0.125
  1
REFERENCE
  7
ROMANS
 72
     1
 11
13.91660946171054
 21
4.254895141872154
 31
0.0
100
AcDbText
  0
TEXT
  5
D20
330
1F
100
AcDbEntity
  8
0
100
AcDbText
 10
15.12775930344551
 20
4.254895141872154
 30
0.0
 40
0.125
  1
LENGTH
  7
ROMANS
 72
     1
 11
15.4759735891598
 21
4.254895141872154
 31
0.0
100
AcDbText
  0
TEXT
  5
D21
330
1F
100
AcDbEntity
  8
0
100
AcDbText
 10
13.39086467835497
 20
3.800300721226193
 30
0.0
 40
0.125
  1
Pxxxxx-M1
  7
ROMANS
 72
     1
 11
13.89979324978354
 21
3.800300721226193
 31
0.0
100
AcDbText
  0
TEXT
  5
D22
330
1F
100
AcDbEntity
  8
0
100
AcDbText
 10
13.37598372597402
 20
3.300300721226214
 30
0.0
 40
0.125
  1
Pxxxxx-M9
  7
ROMANS
 72
     1
 11
13.89979324978354
 21
3.300300721226214
 31
0.0
100
AcDbText
  0
TEXT
  5
D23
330
1F
100
AcDbEntity
  8
0
100
AcDbText
 10
13.37300753549783
 20
3.550300721226207
 30
0.0
 40
0.125
  1
Pxxxxx-M3
  7
ROMANS
 72
     1
 11
13.89979324978354
 21
3.550300721226207
 31
0.0
100
AcDbText
  0
TEXT
  5
D24
330
1F
100
AcDbEntity
  8
0
100
AcDbText
 10
13.2410142236153
 20
4.062378079850468
 30
0.0
 40
0.125
  1
PART NUMBER
  7
ROMANS
 72
     1
 11
13.91660946171054
 21
4.062378079850468
 31
0.0
100
AcDbText
  0
TEXT
  5
D25
330
1F
100
AcDbEntity
  8
0
100
AcDbText
 10
15.41942597011218
 20
3.300300721226207
 30
0.0
 40
0.125
  1
9
  7
ROMANS
 72
     1
 11
15.4759735891598
 21
3.300300721226207
 31
0.0
100
AcDbText
  0
TEXT
  5
D26
330
1F
100
AcDbEntity
  8
0
100
AcDbText
 10
15.42537835106456
 20
3.800300721226193
 30
0.0
 40
0.125
  1
1
  7
ROMANS
 72
     1
 11
15.4759735891598
 21
3.800300721226193
 31
0.0
100
AcDbText
  0
TEXT
  5
D27
330
1F
100
AcDbEntity
  8
0
100
AcDbText
 10
15.41644977963598
 20
3.550300721226207
 30
0.0
 40
0.125
  1
3
  7
ROMANS
 72
     1
 11
15.4759735891598
 21
3.550300721226207
 31
0.0
100
AcDbText
  0
TEXT
  5
D28
330
1F
100
AcDbEntity
  8
0
100
AcDbText
 10
14.88668787487408
 20
4.062378079850468
 30
0.0
 40
0.125
  1
(IN METERS)
  7
ROMANS
 72
     1
 11
15.4759735891598
 21
4.062378079850468
 31
0.0
100
AcDbText
  0
LINE
  5
D29
330
1F
100
AcDbEntity
  8
0
 62
     4
100
AcDbLine
 10
21.25875822341138
 20
2.987959862813092
 30
0.0
 11
21.25875822341138
 21
4.487959862813077
 31
0.0
  0
LINE
  5
D2A
330
1F
100
AcDbEntity
  8
0
 62
     4
100
AcDbLine
 10
18.10097358915979
 20
2.987959862813089
 30
0.0
 11
18.1009735891598
 21
4.487959862813077
 31
0.0
  0
TEXT
  5
D2B
330
1F
100
AcDbEntity
  8
0
100
AcDbText
 10
18.43728311296933
 20
4.254895141872154
 30
0.0
 40
0.125
  1
G&L Motion Control
  7
ROMANS
 72
     1
 11
19.53847358915981
 21
4.254895141872154
 31
0.0
100
AcDbText
  0
TEXT
  5
D2C
330
1F
100
AcDbEntity
  8
0
100
AcDbText
 10
16.61883073201694
 20
4.254895141872154
 30
0.0
 40
0.125
  1
G&L Motion Control
  7
ROMANS
 72
     1
 11
17.10097358915979
 21
4.254895141872154
 31
0.0
100
AcDbText
  0
TEXT
  5
D2D
330
1F
100
AcDbEntity
  8
0
100
AcDbText
 10
18.13505927849356
 20
3.800300721226193
 30
0.0
 40
0.125
  1
BKOUT BD, F1/F2, MMC-SD 1M
 41
0.95
  7
ROMANS
 72
     1
 11
19.62226165944594
 21
3.800300721226193
 31
0.0
100
AcDbText
  0
TEXT
  5
D2E
330
1F
100
AcDbEntity
  8
0
100
AcDbText
 10
18.58609263677886
 20
4.062378079850468
 30
0.0
 40
0.125
  1
SHORT DESCRIPTION
  7
ROMANS
 72
     1
 11
19.53847358915981
 21
4.062378079850468
 31
0.0
100
AcDbText
  0
TEXT
  5
D31
330
1F
100
AcDbEntity
  8
0
100
AcDbText
 10
16.42537835106456
 20
4.062378079850468
 30
0.0
 40
0.125
  1
PART NUMBER
  7
ROMANS
 72
     1
 11
17.10097358915979
 21
4.062378079850468
 31
0.0
100
AcDbText
  0
TEXT
  5
D32
330
1F
100
AcDbEntity
  8
0
100
AcDbText
 10
16.49085454154075
 20
3.800300721226193
 30
0.0
 40
0.125
  1
M.1302.6976
  7
ROMANS
 72
     1
 11
17.10097358915979
 21
3.800300721226193
 31
0.0
100
AcDbText
  0
TEXT
  5
D33
330
1F
100
AcDbEntity
  8
0
100
AcDbText
 10
16.49085454154075
 20
3.550300721226207
 30
0.0
 40
0.125
  1
M.1302.6977
  7
ROMANS
 72
     1
 11
17.10097358915979
 21
3.550300721226207
 31
0.0
100
AcDbText
  0
TEXT
  5
D34
330
1F
100
AcDbEntity
  8
0
100
AcDbText
 10
16.49383073201694
 20
3.300300721226207
 30
0.0
 40
0.125
  1
M.1302.6979
  7
ROMANS
 72
     1
 11
17.10097358915979
 21
3.300300721226207
 31
0.0
100
AcDbText
  0
TEXT
  5
D40
330
1F
100
AcDbEntity
  8
0
100
AcDbText
 10
18.13505927849356
 20
3.550300721226193
 30
0.0
 40
0.125
  1
BKOUT BD, F1/F2, MMC-SD 3M
 41
0.95
  7
ROMANS
 72
     1
 11
19.62226165944594
 21
3.550300721226193
 31
0.0
100
AcDbText
  0
TEXT
  5
D41
330
1F
100
AcDbEntity
  8
0
100
AcDbText
 10
18.13505927849356
 20
3.300300721226178
 30
0.0
 40
0.125
  1
BKOUT BD, F1/F2, MMC-SD 9M
 41
0.95
  7
ROMANS
 72
     1
 11
19.62226165944594
 21
3.300300721226178
 31
0.0
100
AcDbText
  0
TEXT
  5
D44
330
1F
100
AcDbEntity
  8
0
100
AcDbText
 10
13.31348372597402
 20
3.050300721226214
 30
0.0
 40
0.125
  1
Pxxxxx-M15
  7
ROMANS
 72
     1
 11
13.89979324978354
 21
3.050300721226214
 31
0.0
100
AcDbText
  0
TEXT
  5
D45
330
1F
100
AcDbEntity
  8
0
100
AcDbText
 10
15.34799739868361
 20
3.050300721226207
 30
0.0
 40
0.125
  1
15
  7
ROMANS
 72
     1
 11
15.4759735891598
 21
3.050300721226207
 31
0.0
100
AcDbText
  0
TEXT
  5
D46
330
1F
100
AcDbEntity
  8
0
100
AcDbText
 10
16.49085454154075
 20
3.050300721226207
 30
0.0
 40
0.125
  1
M.1302.6980
  7
ROMANS
 72
     1
 11
17.10097358915979
 21
3.050300721226207
 31
0.0
100
AcDbText
  0
TEXT
  5
D47
330
1F
100
AcDbEntity
  8
0
100
AcDbText
 10
18.13087917961382
 20
3.050300721226178
 30
0.0
 40
0.125
  1
BKOUT BD, F1/F2, MMC-SD 15M
 41
0.95
  7
ROMANS
 72
     1
 11
19.67462917961382
 21
3.050300721226178
 31
0.0
100
AcDbText
  0
LINE
  5
D48
330
1F
100
AcDbEntity
  8
0
 62
     4
100
AcDbLine
 10
21.25875822341138
 20
2.987959862813092
 30
0.0
 11
12.9759735891598
 21
2.987959862813085
 31
0.0
  0
TEXT
  5
D75
330
1F
100
AcDbEntity
  8
1
100
AcDbText
 10
1.258188257498236
 20
2.627707255320287
 30
0.0
 40
0.1125
  1
15
  7
SIMPLEX
 72
     4
 11
1.338545400355378
 21
2.683957255320287
 31
0.0
100
AcDbText
  0
TEXT
  5
D76
330
1F
100
AcDbEntity
  8
1
100
AcDbText
 10
1.30372397178395
 20
2.935004117693973
 30
0.0
 40
0.1125
  1
9
  7
SIMPLEX
 72
     4
 11
1.338545400355378
 21
2.991254117693973
 31
0.0
100
AcDbText
  0
TEXT
  5
D77
330
1F
100
AcDbEntity
  8
1
100
AcDbText
 10
1.301045400355393
 20
3.64228116423606
 30
0.0
 40
0.1125
  1
7
  7
SIMPLEX
 72
     4
 11
1.338545400355393
 21
3.69853116423606
 31
0.0
100
AcDbText
  0
TEXT
  5
D78
330
1F
100
AcDbEntity
  8
1
100
AcDbText
 10
1.282295400355393
 20
4.322574637510957
 30
0.0
 40
0.1125
  1
11
  7
SIMPLEX
 72
     4
 11
1.338545400355393
 21
4.378824637510957
 31
0.0
100
AcDbText
  0
TEXT
  5
D79
330
1F
100
AcDbEntity
  8
1
100
AcDbText
 10
1.301045400355378
 20
4.957792875093455
 30
0.0
 40
0.1125
  1
8
  7
SIMPLEX
 72
     4
 11
1.338545400355378
 21
5.014042875093456
 31
0.0
100
AcDbText
  0
TEXT
  5
D7A
330
1F
100
AcDbEntity
  8
1
100
AcDbText
 10
1.258188257498236
 20
5.26508973746712
 30
0.0
 40
0.1125
  1
13
  7
SIMPLEX
 72
     4
 11
1.338545400355378
 21
5.321339737467121
 31
0.0
100
AcDbText
  0
TEXT
  5
D7B
330
1F
100
AcDbEntity
  8
1
100
AcDbText
 10
1.258188257498245
 20
5.589107467204888
 30
0.0
 40
0.1125
  1
12
  7
SIMPLEX
 72
     4
 11
1.338545400355387
 21
5.645357467204888
 31
0.0
100
AcDbText
  0
MTEXT
  5
D98
330
1F
100
AcDbEntity
  8
0
100
AcDbMText
 10
12.97161869992091
 20
7.102285164119807
 30
0.0
 40
0.1
 41
5.652499999999999
 71
     1
 72
     5
  3
SPECIFICATIONS:\P\P1. LABEL CABLE AND CONNECTORS AS SHOWN.\P\P2. INSPECT FOR SHORTS. CONNECTIVITY MUST CONFORM TO WIRING DIAGRAM.\P\P3. PACKAGE PER MD.1000.5034 PACKAGING SPECIFICATION.\P\P4. WIRING DIAGRAM SHOWING PIN ORIENTATION AND COLOR CODE MUST
  1
 BE INCLUDED IN BOX.\P\P5. CHANGES TO THESE SPECIFICATIONS MUST BE APPROVED, IN WRITING, BY THE G&L Motion Control ENGINEERING DEPARTMENT.
 73
     1
 44
1.0
  0
TEXT
  5
DC2
330
1F
100
AcDbEntity
  8
0
100
AcDbText
 10
18.0625
 20
12.9375
 30
0.0
 40
0.1
  1
F1/F2
 50
225.0
100
AcDbText
  0
TEXT
  5
DEB
330
1F
100
AcDbEntity
  8
0
100
AcDbText
 10
1.6875
 20
9.3125
 30
0.0
 40
0.1
  1
A
100
AcDbText
  0
TEXT
  5
DEC
330
1F
100
AcDbEntity
  8
0
100
AcDbText
 10
1.6875
 20
9.0
 30
0.0
 40
0.1
  1
A/
100
AcDbText
  0
TEXT
  5
DED
330
1F
100
AcDbEntity
  8
0
100
AcDbText
 10
1.6875
 20
8.669047214733183
 30
0.0
 40
0.1
  1
B
100
AcDbText
  0
TEXT
  5
DEE
330
1F
100
AcDbEntity
  8
0
100
AcDbText
 10
1.6875
 20
8.356547214733183
 30
0.0
 40
0.1
  1
B/
100
AcDbText
  0
TEXT
  5
DEF
330
1F
100
AcDbEntity
  8
0
100
AcDbText
 10
1.6875
 20
8.012125674943561
 30
0.0
 40
0.1
  1
I
100
AcDbText
  0
TEXT
  5
DF0
330
1F
100
AcDbEntity
  8
0
100
AcDbText
 10
1.6875
 20
7.69962567494356
 30
0.0
 40
0.1
  1
I/
100
AcDbText
  0
TEXT
  5
DF9
330
1F
100
AcDbEntity
  8
0
100
AcDbText
 10
2.788788281122243
 20
7.329133775872897
 30
0.0
 40
0.1
  1
+5VDC
100
AcDbText
  0
TEXT
  5
DFA
330
1F
100
AcDbEntity
  8
0
100
AcDbText
 10
2.896201981739324
 20
6.697028730382733
 30
0.0
 40
0.1
  1
COM
100
AcDbText
  0
TEXT
  5
DFB
330
1F
100
AcDbEntity
  8
0
100
AcDbText
 10
1.687499999999999
 20
5.693829009509723
 30
0.0
 40
0.1
  1
S1
100
AcDbText
  0
TEXT
  5
DFC
330
1F
100
AcDbEntity
  8
0
100
AcDbText
 10
1.687499999999999
 20
5.381329009509722
 30
0.0
 40
0.1
  1
S2
100
AcDbText
  0
TEXT
  5
DFD
330
1F
100
AcDbEntity
  8
0
100
AcDbText
 10
1.6875
 20
5.045793550034193
 30
0.0
 40
0.1
  1
S3
100
AcDbText
  0
TEXT
  5
E02
330
1F
100
AcDbEntity
  8
0
100
AcDbText
 10
1.6875
 20
4.395037996475346
 30
0.0
 40
0.1
  1
TEMPERATURE
100
AcDbText
  0
TEXT
  5
E05
330
1F
100
AcDbEntity
  8
0
100
AcDbText
 10
1.687499999999999
 20
3.727707884143879
 30
0.0
 40
0.1
  1
9VDC
100
AcDbText
  0
TEXT
  5
E07
330
1F
100
AcDbEntity
  8
0
100
AcDbText
 10
1.6875
 20
3.039725659998826
 30
0.0
 40
0.1
  1
+TRAVEL LIMIT
100
AcDbText
  0
TEXT
  5
E09
330
1F
100
AcDbEntity
  8
0
100
AcDbText
 10
1.6875
 20
2.73242879762514
 30
0.0
 40
0.1
  1
-TRAVEL LIMIT
100
AcDbText
  0
TEXT
  5
E2D
330
1F
100
AcDbEntity
  8
0
100
AcDbText
 10
12.87452615704793
 20
1.304678351074699
 30
0.0
 40
0.1
  1
1
100
AcDbText
  0
TEXT
  5
E2E
330
1F
100
AcDbEntity
  8
0
100
AcDbText
 10
13.16856952022212
 20
1.290459932633609
 30
0.0
 40
0.1
  1
08.09.03
100
AcDbText
  0
TEXT
  5
E2F
330
1F
100
AcDbEntity
  8
0
100
AcDbText
 10
13.92264829095932
 20
1.29993889140011
 30
0.0
 40
0.1
  1
ADDED SIGNAL NAMES
100
AcDbText
  0
ENDSEC
  0
SECTION
  2
OBJECTS
  0
DICTIONARY
  5
C
330
0
100
AcDbDictionary
281
     1
  3
ACAD_GROUP
350
D
  3
ACAD_LAYOUT
350
1A
  3
ACAD_MLINESTYLE
350
17
  3
ACAD_PLOTSETTINGS
350
19
  3
ACAD_PLOTSTYLENAME
350
E
  3
AcadDim
350
A8D
  3
ACDBHEADERROUNDTRIPXREC
350
E31
  3
AcDbVariableDictionary
350
AA9
  3
AcmDictionary
350
ABB
  3
AMG
350
AA2
  3
AMGSNAPSETTINGS
350
AED
  3
DWGPROPS
350
DE9
  0
DICTIONARY
  5
BCC
330
1F
100
AcDbDictionary
280
     1
281
     1
  3
ACAD_INDEX
360
DBA
  0
DICTIONARY
  5
D
102
{ACAD_REACTORS
330
C
102
}
330
C
100
AcDbDictionary
281
     1
  0
DICTIONARY
  5
1A
102
{ACAD_REACTORS
330
C
102
}
330
C
100
AcDbDictionary
281
     1
  3
Layout1
350
1E
  3
Layout2
350
26
  3
Model
350
22
  0
DICTIONARY
  5
17
102
{ACAD_REACTORS
330
C
102
}
330
C
100
AcDbDictionary
281
     1
  3
Standard
350
18
  0
DICTIONARY
  5
19
102
{ACAD_REACTORS
330
C
102
}
330
C
100
AcDbDictionary
281
     1
  0
ACDBDICTIONARYWDFLT
  5
E
102
{ACAD_REACTORS
330
C
102
}
330
C
100
AcDbDictionary
281
     1
  3
Normal
350
F
100
AcDbDictionaryWithDefault
340
F
  0
XRECORD
  5
A8D
102
{ACAD_REACTORS
330
C
102
}
330
C
100
AcDbXrecord
280
     1
 90
   990106
  3

 60
     0
 61
     0
 62
     1
 63
     3
 64
     0
 65
     0
 66
     0
 67
     3
 68
     1
 69
     0
 70
     0
 71
     0
 72
     0
 40
0.0
170
     0
340
A91
  0
DICTIONARY
  5
E31
102
{ACAD_REACTORS
330
C
102
}
330
C
100
AcDbDictionary
281
     1
  3
CEPSNTYPE
350
E3B
  3
FINGERPRINTGUID
350
E3C
  3
HYPERLINKBASE
350
E34
  3
INSUNITS
350
E3A
  3
LAYOUTDICT
350
E36
  3
LWETCUNION
350
E39
  3
PLOTSETDICT
350
E37
  3
PLOTSTYLNAMDICT
350
E38
  3
PSVPSCALE
350
E3E
  3
PUCSBASE
350
E41
  3
PUCSORGBACK
350
E47
  3
PUCSORGBOTTOM
350
E43
  3
PUCSORGFRONT
350
E46
  3
PUCSORGLEFT
350
E44
  3
PUCSORGRIGHT
350
E45
  3
PUCSORGTOP
350
E42
  3
PUCSORTHOREF
350
E3F
  3
PUCSORTHOVIEW
350
E40
  3
STYLESHEET
350
E35
  3
TSTACKALIGN
350
E32
  3
TSTACKSIZE
350
E33
  3
UCSBASE
350
E4A
  3
UCSORGBACK
350
E50
  3
UCSORGBOTTOM
350
E4C
  3
UCSORGFRONT
350
E4F
  3
UCSORGLEFT
350
E4D
  3
UCSORGRIGHT
350
E4E
  3
UCSORGTOP
350
E4B
  3
UCSORTHOREF
350
E48
  3
UCSORTHOVIEW
350
E49
  3
VERSIONGUID
350
E3D
  0
DICTIONARY
  5
AA9
102
{ACAD_REACTORS
330
C
102
}
330
C
100
AcDbDictionary
281
     1
  3
DIMASSOC
350
D9B
  3
INDEXCTL
350
AAA
  0
DICTIONARY
  5
ABB
102
{ACAD_REACTORS
330
C
102
}
330
C
100
AcDbDictionary
281
     1
  3
AcmStdDictionary
350
AC1
  0
DICTIONARY
  5
AA2
102
{ACAD_REACTORS
330
C
102
}
330
C
100
AcDbDictionary
281
     1
  3
AcMgSettings
350
AA3
  0
DICTIONARY
  5
AED
102
{ACAD_REACTORS
330
C
102
}
330
C
100
AcDbDictionary
281
     1
  3
DIMENSION
350
AF2
  3
FEA
350
AF1
  3
HATCH (1)
350
AEE
  3
HATCH (2)
350
AEF
  3
SIMPLE WELD
350
AF3
  3
SYMBOLS
350
AF0
  0
XRECORD
  5
DE9
102
{ACAD_REACTORS
330
C
102
}
330
C
100
AcDbXrecord
280
     1
  1
DWGPROPS COOKIE
  2

  3

  4

  6

  7

  8

  9

300
AmdtFileType=84
301
=
302
=
303
=
304
=
305
=
306
=
307
=
308
=
309
=
 40
0.2911799189814815
 41
2452544.435273194
 42
2452807.490371331
  1

 90
        1
  0
DICTIONARY
  5
DBA
102
{ACAD_REACTORS
330
BCC
102
}
330
BCC
100
AcDbDictionary
281
     1
  3
*A1
350
DBB
  0
LAYOUT
  5
1E
102
{ACAD_REACTORS
330
1A
102
}
330
1A
100
AcDbPlotSettings
  1

  2
HP PhotoSmart P1000 Series
  4

  6

 40
0.0
 41
0.0
 42
0.0
 43
0.0
 44
0.0
 45
0.0
 46
0.0
 47
0.0
 48
0.0
 49
0.0
140
0.0
141
0.0
142
1.0
143
1.0
 70
   688
 72
     0
 73
     0
 74
     5
  7
monochrome.ctb
 75
    16
147
1.0
148
0.0
149
0.0
100
AcDbLayout
  1
Layout1
 70
     1
 71
     1
 10
0.0
 20
0.0
 11
12.0
 21
9.0
 12
0.0
 22
0.0
 32
0.0
 14
1.000000000000000E+20
 24
1.000000000000000E+20
 34
1.000000000000000E+20
 15
-1.000000000000000E+20
 25
-1.000000000000000E+20
 35
-1.000000000000000E+20
146
0.0
 13
0.0
 23
0.0
 33
0.0
 16
1.0
 26
0.0
 36
0.0
 17
0.0
 27
1.0
 37
0.0
 76
     0
330
1B
  0
LAYOUT
  5
26
102
{ACAD_REACTORS
330
1A
102
}
330
1A
100
AcDbPlotSettings
  1

  2
HP PhotoSmart P1000 Series
  4

  6

 40
0.0
 41
0.0
 42
0.0
 43
0.0
 44
0.0
 45
0.0
 46
0.0
 47
0.0
 48
0.0
 49
0.0
140
0.0
141
0.0
142
1.0
143
1.0
 70
   688
 72
     0
 73
     0
 74
     5
  7
monochrome.ctb
 75
    16
147
1.0
148
0.0
149
0.0
100
AcDbLayout
  1
Layout2
 70
     1
 71
     2
 10
0.0
 20
0.0
 11
12.0
 21
9.0
 12
0.0
 22
0.0
 32
0.0
 14
0.0
 24
0.0
 34
0.0
 15
0.0
 25
0.0
 35
0.0
146
0.0
 13
0.0
 23
0.0
 33
0.0
 16
1.0
 26
0.0
 36
0.0
 17
0.0
 27
1.0
 37
0.0
 76
     0
330
23
  0
LAYOUT
  5
22
102
{ACAD_REACTORS
330
1A
102
}
330
1A
100
AcDbPlotSettings
  1

  2
\\Fdlfs06\Engineering - HP LaserJet 5Si MX
  4
Letter
  6

 40
7.143749713897705
 41
6.974400997161865
 42
7.14373779296875
 43
6.297088623046875
 44
215.8999938964843
 45
279.3999938964843
 46
0.0
 47
0.762
 48
0.0
 49
0.0
140
0.0
141
0.0
142
1.0
143
2.110980109612015
 70
 11956
 72
     0
 73
     1
 74
     1
  7
monochrome.ctb
 75
     0
147
0.4737136060385682
148
0.0170519216182854
149
-6.213187658103542
100
AcDbLayout
  1
Model
 70
     1
 71
     0
 10
0.0
 20
0.0
 11
12.0
 21
9.0
 12
0.0
 22
0.0
 32
0.0
 14
0.0
 24
0.0
 34
0.0
 15
0.0
 25
0.0
 35
0.0
146
0.0
 13
0.0
 23
0.0
 33
0.0
 16
1.0
 26
0.0
 36
0.0
 17
0.0
 27
1.0
 37
0.0
 76
     0
330
1F
  0
MLINESTYLE
  5
18
102
{ACAD_REACTORS
330
17
102
}
330
17
100
AcDbMlineStyle
  2
STANDARD
 70
     0
  3

 62
   256
 51
90.0
 52
90.0
 71
     2
 49
0.5
 62
   256
  6
BYLAYER
 49
-0.5
 62
   256
  6
BYLAYER
  0
ACDBPLACEHOLDER
  5
F
102
{ACAD_REACTORS
330
E
102
}
330
E
  0
XRECORD
  5
E3B
102
{ACAD_REACTORS
330
E31
102
}
330
E31
100
AcDbXrecord
280
     1
 90
        0
  0
XRECORD
  5
E3C
102
{ACAD_REACTORS
330
E31
102
}
330
E31
100
AcDbXrecord
280
     1
  1
{B826B6B0-D14A-11D6-843B-00B0D02CC2F3}
  0
XRECORD
  5
E34
102
{ACAD_REACTORS
330
E31
102
}
330
E31
100
AcDbXrecord
280
     1
  1

  0
XRECORD
  5
E3A
102
{ACAD_REACTORS
330
E31
102
}
330
E31
100
AcDbXrecord
280
     1
 90
        1
  0
XRECORD
  5
E36
102
{ACAD_REACTORS
330
E31
102
}
330
E31
100
AcDbXrecord
280
     1
340
1A
  0
XRECORD
  5
E39
102
{ACAD_REACTORS
330
E31
102
}
330
E31
100
AcDbXrecord
280
     1
 90
    10781
  0
XRECORD
  5
E37
102
{ACAD_REACTORS
330
E31
102
}
330
E31
100
AcDbXrecord
280
     1
340
19
  0
XRECORD
  5
E38
102
{ACAD_REACTORS
330
E31
102
}
330
E31
100
AcDbXrecord
280
     1
340
E
  0
XRECORD
  5
E3E
102
{ACAD_REACTORS
330
E31
102
}
330
E31
100
AcDbXrecord
280
     1
 40
0.0
  0
XRECORD
  5
E41
102
{ACAD_REACTORS
330
E31
102
}
330
E31
100
AcDbXrecord
280
     1
340
0
  0
XRECORD
  5
E47
102
{ACAD_REACTORS
330
E31
102
}
330
E31
100
AcDbXrecord
280
     1
 10
0.0
 20
0.0
 30
0.0
  0
XRECORD
  5
E43
102
{ACAD_REACTORS
330
E31
102
}
330
E31
100
AcDbXrecord
280
     1
 10
0.0
 20
0.0
 30
0.0
  0
XRECORD
  5
E46
102
{ACAD_REACTORS
330
E31
102
}
330
E31
100
AcDbXrecord
280
     1
 10
0.0
 20
0.0
 30
0.0
  0
XRECORD
  5
E44
102
{ACAD_REACTORS
330
E31
102
}
330
E31
100
AcDbXrecord
280
     1
 10
0.0
 20
0.0
 30
0.0
  0
XRECORD
  5
E45
102
{ACAD_REACTORS
330
E31
102
}
330
E31
100
AcDbXrecord
280
     1
 10
0.0
 20
0.0
 30
0.0
  0
XRECORD
  5
E42
102
{ACAD_REACTORS
330
E31
102
}
330
E31
100
AcDbXrecord
280
     1
 10
0.0
 20
0.0
 30
0.0
  0
XRECORD
  5
E3F
102
{ACAD_REACTORS
330
E31
102
}
330
E31
100
AcDbXrecord
280
     1
340
0
  0
XRECORD
  5
E40
102
{ACAD_REACTORS
330
E31
102
}
330
E31
100
AcDbXrecord
280
     1
 70
     0
  0
XRECORD
  5
E35
102
{ACAD_REACTORS
330
E31
102
}
330
E31
100
AcDbXrecord
280
     1
  1
monochrome.ctb
  0
XRECORD
  5
E32
102
{ACAD_REACTORS
330
E31
102
}
330
E31
100
AcDbXrecord
280
     1
 90
        1
  0
XRECORD
  5
E33
102
{ACAD_REACTORS
330
E31
102
}
330
E31
100
AcDbXrecord
280
     1
 90
       70
  0
XRECORD
  5
E4A
102
{ACAD_REACTORS
330
E31
102
}
330
E31
100
AcDbXrecord
280
     1
340
0
  0
XRECORD
  5
E50
102
{ACAD_REACTORS
330
E31
102
}
330
E31
100
AcDbXrecord
280
     1
 10
0.0
 20
0.0
 30
0.0
  0
XRECORD
  5
E4C
102
{ACAD_REACTORS
330
E31
102
}
330
E31
100
AcDbXrecord
280
     1
 10
0.0
 20
0.0
 30
0.0
  0
XRECORD
  5
E4F
102
{ACAD_REACTORS
330
E31
102
}
330
E31
100
AcDbXrecord
280
     1
 10
0.0
 20
0.0
 30
0.0
  0
XRECORD
  5
E4D
102
{ACAD_REACTORS
330
E31
102
}
330
E31
100
AcDbXrecord
280
     1
 10
0.0
 20
0.0
 30
0.0
  0
XRECORD
  5
E4E
102
{ACAD_REACTORS
330
E31
102
}
330
E31
100
AcDbXrecord
280
     1
 10
0.0
 20
0.0
 30
0.0
  0
XRECORD
  5
E4B
102
{ACAD_REACTORS
330
E31
102
}
330
E31
100
AcDbXrecord
280
     1
 10
0.0
 20
0.0
 30
0.0
  0
XRECORD
  5
E48
102
{ACAD_REACTORS
330
E31
102
}
330
E31
100
AcDbXrecord
280
     1
340
0
  0
XRECORD
  5
E49
102
{ACAD_REACTORS
330
E31
102
}
330
E31
100
AcDbXrecord
280
     1
 70
     0
  0
XRECORD
  5
E3D
102
{ACAD_REACTORS
330
E31
102
}
330
E31
100
AcDbXrecord
280
     1
  1
{A8D55318-8E7E-4352-9F02-D53C44A266C6}
  0
DICTIONARYVAR
  5
D9B
102
{ACAD_REACTORS
330
AA9
102
}
330
AA9
100
DictionaryVariables
280
     0
  1
1
  0
DICTIONARYVAR
  5
AAA
102
{ACAD_REACTORS
330
AA9
102
}
330
AA9
100
DictionaryVariables
280
     0
  1
1
  0
DICTIONARY
  5
AC1
102
{ACAD_REACTORS
330
ABB
102
}
330
ABB
100
AcDbDictionary
281
     1
  0
DICTIONARY
  5
AA3
102
{ACAD_REACTORS
330
AA2
102
}
330
AA2
100
AcDbDictionary
281
     1
  3
DWGSETTINGS
350
AA4
  3
TRANSSETTINGS
350
AA5
  0
ACAMGFILTERDAT
  5
AF2
102
{ACAD_REACTORS
330
AED
102
}
330
AED
100
AcAmgFilterDat
 70
    15
  1
DIMENSION,AMDT_*_DIM
  2
*
  3
*
  4
*
  5
*
290
     1
  0
ACAMGFILTERDAT
  5
AF1
102
{ACAD_REACTORS
330
AED
102
}
330
AED
100
AcAmgFilterDat
 70
    15
  1
*
  2
AM_FEA-AM_*
  3
*
  4
*
  5
*
290
     1
  0
ACAMGFILTERDAT
  5
AEE
102
{ACAD_REACTORS
330
AED
102
}
330
AED
100
AcAmgFilterDat
 70
    15
  1
HATCH
  2
*
  3
*
  4
*
  5
*
290
     1
  0
ACAMGFILTERDAT
  5
AEF
102
{ACAD_REACTORS
330
AED
102
}
330
AED
100
AcAmgFilterDat
 70
    15
  1
LINE
  2
8,8N,*-8,*-8N,AM_8,AM_8N,*-AM_8,*-AM_8N
  3
*
  4
*
  5
INSERT,STDPART2D
290
     1
  0
ACAMGFILTERDAT
  5
AF3
102
{ACAD_REACTORS
330
AED
102
}
330
AED
100
AcAmgFilterDat
 70
    15
  1
ARC
  2
AM_5
  3
*
  4
2
  5
INSERT
290
     0
  0
ACAMGFILTERDAT
  5
AF0
102
{ACAD_REACTORS
330
AED
102
}
330
AED
100
AcAmgFilterDat
 70
    15
  1
ACMFCFRAME,ACMDATUMTARGET,ACMDATUMID,ACMWELDSYM,ACMSURFSYM,ACMFEATID,ACMPARTREF,ACMBALLOON,AMDTEDGESYM
  2
*
  3
*
  4
*
  5
*
290
     1
  0
LAYER_INDEX
  5
DBB
102
{ACAD_REACTORS
330
DBA
102
}
330
DBA
100
AcDbIndex
 40
2452892.348327291
100
AcDbLayerIndex
  8
0
360
DBC
 90
       82
  8
BORDER
360
DBD
 90
        0
  8
TITLE BLOCK
360
DBE
 90
        0
  8
1
360
DBF
 90
      689
  0
IDBUFFER
  5
DBC
330
0
100
AcDbIdBuffer
330
DEB
330
DEC
330
DED
330
DEE
330
DEF
330
DF0
330
DF9
330
DFA
330
DFB
330
DFC
330
DFD
330
E02
330
E05
330
E07
330
E09
330
E2D
330
E2E
330
E2F
330
D2C
330
D2D
330
D2E
330
D31
330
D32
330
D33
330
D34
330
D40
330
D41
330
D44
330
D45
330
D46
330
D47
330
D48
330
D98
330
DC2
330
A73
330
A74
330
A75
330
A76
330
A77
330
A78
330
A79
330
A7A
330
A7F
330
A80
330
A81
330
A82
330
A83
330
A84
330
A85
330
A86
330
A87
330
A88
330
A89
330
A8A
330
A8B
330
A8C
330
A8E
330
A8F
330
A90
330
A91
330
CB4
330
D17
330
D18
330
D19
330
D1A
330
D1B
330
D1C
330
D1D
330
D1E
330
D1F
330
D20
330
D21
330
D22
330
D23
330
D24
330
D25
330
D26
330
D27
330
D28
330
D29
330
D2A
330
D2B
  0
IDBUFFER
  5
DBD
330
0
100
AcDbIdBuffer
  0
IDBUFFER
  5
DBE
330
0
100
AcDbIdBuffer
  0
IDBUFFER
  5
DBF
330
0
100
AcDbIdBuffer
330
615
330
616
330
617
330
618
330
619
330
61A
330
61C
330
61D
330
61F
330
620
330
626
330
627
330
628
330
629
330
62A
330
62B
330
62C
330
62D
330
62E
330
635
330
636
330
637
330
638
330
639
330
63A
330
63B
330
63C
330
63D
330
63E
330
63F
330
640
330
641
330
642
330
643
330
644
330
645
330
646
330
647
330
648
330
649
330
64A
330
64B
330
64C
330
64D
330
64E
330
64F
330
650
330
651
330
652
330
653
330
654
330
655
330
656
330
657
330
658
330
659
330
65A
330
65B
330
65C
330
65D
330
65E
330
65F
330
660
330
661
330
662
330
663
330
664
330
665
330
666
330
667
330
668
330
669
330
66A
330
66B
330
66C
330
66D
330
66E
330
66F
330
670
330
671
330
672
330
673
330
674
330
675
330
676
330
677
330
678
330
679
330
67A
330
67B
330
67C
330
67D
330
67E
330
67F
330
680
330
681
330
682
330
683
330
684
330
685
330
686
330
687
330
688
330
689
330
68A
330
68B
330
68C
330
68D
330
68E
330
68F
330
690
330
691
330
692
330
693
330
694
330
695
330
696
330
697
330
698
330
699
330
69A
330
69B
330
69C
330
69D
330
69E
330
69F
330
6A0
330
6A1
330
6A2
330
6A3
330
6A4
330
6A5
330
6A6
330
6A7
330
6A8
330
6A9
330
6AA
330
6AB
330
6AC
330
6AD
330
6AE
330
6AF
330
6B0
330
6B1
330
6B2
330
6B3
330
6B4
330
6B5
330
6B6
330
6B7
330
6B8
330
6B9
330
6BA
330
6BB
330
6BC
330
6BD
330
6BE
330
6BF
330
6C0
330
6C1
330
6C2
330
6C3
330
6C4
330
6C5
330
6C6
330
6C7
330
6C8
330
6C9
330
6CA
330
6CB
330
6CC
330
6CD
330
6CE
330
6CF
330
6D0
330
6D1
330
6D2
330
6D3
330
6D4
330
6D5
330
6D6
330
6D7
330
6D8
330
A7B
330
A7C
330
A7D
330
A7E
330
D75
330
D76
330
D77
330
D78
330
D79
330
D7A
330
D7B
330
338
330
339
330
33A
330
33B
330
33C
330
33D
330
348
330
349
330
34A
330
34B
330
34C
330
34D
330
34E
330
34F
330
350
330
351
330
352
330
353
330
354
330
355
330
356
330
357
330
358
330
359
330
35A
330
35B
330
35C
330
35D
330
35E
330
35F
330
360
330
361
330
362
330
363
330
364
330
365
330
366
330
367
330
368
330
369
330
36A
330
36B
330
36C
330
36D
330
36E
330
36F
330
370
330
371
330
372
330
373
330
374
330
375
330
376
330
377
330
378
330
379
330
37A
330
37B
330
37C
330
37D
330
37E
330
37F
330
380
330
381
330
382
330
383
330
384
330
385
330
386
330
387
330
388
330
389
330
38A
330
38B
330
38C
330
38D
330
38E
330
38F
330
390
330
391
330
392
330
393
330
394
330
395
330
396
330
397
330
398
330
399
330
39A
330
39B
330
39C
330
39D
330
39E
330
39F
330
3A0
330
3A1
330
3A2
330
3A3
330
3A4
330
3A5
330
3A6
330
3A7
330
3A8
330
3A9
330
3AA
330
3AB
330
3AC
330
3AD
330
3AE
330
3AF
330
3B0
330
3B1
330
3B2
330
3B3
330
3B4
330
3B5
330
3B6
330
3B7
330
3B8
330
3B9
330
3BA
330
3BB
330
3BC
330
3BD
330
3BE
330
3BF
330
3C0
330
3C1
330
3C2
330
3C3
330
3C4
330
3C5
330
3C6
330
3C7
330
3C8
330
3C9
330
3CA
330
3CB
330
3CC
330
3CD
330
3CE
330
3CF
330
3D0
330
3D1
330
3D2
330
3D3
330
3D4
330
3D5
330
3D6
330
3D7
330
3D8
330
3D9
330
3DA
330
3DB
330
3DC
330
3DD
330
3DE
330
3DF
330
3E0
330
3E1
330
3E2
330
3E3
330
3E4
330
3E5
330
3E6
330
3E7
330
3E8
330
3E9
330
3EA
330
3EB
330
3EC
330
3ED
330
3EE
330
3EF
330
3F0
330
3F1
330
3F2
330
3F3
330
3F4
330
3F5
330
3F6
330
3F7
330
3F8
330
3F9
330
3FA
330
3FB
330
3FC
330
3FD
330
3FE
330
3FF
330
400
330
401
330
402
330
403
330
404
330
405
330
406
330
407
330
408
330
409
330
40A
330
40B
330
40C
330
40D
330
40E
330
40F
330
410
330
411
330
412
330
413
330
414
330
415
330
416
330
417
330
418
330
419
330
41A
330
41B
330
41C
330
41D
330
41E
330
41F
330
420
330
421
330
422
330
423
330
424
330
425
330
426
330
427
330
428
330
429
330
42A
330
435
330
436
330
437
330
438
330
439
330
43A
330
43B
330
43C
330
43D
330
43E
330
43F
330
440
330
441
330
442
330
443
330
444
330
445
330
446
330
447
330
448
330
449
330
44A
330
44B
330
44C
330
44D
330
44E
330
44F
330
450
330
451
330
452
330
453
330
455
330
45B
330
45C
330
45D
330
45E
330
45F
330
460
330
461
330
462
330
463
330
464
330
465
330
466
330
467
330
468
330
469
330
46A
330
46B
330
46C
330
46D
330
46E
330
46F
330
470
330
471
330
472
330
473
330
474
330
475
330
476
330
477
330
478
330
479
330
47A
330
47B
330
47C
330
47D
330
47E
330
47F
330
480
330
481
330
482
330
483
330
484
330
485
330
486
330
487
330
488
330
489
330
48A
330
48B
330
48C
330
48D
330
48E
330
48F
330
490
330
491
330
492
330
493
330
494
330
495
330
496
330
497
330
498
330
499
330
49A
330
49B
330
49C
330
49D
330
49E
330
49F
330
4A0
330
4A1
330
4A2
330
4A3
330
4A4
330
4A5
330
4A6
330
4A7
330
4A8
330
4A9
330
4AA
330
4AB
330
4AC
330
4AD
330
4AE
330
4AF
330
4B0
330
4B1
330
4B2
330
4B3
330
4B4
330
4B5
330
4B6
330
4B7
330
4B8
330
4B9
330
4BA
330
4BB
330
4BC
330
4BD
330
4BE
330
4BF
330
4C0
330
4C1
330
4C2
330
4C3
330
4C4
330
4C5
330
4C6
330
4C7
330
4C8
330
4C9
330
4CA
330
4CB
330
4CC
330
4CD
330
4CE
330
4CF
330
4D0
330
4D1
330
4D2
330
4D3
330
4D4
330
4D5
330
4D6
330
4D7
330
4D8
330
4D9
330
4DA
330
4DB
330
4DC
330
4DD
330
4DE
330
4DF
330
4E0
330
4E1
330
4E2
330
4E3
330
4E4
330
4E5
330
4E6
330
4E7
330
4E8
330
4E9
330
4EA
330
4EB
330
4EC
330
4ED
330
4EE
330
4EF
330
4F0
330
4F1
330
4F2
330
4F3
330
4F4
330
4F5
330
4F6
330
4F7
330
4F8
330
4F9
330
4FA
330
4FB
330
4FC
330
4FD
330
4FE
330
4FF
330
500
330
501
330
502
330
503
330
504
330
505
330
506
330
507
330
508
330
509
330
50A
330
50B
330
50C
330
50D
330
50E
330
50F
330
510
330
511
330
512
330
513
330
514
330
515
330
516
330
517
330
518
330
519
330
51A
330
51B
330
51C
330
51D
330
51E
330
51F
330
520
330
521
330
522
330
523
330
524
330
525
330
526
330
527
330
528
330
529
330
52A
330
52B
330
52C
330
52D
330
52E
330
52F
330
530
330
531
330
532
330
533
330
534
330
614
330
536
330
60A
330
60B
330
60C
330
60D
330
60E
330
60F
330
610
330
611
330
612
330
613
  0
ENDSEC
  0
EOF
