  0
SECTION
  2
HEADER
  9
$ACADVER
  1
AC1015
  9
$ACADMAINTVER
 70
    11
  9
$DWGCODEPAGE
  3
ANSI_1252
  9
$INSBASE
 10
0.0
 20
0.0
 30
0.0
  9
$EXTMIN
 10
8.330764438056093
 20
7.933472151918067
 30
-0.0000000000000005
  9
$EXTMAX
 10
30.33336937027516
 20
24.69103878479099
 30
0.0000000000000148
  9
$LIMMIN
 10
0.0
 20
0.0
  9
$LIMMAX
 10
12.0
 20
9.0
  9
$ORTHOMODE
 70
     0
  9
$REGENMODE
 70
     1
  9
$FILLMODE
 70
     1
  9
$QTEXTMODE
 70
     0
  9
$MIRRTEXT
 70
     0
  9
$LTSCALE
 40
0.25
  9
$ATTMODE
 70
     1
  9
$TEXTSIZE
 40
0.1
  9
$TRACEWID
 40
0.05
  9
$TEXTSTYLE
  7
STANDARD
  9
$CLAYER
  8
0
  9
$CELTYPE
  6
BYLAYER
  9
$CECOLOR
 62
   256
  9
$CELTSCALE
 40
1.0
  9
$DISPSILH
 70
     0
  9
$DIMSCALE
 40
1.0
  9
$DIMASZ
 40
0.18
  9
$DIMEXO
 40
0.0625
  9
$DIMDLI
 40
0.38
  9
$DIMRND
 40
0.0
  9
$DIMDLE
 40
0.0
  9
$DIMEXE
 40
0.125
  9
$DIMTP
 40
0.0
  9
$DIMTM
 40
0.0
  9
$DIMTXT
 40
0.125
  9
$DIMCEN
 40
0.09
  9
$DIMTSZ
 40
0.0
  9
$DIMTOL
 70
     0
  9
$DIMLIM
 70
     0
  9
$DIMTIH
 70
     1
  9
$DIMTOH
 70
     1
  9
$DIMSE1
 70
     0
  9
$DIMSE2
 70
     0
  9
$DIMTAD
 70
     0
  9
$DIMZIN
 70
     0
  9
$DIMBLK
  1

  9
$DIMASO
 70
     0
  9
$DIMSHO
 70
     1
  9
$DIMPOST
  1

  9
$DIMAPOST
  1

  9
$DIMALT
 70
     0
  9
$DIMALTD
 70
     2
  9
$DIMALTF
 40
25.4
  9
$DIMLFAC
 40
1.0
  9
$DIMTOFL
 70
     0
  9
$DIMTVP
 40
0.0
  9
$DIMTIX
 70
     0
  9
$DIMSOXD
 70
     0
  9
$DIMSAH
 70
     0
  9
$DIMBLK1
  1

  9
$DIMBLK2
  1

  9
$DIMSTYLE
  2
STANDARD
  9
$DIMCLRD
 70
     0
  9
$DIMCLRE
 70
     0
  9
$DIMCLRT
 70
     0
  9
$DIMTFAC
 40
1.0
  9
$DIMGAP
 40
0.09
  9
$DIMJUST
 70
     0
  9
$DIMSD1
 70
     0
  9
$DIMSD2
 70
     0
  9
$DIMTOLJ
 70
     1
  9
$DIMTZIN
 70
     0
  9
$DIMALTZ
 70
     0
  9
$DIMALTTZ
 70
     0
  9
$DIMUPT
 70
     0
  9
$DIMDEC
 70
     4
  9
$DIMTDEC
 70
     4
  9
$DIMALTU
 70
     2
  9
$DIMALTTD
 70
     2
  9
$DIMTXSTY
  7
STANDARD
  9
$DIMAUNIT
 70
     0
  9
$DIMADEC
 70
     0
  9
$DIMALTRND
 40
0.0
  9
$DIMAZIN
 70
     0
  9
$DIMDSEP
 70
    46
  9
$DIMATFIT
 70
     3
  9
$DIMFRAC
 70
     0
  9
$DIMLDRBLK
  1

  9
$DIMLUNIT
 70
     2
  9
$DIMLWD
 70
    -2
  9
$DIMLWE
 70
    -2
  9
$DIMTMOVE
 70
     0
  9
$LUNITS
 70
     2
  9
$LUPREC
 70
     4
  9
$SKETCHINC
 40
0.1
  9
$FILLETRAD
 40
0.0
  9
$AUNITS
 70
     0
  9
$AUPREC
 70
     0
  9
$MENU
  1
.
  9
$ELEVATION
 40
0.0
  9
$PELEVATION
 40
0.0
  9
$THICKNESS
 40
0.0
  9
$LIMCHECK
 70
     0
  9
$CHAMFERA
 40
0.5
  9
$CHAMFERB
 40
0.5
  9
$CHAMFERC
 40
1.0
  9
$CHAMFERD
 40
0.0
  9
$SKPOLY
 70
     0
  9
$TDCREATE
 40
2450708.349033448
  9
$TDUCREATE
 40
2450708.557366782
  9
$TDUPDATE
 40
2452891.556491968
  9
$TDUUPDATE
 40
2452891.764825301
  9
$TDINDWG
 40
1.9195786458
  9
$TDUSRTIMER
 40
1.9195784606
  9
$USRTIMER
 70
     1
  9
$ANGBASE
 50
0.0
  9
$ANGDIR
 70
     0
  9
$PDMODE
 70
    35
  9
$PDSIZE
 40
0.0
  9
$PLINEWID
 40
0.0
  9
$SPLFRAME
 70
     0
  9
$SPLINETYPE
 70
     6
  9
$SPLINESEGS
 70
     8
  9
$HANDSEED
  5
5607
  9
$SURFTAB1
 70
     6
  9
$SURFTAB2
 70
     6
  9
$SURFTYPE
 70
     6
  9
$SURFU
 70
     6
  9
$SURFV
 70
     6
  9
$UCSBASE
  2

  9
$UCSNAME
  2

  9
$UCSORG
 10
8.333017992887789
 20
7.689530864144758
 30
0.0
  9
$UCSXDIR
 10
1.0
 20
0.0
 30
0.0
  9
$UCSYDIR
 10
0.0
 20
1.0
 30
0.0
  9
$UCSORTHOREF
  2

  9
$UCSORTHOVIEW
 70
     0
  9
$UCSORGTOP
 10
0.0
 20
0.0
 30
0.0
  9
$UCSORGBOTTOM
 10
0.0
 20
0.0
 30
0.0
  9
$UCSORGLEFT
 10
0.0
 20
0.0
 30
0.0
  9
$UCSORGRIGHT
 10
0.0
 20
0.0
 30
0.0
  9
$UCSORGFRONT
 10
0.0
 20
0.0
 30
0.0
  9
$UCSORGBACK
 10
0.0
 20
0.0
 30
0.0
  9
$PUCSBASE
  2

  9
$PUCSNAME
  2

  9
$PUCSORG
 10
0.0
 20
0.0
 30
0.0
  9
$PUCSXDIR
 10
1.0
 20
0.0
 30
0.0
  9
$PUCSYDIR
 10
0.0
 20
1.0
 30
0.0
  9
$PUCSORTHOREF
  2

  9
$PUCSORTHOVIEW
 70
     0
  9
$PUCSORGTOP
 10
0.0
 20
0.0
 30
0.0
  9
$PUCSORGBOTTOM
 10
0.0
 20
0.0
 30
0.0
  9
$PUCSORGLEFT
 10
0.0
 20
0.0
 30
0.0
  9
$PUCSORGRIGHT
 10
0.0
 20
0.0
 30
0.0
  9
$PUCSORGFRONT
 10
0.0
 20
0.0
 30
0.0
  9
$PUCSORGBACK
 10
0.0
 20
0.0
 30
0.0
  9
$USERI1
 70
     0
  9
$USERI2
 70
     0
  9
$USERI3
 70
     0
  9
$USERI4
 70
     0
  9
$USERI5
 70
     0
  9
$USERR1
 40
0.0
  9
$USERR2
 40
0.0
  9
$USERR3
 40
0.0
  9
$USERR4
 40
0.0
  9
$USERR5
 40
0.0
  9
$WORLDVIEW
 70
     1
  9
$SHADEDGE
 70
     3
  9
$SHADEDIF
 70
    70
  9
$TILEMODE
 70
     1
  9
$MAXACTVP
 70
    48
  9
$PINSBASE
 10
0.0
 20
0.0
 30
0.0
  9
$PLIMCHECK
 70
     0
  9
$PEXTMIN
 10
1.000000000000000E+20
 20
1.000000000000000E+20
 30
1.000000000000000E+20
  9
$PEXTMAX
 10
-1.000000000000000E+20
 20
-1.000000000000000E+20
 30
-1.000000000000000E+20
  9
$PLIMMIN
 10
0.0
 20
0.0
  9
$PLIMMAX
 10
12.0
 20
9.0
  9
$UNITMODE
 70
     0
  9
$VISRETAIN
 70
     1
  9
$PLINEGEN
 70
     0
  9
$PSLTSCALE
 70
     1
  9
$TREEDEPTH
 70
  3020
  9
$CMLSTYLE
  2
STANDARD
  9
$CMLJUST
 70
     0
  9
$CMLSCALE
 40
1.0
  9
$PROXYGRAPHICS
 70
     1
  9
$MEASUREMENT
 70
     0
  9
$CELWEIGHT
370
    -1
  9
$ENDCAPS
280
     0
  9
$JOINSTYLE
280
     0
  9
$LWDISPLAY
290
     0
  9
$INSUNITS
 70
     0
  9
$HYPERLINKBASE
  1

  9
$STYLESHEET
  1
monochrome.ctb
  9
$XEDIT
290
     1
  9
$CEPSNTYPE
380
     0
  9
$PSTYLEMODE
290
     1
  9
$FINGERPRINTGUID
  2
{21BBB917-79A7-48EA-B0E7-997A5F90763C}
  9
$VERSIONGUID
  2
{61CC9C7E-D0F1-4954-A7E2-5D19FC311D89}
  9
$EXTNAMES
290
     1
  9
$PSVPSCALE
 40
0.0
  9
$OLESTARTUP
290
     0
  0
ENDSEC
  0
SECTION
  2
CLASSES
  0
CLASS
  1
LWPOLYLINE
  2
AcDbPolyline
  3
AutoCAD 2000
 90
    32768
280
     0
281
     1
  0
CLASS
  1
DICTIONARYVAR
  2
AcDbDictionaryVar
  3
AutoCAD 2000
 90
        0
280
     0
281
     0
  0
CLASS
  1
HATCH
  2
AcDbHatch
  3
AutoCAD 2000
 90
    32768
280
     0
281
     1
  0
CLASS
  1
ACDBDICTIONARYWDFLT
  2
AcDbDictionaryWithDefault
  3
AutoCAD 2000
 90
        0
280
     0
281
     0
  0
CLASS
  1
ACDBPLACEHOLDER
  2
AcDbPlaceHolder
  3
AutoCAD 2000
 90
        0
280
     0
281
     0
  0
CLASS
  1
LAYOUT
  2
AcDbLayout
  3
AutoCAD 2000
 90
        0
280
     0
281
     0
  0
CLASS
  1
ACME_DOCUMENT
  2
AcMeDbDoc
  3
AcMeServices
 90
        0
280
     0
281
     0
  0
CLASS
  1
AMGSETTINGSOBJ
  2
AmgSettingsObj
  3
"AcadM|Product Description: AutoCAD Mechanical 2000|Company: Autodesk"
 90
        0
280
     0
281
     0
  0
CLASS
  1
ACMESCOPE
  2
AcMeScope
  3
AcMeServices
 90
        0
280
     0
281
     0
  0
CLASS
  1
ACMECOMMANDHISTORY
  2
AcMeCommandHistory
  3
AcMeServices
 90
        0
280
     0
281
     0
  0
CLASS
  1
ACIMSYSVARMAN
  2
AcImSysVarManager
  3
AcMeServices
 90
        0
280
     0
281
     0
  0
CLASS
  1
ACIMREALSYSVAR
  2
AcImRealSysVar
  3
AcMeServices
 90
        0
280
     0
281
     0
  0
CLASS
  1
ACIMINTSYSVAR
  2
AcImIntSysVar
  3
AcMeServices
 90
        0
280
     0
281
     0
  0
CLASS
  1
ACMEDRAWINGMAN
  2
AcMeDrawingMan
  3
AcMeServices
 90
        0
280
     0
281
     0
  0
CLASS
  1
ACMEVIEW
  2
AcMeView
  3
AcMeServices
 90
        0
280
     0
281
     0
  0
CLASS
  1
ACDBENTITYCACHE
  2
AcMeEntityCache
  3
AcMeServices
 90
        0
280
     0
281
     0
  0
CLASS
  1
GSMANAGER
  2
AcMeGSManager
  3
AcMeServices
 90
        0
280
     0
281
     0
  0
CLASS
  1
AMDTINTERNALREACTOR
  2
AmdtInternalReactor
  3
AcMeServices
 90
        0
280
     0
281
     0
  0
CLASS
  1
ACMESTATEMGR
  2
AcMeStateMgr
  3
AcMeServices
 90
        0
280
     0
281
     0
  0
CLASS
  1
ACGREFMASTER
  2
AcGrefMaster
  3
AcAttribServices
 90
        0
280
     0
281
     0
  0
CLASS
  1
ACME_DATABASE
  2
AcMeDbDatabase
  3
AcMeServices
 90
        0
280
     0
281
     0
  0
CLASS
  1
ACRFINSADJUSTERMGR
  2
AcRfInsAdjusterMgr
  3
AcMeServices
 90
        0
280
     0
281
     0
  0
CLASS
  1
ACGREFMASTER
  2
AcGrefacadMaster
  3
AcGrefServices
 90
        0
280
     0
281
     0
  0
CLASS
  1
AMIMASTER
  2
AmiMaster
  3
AmiServices
 90
        0
280
     0
281
     0
  0
CLASS
  1
ACMDATADICTIONARY
  2
AcmDataDictionary
  3
"AcmSymBB|Product Description: AutoCAD Mechanical 2000|Company: Autodesk"
 90
        0
280
     0
281
     0
  0
CLASS
  1
ACMDATAENTRYBLOCK
  2
AcmDataEntryBlock
  3
"AcmSymBB|Product Description: AutoCAD Mechanical 2000|Company: Autodesk"
 90
        0
280
     0
281
     0
  0
CLASS
  1
ACIMSTRSYSVAR
  2
AcImStrSysVar
  3
AcMeServices
 90
        0
280
     0
281
     0
  0
CLASS
  1
ACMSTANDARDANSI
  2
AcmStandardANSI
  3
"Amdt_StdImp|Product Description: AutoCAD Mechanical 2000|Company: Autodesk"
 90
        0
280
     0
281
     0
  0
CLASS
  1
AMGOBJPROPCFG
  2
AmgObjPropCfg
  3
"AmgLay|Product Description: AutoCAD Mechanical 2000|Company: Autodesk"
 90
        1
280
     0
281
     0
  0
CLASS
  1
ACMSURFSTANDARDANSI
  2
AcmSurfTextStdANSI
  3
"Amdt_StdImp|Product Description: AutoCAD Mechanical 2000|Company: Autodesk"
 90
        0
280
     0
281
     0
  0
CLASS
  1
ACMFCFSTANDARDANSI
  2
AcmFCFStdANSI
  3
"Amdt_StdImp|Product Description: AutoCAD Mechanical 2000|Company: Autodesk"
 90
        0
280
     0
281
     0
  0
CLASS
  1
ACMWELDSTANDARDANSI
  2
AcmWeldingStdANSI
  3
"Amdt_StdImp|Product Description: AutoCAD Mechanical 2000|Company: Autodesk"
 90
        0
280
     0
281
     0
  0
CLASS
  1
ACMIDSTANDARDANSI
  2
AcmIdStdANSI
  3
"Amdt_StdImp|Product Description: AutoCAD Mechanical 2000|Company: Autodesk"
 90
        0
280
     0
281
     0
  0
CLASS
  1
ACMDATUMSTANDARDANSI
  2
AcmDatumStdANSI
  3
"Amdt_StdImp|Product Description: AutoCAD Mechanical 2000|Company: Autodesk"
 90
        0
280
     0
281
     0
  0
CLASS
  1
ACMBOMSTANDARDANSI
  2
AcmBOMStdANSI
  3
"Amdt_StdImp|Product Description: AutoCAD Mechanical 2000|Company: Autodesk"
 90
        0
280
     0
281
     0
  0
CLASS
  1
ACMDETAILSTANDARDANSI
  2
AmdtDetailSymStdANSI
  3
"Amdt_StdImp|Product Description: AutoCAD Mechanical 2000|Company: Autodesk"
 90
        0
280
     0
281
     0
  0
CLASS
  1
ACMSECTIONSTANDARDANSI
  2
AmdtSectionSymStdANSI
  3
"Amdt_StdImp|Product Description: AutoCAD Mechanical 2000|Company: Autodesk"
 90
        0
280
     0
281
     0
  0
CLASS
  1
ACMCENTERLINESTANDARDANSI
  2
AmdtCenterLineStdANSI
  3
"Amdt_StdImp|Product Description: AutoCAD Mechanical 2000|Company: Autodesk"
 90
        0
280
     0
281
     0
  0
CLASS
  1
ACMTHREADLINESTANDARDANSI
  2
AmdtThreadLineStdANSI
  3
"Amdt_StdImp|Product Description: AutoCAD Mechanical 2000|Company: Autodesk"
 90
        0
280
     0
281
     0
  0
CLASS
  1
"AcAmgLayStd"
  2
AcAmgLayStd
  3
"AcAmgLayStd|Product Description: AutoCAD Mechanical 2000|Company: Autodesk"
 90
        0
280
     0
281
     0
  0
CLASS
  1
"AcAmgDimStd"
  2
AcAmgDimStd
  3
"AcAmgDimStd|Product Description: AutoCAD Mechanical 2000|Company: Autodesk"
 90
        0
280
     0
281
     0
  0
CLASS
  1
AcAmgTitleStd
  2
AcAmgTitleStd
  3
"TITLEAPP"
 90
        0
280
     0
281
     0
  0
CLASS
  1
ACAMGFILTERDAT
  2
AcAmgFilterDat
  3
"AcadM|Product Description: AutoCAD Mechanical 2000|Company: Autodesk"
 90
        0
280
     0
281
     0
  0
CLASS
  1
AMDTFORMULAUPDATEDISPATCHER
  2
AmdtFormulaUpdateDispatcher
  3
AcMeServices
 90
        0
280
     0
281
     0
  0
CLASS
  1
LAYER_INDEX
  2
AcDbLayerIndex
  3
AutoCAD 2000
 90
        0
280
     0
281
     0
  0
CLASS
  1
IDBUFFER
  2
AcDbIdBuffer
  3
AutoCAD 2000
 90
        0
280
     0
281
     0
  0
ENDSEC
  0
SECTION
  2
TABLES
  0
TABLE
  2
VPORT
  5
8
330
0
100
AcDbSymbolTable
 70
     6
  0
VPORT
  5
55E6
330
8
100
AcDbSymbolTableRecord
100
AcDbViewportTableRecord
  2
*Active
 70
     0
 10
0.0
 20
0.0
 11
1.0
 21
1.0
 12
19.33206690416562
 22
16.31225546835453
 13
0.0
 23
0.0
 14
0.125
 24
0.125
 15
0.5
 25
0.5
 16
0.0
 26
0.0
 36
1.0
 17
0.0
 27
0.0
 37
0.0
 40
16.93520868198464
 41
1.607079646017699
 42
50.0
 43
0.0
 44
0.0
 50
0.0
 51
0.0
 71
     0
 72
  2000
 73
     1
 74
     0
 75
     0
 76
     0
 77
     0
 78
     0
281
     0
 65
     1
110
8.333017992887789
120
7.689530864144758
130
0.0
111
1.0
121
0.0
131
0.0
112
0.0
122
1.0
132
0.0
 79
     0
146
0.0
  0
ENDTAB
  0
TABLE
  2
LTYPE
  5
5
330
0
100
AcDbSymbolTable
 70
    27
  0
LTYPE
  5
12
330
5
100
AcDbSymbolTableRecord
100
AcDbLinetypeTableRecord
  2
BYBLOCK
 70
     0
  3

 72
    65
 73
     0
 40
0.0
  0
LTYPE
  5
13
330
5
100
AcDbSymbolTableRecord
100
AcDbLinetypeTableRecord
  2
BYLAYER
 70
     0
  3

 72
    65
 73
     0
 40
0.0
  0
LTYPE
  5
14
330
5
100
AcDbSymbolTableRecord
100
AcDbLinetypeTableRecord
  2
CONTINUOUS
 70
     0
  3
Solid line
 72
    65
 73
     0
 40
0.0
  0
LTYPE
  5
5B3
330
5
100
AcDbSymbolTableRecord
100
AcDbLinetypeTableRecord
  2
HIDDEN
 70
     0
  3
_ _ _ _ _ _ _ _ _ _ _ _ _ _ _ _ _ _ _ _ _ _ _
 72
    65
 73
     2
 40
0.375
 49
0.25
 74
     0
 49
-0.125
 74
     0
  0
LTYPE
  5
3B68
330
5
100
AcDbSymbolTableRecord
100
AcDbLinetypeTableRecord
  2
CENTER
 70
     0
  3
____ _ ____ _ ____ _ ____ _ ____ _ ____ _ ____ 
 72
    65
 73
     4
 40
2.0
 49
1.25
 74
     0
 49
-0.25
 74
     0
 49
0.25
 74
     0
 49
-0.25
 74
     0
  0
LTYPE
  5
41BF
330
5
100
AcDbSymbolTableRecord
100
AcDbLinetypeTableRecord
  2
L10
 70
     0
  3
L10
 72
    65
 73
     0
 40
0.0
  0
LTYPE
  5
41C0
330
5
100
AcDbSymbolTableRecord
100
AcDbLinetypeTableRecord
  2
LDM
 70
     0
  3
LDM
 72
    65
 73
     0
 40
0.0
  0
LTYPE
  5
4523
330
5
100
AcDbSymbolTableRecord
100
AcDbLinetypeTableRecord
  2
MS
 70
     0
  3
MEDIUM_SOLID
 72
    65
 73
     0
 40
0.0
  0
LTYPE
  5
47B5
330
5
100
AcDbSymbolTableRecord
100
AcDbLinetypeTableRecord
  2
AM_ISO02W050
 70
     0
  3
__ __ __ __ __ __ __ __ __ __ __ __ __ __ __
 72
    65
 73
     2
 40
7.5
 49
6.0
 74
     0
 49
-1.5
 74
     0
  0
LTYPE
  5
47B6
330
5
100
AcDbSymbolTableRecord
100
AcDbLinetypeTableRecord
  2
AM_ISO08W050
 70
     0
  3
____ . ____ . ____ . ____ . ____ . ____ . ____
 72
    65
 73
     4
 40
18.0
 49
12.0
 74
     0
 49
-1.5
 74
     0
 49
3.0
 74
     0
 49
-1.5
 74
     0
  0
LTYPE
  5
47B7
330
5
100
AcDbSymbolTableRecord
100
AcDbLinetypeTableRecord
  2
AM_ISO09W050
 70
     0
  3
_____ . . _____ . . _____ . . ____ .. ____
 72
    65
 73
     6
 40
22.5
 49
12.0
 74
     0
 49
-1.5
 74
     0
 49
3.0
 74
     0
 49
-1.5
 74
     0
 49
3.0
 74
     0
 49
-1.5
 74
     0
  0
LTYPE
  5
47B8
330
5
100
AcDbSymbolTableRecord
100
AcDbLinetypeTableRecord
  2
Amconstr
 70
     0
  3
_______________________
 72
    65
 73
     2
 40
9999.0
 49
9999.0
 74
     0
 49
0.0
 74
     0
  0
LTYPE
  5
47B9
330
5
100
AcDbSymbolTableRecord
100
AcDbLinetypeTableRecord
  2
AM_ISO08W050x2
 70
     0
  3
__ . __ . __ . __ . __ . __
 72
    65
 73
     4
 40
9.0
 49
6.0
 74
     0
 49
-0.75
 74
     0
 49
1.5
 74
     0
 49
-0.75
 74
     0
  0
LTYPE
  5
47BA
330
5
100
AcDbSymbolTableRecord
100
AcDbLinetypeTableRecord
  2
AM_ISO02W050x2
 70
     0
  3
 _ _ _ _ _ _ _ _ _ _ _ _
 72
    65
 73
     2
 40
3.75
 49
3.0
 74
     0
 49
-0.75
 74
     0
  0
LTYPE
  5
47BD
330
5
100
AcDbSymbolTableRecord
100
AcDbLinetypeTableRecord
  2
Amzigzag
 70
     0
  3
/\/-/\/-/\/-/\/-/\/-/\/
 72
    65
 73
     2
 40
11.00009999999999
 49
0.0001
 74
     4
 75
   135
340
47BC
 46
0.04
 50
0.0
 44
0.0
 45
0.0
 49
-11.0
 74
     0
  0
LTYPE
  5
47BE
330
5
100
AcDbSymbolTableRecord
100
AcDbLinetypeTableRecord
  2
PHANTOM2
 70
     0
  3
Phantom (.5x) ___ _ _ ___ _ _ ___ _ _ ___ _ _
 72
    65
 73
     6
 40
1.25
 49
0.625
 74
     0
 49
-0.125
 74
     0
 49
0.125
 74
     0
 49
-0.125
 74
     0
 49
0.125
 74
     0
 49
-0.125
 74
     0
  0
LTYPE
  5
47BF
330
5
100
AcDbSymbolTableRecord
100
AcDbLinetypeTableRecord
  2
CENTER2
 70
     0
  3
Center (.5x) ___ _ ___ _ ___ _ ___ _ ___ _ ___
 72
    65
 73
     4
 40
1.125
 49
0.75
 74
     0
 49
-0.125
 74
     0
 49
0.125
 74
     0
 49
-0.125
 74
     0
  0
LTYPE
  5
47C0
330
5
100
AcDbSymbolTableRecord
100
AcDbLinetypeTableRecord
  2
HIDDEN2
 70
     0
  3
Hidden (.5x) _ _ _ _ _ _ _ _ _ _ _ _ _ _ _ _ _
 72
    65
 73
     2
 40
0.1875
 49
0.125
 74
     0
 49
-0.0625
 74
     0
  0
LTYPE
  5
47C1
330
5
100
AcDbSymbolTableRecord
100
AcDbLinetypeTableRecord
  2
Amzigzag2
 70
     0
  3
/\/-/\/-/\/-/\/-/\/-/\/
 72
    65
 73
     2
 40
0.4401
 49
0.0001
 74
     4
 75
   135
340
47BC
 46
0.0016
 50
0.0
 44
0.0
 45
0.0
 49
-0.4400000000000001
 74
     0
  0
LTYPE
  5
47CE
330
5
100
AcDbSymbolTableRecord
100
AcDbLinetypeTableRecord
  2
ACANSTGB
 70
     0
  3
__ . . __ . .
 72
    65
 73
     6
 40
0.35433070866
 49
0.15748031496
 74
     0
 49
-0.03937007874
 74
     0
 49
0.03937007874
 74
     0
 49
-0.03937007874
 74
     0
 49
0.03937007874
 74
     0
 49
-0.03937007874
 74
     0
  0
LTYPE
  5
47CF
330
5
100
AcDbSymbolTableRecord
100
AcDbLinetypeTableRecord
  2
ACANSTGL
 70
     0
  3
_ _ _ _ _
 72
    65
 73
     2
 40
0.11811023622
 49
0.07874015748
 74
     0
 49
-0.03937007874
 74
     0
  0
LTYPE
  5
47E7
330
5
100
AcDbSymbolTableRecord
100
AcDbLinetypeTableRecord
  2
gen3
 70
     0
  3
-- -- -- -- -- -- -- -- -- -- -- -- -- -- --
 72
    65
 73
     2
 40
6.25
 49
4.75
 74
     0
 49
-1.5
 74
     0
  0
LTYPE
  5
47E8
330
5
100
AcDbSymbolTableRecord
100
AcDbLinetypeTableRecord
  2
gen7
 70
     0
  3
____ . ____ . ____ . ____ . ____ . ____ . ____
 72
    65
 73
     4
 40
13.75
 49
9.75
 74
     0
 49
-1.5
 74
     0
 49
1.0
 74
     0
 49
-1.5
 74
     0
  0
LTYPE
  5
47E9
330
5
100
AcDbSymbolTableRecord
100
AcDbLinetypeTableRecord
  2
gen3a
 70
     0
  3
 - - - - -
 72
    65
 73
     2
 40
3.125
 49
2.25
 74
     0
 49
-0.875
 74
     0
  0
LTYPE
  5
47EA
330
5
100
AcDbSymbolTableRecord
100
AcDbLinetypeTableRecord
  2
gen7a
 70
     0
  3
__ . __ . __
 72
    65
 73
     4
 40
6.875
 49
4.75
 74
     0
 49
-0.875
 74
     0
 49
0.375
 74
     0
 49
-0.875
 74
     0
  0
LTYPE
  5
47EB
330
5
100
AcDbSymbolTableRecord
100
AcDbLinetypeTableRecord
  2
gen4a
 70
     0
  3
_____ . . _____ . . _____ . . ____ .. ____
 72
    65
 73
     6
 40
16.25
 49
9.75
 74
     0
 49
-1.5
 74
     0
 49
1.0
 74
     0
 49
-1.5
 74
     0
 49
1.0
 74
     0
 49
-1.5
 74
     0
  0
LTYPE
  5
47EC
330
5
100
AcDbSymbolTableRecord
100
AcDbLinetypeTableRecord
  2
genzigzag
 70
     0
  3
/\/-/\/-/\/-/\/-/\/-/\/
 72
    65
 73
     2
 40
12.0001
 49
0.0001
 74
     4
 75
   135
340
47EE
 46
2.0
 50
0.0
 44
0.0
 45
0.0
 49
-12.0
 74
     0
  0
LTYPE
  5
50C2
330
5
100
AcDbSymbolTableRecord
100
AcDbLinetypeTableRecord
  2
LS
 70
     0
  3
LIGHT_SOLID
 72
    65
 73
     0
 40
0.0
  0
LTYPE
  5
50C3
330
5
100
AcDbSymbolTableRecord
100
AcDbLinetypeTableRecord
  2
LP
 70
     0
  3
LIGHT_PHANTOM
 72
    65
 73
     6
 40
1.5
 49
0.75
 74
     0
 49
-0.14999998
 74
     0
 49
0.14999998
 74
     0
 49
-0.14999998
 74
     0
 49
0.14999998
 74
     0
 49
-0.14999998
 74
     0
  0
ENDTAB
  0
TABLE
  2
LAYER
  5
2
330
0
100
AcDbSymbolTable
 70
     8
  0
LAYER
  5
E
330
2
100
AcDbSymbolTableRecord
100
AcDbLayerTableRecord
  2
0
 70
     0
 62
     7
  6
CONTINUOUS
370
    -3
390
4189
  0
LAYER
  5
3B6A
330
2
100
AcDbSymbolTableRecord
100
AcDbLayerTableRecord
  2
DEFPOINTS
 70
     0
 62
     7
  6
CONTINUOUS
290
     0
370
    -3
390
4189
  0
LAYER
  5
41C1
330
2
100
AcDbSymbolTableRecord
100
AcDbLayerTableRecord
  2
500
 70
     0
 62
     7
  6
CONTINUOUS
370
    -3
390
4189
  0
LAYER
  5
41C2
330
2
100
AcDbSymbolTableRecord
100
AcDbLayerTableRecord
  2
4
 70
     0
 62
     7
  6
CONTINUOUS
370
    -3
390
4189
  0
LAYER
  5
4524
330
2
100
AcDbSymbolTableRecord
100
AcDbLayerTableRecord
  2
BORDER
 70
     0
 62
    15
  6
CONTINUOUS
370
    -3
390
4189
  0
LAYER
  5
4525
330
2
100
AcDbSymbolTableRecord
100
AcDbLayerTableRecord
  2
Title Block
 70
     0
 62
     2
  6
CONTINUOUS
370
    -3
390
4189
  0
LAYER
  5
47ED
330
2
100
AcDbSymbolTableRecord
100
AcDbLayerTableRecord
  2
L0
 70
     0
 62
    20
  6
CONTINUOUS
370
    -3
390
4189
  0
LAYER
  5
5309
330
2
100
AcDbSymbolTableRecord
100
AcDbLayerTableRecord
  2
1
 70
     0
 62
     7
  6
CONTINUOUS
370
    -3
390
4189
  0
ENDTAB
  0
TABLE
  2
STYLE
  5
3
330
0
100
AcDbSymbolTable
 70
    16
  0
STYLE
  5
F
330
3
100
AcDbSymbolTableRecord
100
AcDbTextStyleTableRecord
  2
STANDARD
 70
     0
 40
0.0
 41
1.0
 50
0.0
 71
     0
 42
0.1
  3
romans.shx
  4

  0
STYLE
  5
E3
330
3
100
AcDbSymbolTableRecord
100
AcDbTextStyleTableRecord
  2
ROMANS
 70
     0
 40
0.0
 41
1.0
 50
0.0
 71
     0
 42
0.09375
  3
romans
  4

  0
STYLE
  5
E5
330
3
100
AcDbSymbolTableRecord
100
AcDbTextStyleTableRecord
  2
ROMANS_HLF
 70
     0
 40
0.0
 41
0.5
 50
0.0
 71
     0
 42
0.062
  3
C:\ACADWIN\FONTS\ROMANS.SHX
  4

  0
STYLE
  5
EB6
330
3
100
AcDbSymbolTableRecord
100
AcDbTextStyleTableRecord
  2
ARIEL_B
 70
     0
 40
0.0
 41
1.0
 50
0.0
 71
     0
 42
0.125
  3
ARIALBD.TTF
  4

1001
ACAD
1000
Arial
1071
 33554466
  0
STYLE
  5
EB7
330
3
100
AcDbSymbolTableRecord
100
AcDbTextStyleTableRecord
  2
ARIEL_SP
 70
     0
 40
0.0
 41
1.12
 50
0.0
 71
     0
 42
0.18
  3

  4

1001
ACAD
1000
Arial Narrow Special G1
1071
 33554978
  0
STYLE
  5
EB8
330
3
100
AcDbSymbolTableRecord
100
AcDbTextStyleTableRecord
  2
TIMES_NEW
 70
     0
 40
0.0
 41
1.0
 50
0.0
 71
     0
 42
0.1
  3
TIMESBD.TTF
  4

1001
ACAD
1000
Times New Roman
1071
 33554450
  0
STYLE
  5
EB9
330
3
100
AcDbSymbolTableRecord
100
AcDbTextStyleTableRecord
  2
ARIEL
 70
     0
 40
0.0
 41
1.0
 50
0.0
 71
     0
 42
0.1
  3
ARIAL.TTF
  4

1001
ACAD
1000
Arial
1071
       34
  0
STYLE
  5
41C3
330
3
100
AcDbSymbolTableRecord
100
AcDbTextStyleTableRecord
  2
T1
 70
     0
 40
4.0
 41
0.9
 50
0.0
 71
     0
 42
0.0
  3
medtext
  4

  0
STYLE
  5
41C4
330
3
100
AcDbSymbolTableRecord
100
AcDbTextStyleTableRecord
  2
TDM
 70
     0
 40
4.0
 41
0.9
 50
0.0
 71
     0
 42
0.0
  3
medtext
  4

  0
STYLE
  5
4526
330
3
100
AcDbSymbolTableRecord
100
AcDbTextStyleTableRecord
  2
AE
 70
     0
 40
0.0
 41
1.0
 50
0.0
 71
     0
 42
0.16408998
  3
MIGRATOR
  4

  0
STYLE
  5
4527
330
3
100
AcDbSymbolTableRecord
100
AcDbTextStyleTableRecord
  2

 70
     1
 40
0.0
 41
1.0
 50
0.0
 71
     0
 42
1.0
  3
symtb128
  4

  0
STYLE
  5
47BC
330
3
100
AcDbSymbolTableRecord
100
AcDbTextStyleTableRecord
  2

 70
     1
 40
0.0
 41
1.0
 50
0.0
 71
     0
 42
0.125
  3
ltypeshp.shx
  4

  0
STYLE
  5
47C2
330
3
100
AcDbSymbolTableRecord
100
AcDbTextStyleTableRecord
  2
ACANSTS
 70
     0
 40
1.0
 41
1.0
 50
0.0
 71
     0
 42
0.125
  3
romans.shx
  4

  0
STYLE
  5
47CD
330
3
100
AcDbSymbolTableRecord
100
AcDbTextStyleTableRecord
  2
ACANSGDT
 70
     0
 40
0.0
 41
1.0
 50
0.0
 71
     0
 42
0.125
  3
amgdtans.shx
  4

  0
STYLE
  5
47EE
330
3
100
AcDbSymbolTableRecord
100
AcDbTextStyleTableRecord
  2

 70
     1
 40
0.0
 41
1.0
 50
0.0
 71
     0
 42
2.5
  3
genltshp.shx
  4

  0
STYLE
  5
530A
330
3
100
AcDbSymbolTableRecord
100
AcDbTextStyleTableRecord
  2
SIMPLEX
 70
     0
 40
0.0938
 41
1.0
 50
0.0
 71
     0
 42
0.0938
  3
C:\ACADWIN\FONTS\SIMPLEX.SHX
  4

  0
ENDTAB
  0
TABLE
  2
VIEW
  5
6
330
0
100
AcDbSymbolTable
 70
     0
  0
ENDTAB
  0
TABLE
  2
UCS
  5
7
330
0
100
AcDbSymbolTable
 70
     0
  0
ENDTAB
  0
TABLE
  2
APPID
  5
9
330
0
100
AcDbSymbolTable
 70
     7
  0
APPID
  5
10
330
9
100
AcDbSymbolTableRecord
100
AcDbRegAppTableRecord
  2
ACAD
 70
     0
  0
APPID
  5
4529
330
9
100
AcDbSymbolTableRecord
100
AcDbRegAppTableRecord
  2
GENIUS_GENBLLY_14
 70
     0
  0
APPID
  5
452A
330
9
100
AcDbSymbolTableRecord
100
AcDbRegAppTableRecord
  2
GENIUS_GENTRA_14
 70
     0
  0
APPID
  5
4796
330
9
100
AcDbSymbolTableRecord
100
AcDbRegAppTableRecord
  2
MCAD_NO_VIS
 70
     0
  0
APPID
  5
4797
330
9
100
AcDbSymbolTableRecord
100
AcDbRegAppTableRecord
  2
ACAD_TEMP_GRAPHIC
 70
     0
  0
APPID
  5
47A9
330
9
100
AcDbSymbolTableRecord
100
AcDbRegAppTableRecord
  2
ACATTRIBSERVICES
 70
     0
  0
APPID
  5
4946
330
9
100
AcDbSymbolTableRecord
100
AcDbRegAppTableRecord
  2
DCO15
 70
     0
  0
ENDTAB
  0
TABLE
  2
DIMSTYLE
  5
A
330
0
100
AcDbSymbolTable
 70
    15
100
AcDbDimStyleTable
 71
     1
340
1D
  0
DIMSTYLE
105
1D
330
A
100
AcDbSymbolTableRecord
100
AcDbDimStyleTableRecord
  2
STANDARD
 70
     0
340
F
  0
DIMSTYLE
105
41C5
330
A
100
AcDbSymbolTableRecord
100
AcDbDimStyleTableRecord
  2
MEDDIM
 70
     0
 45
0.01
 78
    12
146
0.7
172
     1
176
     7
177
     7
178
     7
273
     4
277
     4
279
     2
340
F
  0
DIMSTYLE
105
4528
330
A
100
AcDbSymbolTableRecord
100
AcDbDimStyleTableRecord
  2
GEN-ANSI
 70
     0
  3
<>
  4
mm
 41
0.14
 42
0.125
 43
0.5
 44
0.125
 47
0.1
 48
0.1
 73
     0
 74
     0
 77
     1
 78
     7
140
0.12
141
0.0
146
0.71
147
0.06
176
   256
177
   256
178
     2
274
     4
340
F
  0
DIMSTYLE
105
47D2
330
A
100
AcDbSymbolTableRecord
100
AcDbDimStyleTableRecord
  2
AM_ANSI
 70
     0
  4
mm
 41
0.1
 42
0.05
 43
0.5
 44
0.1
 47
0.1
 48
0.1
 78
     7
 79
     2
140
0.12
141
0.0
146
0.71
147
0.06
176
   256
177
   256
178
     2
274
     4
284
     7
340
F
371
    -1
372
    -1
  0
DIMSTYLE
105
47D3
330
A
100
AcDbSymbolTableRecord
100
AcDbDimStyleTableRecord
  2
AM_ANSI$3
 70
     0
  4
mm
 41
0.1
 42
0.05
 43
0.5
 44
0.1
 47
0.1
 48
0.1
 78
     7
 79
     2
140
0.12
141
0.0
146
0.71
147
0.06
176
   256
177
   256
178
     2
274
     4
284
     7
288
     1
289
     0
340
F
371
    -1
372
    -1
  0
DIMSTYLE
105
47D4
330
A
100
AcDbSymbolTableRecord
100
AcDbDimStyleTableRecord
  2
AM_ANSI$4
 70
     0
  4
mm
 41
0.1
 42
0.05
 43
0.5
 44
0.1
 47
0.1
 48
0.1
 78
     7
 79
     2
140
0.12
141
0.0
146
0.71
147
0.06
176
   256
177
   256
178
     2
274
     4
284
     7
288
     1
289
     0
340
F
371
    -1
372
    -1
  0
DIMSTYLE
105
47D5
330
A
100
AcDbSymbolTableRecord
100
AcDbDimStyleTableRecord
  2
AM_ANSI$7
 70
     0
  4
mm
 41
0.1
 42
0.05
 43
0.5
 44
0.1
 47
0.1
 48
0.1
 78
     7
 79
     2
140
0.24
141
0.0
146
0.71
147
0.06
176
   256
177
   256
178
     2
274
     4
284
     7
340
F
371
    -1
372
    -1
  0
DIMSTYLE
105
47D6
330
A
100
AcDbSymbolTableRecord
100
AcDbDimStyleTableRecord
  2
AM_ANSI$SF
 70
     0
  4
mm
 41
0.1
 42
0.05
 43
0.5
 44
0.1
 47
0.1
 48
0.1
 75
     1
 76
     1
 78
     7
 79
     2
140
0.12
141
0.0
146
0.71
147
0.06
176
   256
177
   256
178
     2
274
     4
284
     7
340
F
371
    -1
372
    -1
  0
DIMSTYLE
105
47DB
330
A
100
AcDbSymbolTableRecord
100
AcDbDimStyleTableRecord
  2
AM_ANSI$SH
 70
     0
  4
mm
 41
0.1
 42
0.05
 43
0.5
 44
0.1
 47
0.1
 48
0.1
 75
     1
 76
     1
 78
     7
 79
     2
140
0.12
141
0.0
146
0.71
147
0.06
173
     1
176
   256
177
   256
178
     2
274
     4
284
     7
340
F
343
47D7
371
    -1
372
    -1
  0
DIMSTYLE
105
47EF
330
A
100
AcDbSymbolTableRecord
100
AcDbDimStyleTableRecord
  2
GEN-ANSI$3
 70
     0
  3
<>
  4
mm
 41
0.14
 42
0.125
 43
0.5
 44
0.125
 47
0.1
 48
0.1
 78
     7
140
0.12
141
0.0
146
0.71
147
0.06
176
   256
177
   256
178
     2
274
     4
288
     1
289
     0
340
F
  0
DIMSTYLE
105
47F0
330
A
100
AcDbSymbolTableRecord
100
AcDbDimStyleTableRecord
  2
GEN-ANSI$4
 70
     0
  3
<>
  4
mm
 41
0.14
 42
0.125
 43
0.5
 44
0.125
 47
0.1
 48
0.1
 78
     7
140
0.12
141
0.0
146
0.71
147
0.06
176
   256
177
   256
178
     2
274
     4
288
     1
289
     0
340
F
  0
DIMSTYLE
105
47F1
330
A
100
AcDbSymbolTableRecord
100
AcDbDimStyleTableRecord
  2
GEN-ANSI$6
 70
     0
  3
<>
  4
mm
 41
0.14
 42
0.125
 43
0.5
 44
0.125
 47
0.1
 48
0.1
 78
     7
140
0.12
141
0.0
146
0.71
147
0.06
176
   256
177
   256
178
     2
274
     4
340
F
  0
DIMSTYLE
105
47F2
330
A
100
AcDbSymbolTableRecord
100
AcDbDimStyleTableRecord
  2
GEN-ANSI-POS
 70
     0
  3
<>
  4
mm
 41
0.1
 42
0.125
 43
0.5
 44
0.125
 47
0.1
 48
0.1
 73
     0
 74
     0
 78
     7
140
0.2
141
0.0
146
0.71
147
0.06
176
   256
177
   256
178
     2
274
     4
340
F
  0
DIMSTYLE
105
47F3
330
A
100
AcDbSymbolTableRecord
100
AcDbDimStyleTableRecord
  2
GEN-ANSI-AXE-F
 70
     0
  3
<>
  4
mm
 41
0.14
 42
0.125
 43
0.5
 44
0.125
 47
0.1
 48
0.1
 75
     1
 76
     1
 78
     7
140
0.12
141
0.0
146
0.71
147
0.06
173
     1
176
   256
177
   256
178
     2
274
     4
340
F
343
47D7
  0
DIMSTYLE
105
47F4
330
A
100
AcDbSymbolTableRecord
100
AcDbDimStyleTableRecord
  2
GEN-ANSI-AXE-H
 70
     0
  3
<>
  4
mm
 41
0.14
 42
0.125
 43
0.5
 44
0.125
 47
0.1
 48
0.1
 73
     0
 74
     0
 75
     1
 76
     1
 78
     7
140
0.12
141
0.0
144
2.0
146
0.71
147
0.06
172
     1
173
     1
176
   256
177
   256
178
     2
274
     4
340
F
343
47D7
  0
ENDTAB
  0
TABLE
  2
BLOCK_RECORD
  5
1
330
0
100
AcDbSymbolTable
 70
    16
  0
BLOCK_RECORD
  5
18
102
{ACAD_XDICTIONARY
360
488B
102
}
330
1
100
AcDbSymbolTableRecord
100
AcDbBlockTableRecord
  2
*MODEL_SPACE
340
418C
  0
BLOCK_RECORD
  5
15
330
1
100
AcDbSymbolTableRecord
100
AcDbBlockTableRecord
  2
*PAPER_SPACE
340
418D
  0
BLOCK_RECORD
  5
1747
330
1
100
AcDbSymbolTableRecord
100
AcDbBlockTableRecord
  2
TBSINE98_U
340
0
  0
BLOCK_RECORD
  5
35CE
330
1
100
AcDbSymbolTableRecord
100
AcDbBlockTableRecord
  2
BORD-B
340
0
  0
BLOCK_RECORD
  5
419E
330
1
100
AcDbSymbolTableRecord
100
AcDbBlockTableRecord
  2
MEDCLUMP_NTE_659_
340
0
  0
BLOCK_RECORD
  5
41A4
330
1
100
AcDbSymbolTableRecord
100
AcDbBlockTableRecord
  2
MEDFUNV_6
340
0
102
{BLKREFS
331
41A0
331
41AF
331
41B5
331
41BB
102
}
  0
BLOCK_RECORD
  5
41AD
330
1
100
AcDbSymbolTableRecord
100
AcDbBlockTableRecord
  2
MEDCLUMP_NTE_655_
340
0
  0
BLOCK_RECORD
  5
41B3
330
1
100
AcDbSymbolTableRecord
100
AcDbBlockTableRecord
  2
MEDCLUMP_NTE_651_
340
0
  0
BLOCK_RECORD
  5
41B9
330
1
100
AcDbSymbolTableRecord
100
AcDbBlockTableRecord
  2
MEDCLUMP_NTE_647_
340
0
  0
BLOCK_RECORD
  5
452B
330
1
100
AcDbSymbolTableRecord
100
AcDbBlockTableRecord
  2
ASSEMBLY_B
340
0
  0
BLOCK_RECORD
  5
45E9
330
1
100
AcDbSymbolTableRecord
100
AcDbBlockTableRecord
  2
A$C6BD72E2A
340
0
  0
BLOCK_RECORD
  5
45EE
330
1
100
AcDbSymbolTableRecord
100
AcDbBlockTableRecord
  2
A$C64DF1C68
340
0
  0
BLOCK_RECORD
  5
46C3
330
1
100
AcDbSymbolTableRecord
100
AcDbBlockTableRecord
  2
A$C4856593E
340
0
  0
BLOCK_RECORD
  5
474F
330
1
100
AcDbSymbolTableRecord
100
AcDbBlockTableRecord
  2
A$C274720C3
340
0
  0
BLOCK_RECORD
  5
47D7
330
1
100
AcDbSymbolTableRecord
100
AcDbBlockTableRecord
  2
GENAXEH
340
0
  0
BLOCK_RECORD
  5
50C4
330
1
100
AcDbSymbolTableRecord
100
AcDbBlockTableRecord
  2
ASSEMBLY_C
340
0
102
{BLKREFS
331
517C
102
}
  0
BLOCK_RECORD
  5
530B
330
1
100
AcDbSymbolTableRecord
100
AcDbBlockTableRecord
  2
A$C3B09691F
340
0
  0
ENDTAB
  0
ENDSEC
  0
SECTION
  2
BLOCKS
  0
BLOCK
  5
19
330
18
100
AcDbEntity
  8
0
100
AcDbBlockBegin
  2
*MODEL_SPACE
 70
     0
 10
0.0
 20
0.0
 30
0.0
  3
*MODEL_SPACE
  1

  0
ENDBLK
  5
1A
330
18
100
AcDbEntity
  8
0
100
AcDbBlockEnd
  0
BLOCK
  5
16
330
15
100
AcDbEntity
 67
     1
  8
0
100
AcDbBlockBegin
  2
*PAPER_SPACE
 70
     0
 10
0.0
 20
0.0
 30
0.0
  3
*PAPER_SPACE
  1

  0
ENDBLK
  5
17
330
15
100
AcDbEntity
 67
     1
  8
0
100
AcDbBlockEnd
  0
BLOCK
  5
17A9
330
1747
100
AcDbEntity
  8
0
100
AcDbBlockBegin
  2
TBSINE98_U
 70
     2
 10
0.0
 20
0.0
 30
0.0
  3
TBSINE98_U
  1

  0
LINE
  5
1748
330
1747
100
AcDbEntity
  8
0
 62
     4
100
AcDbLine
 10
0.0
 20
1.374999999999999
 30
0.0
 11
-4.0
 21
1.375
 31
0.0
  0
TEXT
  5
1749
330
1747
100
AcDbEntity
  8
0
 62
     4
100
AcDbText
 10
-5.420391657898547
 20
2.562348232292053
 30
0.0
 40
0.125
  1
MATERIALS LIST
 41
1.968078602400067
  7
ROMANS
 72
     5
 11
-2.585421290155593
 21
2.562348232292053
 31
0.0
100
AcDbText
  0
TEXT
  5
174A
330
1747
100
AcDbEntity
  8
0
 62
     7
100
AcDbText
 10
-3.969435524660248
 20
0.6553540019688049
 30
0.0
 40
0.063
  1
SIZE
 41
1.977647930413569
  7
ROMANS
 72
     5
 11
-3.583794178229601
 21
0.6553540019688049
 31
0.0
100
AcDbText
  0
LINE
  5
174B
330
1747
100
AcDbEntity
  8
0
 62
     4
100
AcDbLine
 10
0.0
 20
2.999999999999998
 30
0.0
 11
-8.000000000000001
 21
3.0
 31
0.0
  0
LINE
  5
174C
330
1747
100
AcDbEntity
  8
0
 62
     4
100
AcDbLine
 10
0.0
 20
2.749999999999998
 30
0.0
 11
-8.000000000000001
 21
2.75
 31
0.0
  0
LINE
  5
174D
330
1747
100
AcDbEntity
  8
0
 62
     4
100
AcDbLine
 10
0.0
 20
2.499999999999999
 30
0.0
 11
-8.0
 21
2.5
 31
0.0
  0
LINE
  5
174E
330
1747
100
AcDbEntity
  8
0
 62
     4
100
AcDbLine
 10
0.0
 20
0.7499999999999993
 30
0.0
 11
-4.0
 21
0.75
 31
0.0
  0
LINE
  5
174F
330
1747
100
AcDbEntity
  8
0
 62
     4
100
AcDbLine
 10
0.0
 20
0.2499999999999992
 30
0.0
 11
-4.0
 21
0.2499999999999996
 31
0.0
  0
LINE
  5
1750
330
1747
100
AcDbEntity
  8
0
 62
     4
100
AcDbLine
 10
-7.0
 20
3.0
 30
0.0
 11
-7.0
 21
2.5
 31
0.0
  0
LINE
  5
1751
330
1747
100
AcDbEntity
  8
0
 62
     4
100
AcDbLine
 10
-8.0
 20
0.0000000000000008
 30
0.0
 11
-8.000000000000008
 21
3.0
 31
0.0
  0
TEXT
  5
1752
330
1747
100
AcDbEntity
  8
0
100
AcDbText
 10
-7.523808085300968
 20
1.535654825308041
 30
0.0
 40
0.084
  1
S5-20020
  7
ROMANS
 72
     1
 11
-7.191808085300968
 21
1.535654825308041
 31
0.0
100
AcDbText
  0
TEXT
  5
1753
330
1747
100
AcDbEntity
  8
0
 62
     7
100
AcDbText
 10
-7.937867400239865
 20
1.671353367048056
 30
0.0
 40
0.0625
  1
3) Fabrication Standards Per:
  7
ROMANS
100
AcDbText
  0
TEXT
  5
1754
330
1747
100
AcDbEntity
  8
0
 62
     7
100
AcDbText
 10
-7.91485043418524
 20
0.7187500000000006
 30
0.0
 40
0.0625
  1
PROCESS SPECIFICATIONS:
  7
ROMANS
100
AcDbText
  0
LINE
  5
1755
330
1747
100
AcDbEntity
  8
0
 62
     4
100
AcDbLine
 10
-6.0
 20
0.8125
 30
0.0
 11
-7.999999999999997
 21
0.8124999999999996
 31
0.0
  0
TEXT
  5
1756
330
1747
100
AcDbEntity
  8
0
 62
     7
100
AcDbText
 10
-7.91485043418524
 20
1.28125
 30
0.0
 40
0.0625
  1
MATERIAL SPECIFICATIONS:
  7
ROMANS
100
AcDbText
  0
LINE
  5
1757
330
1747
100
AcDbEntity
  8
0
 62
     4
100
AcDbLine
 10
-6.0
 20
1.374999999999999
 30
0.0
 11
-7.999999999999997
 21
1.374999999999999
 31
0.0
  0
TEXT
  5
1758
330
1747
100
AcDbEntity
  8
0
 62
     7
100
AcDbText
 10
-7.918167783944689
 20
2.38454662786736
 30
0.0
 40
0.063
  1
%%UUNLESS OTHERWISE SPECIFIED
 41
1.271494138093697
  7
ROMANS
 72
     5
 11
-6.068143813018359
 21
2.38454662786736
 31
0.0
100
AcDbText
  0
TEXT
  5
1759
330
1747
100
AcDbEntity
  8
0
 62
     7
100
AcDbText
 10
-7.895003595128808
 20
1.786679721223629
 30
0.0
 40
0.0625
  1
3 PL DEC %%P0.005
  7
ROMANS
100
AcDbText
  0
TEXT
  5
175A
330
1747
100
AcDbEntity
  8
0
 62
     7
100
AcDbText
 10
-7.937372251514232
 20
2.230086754058263
 30
0.0
 40
0.0625
  1
1) All dimensions are in inches.
  7
ROMANS
100
AcDbText
  0
TEXT
  5
175B
330
1747
100
AcDbEntity
  8
0
 62
     7
100
AcDbText
 10
-7.935001329560299
 20
2.111228873760972
 30
0.0
 40
0.0625
  1
2) Tolerances are as follows:
  7
ROMANS
100
AcDbText
  0
TEXT
  5
175C
330
1747
100
AcDbEntity
  8
0
 62
     7
100
AcDbText
 10
-7.895003595128808
 20
1.989060673604581
 30
0.0
 40
0.0625
  1
1 PL DEC %%P0.05
  7
ROMANS
100
AcDbText
  0
TEXT
  5
175D
330
1747
100
AcDbEntity
  8
0
 62
     7
100
AcDbText
 10
-7.895003595128808
 20
1.887870197414105
 30
0.0
 40
0.0625
  1
2 PL DEC %%P0.01
  7
ROMANS
100
AcDbText
  0
TEXT
  5
175E
330
1747
100
AcDbEntity
  8
0
100
AcDbText
 10
-7.928571428571428
 20
2.5625
 30
0.0
 40
0.125
  1
QUANTITY
  7
ROMANS
 72
     1
 11
-7.5
 21
2.5625
 31
0.0
100
AcDbText
  0
LINE
  5
175F
330
1747
100
AcDbEntity
  8
0
 62
     4
100
AcDbLine
 10
-4.0
 20
1.75
 30
0.0
 11
-6.0
 21
1.749999999999999
 31
0.0
  0
TEXT
  5
1760
330
1747
100
AcDbEntity
  8
0
 62
     7
100
AcDbText
 10
-5.732160063336098
 20
2.334239652357628
 30
0.0
 40
0.063
  1
SIGNATURES    
 41
1.488772902752936
  7
ROMANS
 72
     5
 11
-4.521787693397961
 21
2.334239652357628
 31
0.0
100
AcDbText
  0
LINE
  5
1761
330
1747
100
AcDbEntity
  8
0
 62
     4
100
AcDbLine
 10
-4.0
 20
1.0
 30
0.0
 11
-6.0
 21
0.9999999999999996
 31
0.0
  0
LINE
  5
1762
330
1747
100
AcDbEntity
  8
0
 62
     4
100
AcDbLine
 10
-4.0
 20
1.5
 30
0.0
 11
-6.0
 21
1.5
 31
0.0
  0
LINE
  5
1763
330
1747
100
AcDbEntity
  8
0
 62
     4
100
AcDbLine
 10
-4.629993325288353
 20
2.0
 30
0.0
 11
-6.0
 21
2.0
 31
0.0
  0
LINE
  5
1764
330
1747
100
AcDbEntity
  8
0
 62
     4
100
AcDbLine
 10
-4.0
 20
2.25
 30
0.0
 11
-6.0
 21
2.25
 31
0.0
  0
LINE
  5
1765
330
1747
100
AcDbEntity
  8
0
 62
     4
100
AcDbLine
 10
-6.0
 20
0.0000000000000006
 30
0.0
 11
-6.0
 21
2.5
 31
0.0
  0
TEXT
  5
1766
330
1747
100
AcDbEntity
  8
0
 62
     7
100
AcDbText
 10
-6.861816199145001
 20
1.979848532971896
 30
0.0
 40
0.0625
  1
Fractions %%P1/64
  7
ROMANS
100
AcDbText
  0
LINE
  5
1767
330
1747
100
AcDbEntity
  8
0
 62
     7
100
AcDbLine
 10
-6.940909897136906
 20
2.046954603288238
 30
0.0
 11
-6.940909897136906
 21
1.788259346073721
 31
0.0
  0
TEXT
  5
1768
330
1747
100
AcDbEntity
  8
0
 62
     7
100
AcDbText
 10
-6.861816199145001
 20
1.878658056781419
 30
0.0
 40
0.0625
  1
Angles %%P1%%D
  7
ROMANS
100
AcDbText
  0
TEXT
  5
1769
330
1747
100
AcDbEntity
  8
0
 62
     7
100
AcDbText
 10
-5.963333000415435
 20
1.40625
 30
0.0
 40
0.0625
  1
APPROVAL:
  7
ROMANS
100
AcDbText
  0
TEXT
  5
176A
330
1747
100
AcDbEntity
  8
0
 62
     7
100
AcDbText
 10
-5.963333000415435
 20
1.65625
 30
0.0
 40
0.0625
  1
ENGINEER:
  7
ROMANS
100
AcDbText
  0
TEXT
  5
176B
330
1747
100
AcDbEntity
  8
0
 62
     7
100
AcDbText
 10
-5.963333000415435
 20
1.90625
 30
0.0
 40
0.0625
  1
CHECKED:
  7
ROMANS
100
AcDbText
  0
TEXT
  5
176C
330
1747
100
AcDbEntity
  8
0
 62
     7
100
AcDbText
 10
-5.963333000415435
 20
2.15625
 30
0.0
 40
0.0625
  1
DRAWN:
  7
ROMANS
100
AcDbText
  0
LINE
  5
176D
330
1747
100
AcDbEntity
  8
0
 62
     4
100
AcDbLine
 10
-4.625
 20
1.25
 30
0.0
 11
-4.625
 21
2.5
 31
0.0
  0
LINE
  5
176E
330
1747
100
AcDbEntity
  8
0
 62
     4
100
AcDbLine
 10
-4.0
 20
-0.0000000000000002
 30
0.0
 11
-4.0
 21
2.499999999999999
 31
0.0
  0
TEXT
  5
176F
330
1747
100
AcDbEntity
  8
0
 62
     7
100
AcDbText
 10
-3.96875
 20
0.1562499999999998
 30
0.0
 40
0.0625
  1
SCALE:
  7
ROMANS
100
AcDbText
  0
TEXT
  5
1770
330
1747
100
AcDbEntity
  8
0
 62
     7
100
AcDbText
 10
-4.523788562182197
 20
2.330709001405228
 30
0.0
 40
0.063
  1
DATE 
 41
1.629632321826135
  7
ROMANS
 72
     5
 11
-4.059343350461748
 21
2.330709001405228
 31
0.0
100
AcDbText
  0
LINE
  5
1771
330
1747
100
AcDbEntity
  8
0
 62
     4
100
AcDbLine
 10
-4.0
 20
2.0
 30
0.0
 11
-4.629993325288353
 21
2.0
 31
0.0
  0
TEXT
  5
1772
330
1747
100
AcDbEntity
  8
0
 62
     7
100
AcDbText
 10
-6.62182461425405
 20
2.809752012300165
 30
0.0
 40
0.125
  1
PART NUMBER
  7
ROMANS
100
AcDbText
  0
LINE
  5
1773
330
1747
100
AcDbEntity
  8
0
 62
     4
100
AcDbLine
 10
-4.875
 20
2.75
 30
0.0
 11
-4.875
 21
3.0
 31
0.0
  0
TEXT
  5
1774
330
1747
100
AcDbEntity
  8
0
 62
     7
100
AcDbText
 10
-0.4670598567034113
 20
0.6522025548911583
 30
0.0
 40
0.063
  1
REVISION
 41
1.009853945519423
  7
ROMANS
 72
     5
 11
-0.061098570604603
 21
0.6522025548911583
 31
0.0
100
AcDbText
  0
TEXT
  5
1775
330
1747
100
AcDbEntity
  8
0
 62
     7
100
AcDbText
 10
-2.96875
 20
0.65625
 30
0.0
 40
0.0625
  1
DWG NO:
  7
ROMANS
100
AcDbText
  0
TEXT
  5
1776
330
1747
100
AcDbEntity
  8
0
 62
     7
100
AcDbText
 10
-3.484095684822441
 20
0.3371060842089175
 30
0.0
 40
0.125
  1
1GK44
 41
0.7013009593496522
  7
ROMANS
 72
     5
 11
-3.066654637590505
 21
0.3371060842089175
 31
0.0
100
AcDbText
  0
LINE
  5
1777
330
1747
100
AcDbEntity
  8
0
 62
     4
100
AcDbLine
 10
-3.0
 20
0.2499999999999996
 30
0.0
 11
-3.0
 21
0.7499999999999993
 31
0.0
  0
LINE
  5
1778
330
1747
100
AcDbEntity
  8
0
 62
     4
100
AcDbLine
 10
-3.5
 20
0.2499999999999996
 30
0.0
 11
-3.5
 21
0.7499999999999996
 31
0.0
  0
LINE
  5
1779
330
1747
100
AcDbEntity
  8
0
 62
     4
100
AcDbLine
 10
-3.0
 20
-0.0000000000000004
 30
0.0
 11
-3.0
 21
0.2499999999999996
 31
0.0
  0
TEXT
  5
177A
330
1747
100
AcDbEntity
  8
0
 62
     7
100
AcDbText
 10
-3.48024114584756
 20
0.65625
 30
0.0
 40
0.0625
  1
FSCM NO.
  7
ROMANS
100
AcDbText
  0
LINE
  5
177B
330
1747
100
AcDbEntity
  8
0
 62
     4
100
AcDbLine
 10
-1.5
 20
0.2499999999999995
 30
0.0
 11
-1.5
 21
0.0
 31
0.0
  0
TEXT
  5
177C
330
1747
100
AcDbEntity
  8
0
 62
     7
100
AcDbText
 10
-1.468749999999995
 20
0.0937499999999998
 30
0.0
 40
0.0625
  1
SHEET
  7
ROMANS
100
AcDbText
  0
LINE
  5
177D
330
1747
100
AcDbEntity
  8
0
 62
     4
100
AcDbLine
 10
-0.5
 20
0.7499999999999992
 30
0.0
 11
-0.5
 21
0.2499999999999993
 31
0.0
  0
TEXT
  5
177E
330
1747
100
AcDbEntity
  8
0
 62
     7
100
AcDbText
 10
-0.6435443161433945
 20
0.0937499999999998
 30
0.0
 40
0.0625
  1
OF
  7
ROMANS
100
AcDbText
  0
TEXT
  5
177F
330
1747
100
AcDbEntity
  8
0
 62
     7
100
AcDbText
 10
-0.3125000000000071
 20
2.8125
 30
0.0
 40
0.125
  1
ITEM
 41
0.6666666666666668
  7
ROMANS
 72
     5
 11
-0.0625000000000071
 21
2.8125
 31
0.0
100
AcDbText
  0
TEXT
  5
1780
330
1747
100
AcDbEntity
  8
0
 62
     7
100
AcDbText
 10
-3.243361572958096
 20
2.8125
 30
0.0
 40
0.125
  1
DESCRIPTION
  7
ROMANS
 72
     4
 11
-2.651099668196191
 21
2.875
 31
0.0
100
AcDbText
  0
LINE
  5
1781
330
1747
100
AcDbEntity
  8
0
 62
     4
100
AcDbLine
 10
-0.3750000000000071
 20
2.75
 30
0.0
 11
-0.3750000000000071
 21
3.0
 31
0.0
  0
TEXT
  5
1782
330
1747
100
AcDbEntity
  8
0
 62
     7
100
AcDbText
 10
-7.937867400239865
 20
1.422071028625071
 30
0.0
 40
0.0625
  1
4) Note Reference =
  7
ROMANS
100
AcDbText
  0
LWPOLYLINE
  5
1783
330
1747
100
AcDbEntity
  8
0
100
AcDbPolyline
 90
        3
 70
     1
 43
0.0
 10
-6.715282350570625
 20
1.538977047231945
 10
-6.794993665800288
 20
1.400912999316027
 10
-6.63557103534096
 20
1.400912999316027
  0
TEXT
  5
1784
330
1747
100
AcDbEntity
  8
0
100
AcDbText
 10
-6.764944016577074
 20
1.414762344628339
 30
0.0
 40
0.062
  1
xx
  7
ROMANS
 72
     4
 11
-6.714753540386598
 21
1.435429011295005
 31
0.0
100
AcDbText
  0
ATTDEF
  5
1785
330
1747
100
AcDbEntity
  8
0
100
AcDbText
 10
-2.0
 20
1.1624
 30
0.0
 40
0.125
  1

  7
ROMANS
 72
     4
 11
-2.0
 21
1.1624
 31
0.0
100
AcDbAttributeDefinition
  3
Part Name
  2
PART_NAME_1
 70
     0
  0
ATTDEF
  5
1786
330
1747
100
AcDbEntity
  8
0
100
AcDbText
 10
-2.0
 20
0.9488999999999998
 30
0.0
 40
0.125
  1

  7
ROMANS
 72
     4
 11
-2.0
 21
0.9488999999999998
 31
0.0
100
AcDbAttributeDefinition
  3
Part Name (Cont'd.)
  2
PART_NAME_2
 70
     0
  0
ATTDEF
  5
1787
330
1747
100
AcDbEntity
  8
0
 62
     4
100
AcDbText
 10
-3.75
 20
0.4613000000000002
 30
0.0
 40
0.25
  1

  7
ROMANS
 72
     4
 11
-3.75
 21
0.4613000000000002
 31
0.0
100
AcDbAttributeDefinition
  3
Drawing Size
  2
SIZE
 70
     0
  0
ATTDEF
  5
1788
330
1747
100
AcDbEntity
  8
0
 62
     4
100
AcDbText
 10
-1.751599999999999
 20
0.3466
 30
0.0
 40
0.25
  1

 41
0.5
  7
ROMANS_HLF
 72
     1
 11
-1.751599999999999
 21
0.3466
 31
0.0
100
AcDbAttributeDefinition
  3
Part Number
  2
PART_NO
 70
     0
  0
ATTDEF
  5
1789
330
1747
100
AcDbEntity
  8
0
 62
     1
100
AcDbText
 10
-0.3571428571428572
 20
0.3355999999999999
 30
0.0
 40
0.25
  1
A
  7
ROMANS
 72
     4
 11
-0.25
 21
0.4605999999999999
 31
0.0
100
AcDbAttributeDefinition
  3
Revision Level
  2
REV
 70
     0
  0
ATTDEF
  5
178A
330
1747
100
AcDbEntity
  8
0
100
AcDbText
 10
-2.25
 20
0.1284999999999999
 30
0.0
 40
0.125
  1

  7
ROMANS
 72
     4
 11
-2.25
 21
0.1284999999999999
 31
0.0
100
AcDbAttributeDefinition
  3
Drawing Number
  2
DWG_NO
 70
     0
  0
ATTDEF
  5
178B
330
1747
100
AcDbEntity
  8
0
100
AcDbText
 10
-0.9880952380952381
 20
0.0659999999999999
 30
0.0
 40
0.125
  1
1
  7
ROMANS
 72
     4
 11
-0.9375
 21
0.1284999999999999
 31
0.0
100
AcDbAttributeDefinition
  3
Sheet
  2
SHT
 70
     0
  0
ATTDEF
  5
178C
330
1747
100
AcDbEntity
  8
0
100
AcDbText
 10
-0.3005952380952381
 20
0.0659999999999999
 30
0.0
 40
0.125
  1
1
  7
ROMANS
 72
     4
 11
-0.25
 21
0.1284999999999999
 31
0.0
100
AcDbAttributeDefinition
  3
of
  2
SHTS
 70
     0
  0
ATTDEF
  5
178D
330
1747
100
AcDbEntity
  8
0
100
AcDbText
 10
-5.082599999999998
 20
2.066399999999998
 30
0.0
 40
0.125
  1

 41
0.5
  7
ROMANS_HLF
 72
     1
 11
-5.082599999999998
 21
2.066399999999998
 31
0.0
100
AcDbAttributeDefinition
  3
Drawn By
  2
DWN_BY
 70
     0
  0
ATTDEF
  5
178E
330
1747
100
AcDbEntity
  8
0
100
AcDbText
 10
-4.580599999999999
 20
2.0628
 30
0.0
 40
0.125
  1

 41
0.9909999999999994
  7
ROMANS
 72
     5
 11
-4.085099999999999
 21
2.0628
 31
0.0
100
AcDbAttributeDefinition
  3
Date Drawn
  2
DDWN
 70
     0
  0
ATTDEF
  5
178F
330
1747
100
AcDbEntity
  8
0
100
AcDbText
 10
-5.082599999999998
 20
1.811999999999999
 30
0.0
 40
0.125
  1

 41
0.5
  7
ROMANS_HLF
 72
     1
 11
-5.082599999999998
 21
1.811999999999999
 31
0.0
100
AcDbAttributeDefinition
  3
Checked By
  2
CKD_BY
 70
     0
  0
ATTDEF
  5
1790
330
1747
100
AcDbEntity
  8
0
100
AcDbText
 10
-4.580599999999999
 20
1.8128
 30
0.0
 40
0.125
  1

 41
1.027703703703702
  7
ROMANS
 72
     5
 11
-4.085099999999999
 21
1.8128
 31
0.0
100
AcDbAttributeDefinition
  3
Date Checked
  2
DCKD
 70
     0
  0
ATTDEF
  5
1791
330
1747
100
AcDbEntity
  8
0
100
AcDbText
 10
-5.082599999999998
 20
1.560299999999999
 30
0.0
 40
0.125
  1

 41
0.5
  7
ROMANS_HLF
 72
     1
 11
-5.082599999999998
 21
1.560299999999999
 31
0.0
100
AcDbAttributeDefinition
  3
Engineer
  2
ENGINEER
 70
     0
  0
ATTDEF
  5
1792
330
1747
100
AcDbEntity
  8
0
100
AcDbText
 10
-5.082599999999998
 20
1.3119
 30
0.0
 40
0.125
  1

 41
0.5
  7
ROMANS_HLF
 72
     1
 11
-5.082599999999998
 21
1.3119
 31
0.0
100
AcDbAttributeDefinition
  3
Approved By
  2
APPROVED
 70
     0
  0
ATTDEF
  5
1793
330
1747
100
AcDbEntity
  8
0
100
AcDbText
 10
-4.580599999999999
 20
1.3104
 30
0.0
 40
0.125
  1

 41
1.067230769230767
  7
ROMANS
 72
     5
 11
-4.085099999999999
 21
1.3104
 31
0.0
100
AcDbAttributeDefinition
  3
Date Approved
  2
DAPP
 70
     0
  0
ATTDEF
  5
1794
330
1747
100
AcDbEntity
  8
0
100
AcDbText
 10
-7.150297619047618
 20
0.9713
 30
0.0
 40
0.125
  1
NOTED
 41
0.5
  7
ROMANS_HLF
 72
     1
 11
-7.0
 21
0.9713
 31
0.0
100
AcDbAttributeDefinition
  3
Material Specifications
  2
MATL
 70
     0
  0
ATTDEF
  5
1795
330
1747
100
AcDbEntity
  8
0
 62
     4
100
AcDbText
 10
-7.494047619047618
 20
0.4043000000000001
 30
0.0
 40
0.125
  1
S3-20003
  7
ROMANS
 72
     1
 11
-7.0
 21
0.4043000000000001
 31
0.0
100
AcDbAttributeDefinition
  3
Process Specifications
  2
PROSPEC
 70
     0
  0
ATTDEF
  5
1796
330
1747
100
AcDbEntity
  8
0
100
AcDbText
 10
-3.399999999999998
 20
0.1284999999999999
 30
0.0
 40
0.125
  1

  7
ROMANS
 72
     4
 11
-3.399999999999998
 21
0.1284999999999999
 31
0.0
100
AcDbAttributeDefinition
  3
Drawing Scale
  2
SCALEINF
 70
     0
  0
ATTDEF
  5
1797
330
1747
100
AcDbEntity
  8
0
100
AcDbText
 10
-2.0
 20
1.062499999999998
 30
0.0
 40
0.125
  1

  7
ROMANS
 72
     4
 11
-2.0
 21
1.062499999999998
 31
0.0
100
AcDbAttributeDefinition
  3
PART NAME (SINGLE)
  2
PART_NAME
 70
     0
  0
TEXT
  5
1798
330
1747
100
AcDbEntity
  8
0
100
AcDbText
 10
-3.754758353666758
 20
2.033974249143326
 30
0.0
 40
0.4
  1
Amphenol
 41
1.274999999999999
  7
ARIEL_B
100
AcDbText
  0
LWPOLYLINE
  5
1799
330
1747
100
AcDbEntity
  8
0
100
AcDbPolyline
 90
        2
 70
     0
 43
0.01
 10
-3.792532404425073
 20
1.869382651091297
 10
-0.3055336094780969
 20
1.869382651091297
  0
TEXT
  5
179A
330
1747
100
AcDbEntity
  8
0
100
AcDbText
 10
-3.765666804133456
 20
1.678026171289234
 30
0.0
 40
0.138
  1
SINE
  7
TIMES_NEW
100
AcDbText
  0
TEXT
  5
179B
330
1747
100
AcDbEntity
  8
0
100
AcDbText
 10
-3.236722618441723
 20
1.678026171289234
 30
0.0
 40
0.138
  1
Systems
  7
ARIEL
100
AcDbText
  0
TEXT
  5
179C
330
1747
100
AcDbEntity
  8
0
100
AcDbText
 10
-2.488256459700579
 20
1.678026171289234
 30
0.0
 40
0.138
  1
* PYLE
  7
ARIEL_B
100
AcDbText
  0
TEXT
  5
179D
330
1747
100
AcDbEntity
  8
0
100
AcDbText
 10
-1.79294388352306
 20
1.678026171289234
 30
0.0
 40
0.138
  1
Connectors Corp.
  7
ARIEL
100
AcDbText
  0
TEXT
  5
179E
330
1747
100
AcDbEntity
  8
0
100
AcDbText
 10
-3.765666804133456
 20
1.466964199677793
 30
0.0
 40
0.1
  1
25325 Joy Blvd. * Mt. Clemens, Mi. 48045
  7
ARIEL
100
AcDbText
  0
LINE
  5
179F
330
1747
100
AcDbEntity
  8
0
 62
     4
100
AcDbLine
 10
-6.0
 20
1.749999999999999
 30
0.0
 11
-6.360547003696745
 21
1.749999999999999
 31
0.0
  0
LINE
  5
17A0
330
1747
100
AcDbEntity
  8
0
 62
     4
100
AcDbLine
 10
-6.360547003696745
 20
1.749999999999999
 30
0.0
 11
-6.360547003696745
 21
1.374999999999999
 31
0.0
  0
TEXT
  5
17A1
330
1747
100
AcDbEntity
  8
0
100
AcDbText
 10
-6.242559626317676
 20
1.46139203230111
 30
0.0
 40
0.18
  1
U
 41
1.12
  7
ARIEL_SP
 72
     4
 11
-6.175359626317677
 21
1.551392032301111
 31
0.0
100
AcDbText
  0
LINE
  5
17A2
330
1747
100
AcDbEntity
  8
0
 62
     4
100
AcDbLine
 10
-4.0
 20
1.25
 30
0.0
 11
-6.0
 21
1.25
 31
0.0
  0
TEXT
  5
17A3
330
1747
100
AcDbEntity
  8
0
 62
     7
100
AcDbText
 10
-5.963333000415435
 20
1.15625
 30
0.0
 40
0.0625
  1
CUSTOMER:
  7
ROMANS
100
AcDbText
  0
ATTDEF
  5
17A4
330
1747
100
AcDbEntity
  8
0
100
AcDbText
 10
-4.83957001919628
 20
1.0619
 30
0.0
 40
0.125
  1

 41
0.5
  7
ROMANS_HLF
 72
     1
 11
-4.83957001919628
 21
1.0619
 31
0.0
100
AcDbAttributeDefinition
  3
CUSTOMER
  2
CUSTOMER
 70
     0
  0
TEXT
  5
17A5
330
1747
100
AcDbEntity
  8
0
 62
     7
100
AcDbText
 10
-7.914850434185237
 20
0.1562500000000018
 30
0.0
 40
0.0625
  1
NEXT ASS'Y:
  7
ROMANS
100
AcDbText
  0
LINE
  5
17A6
330
1747
100
AcDbEntity
  8
0
 62
     4
100
AcDbLine
 10
-5.999999999999997
 20
0.2500000000000013
 30
0.0
 11
-7.999999999999996
 21
0.2500000000000009
 31
0.0
  0
ATTDEF
  5
17A7
330
1747
100
AcDbEntity
  8
0
100
AcDbText
 10
-6.752715026732418
 20
0.061900000000001
 30
0.0
 40
0.125
  1

 41
0.5
  7
ROMANS_HLF
 72
     1
 11
-6.752715026732418
 21
0.061900000000001
 31
0.0
100
AcDbAttributeDefinition
  3
NEXT ASSEMBLY
  2
NXT_ASSY
 70
     0
  0
MTEXT
  5
17A8
330
1747
100
AcDbEntity
  8
0
100
AcDbMText
 10
-4.99344211614258
 20
0.9448050576824812
 30
0.0
 40
0.063
 41
1.928099999999998
 71
     2
 72
     5
  3
THE USE OF THIS DOCUMENT IS UNLIMITED. DESIGN FEATURES, SPECIFICATIONS AND PERFORMANCE DATA SHOWN HEREON ARE THE PROPERTY OF AMPHENOL CORP. ALL DIMENSIONS ARE SUBJECT TO NORMAL MANUFACTURING VARIATIONS. DOCUMENTS REFERENCED HEREON MAY CONTAIN LIMITED
  1
 RIGHTS DATA.
  7
ROMANS
 73
     1
 44
1.0
  0
ENDBLK
  5
17AA
330
1747
100
AcDbEntity
  8
0
100
AcDbBlockEnd
  0
BLOCK
  5
35FB
330
35CE
100
AcDbEntity
  8
0
100
AcDbBlockBegin
  2
BORD-B
 70
     2
 10
0.0
 20
0.0
 30
0.0
  3
BORD-B
  1

  0
ATTDEF
  5
35CF
330
35CE
100
AcDbEntity
  8
0
 62
     7
100
AcDbText
 10
16.12524999999687
 20
2.166416666740623
 30
0.0
 40
0.124999999996875
  1

 50
270.0
 41
0.5
  7
ROMANS
 72
     4
 11
16.12524999999687
 21
2.166416666740623
 31
0.0
100
AcDbAttributeDefinition
  3

  2
NOSHEETS
 70
     0
  0
ATTDEF
  5
35D0
330
35CE
100
AcDbEntity
  8
0
 62
     7
100
AcDbText
 10
16.12524999999687
 20
2.666416666728121
 30
0.0
 40
0.124999999996875
  1

 50
270.0
 41
0.5
  7
ROMANS
 72
     4
 11
16.12524999999687
 21
2.666416666728121
 31
0.0
100
AcDbAttributeDefinition
  3

  2
SHEETNO
 70
     0
  0
ATTDEF
  5
35D1
330
35CE
100
AcDbEntity
  8
0
 62
     7
100
AcDbText
 10
16.12524999999687
 20
3.124750000049997
 30
0.0
 40
0.124999999996875
  1

 50
270.0
 41
0.5
  7
ROMANS
 72
     4
 11
16.12524999999687
 21
3.124750000049997
 31
0.0
100
AcDbAttributeDefinition
  3

  2
REV
 70
     0
  0
ATTDEF
  5
35D2
330
35CE
100
AcDbEntity
  8
0
 62
     7
100
AcDbText
 10
16.12524999999687
 20
4.124750000024998
 30
0.0
 40
0.124999999996875
  1

 50
270.0
 41
0.5
  7
ROMANS
 72
     4
 11
16.12524999999687
 21
4.124750000024998
 31
0.0
100
AcDbAttributeDefinition
  3

  2
PARTNO
 70
     0
  0
ATTDEF
  5
35D3
330
35CE
100
AcDbEntity
  8
0
 62
     7
100
AcDbText
 10
16.12524999999687
 20
6.624749999962496
 30
0.0
 40
0.124999999996875
  1

 50
270.0
 41
0.5
  7
ROMANS
 72
     4
 11
16.12524999999687
 21
6.624749999962496
 31
0.0
100
AcDbAttributeDefinition
  3

  2
TITLE
 70
     0
  0
TEXT
  5
35D4
330
35CE
100
AcDbEntity
  8
0
 62
     7
100
AcDbText
 10
16.12524999999687
 20
2.437250000067184
 30
0.0
 40
0.0624999999984375
  1
OF:
 50
270.0
  7
ROMANS
100
AcDbText
  0
TEXT
  5
35D5
330
35CE
100
AcDbEntity
  8
0
 62
     7
100
AcDbText
 10
16.12524999999687
 20
2.937250000054683
 30
0.0
 40
0.0624999999984375
  1
SH:
 50
270.0
  7
ROMANS
100
AcDbText
  0
LINE
  5
35D6
330
35CE
100
AcDbEntity
  8
0
 62
     4
100
AcDbLine
 10
16.25024999999373
 20
1.999750000078122
 30
0.0
 11
16.00024999999999
 21
1.999750000078121
 31
0.0
  0
LINE
  5
35D7
330
35CE
100
AcDbEntity
  8
0
 62
     4
100
AcDbLine
 10
16.25024999999373
 20
2.499750000065621
 30
0.0
 11
16.00024999999999
 21
2.499750000065621
 31
0.0
  0
LINE
  5
35D8
330
35CE
100
AcDbEntity
  8
0
 62
     4
100
AcDbLine
 10
16.25024999999373
 20
2.99975000005312
 30
0.0
 11
16.00024999999999
 21
2.99975000005312
 31
0.0
  0
LINE
  5
35D9
330
35CE
100
AcDbEntity
  8
0
 62
     4
100
AcDbLine
 10
16.25024999999373
 20
3.49975000004062
 30
0.0
 11
16.00024999999999
 21
3.49975000004062
 31
0.0
  0
LINE
  5
35DA
330
35CE
100
AcDbEntity
  8
0
 62
     4
100
AcDbLine
 10
16.25024999999373
 20
5.249749999996871
 30
0.0
 11
16.00025
 21
5.249749999996871
 31
0.0
  0
TEXT
  5
35DB
330
35CE
100
AcDbEntity
  8
0
 62
     7
100
AcDbText
 10
16.12524999999687
 20
3.437250000042183
 30
0.0
 40
0.0624999999984375
  1
REV:
 50
270.0
  7
ROMANS
100
AcDbText
  0
TEXT
  5
35DC
330
35CE
100
AcDbEntity
  8
0
 62
     7
100
AcDbText
 10
16.12524999999687
 20
5.187249999998433
 30
0.0
 40
0.0624999999984375
  1
DWG NO:
 50
270.0
  7
ROMANS
100
AcDbText
  0
TEXT
  5
35DD
330
35CE
100
AcDbEntity
  8
0
 62
     7
100
AcDbText
 10
16.12524999999687
 20
8.187249999923432
 30
0.0
 40
0.0624999999984375
  1
TITLE:
 50
270.0
  7
ROMANS
100
AcDbText
  0
LINE
  5
35DE
330
35CE
100
AcDbEntity
  8
0
 62
     4
100
AcDbLine
 10
16.25024999999373
 20
8.249749999921871
 30
0.0
 11
16.00025
 21
8.249749999921871
 31
0.0
  0
LINE
  5
35DF
330
35CE
100
AcDbEntity
  8
0
 62
     4
100
AcDbLine
 10
16.25024999999373
 20
8.249749999921871
 30
0.0
 11
16.25024999999373
 21
1.999750000078122
 31
0.0
  0
LINE
  5
35E0
330
35CE
100
AcDbEntity
  8
0
 62
     4
100
AcDbLine
 10
10.93774999999999
 20
9.749749999999997
 30
0.0
 11
10.93774999999999
 21
10.24974999999999
 31
0.0
  0
TEXT
  5
35E1
330
35CE
100
AcDbEntity
  8
0
100
AcDbText
 10
11.05158928571428
 20
9.827874999999997
 30
0.0
 40
0.09375
  1
REV
  7
ROMANS
 72
     4
 11
11.18775
 21
9.874749999999997
 31
0.0
100
AcDbText
  0
LINE
  5
35E2
330
35CE
100
AcDbEntity
  8
0
 62
     4
100
AcDbLine
 10
15.00024999999999
 20
9.999749999999997
 30
0.0
 11
15.00024999999999
 21
9.749749999999997
 31
0.0
  0
LINE
  5
35E3
330
35CE
100
AcDbEntity
  8
0
 62
     4
100
AcDbLine
 10
14.25024999999999
 20
9.999749999999997
 30
0.0
 11
14.25024999999999
 21
9.749749999999997
 31
0.0
  0
TEXT
  5
35E4
330
35CE
100
AcDbEntity
  8
0
100
AcDbText
 10
12.77480357142857
 20
9.827874999999997
 30
0.0
 40
0.09375
  1
DESCRIPTION
  7
ROMANS
 72
     4
 11
13.219
 21
9.874749999999997
 31
0.0
100
AcDbText
  0
TEXT
  5
35E5
330
35CE
100
AcDbEntity
  8
0
100
AcDbText
 10
14.45560714285714
 20
9.827874999999997
 30
0.0
 40
0.09375
  1
DATE
  7
ROMANS
 72
     4
 11
14.62525
 21
9.874749999999997
 31
0.0
100
AcDbText
  0
TEXT
  5
35E6
330
35CE
100
AcDbEntity
  8
0
 62
     4
100
AcDbText
 10
13.11408928571427
 20
10.077875
 30
0.0
 40
0.09375
  1
REVISIONS
  7
ROMANS
 72
     4
 11
13.46899999999999
 21
10.12475
 31
0.0
100
AcDbText
  0
LINE
  5
35E7
330
35CE
100
AcDbEntity
  8
0
 62
     1
100
AcDbLine
 10
0.2502499999999994
 20
-0.0002500000000003
 30
0.0
 11
16.00025
 21
-0.0002500000000003
 31
0.0
  0
LINE
  5
35E8
330
35CE
100
AcDbEntity
  8
0
 62
     1
100
AcDbLine
 10
0.2502499999999994
 20
10.24974999999999
 30
0.0
 11
0.2502499999999994
 21
-0.0002500000000003
 31
0.0
  0
LINE
  5
35E9
330
35CE
100
AcDbEntity
  8
0
 62
     1
100
AcDbLine
 10
16.00025
 20
10.24974999999999
 30
0.0
 11
16.00025
 21
-0.0002500000000039
 31
0.0
  0
LINE
  5
35EA
330
35CE
100
AcDbEntity
  8
0
 62
     1
100
AcDbLine
 10
0.2502500000000012
 20
10.24974999999999
 30
0.0
 11
16.00025
 21
10.24974999999999
 31
0.0
  0
LINE
  5
35EB
330
35CE
100
AcDbEntity
  8
0
 62
     4
100
AcDbLine
 10
10.93774999999999
 20
9.999749999999997
 30
0.0
 11
16.00025
 21
9.999749999999997
 31
0.0
  0
LINE
  5
35EC
330
35CE
100
AcDbEntity
  8
0
 62
     4
100
AcDbLine
 10
10.93774999999999
 20
9.749749999999997
 30
0.0
 11
16.00025
 21
9.749749999999997
 31
0.0
  0
LINE
  5
35ED
330
35CE
100
AcDbEntity
  8
0
 62
     4
100
AcDbLine
 10
11.43774999999999
 20
9.749749999999997
 30
0.0
 11
11.43774999999999
 21
9.999749999999997
 31
0.0
  0
LINE
  5
35EE
330
35CE
100
AcDbEntity
  8
0
 62
     4
100
AcDbLine
 10
11.93775
 20
9.749749999999997
 30
0.0
 11
11.93775
 21
9.999749999999997
 31
0.0
  0
TEXT
  5
35EF
330
35CE
100
AcDbEntity
  8
0
100
AcDbText
 10
11.54712499999999
 20
9.827874999999997
 30
0.0
 40
0.09375
  1
ECO
  7
ROMANS
 72
     4
 11
11.68774999999999
 21
9.874749999999997
 31
0.0
100
AcDbText
  0
LINE
  5
35F0
330
35CE
100
AcDbEntity
  8
0
 62
     4
100
AcDbLine
 10
15.50024999999999
 20
9.999749999999997
 30
0.0
 11
15.50024999999999
 21
9.749749999999997
 31
0.0
  0
TEXT
  5
35F1
330
35CE
100
AcDbEntity
  8
0
100
AcDbText
 10
15.57391071428571
 20
9.827874999999997
 30
0.0
 40
0.09375
  1
APPR
  7
ROMANS
 72
     4
 11
15.75025
 21
9.874749999999997
 31
0.0
100
AcDbText
  0
TEXT
  5
35F2
330
35CE
100
AcDbEntity
  8
0
100
AcDbText
 10
15.15649999999999
 20
9.827874999999997
 30
0.0
 40
0.09375
  1
BY
  7
ROMANS
 72
     4
 11
15.25025
 21
9.874749999999997
 31
0.0
100
AcDbText
  0
LINE
  5
35F3
330
35CE
100
AcDbEntity
  8
0
100
AcDbLine
 10
-0.3747500000000006
 20
-0.3752500000000003
 30
0.0
 11
-0.3747500000000006
 21
-0.1252500000000003
 31
0.0
  0
LINE
  5
35F4
330
35CE
100
AcDbEntity
  8
0
100
AcDbLine
 10
-0.3747500000000006
 20
-0.3752500000000003
 30
0.0
 11
-0.1247500000000006
 21
-0.3752500000000003
 31
0.0
  0
LINE
  5
35F5
330
35CE
100
AcDbEntity
  8
0
100
AcDbLine
 10
-0.3747500000000006
 20
10.62474999999998
 30
0.0
 11
-0.3747500000000006
 21
10.37474999999999
 31
0.0
  0
LINE
  5
35F6
330
35CE
100
AcDbEntity
  8
0
100
AcDbLine
 10
-0.3747500000000006
 20
10.62474999999998
 30
0.0
 11
-0.1247500000000006
 21
10.62474999999998
 31
0.0
  0
LINE
  5
35F7
330
35CE
100
AcDbEntity
  8
0
100
AcDbLine
 10
16.62525
 20
10.62474999999998
 30
0.0
 11
16.37525
 21
10.62474999999998
 31
0.0
  0
LINE
  5
35F8
330
35CE
100
AcDbEntity
  8
0
100
AcDbLine
 10
16.62525
 20
10.62474999999998
 30
0.0
 11
16.62525
 21
10.37474999999999
 31
0.0
  0
LINE
  5
35F9
330
35CE
100
AcDbEntity
  8
0
100
AcDbLine
 10
16.62525
 20
-0.3752500000000003
 30
0.0
 11
16.62525
 21
-0.1252500000000003
 31
0.0
  0
LINE
  5
35FA
330
35CE
100
AcDbEntity
  8
0
100
AcDbLine
 10
16.62525
 20
-0.3752500000000003
 30
0.0
 11
16.37525
 21
-0.3752500000000003
 31
0.0
  0
ENDBLK
  5
35FC
330
35CE
100
AcDbEntity
  8
0
100
AcDbBlockEnd
  0
BLOCK
  5
41A2
330
419E
100
AcDbEntity
  8
0
100
AcDbBlockBegin
  2
MEDCLUMP_NTE_659_
 70
     0
 10
0.0
 20
0.0
 30
0.0
  3
MEDCLUMP_NTE_659_
  1

  0
TEXT
  5
419F
330
419E
100
AcDbEntity
  8
4
 62
     1
100
AcDbText
 10
2.482552
 20
10.60499999999999
 30
0.0
 40
0.13
  1
PIN 15
 41
1.092
  7
TDM
 72
     5
 11
3.158552
 21
10.60499999999999
 31
0.0
100
AcDbText
  0
INSERT
  5
41A0
330
419E
100
AcDbEntity
  8
4
100
AcDbBlockReference
  2
MEDFUNV_6
 10
1.794118999999999
 20
11.12060099999999
 30
0.0
 41
0.03937
 42
0.03937
 50
317.0326379999999
  0
LWPOLYLINE
  5
41A1
330
419E
100
AcDbEntity
  8
4
  6
LDM
 62
     1
100
AcDbPolyline
 90
        3
 70
     0
 43
0.0
 10
1.794118999999999
 20
11.12060099999999
 10
2.273952999999999
 20
10.67366
 10
2.398952999999999
 20
10.67366
  0
ENDBLK
  5
41A3
330
419E
100
AcDbEntity
  8
0
100
AcDbBlockEnd
  0
BLOCK
  5
41AB
330
41A4
100
AcDbEntity
  8
0
100
AcDbBlockBegin
  2
MEDFUNV_6
 70
     0
 10
0.0
 20
0.0
 30
0.0
  3
MEDFUNV_6
  1

  0
LWPOLYLINE
  5
41A5
330
41A4
100
AcDbEntity
  8
4
  6
LDM
 62
     1
100
AcDbPolyline
 90
        4
 70
     0
 43
0.0
 10
3.500002999999999
 20
0.583334
 10
0.0
 20
0.0
 10
3.500002999999999
 20
-0.583334
 10
3.500002999999999
 20
0.583334
  0
LWPOLYLINE
  5
41A6
330
41A4
100
AcDbEntity
  8
4
  6
LDM
 62
     1
100
AcDbPolyline
 90
        3
 70
     0
 43
0.0
 38
7.978631459979119E+99
 10
3.500002999999999
 20
0.486111
 10
0.583334
 20
0.0
 10
3.500002999999999
 20
-0.486111
  0
LWPOLYLINE
  5
41A7
330
41A4
100
AcDbEntity
  8
4
  6
LDM
 62
     1
100
AcDbPolyline
 90
        3
 70
     0
 43
0.0
 38
7.978631459979119E+99
 10
3.500002999999999
 20
0.388889
 10
1.166668
 20
0.0
 10
3.500002999999999
 20
-0.388889
  0
LWPOLYLINE
  5
41A8
330
41A4
100
AcDbEntity
  8
4
  6
LDM
 62
     1
100
AcDbPolyline
 90
        3
 70
     0
 43
0.0
 38
7.978631459979119E+99
 10
3.500002999999999
 20
0.291667
 10
1.750000999999999
 20
0.0
 10
3.500002999999999
 20
-0.291667
  0
LWPOLYLINE
  5
41A9
330
41A4
100
AcDbEntity
  8
4
  6
LDM
 62
     1
100
AcDbPolyline
 90
        3
 70
     0
 43
0.0
 38
7.978631459979119E+99
 10
3.500002999999999
 20
0.194445
 10
2.333334999999999
 20
0.0
 10
3.500002999999999
 20
-0.194445
  0
LWPOLYLINE
  5
41AA
330
41A4
100
AcDbEntity
  8
4
  6
LDM
 62
     1
100
AcDbPolyline
 90
        3
 70
     0
 43
0.0
 38
7.978631459979119E+99
 10
3.500002999999999
 20
0.097222
 10
2.916668999999999
 20
0.0
 10
3.500002999999999
 20
-0.097222
  0
ENDBLK
  5
41AC
330
41A4
100
AcDbEntity
  8
0
100
AcDbBlockEnd
  0
BLOCK
  5
41B1
330
41AD
100
AcDbEntity
  8
0
100
AcDbBlockBegin
  2
MEDCLUMP_NTE_655_
 70
     0
 10
0.0
 20
0.0
 30
0.0
  3
MEDCLUMP_NTE_655_
  1

  0
TEXT
  5
41AE
330
41AD
100
AcDbEntity
  8
4
 62
     1
100
AcDbText
 10
3.895414
 20
12.525
 30
0.0
 40
0.13
  1
PIN 1
 41
1.203999999999999
  7
TDM
 72
     5
 11
4.454413999999999
 21
12.525
 31
0.0
100
AcDbText
  0
INSERT
  5
41AF
330
41AD
100
AcDbEntity
  8
4
100
AcDbBlockReference
  2
MEDFUNV_6
 10
2.688340999999999
 20
12.035542
 30
0.0
 41
0.03937
 42
0.03937
 50
28.70065999999999
  0
LWPOLYLINE
  5
41B0
330
41AD
100
AcDbEntity
  8
4
  6
LDM
 62
     1
100
AcDbPolyline
 90
        3
 70
     0
 43
0.0
 10
2.688340999999999
 20
12.035542
 10
3.697272
 20
12.58793
 10
3.822272
 20
12.58793
  0
ENDBLK
  5
41B2
330
41AD
100
AcDbEntity
  8
0
100
AcDbBlockEnd
  0
BLOCK
  5
41B7
330
41B3
100
AcDbEntity
  8
0
100
AcDbBlockBegin
  2
MEDCLUMP_NTE_651_
 70
     0
 10
0.0
 20
0.0
 30
0.0
  3
MEDCLUMP_NTE_651_
  1

  0
TEXT
  5
41B4
330
41B3
100
AcDbEntity
  8
4
 62
     1
100
AcDbText
 10
0.9290229999999999
 20
12.13846
 30
0.0
 40
0.13
  1
PIN 44
 41
1.039999999999999
  7
TDM
 72
     5
 11
1.605022999999999
 21
12.13846
 31
0.0
100
AcDbText
  0
INSERT
  5
41B5
330
41B3
100
AcDbEntity
  8
4
100
AcDbBlockReference
  2
MEDFUNV_6
 10
1.719165999999999
 20
11.322834
 30
0.0
 41
0.03937
 42
0.03937
 50
83.58203399999998
  0
LWPOLYLINE
  5
41B6
330
41B3
100
AcDbEntity
  8
4
  6
LDM
 62
     1
100
AcDbPolyline
 90
        3
 70
     0
 43
0.0
 10
1.719165999999999
 20
11.322834
 10
1.818222999999999
 20
12.20346
 10
1.693222999999999
 20
12.20346
  0
ENDBLK
  5
41B8
330
41B3
100
AcDbEntity
  8
0
100
AcDbBlockEnd
  0
BLOCK
  5
41BD
330
41B9
100
AcDbEntity
  8
0
100
AcDbBlockBegin
  2
MEDCLUMP_NTE_647_
 70
     0
 10
0.0
 20
0.0
 30
0.0
  3
MEDCLUMP_NTE_647_
  1

  0
TEXT
  5
41BA
330
41B9
100
AcDbEntity
  8
4
 62
     1
100
AcDbText
 10
0.9371889999999998
 20
12.522241
 30
0.0
 40
0.13
  1
PIN 31
 41
1.149473684210526
  7
TDM
 72
     5
 11
1.613189
 21
12.522241
 31
0.0
100
AcDbText
  0
INSERT
  5
41BB
330
41B9
100
AcDbEntity
  8
4
100
AcDbBlockReference
  2
MEDFUNV_6
 10
2.546480999999999
 20
12.150149
 30
0.0
 41
0.03937
 42
0.03937
 50
148.7424679999999
  0
LWPOLYLINE
  5
41BC
330
41B9
100
AcDbEntity
  8
4
  6
LDM
 62
     1
100
AcDbPolyline
 90
        3
 70
     0
 43
0.0
 10
2.546480999999999
 20
12.150149
 10
1.826388999999999
 20
12.587241
 10
1.701388999999999
 20
12.587241
  0
ENDBLK
  5
41BE
330
41B9
100
AcDbEntity
  8
0
100
AcDbBlockEnd
  0
BLOCK
  5
45C4
330
452B
100
AcDbEntity
  8
0
100
AcDbBlockBegin
  2
ASSEMBLY_B
 70
     2
 10
0.0
 20
0.0
 30
0.0
  3
ASSEMBLY_B
  1

  0
LINE
  5
4961
330
452B
100
AcDbEntity
  8
BORDER
 62
    15
100
AcDbLine
 10
16.6
 20
0.3999656890232617
 30
0.0
 11
16.6
 21
10.63996597902324
 31
0.0
  0
LINE
  5
4962
330
452B
100
AcDbEntity
  8
BORDER
 62
    15
100
AcDbLine
 10
0.400011260000019
 20
0.3999656890232617
 30
0.0
 11
0.400011260000019
 21
10.63996597902324
 31
0.0
  0
LINE
  5
4963
330
452B
100
AcDbEntity
  8
BORDER
 62
    15
100
AcDbLine
 10
0.400011260000019
 20
0.3999656890232617
 30
0.0
 11
16.6
 21
0.3999656890232617
 31
0.0
  0
LINE
  5
4964
330
452B
100
AcDbEntity
  8
BORDER
 62
    15
100
AcDbLine
 10
0.0000022600000076
 20
5.519965834023253
 30
0.0
 11
0.400011260000019
 21
5.519965834023253
 31
0.0
  0
TEXT
  5
4965
330
452B
100
AcDbEntity
  8
Title Block
  6
Continuous
 62
     2
100
AcDbText
 10
12.30669482722675
 20
2.205546537751305
 30
0.0
 40
0.1010611419
  1
DO NOT SCALE
 50
0.09999996
  7
AE
100
AcDbText
  0
TEXT
  5
4966
330
452B
100
AcDbEntity
  8
Title Block
  6
Continuous
 62
     2
100
AcDbText
 10
12.30669482722675
 20
1.996163262564665
 30
0.0
 40
0.1010611419
  1
  DRAWING
 50
0.09999996
  7
AE
100
AcDbText
  0
ATTDEF
  5
4967
330
452B
100
AcDbEntity
  8
Title Block
  6
Continuous
 62
     2
100
AcDbText
 10
10.79999999999999
 20
0.6000000000000001
 30
0.0
 40
0.126326427375
  1

 41
0.8
100
AcDbAttributeDefinition
  3
Drawing Name
  2
GEN-TITLE-DES1{15.54}
 70
     0
1001
GENIUS_GENBLLY_14
1000
BOR5
  0
LINE
  5
4968
330
452B
100
AcDbEntity
  8
Title Block
  6
Continuous
 62
     2
100
AcDbLine
 10
7.849999999999999
 20
2.4
 30
0.0
 11
16.6
 21
2.4
 31
0.0
  0
LINE
  5
4969
330
452B
100
AcDbEntity
  8
Title Block
  6
Continuous
 62
     2
100
AcDbLine
 10
12.17518995515351
 20
1.7
 30
0.0
 11
16.6
 21
1.7
 31
0.0
  0
LINE
  5
496A
330
452B
100
AcDbEntity
  8
Title Block
  6
Continuous
 62
     2
100
AcDbLine
 10
12.17518995515351
 20
1.45
 30
0.0
 11
16.6
 21
1.45
 31
0.0
  0
LINE
  5
496B
330
452B
100
AcDbEntity
  8
Title Block
  6
Continuous
 62
     2
100
AcDbLine
 10
12.17518995515351
 20
1.199999999999999
 30
0.0
 11
16.6
 21
1.199999999999999
 31
0.0
  0
LINE
  5
496C
330
452B
100
AcDbEntity
  8
Title Block
  6
Continuous
 62
     2
100
AcDbLine
 10
10.69965639031853
 20
0.95
 30
0.0
 11
16.6
 21
0.95
 31
0.0
  0
ATTDEF
  5
496D
330
452B
100
AcDbEntity
  8
Title Block
  6
Continuous
 62
     2
100
AcDbText
 10
12.52499999999999
 20
1.024999999999999
 30
0.0
 40
0.1010611419
  1

100
AcDbAttributeDefinition
  3
Approved by
  2
GEN-TITLE-APPM{5}
 70
     0
1001
GENIUS_GENBLLY_14
1000
BOR2
1001
GENIUS_GENTRA_14
1002
{
1070
     3
1000
GENTRAPR,%s,(GENMSG gentitus 73)
1000
Approved by
1000
gb
1070
     0
1002
}
  0
ATTDEF
  5
496E
330
452B
100
AcDbEntity
  8
Title Block
  6
Continuous
 62
     2
100
AcDbText
 10
12.52499999999999
 20
1.274999999999999
 30
0.0
 40
0.1010611419
  1

100
AcDbAttributeDefinition
  3
Check by
  2
GEN-TITLE-CHKM{5}
 70
     0
1001
GENIUS_GENBLLY_14
1000
BOR2
  0
ATTDEF
  5
496F
330
452B
100
AcDbEntity
  8
Title Block
  6
Continuous
 62
     2
100
AcDbText
 10
12.52499999999999
 20
1.524999999999999
 30
0.0
 40
0.1010611419
  1

100
AcDbAttributeDefinition
  3
Drawn by
  2
GEN-TITLE-NAME{5}
 70
     0
1001
GENIUS_GENBLLY_14
1000
BOR2
  0
LINE
  5
4970
330
452B
100
AcDbEntity
  8
Title Block
  6
Continuous
 62
     2
100
AcDbLine
 10
7.849999999999999
 20
0.9
 30
0.0
 11
10.69965639031853
 21
0.9
 31
0.0
  0
LINE
  5
4971
330
452B
100
AcDbEntity
  8
Title Block
  6
Continuous
 62
     2
100
AcDbLine
 10
7.849999999999999
 20
1.149999999999999
 30
0.0
 11
10.69965639031853
 21
1.149999999999999
 31
0.0
  0
LINE
  5
4972
330
452B
100
AcDbEntity
  8
Title Block
  6
Continuous
 62
     2
100
AcDbLine
 10
7.849999999999999
 20
2.149999999999999
 30
0.0
 11
10.69965639031853
 21
2.149999999999999
 31
0.0
  0
LINE
  5
4973
330
452B
100
AcDbEntity
  8
Title Block
  6
Continuous
 62
     2
100
AcDbLine
 10
7.849999999999999
 20
1.9
 30
0.0
 11
10.69965639031853
 21
1.9
 31
0.0
  0
LINE
  5
4974
330
452B
100
AcDbEntity
  8
Title Block
  6
Continuous
 62
     2
100
AcDbLine
 10
7.849999999999999
 20
1.649999999999999
 30
0.0
 11
10.69965639031853
 21
1.649999999999999
 31
0.0
  0
LINE
  5
4975
330
452B
100
AcDbEntity
  8
Title Block
  6
Continuous
 62
     2
100
AcDbLine
 10
7.849999999999999
 20
1.399999999999999
 30
0.0
 11
10.69965639031853
 21
1.399999999999999
 31
0.0
  0
LINE
  5
4976
330
452B
100
AcDbEntity
  8
Title Block
  6
Continuous
 62
     2
100
AcDbLine
 10
7.849999999999999
 20
0.65
 30
0.0
 11
10.69965639031853
 21
0.65
 31
0.0
  0
TEXT
  5
4977
330
452B
100
AcDbEntity
  8
Title Block
  6
Continuous
 62
     2
100
AcDbText
 10
8.501374022347393
 20
0.7409580908741999
 30
0.0
 40
0.075937067150492
  1
DATE
 50
0.09999996
  7
AE
100
AcDbText
  0
LINE
  5
4978
330
452B
100
AcDbEntity
  8
BORDER
 62
    15
100
AcDbLine
 10
8.50000126000001
 20
0.2
 30
0.0
 11
8.50000126000001
 21
0.3999656890232617
 31
0.0
  0
TEXT
  5
4979
330
452B
100
AcDbEntity
  8
BORDER
  6
Continuous
 62
    15
100
AcDbText
 10
8.471503396695657
 20
0.0599741912456094
 30
0.0
 40
0.0799862356161777
  1
0
 50
0.09999996
  7
AE
100
AcDbText
  0
LINE
  5
497A
330
452B
100
AcDbEntity
  8
BORDER
  6
Continuous
 62
    15
100
AcDbLine
 10
8.57998715545812
 20
0.3399759973137096
 30
0.0
 11
8.57998715545812
 21
0.3999656890232617
 31
0.0
  0
LINE
  5
497B
330
452B
100
AcDbEntity
  8
BORDER
  6
Continuous
 62
    15
100
AcDbLine
 10
8.559991091469045
 20
0.2999828395124904
 30
0.0
 11
8.559991091469045
 21
0.3999656890232617
 31
0.0
  0
LINE
  5
497C
330
452B
100
AcDbEntity
  8
BORDER
  6
Continuous
 62
    15
100
AcDbLine
 10
8.539994027651742
 20
0.2999828395124904
 30
0.0
 11
8.539994027651742
 21
0.3999656890232617
 31
0.0
  0
LINE
  5
497D
330
452B
100
AcDbEntity
  8
BORDER
  6
Continuous
 62
    15
100
AcDbLine
 10
8.519997063817303
 20
0.3399759973137096
 30
0.0
 11
8.519997063817303
 21
0.3999656890232617
 31
0.0
  0
LINE
  5
497E
330
452B
100
AcDbEntity
  8
BORDER
  6
Continuous
 62
    15
100
AcDbLine
 10
8.599983219447194
 20
0.2599896917095521
 30
0.0
 11
8.599983219447194
 21
0.3999656890232617
 31
0.0
  0
LINE
  5
497F
330
452B
100
AcDbEntity
  8
Title Block
  6
Continuous
 62
     2
100
AcDbLine
 10
8.199999999999999
 20
0.65
 30
0.0
 11
8.199999999999999
 21
2.4
 31
0.0
  0
LINE
  5
4980
330
452B
100
AcDbEntity
  8
Title Block
  6
Continuous
 62
     2
100
AcDbLine
 10
7.849999999999999
 20
0.3999656890232617
 30
0.0
 11
7.849999999999999
 21
2.4
 31
0.0
  0
TEXT
  5
4981
330
452B
100
AcDbEntity
  8
Title Block
  6
Continuous
 62
     2
100
AcDbText
 10
7.938242132245035
 20
0.7403498140978244
 30
0.0
 40
0.0771520776612738
  1
NO.
 50
0.09999996
  7
AE
100
AcDbText
  0
LINE
  5
4982
330
452B
100
AcDbEntity
  8
BORDER
  6
Continuous
 62
    15
100
AcDbLine
 10
9.499828195159265
 20
0.2
 30
0.0
 11
9.499828195159265
 21
0.3999656890232617
 31
0.0
  0
TEXT
  5
4983
330
452B
100
AcDbEntity
  8
BORDER
  6
Continuous
 62
    15
100
AcDbText
 10
9.271369052290525
 20
0.1199638829551611
 30
0.0
 40
0.0799862356161777
  1
8
 50
0.09999996
  7
AE
100
AcDbText
  0
TEXT
  5
4984
330
452B
100
AcDbEntity
  8
BORDER
  6
Continuous
 62
    15
100
AcDbText
 10
10.0712336080743
 20
0.1199638829551611
 30
0.0
 40
0.0799862356161777
  1
6
 50
0.09999996
  7
AE
100
AcDbText
  0
TEXT
  5
4985
330
452B
100
AcDbEntity
  8
BORDER
  6
Continuous
 62
    15
100
AcDbText
 10
9.671301830096499
 20
0.1199638829551611
 30
0.0
 40
0.0799862356161777
  1
2
 50
0.09999996
  7
AE
100
AcDbText
  0
TEXT
  5
4986
330
452B
100
AcDbEntity
  8
BORDER
  6
Continuous
 62
    15
100
AcDbText
 10
9.471331591854921
 20
0.0599741912456094
 30
0.0
 40
0.0799862356161777
  1
1
 50
0.09999996
  7
AE
100
AcDbText
  0
TEXT
  5
4987
330
452B
100
AcDbEntity
  8
BORDER
  6
Continuous
 62
    15
100
AcDbText
 10
9.871267269162689
 20
0.1199638829551611
 30
0.0
 40
0.0799862356161777
  1
4
 50
0.09999996
  7
AE
100
AcDbText
  0
TEXT
  5
4988
330
452B
100
AcDbEntity
  8
BORDER
  6
Continuous
 62
    15
100
AcDbText
 10
10.27120004696869
 20
0.1199638829551611
 30
0.0
 40
0.0799862356161777
  1
8
 50
0.09999996
  7
AE
100
AcDbText
  0
LINE
  5
4989
330
452B
100
AcDbEntity
  8
BORDER
  6
Continuous
 62
    15
100
AcDbLine
 10
9.379852711070126
 20
0.3399759973137096
 30
0.0
 11
9.379852711070126
 21
0.3999656890232617
 31
0.0
  0
LINE
  5
498A
330
452B
100
AcDbEntity
  8
BORDER
  6
Continuous
 62
    15
100
AcDbLine
 10
9.359856647081052
 20
0.2999828395124904
 30
0.0
 11
9.359856647081052
 21
0.3999656890232617
 31
0.0
  0
LINE
  5
498B
330
452B
100
AcDbEntity
  8
BORDER
  6
Continuous
 62
    15
100
AcDbLine
 10
9.339859683246583
 20
0.2999828395124904
 30
0.0
 11
9.339859683246583
 21
0.3999656890232617
 31
0.0
  0
LINE
  5
498C
330
452B
100
AcDbEntity
  8
BORDER
  6
Continuous
 62
    15
100
AcDbLine
 10
9.319862619429308
 20
0.3399759973137096
 30
0.0
 11
9.319862619429308
 21
0.3999656890232617
 31
0.0
  0
LINE
  5
498D
330
452B
100
AcDbEntity
  8
BORDER
  6
Continuous
 62
    15
100
AcDbLine
 10
9.279869591605736
 20
0.3399759973137096
 30
0.0
 11
9.279869591605736
 21
0.3999656890232617
 31
0.0
  0
LINE
  5
498E
330
452B
100
AcDbEntity
  8
BORDER
  6
Continuous
 62
    15
100
AcDbLine
 10
9.459839866528247
 20
0.2999828395124904
 30
0.0
 11
9.459839866528247
 21
0.3999656890232617
 31
0.0
  0
LINE
  5
498F
330
452B
100
AcDbEntity
  8
BORDER
  6
Continuous
 62
    15
100
AcDbLine
 10
9.439842902693806
 20
0.2999828395124904
 30
0.0
 11
9.439842902693806
 21
0.3999656890232617
 31
0.0
  0
LINE
  5
4990
330
452B
100
AcDbEntity
  8
BORDER
  6
Continuous
 62
    15
100
AcDbLine
 10
9.419845838876504
 20
0.3399759973137096
 30
0.0
 11
9.419845838876504
 21
0.3999656890232617
 31
0.0
  0
LINE
  5
4991
330
452B
100
AcDbEntity
  8
BORDER
  6
Continuous
 62
    15
100
AcDbLine
 10
9.399848775059201
 20
0.2599896917095521
 30
0.0
 11
9.399848775059201
 21
0.3999656890232617
 31
0.0
  0
LINE
  5
4992
330
452B
100
AcDbEntity
  8
BORDER
  6
Continuous
 62
    15
100
AcDbLine
 10
9.29986565559481
 20
0.2599896917095521
 30
0.0
 11
9.29986565559481
 21
0.3999656890232617
 31
0.0
  0
LINE
  5
4993
330
452B
100
AcDbEntity
  8
BORDER
  6
Continuous
 62
    15
100
AcDbLine
 10
9.479835930517349
 20
0.3399759973137096
 30
0.0
 11
9.479835930517349
 21
0.3999656890232617
 31
0.0
  0
LINE
  5
4994
330
452B
100
AcDbEntity
  8
BORDER
  6
Continuous
 62
    15
100
AcDbLine
 10
9.699798433400815
 20
0.2599896917095521
 30
0.0
 11
9.699798433400815
 21
0.3999656890232617
 31
0.0
  0
LINE
  5
4995
330
452B
100
AcDbEntity
  8
BORDER
  6
Continuous
 62
    15
100
AcDbLine
 10
9.899763872467033
 20
0.2599896917095521
 30
0.0
 11
9.899763872467033
 21
0.3999656890232617
 31
0.0
  0
LINE
  5
4996
330
452B
100
AcDbEntity
  8
BORDER
  6
Continuous
 62
    15
100
AcDbLine
 10
10.09973031136145
 20
0.2599896917095521
 30
0.0
 11
10.09973031136145
 21
0.3999656890232617
 31
0.0
  0
LINE
  5
4997
330
452B
100
AcDbEntity
  8
BORDER
  6
Continuous
 62
    15
100
AcDbLine
 10
10.29969665027303
 20
0.2599896917095521
 30
0.0
 11
10.29969665027303
 21
0.3999656890232617
 31
0.0
  0
LINE
  5
4998
330
452B
100
AcDbEntity
  8
BORDER
  6
Continuous
 62
    15
100
AcDbLine
 10
10.49965928982029
 20
0.2
 30
0.0
 11
10.49965928982029
 21
0.3999656890232617
 31
0.0
  0
TEXT
  5
4999
330
452B
100
AcDbEntity
  8
BORDER
  6
Continuous
 62
    15
100
AcDbText
 10
10.47115978701421
 20
0.0599741912456095
 30
0.0
 40
0.0799862356161777
  1
2
 50
0.09999996
  7
AE
100
AcDbText
  0
TEXT
  5
499A
330
452B
100
AcDbEntity
  8
BORDER
  6
Continuous
 62
    15
100
AcDbText
 10
8.671469835590103
 20
0.1199638829551611
 30
0.0
 40
0.0799862356161777
  1
2
 50
0.09999996
  7
AE
100
AcDbText
  0
LINE
  5
499B
330
452B
100
AcDbEntity
  8
BORDER
  6
Continuous
 62
    15
100
AcDbLine
 10
8.679970374905344
 20
0.3399759973137096
 30
0.0
 11
8.679970374905344
 21
0.3999656890232617
 31
0.0
  0
LINE
  5
499C
330
452B
100
AcDbEntity
  8
BORDER
  6
Continuous
 62
    15
100
AcDbLine
 10
8.65997431091624
 20
0.2999828395124904
 30
0.0
 11
8.65997431091624
 21
0.3999656890232617
 31
0.0
  0
LINE
  5
499D
330
452B
100
AcDbEntity
  8
BORDER
  6
Continuous
 62
    15
100
AcDbLine
 10
8.639977247098967
 20
0.2999828395124904
 30
0.0
 11
8.639977247098967
 21
0.3999656890232617
 31
0.0
  0
LINE
  5
499E
330
452B
100
AcDbEntity
  8
BORDER
  6
Continuous
 62
    15
100
AcDbLine
 10
8.619980183281692
 20
0.3399759973137096
 30
0.0
 11
8.619980183281692
 21
0.3999656890232617
 31
0.0
  0
LINE
  5
499F
330
452B
100
AcDbEntity
  8
BORDER
  6
Continuous
 62
    15
100
AcDbLine
 10
8.699966438894419
 20
0.2599896917095521
 30
0.0
 11
8.699966438894419
 21
0.3999656890232617
 31
0.0
  0
TEXT
  5
49A0
330
452B
100
AcDbEntity
  8
BORDER
  6
Continuous
 62
    15
100
AcDbText
 10
9.071402613396108
 20
0.1199638829551611
 30
0.0
 40
0.0799862356161777
  1
6
 50
0.09999996
  7
AE
100
AcDbText
  0
TEXT
  5
49A1
330
452B
100
AcDbEntity
  8
BORDER
  6
Continuous
 62
    15
100
AcDbText
 10
8.87143617450166
 20
0.1199638829551611
 30
0.0
 40
0.0799862356161777
  1
4
 50
0.09999996
  7
AE
100
AcDbText
  0
LINE
  5
49A2
330
452B
100
AcDbEntity
  8
BORDER
  6
Continuous
 62
    15
100
AcDbLine
 10
8.779953494369733
 20
0.3399759973137096
 30
0.0
 11
8.779953494369733
 21
0.3999656890232617
 31
0.0
  0
LINE
  5
49A3
330
452B
100
AcDbEntity
  8
BORDER
  6
Continuous
 62
    15
100
AcDbLine
 10
8.75995743038063
 20
0.2999828395124904
 30
0.0
 11
8.75995743038063
 21
0.3999656890232617
 31
0.0
  0
LINE
  5
49A4
330
452B
100
AcDbEntity
  8
BORDER
  6
Continuous
 62
    15
100
AcDbLine
 10
8.73996046654619
 20
0.2999828395124904
 30
0.0
 11
8.73996046654619
 21
0.3999656890232617
 31
0.0
  0
LINE
  5
49A5
330
452B
100
AcDbEntity
  8
BORDER
  6
Continuous
 62
    15
100
AcDbLine
 10
8.719963402728886
 20
0.3399759973137096
 30
0.0
 11
8.719963402728886
 21
0.3999656890232617
 31
0.0
  0
LINE
  5
49A6
330
452B
100
AcDbEntity
  8
BORDER
  6
Continuous
 62
    15
100
AcDbLine
 10
9.119896280517695
 20
0.3399759973137096
 30
0.0
 11
9.119896280517695
 21
0.3999656890232617
 31
0.0
  0
LINE
  5
49A7
330
452B
100
AcDbEntity
  8
BORDER
  6
Continuous
 62
    15
100
AcDbLine
 10
9.079903152711347
 20
0.3399759973137096
 30
0.0
 11
9.079903152711347
 21
0.3999656890232617
 31
0.0
  0
LINE
  5
49A8
330
452B
100
AcDbEntity
  8
BORDER
  6
Continuous
 62
    15
100
AcDbLine
 10
9.059907088722244
 20
0.2999828395124904
 30
0.0
 11
9.059907088722244
 21
0.3999656890232617
 31
0.0
  0
LINE
  5
49A9
330
452B
100
AcDbEntity
  8
BORDER
  6
Continuous
 62
    15
100
AcDbLine
 10
9.039910024904969
 20
0.2999828395124904
 30
0.0
 11
9.039910024904969
 21
0.3999656890232617
 31
0.0
  0
LINE
  5
49AA
330
452B
100
AcDbEntity
  8
BORDER
  6
Continuous
 62
    15
100
AcDbLine
 10
9.0199130610705
 20
0.3399759973137096
 30
0.0
 11
9.0199130610705
 21
0.3999656890232617
 31
0.0
  0
LINE
  5
49AB
330
452B
100
AcDbEntity
  8
BORDER
  6
Continuous
 62
    15
100
AcDbLine
 10
8.979919933264122
 20
0.3399759973137096
 30
0.0
 11
8.979919933264122
 21
0.3999656890232617
 31
0.0
  0
LINE
  5
49AC
330
452B
100
AcDbEntity
  8
BORDER
  6
Continuous
 62
    15
100
AcDbLine
 10
8.959923869275048
 20
0.2999828395124904
 30
0.0
 11
8.959923869275048
 21
0.3999656890232617
 31
0.0
  0
LINE
  5
49AD
330
452B
100
AcDbEntity
  8
BORDER
  6
Continuous
 62
    15
100
AcDbLine
 10
8.93992690544058
 20
0.2999828395124904
 30
0.0
 11
8.93992690544058
 21
0.3999656890232617
 31
0.0
  0
LINE
  5
49AE
330
452B
100
AcDbEntity
  8
BORDER
  6
Continuous
 62
    15
100
AcDbLine
 10
8.919929841623305
 20
0.3399759973137096
 30
0.0
 11
8.919929841623305
 21
0.3999656890232617
 31
0.0
  0
LINE
  5
49AF
330
452B
100
AcDbEntity
  8
BORDER
  6
Continuous
 62
    15
100
AcDbLine
 10
8.879936713816928
 20
0.3399759973137096
 30
0.0
 11
8.879936713816928
 21
0.3999656890232617
 31
0.0
  0
LINE
  5
49B0
330
452B
100
AcDbEntity
  8
BORDER
  6
Continuous
 62
    15
100
AcDbLine
 10
8.859940649827825
 20
0.2999828395124904
 30
0.0
 11
8.859940649827825
 21
0.3999656890232617
 31
0.0
  0
LINE
  5
49B1
330
452B
100
AcDbEntity
  8
BORDER
  6
Continuous
 62
    15
100
AcDbLine
 10
8.839943685993384
 20
0.2999828395124904
 30
0.0
 11
8.839943685993384
 21
0.3999656890232617
 31
0.0
  0
LINE
  5
49B2
330
452B
100
AcDbEntity
  8
BORDER
  6
Continuous
 62
    15
100
AcDbLine
 10
8.819946622176082
 20
0.3399759973137096
 30
0.0
 11
8.819946622176082
 21
0.3999656890232617
 31
0.0
  0
LINE
  5
49B3
330
452B
100
AcDbEntity
  8
BORDER
  6
Continuous
 62
    15
100
AcDbLine
 10
9.099899216700421
 20
0.2599896917095521
 30
0.0
 11
9.099899216700421
 21
0.3999656890232617
 31
0.0
  0
LINE
  5
49B4
330
452B
100
AcDbEntity
  8
BORDER
  6
Continuous
 62
    15
100
AcDbLine
 10
8.999915997253197
 20
0.2599896917095521
 30
0.0
 11
8.999915997253197
 21
0.3999656890232617
 31
0.0
  0
LINE
  5
49B5
330
452B
100
AcDbEntity
  8
BORDER
  6
Continuous
 62
    15
100
AcDbLine
 10
8.899932777806002
 20
0.2599896917095521
 30
0.0
 11
8.899932777806002
 21
0.3999656890232617
 31
0.0
  0
LINE
  5
49B6
330
452B
100
AcDbEntity
  8
BORDER
  6
Continuous
 62
    15
100
AcDbLine
 10
8.799949658341613
 20
0.2599896917095521
 30
0.0
 11
8.799949658341613
 21
0.3999656890232617
 31
0.0
  0
LINE
  5
49B7
330
452B
100
AcDbEntity
  8
BORDER
  6
Continuous
 62
    15
100
AcDbLine
 10
9.259873527616662
 20
0.2999828395124904
 30
0.0
 11
9.259873527616662
 21
0.3999656890232617
 31
0.0
  0
LINE
  5
49B8
330
452B
100
AcDbEntity
  8
BORDER
  6
Continuous
 62
    15
100
AcDbLine
 10
9.239876463799388
 20
0.2999828395124904
 30
0.0
 11
9.239876463799388
 21
0.3999656890232617
 31
0.0
  0
LINE
  5
49B9
330
452B
100
AcDbEntity
  8
BORDER
  6
Continuous
 62
    15
100
AcDbLine
 10
9.219879399982085
 20
0.3399759973137096
 30
0.0
 11
9.219879399982085
 21
0.3999656890232617
 31
0.0
  0
LINE
  5
49BA
330
452B
100
AcDbEntity
  8
BORDER
  6
Continuous
 62
    15
100
AcDbLine
 10
9.179886372158541
 20
0.3399759973137096
 30
0.0
 11
9.179886372158541
 21
0.3999656890232617
 31
0.0
  0
LINE
  5
49BB
330
452B
100
AcDbEntity
  8
BORDER
  6
Continuous
 62
    15
100
AcDbLine
 10
9.159890308169439
 20
0.2999828395124904
 30
0.0
 11
9.159890308169439
 21
0.3999656890232617
 31
0.0
  0
LINE
  5
49BC
330
452B
100
AcDbEntity
  8
BORDER
  6
Continuous
 62
    15
100
AcDbLine
 10
9.139893244352192
 20
0.2999828395124904
 30
0.0
 11
9.139893244352192
 21
0.3999656890232617
 31
0.0
  0
LINE
  5
49BD
330
452B
100
AcDbEntity
  8
BORDER
  6
Continuous
 62
    15
100
AcDbLine
 10
9.199882436147616
 20
0.2599896917095521
 30
0.0
 11
9.199882436147616
 21
0.3999656890232617
 31
0.0
  0
TEXT
  5
49BE
330
452B
100
AcDbEntity
  8
BORDER
  6
Continuous
 62
    15
100
AcDbText
 10
8.702946126881657
 20
0.0329812595588271
 30
0.0
 40
0.0399931278063708
  1
FULL SIZE   50   02
 50
0.09999996
 41
0.7749084200000001
  7
AE
100
AcDbText
  0
TEXT
  5
49BF
330
452B
100
AcDbEntity
  8
Title Block
  6
Continuous
 62
     2
100
AcDbText
 10
8.973543078500011
 20
0.4900242034427523
 30
0.0
 40
0.075937067150492
  1
REVISION
 50
0.09999996
  7
AE
100
AcDbText
  0
LINE
  5
49C0
330
452B
100
AcDbEntity
  8
BORDER
  6
Continuous
 62
    15
100
AcDbLine
 10
10.69965639031853
 20
0.3999656890232617
 30
0.0
 11
10.69965639031853
 21
2.4
 31
0.0
  0
LINE
  5
49C1
330
452B
100
AcDbEntity
  8
Title Block
  6
Continuous
 62
     2
100
AcDbLine
 10
12.17518995515351
 20
1.0
 30
0.0
 11
12.17518995515351
 21
2.4
 31
0.0
  0
TEXT
  5
49C2
330
452B
100
AcDbEntity
  8
Title Block
  6
Continuous
 62
     2
100
AcDbText
 10
10.74999999999999
 20
0.8
 30
0.0
 40
0.075937067150492
  1
DRAWING NAME
 50
0.09999996
  7
AE
100
AcDbText
  0
TEXT
  5
49C3
330
452B
100
AcDbEntity
  8
Title Block
  6
Continuous
 62
     2
100
AcDbText
 10
12.19999999999999
 20
0.975
 30
0.0
 40
0.075937067150492
  1
BY
 50
0.09999996
  7
AE
100
AcDbText
  0
TEXT
  5
49C4
330
452B
100
AcDbEntity
  8
Title Block
  6
Continuous
 62
     2
100
AcDbText
 10
12.21
 20
1.1
 30
0.0
 40
0.075937067150492
  1
APPD
 50
0.09999996
  7
AE
100
AcDbText
  0
TEXT
  5
49C5
330
452B
100
AcDbEntity
  8
Title Block
  6
Continuous
 62
     2
100
AcDbText
 10
12.19999999999999
 20
1.349999999999999
 30
0.0
 40
0.075937067150492
  1
CHK
 50
0.09999996
  7
AE
100
AcDbText
  0
TEXT
  5
49C6
330
452B
100
AcDbEntity
  8
Title Block
  6
Continuous
 62
     2
100
AcDbText
 10
12.20620037256117
 20
1.224999999999999
 30
0.0
 40
0.075937067150492
  1
BY
 50
0.09999996
  7
AE
100
AcDbText
  0
TEXT
  5
49C7
330
452B
100
AcDbEntity
  8
Title Block
  6
Continuous
 62
     2
100
AcDbText
 10
12.19999999999999
 20
1.474999999999999
 30
0.0
 40
0.075937067150492
  1
BY
 50
0.09999996
  7
AE
100
AcDbText
  0
TEXT
  5
49C8
330
452B
100
AcDbEntity
  8
Title Block
  6
Continuous
 62
     2
100
AcDbText
 10
12.19999999999999
 20
1.599999999999999
 30
0.0
 40
0.075937067150492
  1
DR
 50
0.09999996
  7
AE
100
AcDbText
  0
LINE
  5
49C9
330
452B
100
AcDbEntity
  8
Title Block
  6
Continuous
 62
     2
100
AcDbLine
 10
9.0
 20
0.65
 30
0.0
 11
9.0
 21
2.4
 31
0.0
  0
ATTDEF
  5
49CA
330
452B
100
AcDbEntity
  8
Title Block
  6
Continuous
 62
     2
100
AcDbText
 10
14.0
 20
0.5
 30
0.0
 40
0.196816573850279
  1

 41
0.8
100
AcDbAttributeDefinition
  3
Drawing Number
  2
GEN-TITLE-NR{13.37}
 70
     0
1001
GENIUS_GENBLLY_14
1000
BOR5
  0
ATTDEF
  5
49CB
330
452B
100
AcDbEntity
  8
Title Block
  6
Continuous
 62
     2
100
AcDbText
 10
15.6
 20
1.024999999999999
 30
0.0
 40
0.11808994431015
  1

 41
0.8
100
AcDbAttributeDefinition
  3
Sheet
  2
GEN-TITLE-SHEET{2.62}
 70
     0
1001
GENIUS_GENBLLY_14
1000
BOR3
  0
ATTDEF
  5
49CC
330
452B
100
AcDbEntity
  8
Title Block
  6
Continuous
 62
     2
100
AcDbText
 10
15.525
 20
1.274999999999999
 30
0.0
 40
0.1010611419
  1

100
AcDbAttributeDefinition
  3
Date
  2
GEN-TITLE-PLOT{5}
 70
     0
1001
GENIUS_GENBLLY_14
1000
BOR2
  0
ATTDEF
  5
49CD
330
452B
100
AcDbEntity
  8
Title Block
  6
Continuous
 62
     2
100
AcDbText
 10
15.99999999999999
 20
1.024999999999999
 30
0.0
 40
0.11808994431015
  1

 41
0.8
100
AcDbAttributeDefinition
  3
Sheet of
  2
GEN-TITLE-SHEET-OF{2.62}
 70
     0
1001
GENIUS_GENBLLY_14
1000
BOR3
  0
LINE
  5
49CE
330
452B
100
AcDbEntity
  8
Title Block
  6
Continuous
 62
     2
100
AcDbLine
 10
15.12625718126357
 20
0.95
 30
0.0
 11
15.12625718126354
 21
1.45
 31
0.0
  0
LINE
  5
49CF
330
452B
100
AcDbEntity
  8
BORDER
  6
Continuous
 62
    15
100
AcDbLine
 10
13.64999999999999
 20
0.3999656890232617
 30
0.0
 11
13.64999999999999
 21
2.4
 31
0.0
  0
TEXT
  5
49D0
330
452B
100
AcDbEntity
  8
Title Block
  6
Continuous
 62
     2
100
AcDbText
 10
13.7
 20
0.8
 30
0.0
 40
0.075937067150492
  1
DRAWING NUMBER
 50
0.09999996
  7
AE
100
AcDbText
  0
TEXT
  5
49D1
330
452B
100
AcDbEntity
  8
Title Block
  6
Continuous
 62
     2
100
AcDbText
 10
13.7
 20
1.599999999999999
 30
0.0
 40
0.075937067150492
  1
REF
 50
0.09999996
  7
AE
100
AcDbText
  0
TEXT
  5
49D2
330
452B
100
AcDbEntity
  8
Title Block
  6
Continuous
 62
     2
100
AcDbText
 10
13.7
 20
1.349999999999999
 30
0.0
 40
0.075937067150492
  1
MACH
 50
0.09999996
  7
AE
100
AcDbText
  0
TEXT
  5
49D3
330
452B
100
AcDbEntity
  8
Title Block
  6
Continuous
 62
     2
100
AcDbText
 10
13.7
 20
1.1
 30
0.0
 40
0.075937067150492
  1
MATL
 50
0.09999996
  7
AE
100
AcDbText
  0
ATTDEF
  5
49D4
330
452B
100
AcDbEntity
  8
Title Block
  6
Continuous
 62
     2
100
AcDbText
 10
14.05
 20
1.524999999999999
 30
0.0
 40
0.1010611419
  1

100
AcDbAttributeDefinition
  3
Ref. No.
  2
GEN-TITLE-REF{5}
 70
     0
1001
GENIUS_GENBLLY_14
1000
BOR2
  0
ATTDEF
  5
49D5
330
452B
100
AcDbEntity
  8
Title Block
  6
Continuous
 62
     2
100
AcDbText
 10
14.05
 20
1.274999999999999
 30
0.0
 40
0.1010611419
  1

100
AcDbAttributeDefinition
  3
Machine
  2
GEN-TITLE-MACH{5}
 70
     0
1001
GENIUS_GENBLLY_14
1000
BOR2
  0
ATTDEF
  5
49D6
330
452B
100
AcDbEntity
  8
Title Block
  6
Continuous
 62
     2
100
AcDbText
 10
14.05
 20
1.024999999999999
 30
0.0
 40
0.1010611419
  1

 41
0.8
100
AcDbAttributeDefinition
  3
Material
  2
GEN-TITLE-MAT{11.15}
 70
     0
1001
GENIUS_GENBLLY_14
1000
BOR3
  0
TEXT
  5
49D7
330
452B
100
AcDbEntity
  8
Title Block
  6
Continuous
 62
     2
100
AcDbText
 10
15.175
 20
1.1
 30
0.0
 40
0.075937067150492
  1
SHEET   OF
 50
0.09999996
  7
AE
100
AcDbText
  0
TEXT
  5
49D8
330
452B
100
AcDbEntity
  8
Title Block
  6
Continuous
 62
     2
100
AcDbText
 10
15.175
 20
1.349999999999999
 30
0.0
 40
0.075937067150492
  1
DATE
 50
0.09999996
  7
AE
100
AcDbText
  0
LINE
  5
49D9
330
452B
100
AcDbEntity
  8
BORDER
 62
    15
100
AcDbLine
 10
16.6
 20
5.519965979023269
 30
0.0
 11
16.99999962000001
 21
5.519965979023269
 31
0.0
  0
LINE
  5
49DA
330
452B
100
AcDbEntity
  8
BORDER
 62
    15
100
AcDbLine
 10
0.400011260000019
 20
10.63996597902324
 30
0.0
 11
16.6
 21
10.63996597902324
 31
0.0
  0
LINE
  5
49DB
330
452B
100
AcDbEntity
  8
BORDER
 62
    15
100
AcDbLine
 10
8.50000126000001
 20
10.63996597902324
 30
0.0
 11
8.50000126000001
 21
11.01996597902326
 31
0.0
  0
MTEXT
  5
49DC
330
452B
100
AcDbEntity
  8
BORDER
  6
Continuous
100
AcDbMText
 10
15.10308979335871
 20
2.25
 30
0.0
 40
0.125
 41
2.663
 71
     2
 72
     5
  1
{\fArial|b0|i0|c0|p34;\C1;G & L Motion Control Inc.}
 73
     1
 44
1.0
  0
MTEXT
  5
49DD
330
452B
100
AcDbEntity
  8
BORDER
  6
Continuous
100
AcDbMText
 10
15.10412857763948
 20
1.928264837305509
 30
0.0
 40
0.07874
 41
2.862
 71
     5
 72
     1
  1
{\Fromans.shx;\C9;672 South Military Road\PFond du Lac, Wisconsin 54936 U.S.A.}
 73
     1
 44
1.0
  0
TEXT
  5
49DE
330
452B
100
AcDbEntity
  8
Title Block
  6
Continuous
 62
     2
100
AcDbText
 10
10.71881861560131
 20
2.036049281269597
 30
0.0
 40
0.0645465051491158
  1
of G&L Motion Control, is
 50
0.0999999600000013
 41
0.6799434399999999
  7
AE
100
AcDbText
  0
TEXT
  5
49DF
330
452B
100
AcDbEntity
  8
Title Block
  6
Continuous
 62
     2
100
AcDbText
 10
10.71741487412047
 20
2.144627598463487
 30
0.0
 40
0.0645465051491158
  1
contains proprietary information
 50
0.0999999600000013
 41
0.7005041199999999
  7
AE
100
AcDbText
  0
TEXT
  5
49E0
330
452B
100
AcDbEntity
  8
Title Block
  6
Continuous
 62
     2
100
AcDbText
 10
10.72248667991201
 20
1.924616885729644
 30
0.0
 40
0.0645465051491158
  1
submitted in confidence on
 50
0.0999999600000013
 41
0.6605569100000001
  7
AE
100
AcDbText
  0
TEXT
  5
49E1
330
452B
100
AcDbEntity
  8
Title Block
  6
Continuous
 62
     2
100
AcDbText
 10
10.71679449751522
 20
1.81708586876793
 30
0.0
 40
0.0645465051491158
  1
condition that it will not be
 50
0.0999999600000013
 41
0.72234601
  7
AE
100
AcDbText
  0
TEXT
  5
49E2
330
452B
100
AcDbEntity
  8
Title Block
  6
Continuous
 62
     2
100
AcDbText
 10
10.71416899531685
 20
1.597796107226088
 30
0.0
 40
0.0645465051491158
  1
will be used only for your
 50
0.0999999600000013
 41
0.6799434399999999
  7
AE
100
AcDbText
  0
TEXT
  5
49E3
330
452B
100
AcDbEntity
  8
Title Block
  6
Continuous
 62
     2
100
AcDbText
 10
10.71948721212293
 20
1.489000640399515
 30
0.0
 40
0.0645465051491158
  1
information, and will not be used
 50
0.0999999600000013
 41
0.6605569100000001
  7
AE
100
AcDbText
  0
TEXT
  5
49E4
330
452B
100
AcDbEntity
  8
Title Block
  6
Continuous
 62
     2
100
AcDbText
 10
10.71739723193344
 20
1.378476657741246
 30
0.0
 40
0.0645465051491158
  1
or disclosed to anyone except as
 50
0.0999999600000013
 41
0.6799434399999999
  7
AE
100
AcDbText
  0
TEXT
  5
49E5
330
452B
100
AcDbEntity
  8
Title Block
  6
Continuous
 62
     2
100
AcDbText
 10
10.71540499165808
 20
1.267047562975569
 30
0.0
 40
0.0645465051491158
  1
authorized by specific
 50
0.0999999600000013
 41
0.79688752
  7
AE
100
AcDbText
  0
TEXT
  5
49E6
330
452B
100
AcDbEntity
  8
Title Block
  6
Continuous
 62
     2
100
AcDbText
 10
10.71777124306261
 20
1.705466828073234
 30
0.0
 40
0.0645465051491158
  1
copied or otherwise reproduced,
 50
0.0999999600000013
 41
0.6799434399999999
  7
AE
100
AcDbText
  0
TEXT
  5
49E7
330
452B
100
AcDbEntity
  8
Title Block
  6
Continuous
 62
     2
100
AcDbText
 10
10.72050994356058
 20
2.252555955563673
 30
0.0
 40
0.0645465051491158
  1
NOTICE: This drawing or material
 50
0.0999999600000013
 41
0.7005041199999999
  7
AE
100
AcDbText
  0
TEXT
  5
49E8
330
452B
100
AcDbEntity
  8
Title Block
  6
Continuous
 62
     2
100
AcDbText
 10
10.72096632443385
 20
1.159697406318199
 30
0.0
 40
0.0645465051491158
  1
written consent of G&L Motion Control
 50
0.0999999600000013
 41
0.79688752
  7
AE
100
AcDbText
  0
TEXT
  5
49E9
330
452B
100
AcDbEntity
  8
Title Block
  6
Continuous
 62
     2
100
AcDbText
 10
10.71875
 20
1.046875
 30
0.0
 40
0.0645465051491158
  1
Automation, LLC
 50
0.0999999600000013
 41
0.79688752
  7
AE
100
AcDbText
  0
ENDBLK
  5
45C5
330
452B
100
AcDbEntity
  8
0
100
AcDbBlockEnd
  0
BLOCK
  5
45EB
330
45E9
100
AcDbEntity
  8
0
100
AcDbBlockBegin
  2
A$C6BD72E2A
 70
     0
 10
0.0
 20
0.0
 30
0.0
  3
A$C6BD72E2A
  1

  0
TEXT
  5
45EA
330
45E9
100
AcDbEntity
  8
0
 62
     2
100
AcDbText
 10
-8.35206561818045
 20
-7.689530854375729
 30
0.0
 40
0.10000005
  1
P1
  7
ROMANS
 72
     2
 11
-8.199684589609022
 21
-7.639530829375729
 31
0.0
100
AcDbText
 73
     2
  0
ENDBLK
  5
45EC
330
45E9
100
AcDbEntity
  8
0
100
AcDbBlockEnd
  0
BLOCK
  5
45F0
330
45EE
100
AcDbEntity
  8
0
100
AcDbBlockBegin
  2
A$C64DF1C68
 70
     0
 10
0.0
 20
0.0
 30
0.0
  3
A$C64DF1C68
  1

  0
TEXT
  5
45EF
330
45EE
100
AcDbEntity
  8
0
 62
     2
100
AcDbText
 10
-8.35206561818045
 20
-7.689530854375729
 30
0.0
 40
0.10000005
  1
P1
  7
ROMANS
 72
     2
 11
-8.199684589609022
 21
-7.639530829375729
 31
0.0
100
AcDbText
 73
     2
  0
ENDBLK
  5
45F1
330
45EE
100
AcDbEntity
  8
0
100
AcDbBlockEnd
  0
BLOCK
  5
46C5
330
46C3
100
AcDbEntity
  8
0
100
AcDbBlockBegin
  2
A$C4856593E
 70
     0
 10
0.0
 20
0.0
 30
0.0
  3
A$C4856593E
  1

  0
TEXT
  5
46C4
330
46C3
100
AcDbEntity
  8
0
100
AcDbText
 10
-8.356827496309385
 20
-7.689530864144758
 30
0.0
 40
0.125
  1
FACE VIEW
100
AcDbText
  0
ENDBLK
  5
46C6
330
46C3
100
AcDbEntity
  8
0
100
AcDbBlockEnd
  0
BLOCK
  5
475F
330
474F
100
AcDbEntity
  8
0
100
AcDbBlockBegin
  2
A$C274720C3
 70
     0
 10
0.0
 20
0.0
 30
0.0
  3
A$C274720C3
  1

  0
TEXT
  5
4750
330
474F
100
AcDbEntity
  8
0
100
AcDbText
 10
-0.7429938410886461
 20
-2.061129803614648
 30
0.0
 40
0.08
  1
IOCOM
  7
ROMANS
 11
-0.7429938410886461
 21
-2.021129803614648
 31
0.0
100
AcDbText
 73
     2
  0
TEXT
  5
4751
330
474F
100
AcDbEntity
  8
0
100
AcDbText
 10
-0.7429938410886461
 20
-3.461133003614647
 30
0.0
 40
0.08
  1
IOPWR
  7
ROMANS
 11
-0.7429938410886461
 21
-3.421133003614647
 31
0.0
100
AcDbText
 73
     2
  0
TEXT
  5
4752
330
474F
100
AcDbEntity
  8
0
100
AcDbText
 10
-0.7429938410886461
 20
-3.261133003614648
 30
0.0
 40
0.08
  1
IOCOM
  7
ROMANS
 11
-0.7429938410886461
 21
-3.221133003614648
 31
0.0
100
AcDbText
 73
     2
  0
TEXT
  5
4753
330
474F
100
AcDbEntity
  8
0
100
AcDbText
 10
-0.7429938410886461
 20
-2.461134603614676
 30
0.0
 40
0.08
  1
RESET
  7
ROMANS
 11
-0.7429938410886461
 21
-2.421134603614676
 31
0.0
100
AcDbText
 73
     2
  0
TEXT
  5
4754
330
474F
100
AcDbEntity
  8
0
100
AcDbText
 10
-0.742993841088655
 20
-2.66112980361465
 30
0.0
 40
0.08
  1
IOPWR
  7
ROMANS
 11
-0.742993841088655
 21
-2.62112980361465
 31
0.0
100
AcDbText
 73
     2
  0
TEXT
  5
4755
330
474F
100
AcDbEntity
  8
0
100
AcDbText
 10
-0.7429938410886461
 20
-2.261129803614651
 30
0.0
 40
0.08
  1
ENABLE
  7
ROMANS
 11
-0.7429938410886461
 21
-2.221129803614651
 31
0.0
100
AcDbText
 73
     2
  0
TEXT
  5
4756
330
474F
100
AcDbEntity
  8
0
100
AcDbText
 10
-0.7429938410886461
 20
-1.461131403614646
 30
0.0
 40
0.08
  1
COMMAND-
  7
ROMANS
 11
-0.7429938410886461
 21
-1.421131403614646
 31
0.0
100
AcDbText
 73
     2
  0
TEXT
  5
4757
330
474F
100
AcDbEntity
  8
0
100
AcDbText
 10
-0.7429938410886461
 20
-1.661131403614636
 30
0.0
 40
0.08
  1
READY
  7
ROMANS
 11
-0.7429938410886461
 21
-1.621131403614636
 31
0.0
100
AcDbText
 73
     2
  0
TEXT
  5
4758
330
474F
100
AcDbEntity
  8
0
100
AcDbText
 10
-0.7429938410886461
 20
-0.6611330036146575
 30
0.0
 40
0.08
  1
BMOUT-
  7
ROMANS
 11
-0.7429938410886461
 21
-0.6211330036146574
 31
0.0
100
AcDbText
 73
     2
  0
TEXT
  5
4759
330
474F
100
AcDbEntity
  8
0
100
AcDbText
 10
-0.7429938410886461
 20
-1.261133003614667
 30
0.0
 40
0.08
  1
COMMAND+
  7
ROMANS
 11
-0.7429938410886461
 21
-1.221133003614667
 31
0.0
100
AcDbText
 73
     2
  0
TEXT
  5
475A
330
474F
100
AcDbEntity
  8
0
100
AcDbText
 10
-0.7429938410886461
 20
-1.061133003614657
 30
0.0
 40
0.08
  1
IMOUT-
  7
ROMANS
 11
-0.7429938410886461
 21
-1.021133003614657
 31
0.0
100
AcDbText
 73
     2
  0
TEXT
  5
475B
330
474F
100
AcDbEntity
  8
0
100
AcDbText
 10
-0.7429938410886461
 20
-0.8611330036146567
 30
0.0
 40
0.08
  1
IMOUT+
  7
ROMANS
 11
-0.7429938410886461
 21
-0.8211330036146566
 31
0.0
100
AcDbText
 73
     2
  0
TEXT
  5
475C
330
474F
100
AcDbEntity
  8
0
100
AcDbText
 10
-0.7429938410886461
 20
-0.4611330036146581
 30
0.0
 40
0.08
  1
BMOUT+
  7
ROMANS
 11
-0.7429938410886461
 21
-0.4211330036146581
 31
0.0
100
AcDbText
 73
     2
  0
TEXT
  5
475D
330
474F
100
AcDbEntity
  8
0
100
AcDbText
 10
-0.7429938410886461
 20
-0.2611330036146677
 30
0.0
 40
0.08
  1
AMOUT-
  7
ROMANS
 11
-0.7429938410886461
 21
-0.2211330036146677
 31
0.0
100
AcDbText
 73
     2
  0
TEXT
  5
475E
330
474F
100
AcDbEntity
  8
0
100
AcDbText
 10
-0.7429938410886461
 20
-0.0611330036146578
 30
0.0
 40
0.08
  1
AMOUT+
  7
ROMANS
 11
-0.7429938410886461
 21
-0.0211330036146578
 31
0.0
100
AcDbText
 73
     2
  0
ENDBLK
  5
4760
330
474F
100
AcDbEntity
  8
0
100
AcDbBlockEnd
  0
BLOCK
  5
47D9
330
47D7
100
AcDbEntity
  8
0
100
AcDbBlockBegin
  2
GENAXEH
 70
     0
 10
0.0
 20
0.0
 30
0.0
  3
GENAXEH
  1

  0
LINE
  5
47D8
330
47D7
100
AcDbEntity
  8
0
100
AcDbLine
 10
-1.0
 20
0.0
 30
0.0
 11
1.0
 21
0.0
 31
0.0
  0
ENDBLK
  5
47DA
330
47D7
100
AcDbEntity
  8
0
100
AcDbBlockEnd
  0
BLOCK
  5
5179
330
50C4
100
AcDbEntity
  8
0
100
AcDbBlockBegin
  2
ASSEMBLY_C
 70
     2
 10
0.0
 20
0.0
 30
0.0
  3
ASSEMBLY_C
  1

  0
LINE
  5
50C5
330
50C4
100
AcDbEntity
  8
BORDER
  6
Continuous
100
AcDbLine
 10
0.0
 20
17.0
 30
0.0
 11
22.0
 21
17.0
 31
0.0
  0
LINE
  5
50C6
330
50C4
100
AcDbEntity
  8
BORDER
100
AcDbLine
 10
0.5
 20
0.75
 30
0.0
 11
21.49999999999999
 21
0.75
 31
0.0
  0
LINE
  5
50C7
330
50C4
100
AcDbEntity
  8
BORDER
100
AcDbLine
 10
0.5
 20
16.25
 30
0.0
 11
21.49999999999999
 21
16.25
 31
0.0
  0
ATTDEF
  5
50C8
330
50C4
100
AcDbEntity
  8
Title Block
  6
Continuous
100
AcDbText
 10
17.42499999999999
 20
1.875
 30
0.0
 40
0.1010611419
  1

100
AcDbAttributeDefinition
  3
Drawn by
  2
GEN-TITLE-NAME{5}
 70
     0
1001
GENIUS_GENBLLY_14
1000
BOR2
  0
ATTDEF
  5
50C9
330
50C4
100
AcDbEntity
  8
Title Block
  6
Continuous
100
AcDbText
 10
17.42499999999999
 20
1.625
 30
0.0
 40
0.1010611419
  1

100
AcDbAttributeDefinition
  3
Check by
  2
GEN-TITLE-CHKM{5}
 70
     0
1001
GENIUS_GENBLLY_14
1000
BOR2
  0
ATTDEF
  5
50CA
330
50C4
100
AcDbEntity
  8
Title Block
  6
Continuous
100
AcDbText
 10
17.42499999999999
 20
1.375
 30
0.0
 40
0.1010611419
  1

100
AcDbAttributeDefinition
  3
Approved by
  2
GEN-TITLE-APPM{5}
 70
     0
1001
GENIUS_GENBLLY_14
1000
BOR2
1001
GENIUS_GENTRA_14
1002
{
1070
     3
1000
GENTRAPR,%s,(GENMSG gentitus 73)
1000
Approved by
1000
gb
1070
     0
1002
}
  0
LINE
  5
50CB
330
50C4
100
AcDbEntity
  8
Title Block
  6
Continuous
100
AcDbLine
 10
15.59965639031853
 20
1.299999999999999
 30
0.0
 11
21.49999999999999
 21
1.299999999999999
 31
0.0
  0
LINE
  5
50CC
330
50C4
100
AcDbEntity
  8
Title Block
  6
Continuous
100
AcDbLine
 10
17.07518995515351
 20
1.549999999999999
 30
0.0
 11
21.49999999999999
 21
1.549999999999999
 31
0.0
  0
LINE
  5
50CD
330
50C4
100
AcDbEntity
  8
Title Block
  6
Continuous
100
AcDbLine
 10
17.07518995515351
 20
1.799999999999999
 30
0.0
 11
21.49999999999999
 21
1.799999999999999
 31
0.0
  0
LINE
  5
50CE
330
50C4
100
AcDbEntity
  8
Title Block
  6
Continuous
100
AcDbLine
 10
17.07518995515351
 20
2.049999999999999
 30
0.0
 11
21.49999999999999
 21
2.049999999999999
 31
0.0
  0
LINE
  5
50CF
330
50C4
100
AcDbEntity
  8
Title Block
  6
Continuous
100
AcDbLine
 10
12.75
 20
2.75
 30
0.0
 11
21.49999999999999
 21
2.75
 31
0.0
  0
TEXT
  5
50D0
330
50C4
100
AcDbEntity
  8
Title Block
  6
Continuous
100
AcDbText
 10
17.20669482722676
 20
2.346163262564664
 30
0.0
 40
0.1010611419
  1
  DRAWING
 50
0.09999996
  7
AE
100
AcDbText
  0
TEXT
  5
50D1
330
50C4
100
AcDbEntity
  8
Title Block
  6
Continuous
100
AcDbText
 10
17.20669482722676
 20
2.555546537751305
 30
0.0
 40
0.1010611419
  1
DO NOT SCALE
 50
0.09999996
  7
AE
100
AcDbText
  0
LINE
  5
50D2
330
50C4
100
AcDbEntity
  8
BORDER
  6
Continuous
100
AcDbLine
 10
0.0
 20
0.2456391960479891
 30
0.0
 11
0.0
 21
17.0
 31
0.0
  0
LINE
  5
50D3
330
50C4
100
AcDbEntity
  8
BORDER
100
AcDbLine
 10
0.5
 20
0.75
 30
0.0
 11
0.5
 21
16.25
 31
0.0
  0
TEXT
  5
50D4
330
50C4
100
AcDbEntity
  8
BORDER
100
AcDbText
 10
0.1785739999999976
 20
2.0249996
 30
0.0
 40
0.19999999
  1
A
  7
AE
100
AcDbText
  0
LINE
  5
50D5
330
50C4
100
AcDbEntity
  8
BORDER
100
AcDbLine
 10
0.1000060000000005
 20
8.4999991
 30
0.0
 11
0.3000030000000002
 21
8.4999991
 31
0.0
  0
LINE
  5
50D6
330
50C4
100
AcDbEntity
  8
BORDER
100
AcDbLine
 10
0.3000179999999979
 20
8.399978599999998
 30
0.0
 11
0.5000149999999977
 21
8.499977099999998
 31
0.0
  0
TEXT
  5
50D7
330
50C4
100
AcDbEntity
  8
BORDER
100
AcDbText
 10
0.1785739999999976
 20
6.2749996
 30
0.0
 40
0.19999999
  1
B
  7
AE
100
AcDbText
  0
LINE
  5
50D8
330
50C4
100
AcDbEntity
  8
BORDER
100
AcDbLine
 10
0.1000060000000005
 20
4.25
 30
0.0
 11
0.5
 21
4.25
 31
0.0
  0
LINE
  5
50D9
330
50C4
100
AcDbEntity
  8
BORDER
100
AcDbLine
 10
0.3000340000000001
 20
8.5999765
 30
0.0
 11
0.5000299999999989
 21
8.499978999999999
 31
0.0
  0
LINE
  5
50DA
330
50C4
100
AcDbEntity
  8
BORDER
100
AcDbLine
 10
0.3000179999999979
 20
8.3999929
 30
0.0
 11
0.3000179999999979
 21
8.5999899
 31
0.0
  0
TEXT
  5
50DB
330
50C4
100
AcDbEntity
  8
BORDER
100
AcDbText
 10
2.678573999999997
 20
0.27499998
 30
0.0
 40
0.19999999
  1
4
  7
AE
100
AcDbText
  0
LINE
  5
50DC
330
50C4
100
AcDbEntity
  8
BORDER
100
AcDbLine
 10
5.5
 20
0.34999996
 30
0.0
 11
5.5
 21
0.75
 31
0.0
  0
TEXT
  5
50DD
330
50C4
100
AcDbEntity
  8
BORDER
100
AcDbText
 10
8.178572
 20
0.27499998
 30
0.0
 40
0.19999999
  1
3
  7
AE
100
AcDbText
  0
TEXT
  5
50DE
330
50C4
100
AcDbEntity
  8
BORDER
100
AcDbText
 10
13.5829811
 20
0.3329525
 30
0.0
 40
0.04
  1
FULL SIZE   50   02
 50
0.0999999600000013
 41
0.7749084200000001
  7
AE
100
AcDbText
  0
TEXT
  5
50DF
330
50C4
100
AcDbEntity
  8
Title Block
  6
Continuous
100
AcDbText
 10
13.87354307850001
 20
0.8400242034427522
 30
0.0
 40
0.075937067150492
  1
REVISION
 50
0.09999996
  7
AE
100
AcDbText
  0
LINE
  5
50E0
330
50C4
100
AcDbEntity
  8
Title Block
  6
Continuous
100
AcDbLine
 10
12.75
 20
1.0
 30
0.0
 11
15.59965639031853
 21
1.0
 31
0.0
  0
LINE
  5
50E1
330
50C4
100
AcDbEntity
  8
Title Block
  6
Continuous
100
AcDbLine
 10
12.75
 20
1.75
 30
0.0
 11
15.59965639031853
 21
1.75
 31
0.0
  0
LINE
  5
50E2
330
50C4
100
AcDbEntity
  8
Title Block
  6
Continuous
100
AcDbLine
 10
12.75
 20
2.0
 30
0.0
 11
15.59965639031853
 21
2.0
 31
0.0
  0
LINE
  5
50E3
330
50C4
100
AcDbEntity
  8
Title Block
  6
Continuous
100
AcDbLine
 10
12.75
 20
2.25
 30
0.0
 11
15.59965639031853
 21
2.25
 31
0.0
  0
LINE
  5
50E4
330
50C4
100
AcDbEntity
  8
Title Block
  6
Continuous
100
AcDbLine
 10
12.75
 20
2.5
 30
0.0
 11
15.59965639031853
 21
2.5
 31
0.0
  0
LINE
  5
50E5
330
50C4
100
AcDbEntity
  8
Title Block
  6
Continuous
100
AcDbLine
 10
12.75
 20
1.5
 30
0.0
 11
15.59965639031853
 21
1.5
 31
0.0
  0
LINE
  5
50E6
330
50C4
100
AcDbEntity
  8
Title Block
  6
Continuous
100
AcDbLine
 10
12.75
 20
1.25
 30
0.0
 11
15.59965639031853
 21
1.25
 31
0.0
  0
LINE
  5
50E7
330
50C4
100
AcDbEntity
  8
BORDER
  6
LS
100
AcDbLine
 10
13.68000129999999
 20
0.55999994
 30
0.0
 11
13.68000129999999
 21
0.6999999900000001
 31
0.0
  0
LINE
  5
50E8
330
50C4
100
AcDbEntity
  8
BORDER
  6
LS
100
AcDbLine
 10
13.7800016
 20
0.55999994
 30
0.0
 11
13.7800016
 21
0.6999999900000001
 31
0.0
  0
LINE
  5
50E9
330
50C4
100
AcDbEntity
  8
BORDER
  6
LS
100
AcDbLine
 10
13.880002
 20
0.55999994
 30
0.0
 11
13.880002
 21
0.6999999900000001
 31
0.0
  0
LINE
  5
50EA
330
50C4
100
AcDbEntity
  8
BORDER
  6
LS
100
AcDbLine
 10
13.7000017
 20
0.63999999
 30
0.0
 11
13.7000017
 21
0.6999999900000001
 31
0.0
  0
LINE
  5
50EB
330
50C4
100
AcDbEntity
  8
BORDER
  6
LS
100
AcDbLine
 10
13.7200022
 20
0.59999996
 30
0.0
 11
13.7200022
 21
0.6999999900000001
 31
0.0
  0
LINE
  5
50EC
330
50C4
100
AcDbEntity
  8
BORDER
  6
LS
100
AcDbLine
 10
13.7400026
 20
0.59999996
 30
0.0
 11
13.7400026
 21
0.6999999900000001
 31
0.0
  0
LINE
  5
50ED
330
50C4
100
AcDbEntity
  8
BORDER
  6
LS
100
AcDbLine
 10
13.76000209999999
 20
0.63999999
 30
0.0
 11
13.76000209999999
 21
0.6999999900000001
 31
0.0
  0
LINE
  5
50EE
330
50C4
100
AcDbEntity
  8
BORDER
  6
LS
100
AcDbLine
 10
13.80000209999999
 20
0.63999999
 30
0.0
 11
13.80000209999999
 21
0.6999999900000001
 31
0.0
  0
LINE
  5
50EF
330
50C4
100
AcDbEntity
  8
BORDER
  6
LS
100
AcDbLine
 10
13.8200026
 20
0.59999996
 30
0.0
 11
13.8200026
 21
0.6999999900000001
 31
0.0
  0
LINE
  5
50F0
330
50C4
100
AcDbEntity
  8
BORDER
  6
LS
100
AcDbLine
 10
13.840003
 20
0.59999996
 30
0.0
 11
13.840003
 21
0.6999999900000001
 31
0.0
  0
LINE
  5
50F1
330
50C4
100
AcDbEntity
  8
BORDER
  6
LS
100
AcDbLine
 10
13.8600025
 20
0.63999999
 30
0.0
 11
13.8600025
 21
0.6999999900000001
 31
0.0
  0
LINE
  5
50F2
330
50C4
100
AcDbEntity
  8
BORDER
  6
LS
100
AcDbLine
 10
13.90000249999999
 20
0.63999999
 30
0.0
 11
13.90000249999999
 21
0.6999999900000001
 31
0.0
  0
LINE
  5
50F3
330
50C4
100
AcDbEntity
  8
BORDER
  6
LS
100
AcDbLine
 10
13.9200029
 20
0.59999996
 30
0.0
 11
13.9200029
 21
0.6999999900000001
 31
0.0
  0
LINE
  5
50F4
330
50C4
100
AcDbEntity
  8
BORDER
  6
LS
100
AcDbLine
 10
13.4800005
 20
0.55999994
 30
0.0
 11
13.4800005
 21
0.6999999900000001
 31
0.0
  0
LINE
  5
50F5
330
50C4
100
AcDbEntity
  8
BORDER
  6
LS
100
AcDbLine
 10
13.58000089999999
 20
0.55999994
 30
0.0
 11
13.58000089999999
 21
0.6999999900000001
 31
0.0
  0
LINE
  5
50F6
330
50C4
100
AcDbEntity
  8
BORDER
  6
LS
100
AcDbLine
 10
13.4000006
 20
0.63999999
 30
0.0
 11
13.4000006
 21
0.6999999900000001
 31
0.0
  0
LINE
  5
50F7
330
50C4
100
AcDbEntity
  8
BORDER
  6
LS
100
AcDbLine
 10
13.42000099999999
 20
0.59999996
 30
0.0
 11
13.42000099999999
 21
0.6999999900000001
 31
0.0
  0
LINE
  5
50F8
330
50C4
100
AcDbEntity
  8
BORDER
  6
LS
100
AcDbLine
 10
13.4400015
 20
0.59999996
 30
0.0
 11
13.4400015
 21
0.6999999900000001
 31
0.0
  0
LINE
  5
50F9
330
50C4
100
AcDbEntity
  8
BORDER
  6
LS
100
AcDbLine
 10
13.460001
 20
0.63999999
 30
0.0
 11
13.460001
 21
0.6999999900000001
 31
0.0
  0
LINE
  5
50FA
330
50C4
100
AcDbEntity
  8
BORDER
  6
LS
100
AcDbLine
 10
13.50000089999999
 20
0.63999999
 30
0.0
 11
13.50000089999999
 21
0.6999999900000001
 31
0.0
  0
LINE
  5
50FB
330
50C4
100
AcDbEntity
  8
BORDER
  6
LS
100
AcDbLine
 10
13.5200014
 20
0.59999996
 30
0.0
 11
13.5200014
 21
0.6999999900000001
 31
0.0
  0
LINE
  5
50FC
330
50C4
100
AcDbEntity
  8
BORDER
  6
LS
100
AcDbLine
 10
13.5400019
 20
0.59999996
 30
0.0
 11
13.5400019
 21
0.6999999900000001
 31
0.0
  0
LINE
  5
50FD
330
50C4
100
AcDbEntity
  8
BORDER
  6
LS
100
AcDbLine
 10
13.5600014
 20
0.63999999
 30
0.0
 11
13.5600014
 21
0.6999999900000001
 31
0.0
  0
LINE
  5
50FE
330
50C4
100
AcDbEntity
  8
BORDER
  6
LS
100
AcDbLine
 10
13.6000013
 20
0.63999999
 30
0.0
 11
13.6000013
 21
0.6999999900000001
 31
0.0
  0
LINE
  5
50FF
330
50C4
100
AcDbEntity
  8
BORDER
  6
LS
100
AcDbLine
 10
13.62000179999999
 20
0.59999996
 30
0.0
 11
13.62000179999999
 21
0.6999999900000001
 31
0.0
  0
LINE
  5
5100
330
50C4
100
AcDbEntity
  8
BORDER
  6
LS
100
AcDbLine
 10
13.6400022
 20
0.59999996
 30
0.0
 11
13.6400022
 21
0.6999999900000001
 31
0.0
  0
LINE
  5
5101
330
50C4
100
AcDbEntity
  8
BORDER
  6
LS
100
AcDbLine
 10
13.6600017
 20
0.63999999
 30
0.0
 11
13.6600017
 21
0.6999999900000001
 31
0.0
  0
TEXT
  5
5102
330
50C4
100
AcDbEntity
  8
BORDER
100
AcDbText
 10
13.7515001
 20
0.41995007
 30
0.0
 40
0.07999998
  1
4
 50
0.0999999600000013
  7
AE
100
AcDbText
  0
TEXT
  5
5103
330
50C4
100
AcDbEntity
  8
BORDER
100
AcDbText
 10
13.3514986
 20
0.35995007
 30
0.0
 40
0.07999998
  1
0
 50
0.0999999600000013
  7
AE
100
AcDbText
  0
TEXT
  5
5104
330
50C4
100
AcDbEntity
  8
BORDER
100
AcDbText
 10
13.5514994
 20
0.41995007
 30
0.0
 40
0.07999998
  1
2
 50
0.0999999600000013
  7
AE
100
AcDbText
  0
TEXT
  5
5105
330
50C4
100
AcDbEntity
  8
BORDER
100
AcDbText
 10
12.8087463
 20
0.27487546
 30
0.0
 40
0.19999999
  1
2
 50
0.0999999600000013
  7
AE
100
AcDbText
  0
LINE
  5
5106
330
50C4
100
AcDbEntity
  8
BORDER
  6
LS
100
AcDbLine
 10
13.3800001
 20
0.49999994
 30
0.0
 11
13.3800001
 21
0.6999999900000001
 31
0.0
  0
LINE
  5
5107
330
50C4
100
AcDbEntity
  8
BORDER
100
AcDbLine
 10
10.900002
 20
0.55000043
 30
0.0
 11
11.00000199999999
 21
0.75
 31
0.0
  0
LINE
  5
5108
330
50C4
100
AcDbEntity
  8
BORDER
100
AcDbLine
 10
11.000003
 20
0.7499994000000001
 30
0.0
 11
11.100003
 21
0.55000019
 31
0.0
  0
LINE
  5
5109
330
50C4
100
AcDbEntity
  8
BORDER
100
AcDbLine
 10
10.90000099999999
 20
0.5499999500000001
 30
0.0
 11
11.1
 21
0.5499999500000001
 31
0.0
  0
LINE
  5
510A
330
50C4
100
AcDbEntity
  8
BORDER
100
AcDbLine
 10
11.0
 20
0.3499999
 30
0.0
 11
11.0
 21
0.5499999500000001
 31
0.0
  0
LINE
  5
510B
330
50C4
100
AcDbEntity
  8
BORDER
100
AcDbLine
 10
11.0
 20
0.3499999
 30
0.0
 11
11.0
 21
0.5499999500000001
 31
0.0
  0
LINE
  5
510C
330
50C4
100
AcDbEntity
  8
Title Block
  6
Continuous
100
AcDbLine
 10
13.9
 20
1.0
 30
0.0
 11
13.9
 21
2.75
 31
0.0
  0
TEXT
  5
510D
330
50C4
100
AcDbEntity
  8
Title Block
  6
Continuous
100
AcDbText
 10
12.83824213224503
 20
1.090349814097824
 30
0.0
 40
0.0771520776612738
  1
NO.
 50
0.09999996
  7
AE
100
AcDbText
  0
LINE
  5
510E
330
50C4
100
AcDbEntity
  8
Title Block
  6
Continuous
100
AcDbLine
 10
12.75
 20
0.7499656890232619
 30
0.0
 11
12.75
 21
2.75
 31
0.0
  0
LINE
  5
510F
330
50C4
100
AcDbEntity
  8
Title Block
  6
Continuous
100
AcDbLine
 10
13.1
 20
1.0
 30
0.0
 11
13.1
 21
2.75
 31
0.0
  0
TEXT
  5
5110
330
50C4
100
AcDbEntity
  8
Title Block
  6
Continuous
100
AcDbText
 10
13.40137402234739
 20
1.090958090874199
 30
0.0
 40
0.075937067150492
  1
DATE
 50
0.09999996
  7
AE
100
AcDbText
  0
LINE
  5
5111
330
50C4
100
AcDbEntity
  8
BORDER
  6
LS
100
AcDbLine
 10
15.18000599999999
 20
0.55999994
 30
0.0
 11
15.18000599999999
 21
0.6999999900000001
 31
0.0
  0
LINE
  5
5112
330
50C4
100
AcDbEntity
  8
BORDER
  6
LS
100
AcDbLine
 10
14.9800053
 20
0.55999994
 30
0.0
 11
14.9800053
 21
0.6999999900000001
 31
0.0
  0
LINE
  5
5113
330
50C4
100
AcDbEntity
  8
BORDER
  6
LS
100
AcDbLine
 10
14.7800045
 20
0.55999994
 30
0.0
 11
14.7800045
 21
0.6999999900000001
 31
0.0
  0
LINE
  5
5114
330
50C4
100
AcDbEntity
  8
BORDER
  6
LS
100
AcDbLine
 10
14.58000469999999
 20
0.55999994
 30
0.0
 11
14.58000469999999
 21
0.6999999900000001
 31
0.0
  0
LINE
  5
5115
330
50C4
100
AcDbEntity
  8
BORDER
  6
LS
100
AcDbLine
 10
14.3600044
 20
0.63999999
 30
0.0
 11
14.3600044
 21
0.6999999900000001
 31
0.0
  0
LINE
  5
5116
330
50C4
100
AcDbEntity
  8
BORDER
  6
LS
100
AcDbLine
 10
14.08000279999999
 20
0.55999994
 30
0.0
 11
14.08000279999999
 21
0.6999999900000001
 31
0.0
  0
LINE
  5
5117
330
50C4
100
AcDbEntity
  8
BORDER
  6
LS
100
AcDbLine
 10
14.1800032
 20
0.55999994
 30
0.0
 11
14.1800032
 21
0.6999999900000001
 31
0.0
  0
LINE
  5
5118
330
50C4
100
AcDbEntity
  8
BORDER
  6
LS
100
AcDbLine
 10
14.2800035
 20
0.55999994
 30
0.0
 11
14.2800035
 21
0.6999999900000001
 31
0.0
  0
LINE
  5
5119
330
50C4
100
AcDbEntity
  8
BORDER
  6
LS
100
AcDbLine
 10
14.30000399999999
 20
0.63999999
 30
0.0
 11
14.30000399999999
 21
0.6999999900000001
 31
0.0
  0
LINE
  5
511A
330
50C4
100
AcDbEntity
  8
BORDER
  6
LS
100
AcDbLine
 10
14.3200045
 20
0.59999996
 30
0.0
 11
14.3200045
 21
0.6999999900000001
 31
0.0
  0
LINE
  5
511B
330
50C4
100
AcDbEntity
  8
BORDER
  6
LS
100
AcDbLine
 10
14.3400049
 20
0.59999996
 30
0.0
 11
14.3400049
 21
0.6999999900000001
 31
0.0
  0
LINE
  5
511C
330
50C4
100
AcDbEntity
  8
BORDER
  6
LS
100
AcDbLine
 10
14.02000329999999
 20
0.59999996
 30
0.0
 11
14.02000329999999
 21
0.6999999900000001
 31
0.0
  0
LINE
  5
511D
330
50C4
100
AcDbEntity
  8
BORDER
  6
LS
100
AcDbLine
 10
14.0400038
 20
0.59999996
 30
0.0
 11
14.0400038
 21
0.6999999900000001
 31
0.0
  0
LINE
  5
511E
330
50C4
100
AcDbEntity
  8
BORDER
  6
LS
100
AcDbLine
 10
14.0600033
 20
0.63999999
 30
0.0
 11
14.0600033
 21
0.6999999900000001
 31
0.0
  0
LINE
  5
511F
330
50C4
100
AcDbEntity
  8
BORDER
  6
LS
100
AcDbLine
 10
14.10000319999999
 20
0.63999999
 30
0.0
 11
14.10000319999999
 21
0.6999999900000001
 31
0.0
  0
LINE
  5
5120
330
50C4
100
AcDbEntity
  8
BORDER
  6
LS
100
AcDbLine
 10
14.1200037
 20
0.59999996
 30
0.0
 11
14.1200037
 21
0.6999999900000001
 31
0.0
  0
LINE
  5
5121
330
50C4
100
AcDbEntity
  8
BORDER
  6
LS
100
AcDbLine
 10
14.14000419999999
 20
0.59999996
 30
0.0
 11
14.14000419999999
 21
0.6999999900000001
 31
0.0
  0
LINE
  5
5122
330
50C4
100
AcDbEntity
  8
BORDER
  6
LS
100
AcDbLine
 10
14.1600037
 20
0.63999999
 30
0.0
 11
14.1600037
 21
0.6999999900000001
 31
0.0
  0
LINE
  5
5123
330
50C4
100
AcDbEntity
  8
BORDER
  6
LS
100
AcDbLine
 10
14.20000359999999
 20
0.63999999
 30
0.0
 11
14.20000359999999
 21
0.6999999900000001
 31
0.0
  0
LINE
  5
5124
330
50C4
100
AcDbEntity
  8
BORDER
  6
LS
100
AcDbLine
 10
14.2200041
 20
0.59999996
 30
0.0
 11
14.2200041
 21
0.6999999900000001
 31
0.0
  0
LINE
  5
5125
330
50C4
100
AcDbEntity
  8
BORDER
  6
LS
100
AcDbLine
 10
14.2400045
 20
0.59999996
 30
0.0
 11
14.2400045
 21
0.6999999900000001
 31
0.0
  0
LINE
  5
5126
330
50C4
100
AcDbEntity
  8
BORDER
  6
LS
100
AcDbLine
 10
14.26000399999999
 20
0.63999999
 30
0.0
 11
14.26000399999999
 21
0.6999999900000001
 31
0.0
  0
LINE
  5
5127
330
50C4
100
AcDbEntity
  8
BORDER
  6
LS
100
AcDbLine
 10
13.9800024
 20
0.55999994
 30
0.0
 11
13.9800024
 21
0.6999999900000001
 31
0.0
  0
LINE
  5
5128
330
50C4
100
AcDbEntity
  8
BORDER
  6
LS
100
AcDbLine
 10
13.9400034
 20
0.59999996
 30
0.0
 11
13.9400034
 21
0.6999999900000001
 31
0.0
  0
LINE
  5
5129
330
50C4
100
AcDbEntity
  8
BORDER
  6
LS
100
AcDbLine
 10
13.9600029
 20
0.63999999
 30
0.0
 11
13.9600029
 21
0.6999999900000001
 31
0.0
  0
LINE
  5
512A
330
50C4
100
AcDbEntity
  8
BORDER
  6
LS
100
AcDbLine
 10
14.0000029
 20
0.63999999
 30
0.0
 11
14.0000029
 21
0.6999999900000001
 31
0.0
  0
TEXT
  5
512B
330
50C4
100
AcDbEntity
  8
BORDER
100
AcDbText
 10
16.3514986
 20
0.35995007
 30
0.0
 40
0.07999998
  1
3
 50
0.0999999600000013
  7
AE
100
AcDbText
  0
TEXT
  5
512C
330
50C4
100
AcDbEntity
  8
BORDER
100
AcDbText
 10
15.35149859999999
 20
0.35995007
 30
0.0
 40
0.07999998
  1
2
 50
0.0999999600000013
  7
AE
100
AcDbText
  0
TEXT
  5
512D
330
50C4
100
AcDbEntity
  8
BORDER
100
AcDbText
 10
15.1515045
 20
0.41995007
 30
0.0
 40
0.07999998
  1
8
 50
0.0999999600000013
  7
AE
100
AcDbText
  0
TEXT
  5
512E
330
50C4
100
AcDbEntity
  8
BORDER
100
AcDbText
 10
14.751503
 20
0.41995007
 30
0.0
 40
0.07999998
  1
4
 50
0.0999999600000013
  7
AE
100
AcDbText
  0
TEXT
  5
512F
330
50C4
100
AcDbEntity
  8
BORDER
100
AcDbText
 10
14.3514986
 20
0.35995007
 30
0.0
 40
0.07999998
  1
1
 50
0.0999999600000013
  7
AE
100
AcDbText
  0
TEXT
  5
5130
330
50C4
100
AcDbEntity
  8
BORDER
100
AcDbText
 10
14.5515032
 20
0.41995007
 30
0.0
 40
0.07999998
  1
2
 50
0.0999999600000013
  7
AE
100
AcDbText
  0
TEXT
  5
5131
330
50C4
100
AcDbEntity
  8
BORDER
100
AcDbText
 10
14.9515037
 20
0.41995007
 30
0.0
 40
0.07999998
  1
6
 50
0.0999999600000013
  7
AE
100
AcDbText
  0
TEXT
  5
5132
330
50C4
100
AcDbEntity
  8
BORDER
100
AcDbText
 10
14.1515017
 20
0.41995007
 30
0.0
 40
0.07999998
  1
8
 50
0.0999999600000013
  7
AE
100
AcDbText
  0
TEXT
  5
5133
330
50C4
100
AcDbEntity
  8
BORDER
100
AcDbText
 10
13.9515009
 20
0.41995007
 30
0.0
 40
0.07999998
  1
6
 50
0.0999999600000013
  7
AE
100
AcDbText
  0
LINE
  5
5134
330
50C4
100
AcDbEntity
  8
BORDER
  6
LS
100
AcDbLine
 10
16.3800001
 20
0.49999994
 30
0.0
 11
16.3800001
 21
0.6999999900000001
 31
0.0
  0
LINE
  5
5135
330
50C4
100
AcDbEntity
  8
BORDER
  6
LS
100
AcDbLine
 10
14.3800001
 20
0.49999994
 30
0.0
 11
14.3800001
 21
0.6999999900000001
 31
0.0
  0
LINE
  5
5136
330
50C4
100
AcDbEntity
  8
BORDER
  6
LS
100
AcDbLine
 10
15.3800001
 20
0.49999994
 30
0.0
 11
15.3800001
 21
0.6999999900000001
 31
0.0
  0
TEXT
  5
5137
330
50C4
100
AcDbEntity
  8
Title Block
  6
Continuous
100
AcDbText
 10
17.1
 20
1.949999999999999
 30
0.0
 40
0.075937067150492
  1
DR
 50
0.09999996
  7
AE
100
AcDbText
  0
TEXT
  5
5138
330
50C4
100
AcDbEntity
  8
Title Block
  6
Continuous
100
AcDbText
 10
17.1
 20
1.824999999999999
 30
0.0
 40
0.075937067150492
  1
BY
 50
0.09999996
  7
AE
100
AcDbText
  0
TEXT
  5
5139
330
50C4
100
AcDbEntity
  8
Title Block
  6
Continuous
100
AcDbText
 10
17.10620037256117
 20
1.574999999999999
 30
0.0
 40
0.075937067150492
  1
BY
 50
0.09999996
  7
AE
100
AcDbText
  0
TEXT
  5
513A
330
50C4
100
AcDbEntity
  8
Title Block
  6
Continuous
100
AcDbText
 10
17.1
 20
1.699999999999999
 30
0.0
 40
0.075937067150492
  1
CHK
 50
0.09999996
  7
AE
100
AcDbText
  0
TEXT
  5
513B
330
50C4
100
AcDbEntity
  8
Title Block
  6
Continuous
100
AcDbText
 10
17.11
 20
1.45
 30
0.0
 40
0.075937067150492
  1
APPD
 50
0.09999996
  7
AE
100
AcDbText
  0
TEXT
  5
513C
330
50C4
100
AcDbEntity
  8
Title Block
  6
Continuous
100
AcDbText
 10
17.1
 20
1.325
 30
0.0
 40
0.075937067150492
  1
BY
 50
0.09999996
  7
AE
100
AcDbText
  0
TEXT
  5
513D
330
50C4
100
AcDbEntity
  8
Title Block
  6
Continuous
100
AcDbText
 10
15.65
 20
1.149999999999999
 30
0.0
 40
0.075937067150492
  1
DRAWING NAME
 50
0.09999996
  7
AE
100
AcDbText
  0
LINE
  5
513E
330
50C4
100
AcDbEntity
  8
Title Block
  6
Continuous
100
AcDbLine
 10
17.07518995515351
 20
1.35
 30
0.0
 11
17.07518995515351
 21
2.75
 31
0.0
  0
LINE
  5
513F
330
50C4
100
AcDbEntity
  8
Title Block
  6
Continuous
100
AcDbLine
 10
15.59965639031853
 20
0.7499656890232619
 30
0.0
 11
15.59965639031853
 21
2.75
 31
0.0
  0
ATTDEF
  5
5140
330
50C4
100
AcDbEntity
  8
Title Block
  6
Continuous
100
AcDbText
 10
15.72840859477629
 20
0.8861235259562903
 30
0.0
 40
0.14
  1

 41
0.8
100
AcDbAttributeDefinition
  3
Drawing Name
  2
GEN-TITLE-DES1{15.54}
 70
     0
1001
GENIUS_GENBLLY_14
1000
BOR5
  0
TEXT
  5
5141
330
50C4
100
AcDbEntity
  8
BORDER
100
AcDbText
 10
0.1785739999999976
 20
14.775
 30
0.0
 40
0.19999999
  1
D
  7
AE
100
AcDbText
  0
LINE
  5
5142
330
50C4
100
AcDbEntity
  8
BORDER
100
AcDbLine
 10
0.1000060000000005
 20
12.75
 30
0.0
 11
0.5
 21
12.75
 31
0.0
  0
TEXT
  5
5143
330
50C4
100
AcDbEntity
  8
BORDER
100
AcDbText
 10
0.1785739999999976
 20
10.52499999999999
 30
0.0
 40
0.19999999
  1
C
  7
AE
100
AcDbText
  0
TEXT
  5
5144
330
50C4
100
AcDbEntity
  8
BORDER
100
AcDbText
 10
2.678573999999997
 20
16.52499399999999
 30
0.0
 40
0.19999999
  1
4
  7
AE
100
AcDbText
  0
LINE
  5
5145
330
50C4
100
AcDbEntity
  8
BORDER
100
AcDbLine
 10
5.5
 20
16.25
 30
0.0
 11
5.5
 21
16.649994
 31
0.0
  0
TEXT
  5
5146
330
50C4
100
AcDbEntity
  8
BORDER
100
AcDbText
 10
8.178572
 20
16.52499399999999
 30
0.0
 40
0.19999999
  1
3
  7
AE
100
AcDbText
  0
TEXT
  5
5147
330
50C4
100
AcDbEntity
  8
BORDER
100
AcDbText
 10
13.6785717
 20
16.52499399999999
 30
0.0
 40
0.19999999
  1
2
  7
AE
100
AcDbText
  0
LINE
  5
5148
330
50C4
100
AcDbEntity
  8
BORDER
100
AcDbLine
 10
10.900011
 20
16.449982
 30
0.0
 11
11.000015
 21
16.249985
 31
0.0
  0
LINE
  5
5149
330
50C4
100
AcDbEntity
  8
BORDER
100
AcDbLine
 10
10.90000099999999
 20
16.449997
 30
0.0
 11
11.1
 21
16.449997
 31
0.0
  0
LINE
  5
514A
330
50C4
100
AcDbEntity
  8
BORDER
100
AcDbLine
 10
11.000011
 20
16.25
 30
0.0
 11
11.10001
 21
16.449997
 31
0.0
  0
LINE
  5
514B
330
50C4
100
AcDbEntity
  8
BORDER
100
AcDbLine
 10
10.90000099999999
 20
16.449997
 30
0.0
 11
11.1
 21
16.449997
 31
0.0
  0
LINE
  5
514C
330
50C4
100
AcDbEntity
  8
BORDER
100
AcDbLine
 10
11.0
 20
16.449997
 30
0.0
 11
11.0
 21
16.649994
 31
0.0
  0
LINE
  5
514D
330
50C4
100
AcDbEntity
  8
BORDER
100
AcDbLine
 10
16.5
 20
16.25
 30
0.0
 11
16.5
 21
16.649994
 31
0.0
  0
LINE
  5
514E
330
50C4
100
AcDbEntity
  8
BORDER
  6
Continuous
100
AcDbLine
 10
22.0
 20
0.2456391960479891
 30
0.0
 11
22.0
 21
17.0
 31
0.0
  0
LINE
  5
514F
330
50C4
100
AcDbEntity
  8
BORDER
100
AcDbLine
 10
21.49999999999999
 20
0.75
 30
0.0
 11
21.49999999999999
 21
16.25
 31
0.0
  0
ATTDEF
  5
5150
330
50C4
100
AcDbEntity
  8
Title Block
  6
Continuous
100
AcDbText
 10
20.89999999999999
 20
1.375
 30
0.0
 40
0.11808994431015
  1

 41
0.8
100
AcDbAttributeDefinition
  3
Sheet of
  2
GEN-TITLE-SHEET-OF{2.62}
 70
     0
1001
GENIUS_GENBLLY_14
1000
BOR3
  0
ATTDEF
  5
5151
330
50C4
100
AcDbEntity
  8
Title Block
  6
Continuous
100
AcDbText
 10
20.5
 20
1.375
 30
0.0
 40
0.11808994431015
  1

 41
0.8
100
AcDbAttributeDefinition
  3
Sheet
  2
GEN-TITLE-SHEET{2.62}
 70
     0
1001
GENIUS_GENBLLY_14
1000
BOR3
  0
TEXT
  5
5152
330
50C4
100
AcDbEntity
  8
BORDER
100
AcDbText
 10
21.67857146
 20
2.0249996
 30
0.0
 40
0.19999999
  1
A
  7
AE
100
AcDbText
  0
TEXT
  5
5153
330
50C4
100
AcDbEntity
  8
BORDER
100
AcDbText
 10
19.17857169999999
 20
0.27499998
 30
0.0
 40
0.19999999
  1
1
  7
AE
100
AcDbText
  0
TEXT
  5
5154
330
50C4
100
AcDbEntity
  8
Title Block
  6
Continuous
100
AcDbText
 10
20.07499999999999
 20
1.699999999999999
 30
0.0
 40
0.075937067150492
  1
DATE
 50
0.09999996
  7
AE
100
AcDbText
  0
TEXT
  5
5155
330
50C4
100
AcDbEntity
  8
Title Block
  6
Continuous
100
AcDbText
 10
20.07499999999999
 20
1.45
 30
0.0
 40
0.075937067150492
  1
SHEET   OF
 50
0.09999996
  7
AE
100
AcDbText
  0
ATTDEF
  5
5156
330
50C4
100
AcDbEntity
  8
Title Block
  6
Continuous
100
AcDbText
 10
18.94999999999999
 20
1.375
 30
0.0
 40
0.1010611419
  1

 41
0.8
100
AcDbAttributeDefinition
  3
Material
  2
GEN-TITLE-MAT{11.15}
 70
     0
1001
GENIUS_GENBLLY_14
1000
BOR3
  0
ATTDEF
  5
5157
330
50C4
100
AcDbEntity
  8
Title Block
  6
Continuous
100
AcDbText
 10
18.94999999999999
 20
1.625
 30
0.0
 40
0.1010611419
  1

100
AcDbAttributeDefinition
  3
Machine
  2
GEN-TITLE-MACH{5}
 70
     0
1001
GENIUS_GENBLLY_14
1000
BOR2
  0
ATTDEF
  5
5158
330
50C4
100
AcDbEntity
  8
Title Block
  6
Continuous
100
AcDbText
 10
18.94999999999999
 20
1.875
 30
0.0
 40
0.1010611419
  1

100
AcDbAttributeDefinition
  3
Ref. No.
  2
GEN-TITLE-REF{5}
 70
     0
1001
GENIUS_GENBLLY_14
1000
BOR2
  0
TEXT
  5
5159
330
50C4
100
AcDbEntity
  8
Title Block
  6
Continuous
100
AcDbText
 10
18.6
 20
1.45
 30
0.0
 40
0.075937067150492
  1
MATL
 50
0.09999996
  7
AE
100
AcDbText
  0
TEXT
  5
515A
330
50C4
100
AcDbEntity
  8
Title Block
  6
Continuous
100
AcDbText
 10
18.6
 20
1.699999999999999
 30
0.0
 40
0.075937067150492
  1
MACH
 50
0.09999996
  7
AE
100
AcDbText
  0
TEXT
  5
515B
330
50C4
100
AcDbEntity
  8
Title Block
  6
Continuous
100
AcDbText
 10
18.6
 20
1.949999999999999
 30
0.0
 40
0.075937067150492
  1
REF
 50
0.09999996
  7
AE
100
AcDbText
  0
TEXT
  5
515C
330
50C4
100
AcDbEntity
  8
Title Block
  6
Continuous
100
AcDbText
 10
18.6
 20
1.149999999999999
 30
0.0
 40
0.075937067150492
  1
DRAWING NUMBER
 50
0.09999996
  7
AE
100
AcDbText
  0
LINE
  5
515D
330
50C4
100
AcDbEntity
  8
Title Block
  6
Continuous
100
AcDbLine
 10
18.54999999999999
 20
0.7499656890232619
 30
0.0
 11
18.54999999999999
 21
2.75
 31
0.0
  0
LINE
  5
515E
330
50C4
100
AcDbEntity
  8
Title Block
  6
Continuous
100
AcDbLine
 10
20.02625718126358
 20
1.299999999999999
 30
0.0
 11
20.02625718126354
 21
1.799999999999999
 31
0.0
  0
ATTDEF
  5
515F
330
50C4
100
AcDbEntity
  8
Title Block
  6
Continuous
100
AcDbText
 10
20.42499999999999
 20
1.625
 30
0.0
 40
0.1010611419
  1

100
AcDbAttributeDefinition
  3
Date
  2
GEN-TITLE-PLOT{5}
 70
     0
1001
GENIUS_GENBLLY_14
1000
BOR2
  0
ATTDEF
  5
5160
330
50C4
100
AcDbEntity
  8
Title Block
  6
Continuous
100
AcDbText
 10
18.67273124178957
 20
0.8925842766853463
 30
0.0
 40
0.14
  1

 41
0.8
100
AcDbAttributeDefinition
  3
Drawing Number
  2
GEN-TITLE-NR{13.37}
 70
     0
1001
GENIUS_GENBLLY_14
1000
BOR5
  0
LINE
  5
5161
330
50C4
100
AcDbEntity
  8
BORDER
100
AcDbLine
 10
21.70000315
 20
8.5
 30
0.0
 11
21.90000009999999
 21
8.5
 31
0.0
  0
LINE
  5
5162
330
50C4
100
AcDbEntity
  8
BORDER
100
AcDbLine
 10
21.50001131999999
 20
8.499981899999999
 30
0.0
 11
21.70000713999999
 21
8.399983399999999
 31
0.0
  0
TEXT
  5
5163
330
50C4
100
AcDbEntity
  8
BORDER
100
AcDbText
 10
21.67857146
 20
6.2749996
 30
0.0
 40
0.19999999
  1
B
  7
AE
100
AcDbText
  0
LINE
  5
5164
330
50C4
100
AcDbEntity
  8
BORDER
100
AcDbLine
 10
21.49999951999999
 20
8.499982800000001
 30
0.0
 11
21.69999569999999
 21
8.599980399999999
 31
0.0
  0
LINE
  5
5165
330
50C4
100
AcDbEntity
  8
BORDER
100
AcDbLine
 10
21.70000315
 20
8.3999939
 30
0.0
 11
21.70000315
 21
8.5999908
 31
0.0
  0
TEXT
  5
5166
330
50C4
100
AcDbEntity
  8
BORDER
100
AcDbText
 10
21.67857146
 20
14.775
 30
0.0
 40
0.19999999
  1
D
  7
AE
100
AcDbText
  0
LINE
  5
5167
330
50C4
100
AcDbEntity
  8
BORDER
100
AcDbLine
 10
21.49999999999999
 20
12.75
 30
0.0
 11
21.90000003999999
 21
12.75
 31
0.0
  0
TEXT
  5
5168
330
50C4
100
AcDbEntity
  8
BORDER
100
AcDbText
 10
21.67857146
 20
10.52499999999999
 30
0.0
 40
0.19999999
  1
C
  7
AE
100
AcDbText
  0
TEXT
  5
5169
330
50C4
100
AcDbEntity
  8
BORDER
100
AcDbText
 10
19.17857169999999
 20
16.52499399999999
 30
0.0
 40
0.19999999
  1
1
  7
AE
100
AcDbText
  0
LINE
  5
516A
330
50C4
100
AcDbEntity
  8
BORDER
  6
Continuous
 62
    15
100
AcDbLine
 10
0.0
 20
0.2456391960479891
 30
0.0
 11
22.0
 21
0.2456391960479891
 31
0.0
  0
MTEXT
  5
516B
330
50C4
100
AcDbEntity
  8
BORDER
  6
Continuous
100
AcDbMText
 10
20.00308979335871
 20
2.6
 30
0.0
 40
0.125
 41
2.663
 71
     2
 72
     5
  1
{\fArial|b0|i0|c0|p34;\C1;G & L Motion Control Inc.}
 73
     1
 44
1.0
  0
MTEXT
  5
516C
330
50C4
100
AcDbEntity
  8
BORDER
  6
Continuous
100
AcDbMText
 10
20.00412857763948
 20
2.278264837305509
 30
0.0
 40
0.07874
 41
2.862
 71
     5
 72
     1
  1
{\Fromans.shx;\C9;672 South Military Road\PFond du Lac, Wisconsin 54936 U.S.A.}
 73
     1
 44
1.0
  0
TEXT
  5
516D
330
50C4
100
AcDbEntity
  8
Title Block
  6
Continuous
 62
     2
100
AcDbText
 10
15.61881861560131
 20
2.386049281269596
 30
0.0
 40
0.0645465051491158
  1
of G&L Motion Control, is
 50
0.0999999600000011
 41
0.6799434399999999
  7
AE
100
AcDbText
  0
TEXT
  5
516E
330
50C4
100
AcDbEntity
  8
Title Block
  6
Continuous
 62
     2
100
AcDbText
 10
15.61741487412047
 20
2.494627598463487
 30
0.0
 40
0.0645465051491158
  1
contains proprietary information
 50
0.0999999600000011
 41
0.7005041199999999
  7
AE
100
AcDbText
  0
TEXT
  5
516F
330
50C4
100
AcDbEntity
  8
Title Block
  6
Continuous
 62
     2
100
AcDbText
 10
15.62248667991201
 20
2.274616885729644
 30
0.0
 40
0.0645465051491158
  1
submitted in confidence on
 50
0.0999999600000011
 41
0.6605569100000001
  7
AE
100
AcDbText
  0
TEXT
  5
5170
330
50C4
100
AcDbEntity
  8
Title Block
  6
Continuous
 62
     2
100
AcDbText
 10
15.61679449751522
 20
2.16708586876793
 30
0.0
 40
0.0645465051491158
  1
condition that it will not be
 50
0.0999999600000011
 41
0.72234601
  7
AE
100
AcDbText
  0
TEXT
  5
5171
330
50C4
100
AcDbEntity
  8
Title Block
  6
Continuous
 62
     2
100
AcDbText
 10
15.61416899531685
 20
1.947796107226088
 30
0.0
 40
0.0645465051491158
  1
will be used only for your
 50
0.0999999600000011
 41
0.6799434399999999
  7
AE
100
AcDbText
  0
TEXT
  5
5172
330
50C4
100
AcDbEntity
  8
Title Block
  6
Continuous
 62
     2
100
AcDbText
 10
15.61948721212293
 20
1.839000640399515
 30
0.0
 40
0.0645465051491158
  1
information, and will not be used
 50
0.0999999600000011
 41
0.6605569100000001
  7
AE
100
AcDbText
  0
TEXT
  5
5173
330
50C4
100
AcDbEntity
  8
Title Block
  6
Continuous
 62
     2
100
AcDbText
 10
15.61739723193345
 20
1.728476657741246
 30
0.0
 40
0.0645465051491158
  1
or disclosed to anyone except as
 50
0.0999999600000011
 41
0.6799434399999999
  7
AE
100
AcDbText
  0
TEXT
  5
5174
330
50C4
100
AcDbEntity
  8
Title Block
  6
Continuous
 62
     2
100
AcDbText
 10
15.61540499165808
 20
1.617047562975569
 30
0.0
 40
0.0645465051491158
  1
authorized by specific
 50
0.0999999600000011
 41
0.79688752
  7
AE
100
AcDbText
  0
TEXT
  5
5175
330
50C4
100
AcDbEntity
  8
Title Block
  6
Continuous
 62
     2
100
AcDbText
 10
15.61777124306261
 20
2.055466828073234
 30
0.0
 40
0.0645465051491158
  1
copied or otherwise reproduced,
 50
0.0999999600000011
 41
0.6799434399999999
  7
AE
100
AcDbText
  0
TEXT
  5
5176
330
50C4
100
AcDbEntity
  8
Title Block
  6
Continuous
 62
     2
100
AcDbText
 10
15.62050994356058
 20
2.602555955563673
 30
0.0
 40
0.0645465051491158
  1
NOTICE: This drawing or material
 50
0.0999999600000011
 41
0.7005041199999999
  7
AE
100
AcDbText
  0
TEXT
  5
5177
330
50C4
100
AcDbEntity
  8
Title Block
  6
Continuous
 62
     2
100
AcDbText
 10
15.62096632443385
 20
1.509697406318199
 30
0.0
 40
0.0645465051491158
  1
written consent of G&L Motion Control
 50
0.0999999600000011
 41
0.79688752
  7
AE
100
AcDbText
  0
TEXT
  5
5178
330
50C4
100
AcDbEntity
  8
Title Block
  6
Continuous
 62
     2
100
AcDbText
 10
15.61875
 20
1.396874999999999
 30
0.0
 40
0.0645465051491158
  1
Automation, LLC
 50
0.0999999600000011
 41
0.79688752
  7
AE
100
AcDbText
  0
ENDBLK
  5
517A
330
50C4
100
AcDbEntity
  8
0
100
AcDbBlockEnd
  0
BLOCK
  5
531C
330
530B
100
AcDbEntity
  8
0
100
AcDbBlockBegin
  2
A$C3B09691F
 70
     0
 10
0.0
 20
0.0
 30
0.0
  3
A$C3B09691F
  1

  0
TEXT
  5
530C
330
530B
100
AcDbEntity
  8
1
 62
     2
100
AcDbText
 10
1.908298320632186
 20
-0.089249115458891
 30
0.0
 40
0.125
  1
TOLERANCE
  7
SIMPLEX
 72
     1
 11
2.429131653965519
 21
-0.026749115458891
 31
0.0
100
AcDbText
 73
     2
  0
LINE
  5
530D
330
530B
100
AcDbEntity
  8
1
 62
     4
100
AcDbLine
 10
1.491131653965524
 20
-0.631749115458895
 30
0.0
 11
3.367131653965515
 21
-0.631749115458895
 31
0.0
  0
LINE
  5
530E
330
530B
100
AcDbEntity
  8
1
 62
     4
100
AcDbLine
 10
1.491131653965524
 20
-0.8567491154588964
 30
0.0
 11
3.367131653965515
 21
-0.8567491154588964
 31
0.0
  0
LINE
  5
530F
330
530B
100
AcDbEntity
  8
1
 62
     4
100
AcDbLine
 10
1.491131653965524
 20
-1.08174911545889
 30
0.0
 11
3.367131653965515
 21
-1.081749115458897
 31
0.0
  0
LINE
  5
5310
330
530B
100
AcDbEntity
  8
1
 62
     4
100
AcDbLine
 10
1.491131653965524
 20
-1.306749115458892
 30
0.0
 11
3.367131653965515
 21
-1.306749115458892
 31
0.0
  0
TEXT
  5
5311
330
530B
100
AcDbEntity
  8
1
 62
     7
100
AcDbText
 10
1.577345939679804
 20
-0.5626808531558396
 30
0.0
 40
0.09375
  1
3M TO 8.99M = +6", -0"
 41
0.9
  7
SIMPLEX
 72
     4
 11
2.429131653965519
 21
-0.5158058531558396
 31
0.0
100
AcDbText
  0
TEXT
  5
5312
330
530B
100
AcDbEntity
  8
1
 62
     7
100
AcDbText
 10
1.563953082536948
 20
-0.7876808531558411
 30
0.0
 40
0.09375
  1
M9 TO 14.99M = +12", -0"
 41
0.85
  7
SIMPLEX
 72
     4
 11
2.429131653965519
 21
-0.7408058531558411
 31
0.0
100
AcDbText
  0
TEXT
  5
5313
330
530B
100
AcDbEntity
  8
1
 62
     7
100
AcDbText
 10
1.579131653965519
 20
-1.012680853155842
 30
0.0
 40
0.09375
  1
M15 TO 29.99M = +18", -0"
 41
0.8
  7
SIMPLEX
 72
     4
 11
2.429131653965519
 21
-0.9658058531558424
 31
0.0
100
AcDbText
  0
TEXT
  5
5314
330
530B
100
AcDbEntity
  8
1
 62
     7
100
AcDbText
 10
1.577345939679805
 20
-1.237680853155836
 30
0.0
 40
0.09375
  1
M30 AND OVER = +24", -0"
 41
0.8
  7
SIMPLEX
 72
     4
 11
2.429131653965519
 21
-1.190805853155836
 31
0.0
100
AcDbText
  0
TEXT
  5
5315
330
530B
100
AcDbEntity
  8
1
 62
     7
100
AcDbText
 10
1.579354868251233
 20
-0.3376808531558382
 30
0.0
 40
0.09375
  1
UP TO 2.99M = +4", -0"
 41
0.9
  7
SIMPLEX
 72
     4
 11
2.429131653965519
 21
-0.2908058531558382
 31
0.0
100
AcDbText
  0
LINE
  5
5316
330
530B
100
AcDbEntity
  8
1
 62
     4
100
AcDbLine
 10
1.491131653965524
 20
-0.4067491154589007
 30
0.0
 11
3.367131653965515
 21
-0.4067491154588936
 31
0.0
  0
LINE
  5
5317
330
530B
100
AcDbEntity
  8
1
 62
     4
100
AcDbLine
 10
3.367131653965515
 20
0.1932508845411078
 30
0.0
 11
1.491131653965524
 21
0.1932508845411078
 31
0.0
  0
LINE
  5
5318
330
530B
100
AcDbEntity
  8
1
 62
     4
100
AcDbLine
 10
1.491131653965524
 20
-0.1817491154588921
 30
0.0
 11
3.367131653965515
 21
-0.1817491154588921
 31
0.0
  0
TEXT
  5
5319
330
530B
100
AcDbEntity
  8
1
 62
     2
100
AcDbText
 10
0.1493599097720284
 20
-0.0867136288926075
 30
0.0
 40
0.156
  1
M(meters)
  7
SIMPLEX
 72
     1
 11
0.7250741954863145
 21
-0.0087136288926075
 31
0.0
100
AcDbText
 73
     2
  0
LINE
  5
531A
330
530B
100
AcDbEntity
  8
1
 62
     4
100
AcDbLine
 10
1.491131653965524
 20
0.1932508845411078
 30
0.0
 11
1.491131653965524
 21
-1.306749115458892
 31
0.0
  0
LINE
  5
531B
330
530B
100
AcDbEntity
  8
1
 62
     4
100
AcDbLine
 10
3.367131653965515
 20
-1.306749115458892
 30
0.0
 11
3.367131653965515
 21
0.1932508845411078
 31
0.0
  0
ENDBLK
  5
531D
330
530B
100
AcDbEntity
  8
0
100
AcDbBlockEnd
  0
ENDSEC
  0
SECTION
  2
ENTITIES
  0
LINE
  5
3EF3
330
18
100
AcDbEntity
  8
0
 62
     2
100
AcDbLine
 10
15.72459526658356
 20
20.14203087462665
 30
0.0
 11
17.62459526658356
 21
20.14203087462665
 31
0.0
  0
LINE
  5
3EF4
330
18
100
AcDbEntity
  8
0
 62
     2
100
AcDbLine
 10
15.72459526658356
 20
19.78203087462665
 30
0.0
 11
17.62459526658356
 21
19.78203087462665
 31
0.0
  0
LINE
  5
3EF6
330
18
100
AcDbEntity
  8
0
  6
ByBlock
 62
     0
100
AcDbLine
 10
15.40459525890013
 20
21.93947278174013
 30
0.0
 11
16.88820025969797
 21
21.93947278174013
 31
0.0
  0
LINE
  5
3EF7
330
18
100
AcDbEntity
  8
0
  6
ByBlock
 62
     0
100
AcDbLine
 10
15.22459525890013
 20
20.30553086414475
 30
0.0
 11
15.22459525890013
 21
22.07691137091121
 31
0.0
  0
LINE
  5
3F27
330
18
100
AcDbEntity
  8
0
 62
     2
100
AcDbLine
 10
15.22459525890013
 20
19.79703086414476
 30
0.0
 11
15.72459526658356
 21
19.79703086414476
 31
0.0
  0
LINE
  5
3F28
330
18
100
AcDbEntity
  8
0
 62
     2
100
AcDbLine
 10
15.22459525890013
 20
20.12703086414475
 30
0.0
 11
15.72459526658356
 21
20.12703086414475
 31
0.0
  0
LINE
  5
3F29
330
18
100
AcDbEntity
  8
0
 62
     2
100
AcDbLine
 10
15.22459525890013
 20
19.68103086414475
 30
0.0
 11
15.22459525890013
 21
20.24303086414475
 31
0.0
  0
POINT
  5
3F3F
330
18
100
AcDbEntity
  8
DEFPOINTS
  6
ByBlock
 62
     0
100
AcDbPoint
 10
15.22459525890013
 20
20.24303086414475
 30
0.0
  0
LINE
  5
3F41
330
18
100
AcDbEntity
  8
0
 62
     2
100
AcDbLine
 10
15.72459526658356
 20
19.78203087462665
 30
0.0
 11
15.72459526658356
 21
20.14203087462665
 31
0.0
  0
SOLID
  5
3F42
330
18
100
AcDbEntity
  8
0
  6
ByBlock
 62
     0
100
AcDbTrace
 10
15.40459525890013
 20
21.96947278174013
 30
0.0
 11
15.40459525890013
 21
21.90947278174013
 31
0.0
 12
15.22459525890013
 22
21.93947278174013
 32
0.0
 13
15.22459525890013
 23
21.93947278174013
 33
0.0
  0
LINE
  5
3F44
330
18
100
AcDbEntity
  8
0
 62
     2
100
AcDbLine
 10
20.51985335369907
 20
19.79703086414476
 30
0.0
 11
22.1647763326541
 21
19.79703086414476
 31
0.0
  0
LINE
  5
3F45
330
18
100
AcDbEntity
  8
0
 62
     2
100
AcDbLine
 10
20.51985335369907
 20
20.12703086414475
 30
0.0
 11
22.1647763326541
 21
20.12703086414475
 31
0.0
  0
LINE
  5
3F46
330
18
100
AcDbEntity
  8
0
  6
ByBlock
 62
     0
100
AcDbLine
 10
21.9847763326541
 20
21.93947278174013
 30
0.0
 11
20.53129206426136
 21
21.93947278174013
 31
0.0
  0
LINE
  5
3F49
330
18
100
AcDbEntity
  8
0
 62
     2
100
AcDbLine
 10
17.62459526658356
 20
19.79703086414476
 30
0.0
 11
20.35394071919202
 21
19.79703086414476
 31
0.0
  0
LINE
  5
3F4A
330
18
100
AcDbEntity
  8
0
 62
     2
100
AcDbLine
 10
17.62459526658356
 20
20.12703086414475
 30
0.0
 11
20.35394071919202
 21
20.12703086414475
 31
0.0
  0
LINE
  5
3F4B
330
18
100
AcDbEntity
  8
0
 62
     2
100
AcDbLine
 10
17.62459526658356
 20
19.78203087462665
 30
0.0
 11
17.62459526658356
 21
20.14203087462665
 31
0.0
  0
ELLIPSE
  5
3F4C
330
18
100
AcDbEntity
  8
0
 62
     2
100
AcDbEllipse
 10
20.51985335369907
 20
19.87953086414475
 30
0.0
 11
0.0
 21
0.0824999999999996
 31
0.0
210
0.0
220
0.0
230
1.0
 40
0.689531859510577
 41
0.0
 42
6.283185307179585
  0
ELLIPSE
  5
3F4D
330
18
100
AcDbEntity
  8
0
 62
     2
100
AcDbEllipse
 10
20.35394071919202
 20
19.87953086414475
 30
0.0
 11
0.0
 21
0.0824999999999996
 31
0.0
210
0.0
220
0.0
230
1.0
 40
0.689531859510577
 41
3.141592653589792
 42
6.283185307179585
  0
ELLIPSE
  5
3F4E
330
18
100
AcDbEntity
  8
0
 62
     2
100
AcDbEllipse
 10
20.35394071919202
 20
20.04453086414475
 30
0.0
 11
0.0
 21
0.0824999999999996
 31
0.0
210
0.0
220
0.0
230
1.0
 40
0.689531859510577
 41
0.0
 42
6.283185307179585
  0
ELLIPSE
  5
3F4F
330
18
100
AcDbEntity
  8
0
 62
     2
100
AcDbEllipse
 10
20.51985335369907
 20
20.04453086414475
 30
0.0
 11
0.0
 21
-0.0824999999999996
 31
0.0
210
0.0
220
0.0
230
1.0
 40
0.689531859510577
 41
3.141592653589792
 42
6.283185307179585
  0
LINE
  5
3F53
330
18
100
AcDbEntity
  8
0
  6
ByBlock
 62
     0
100
AcDbLine
 10
22.1647763326541
 20
20.36201586327149
 30
0.0
 11
22.1647763326541
 21
22.07691137091121
 31
0.0
  0
POINT
  5
3F6E
330
18
100
AcDbEntity
  8
DEFPOINTS
  6
ByBlock
 62
     0
100
AcDbPoint
 10
22.1647763326541
 20
20.87697278174013
 30
0.0
  0
SOLID
  5
3F6F
330
18
100
AcDbEntity
  8
0
  6
ByBlock
 62
     0
100
AcDbTrace
 10
21.9847763326541
 20
21.96947278174013
 30
0.0
 11
21.9847763326541
 21
21.90947278174013
 31
0.0
 12
22.1647763326541
 22
21.93947278174013
 32
0.0
 13
22.1647763326541
 23
21.93947278174013
 33
0.0
  0
TEXT
  5
4038
330
18
100
AcDbEntity
  8
0
 62
     2
100
AcDbText
 10
13.49314265266709
 20
9.359010820099447
 30
0.0
 40
0.1250000625
  1
%%UWIRING DIAGRAM
  7
ROMANS
 72
     4
 11
14.23629778614923
 21
9.409010845099446
 31
0.0
100
AcDbText
  0
LEADER
  5
462E
330
18
100
AcDbEntity
  8
0
100
AcDbLeader
  3
STANDARD
 73
     0
 40
0.3333333333333333
 41
1.660714285714285
 76
     3
 10
21.67784826908493
 20
19.79714965323575
 30
0.0
 10
21.41487625318737
 20
19.13941137091121
 30
0.0
 10
21.10237625318737
 20
19.13941137091121
 30
0.0
340
462F
213
0.0
223
-0.0625
233
0.0
1001
ACAD
1000
DSTYLE
1002
{
1070
   147
1040
0.09
1070
    77
1070
     0
1070
    44
1040
0.125
1070
   140
1040
0.125
1002
}
  0
MTEXT
  5
462F
102
{ACAD_REACTORS
330
462E
102
}
330
18
100
AcDbEntity
  8
0
100
AcDbMText
 10
21.01237625318737
 20
19.20191137091121
 30
0.0
 40
0.125
 41
0.0
 71
     3
 72
     1
  1
CABLE, FEEDBACK\PSINE KA-56175
 73
     1
 44
1.0
  0
LINE
  5
4726
330
18
100
AcDbEntity
  8
0
100
AcDbLine
 10
15.22459525890013
 20
19.61853086414476
 30
0.0
 11
15.22459525890013
 21
19.01566119276803
 31
0.0
  0
LINE
  5
4727
330
18
100
AcDbEntity
  8
0
100
AcDbLine
 10
15.72459526658356
 20
19.71953087462665
 30
0.0
 11
15.72459526658356
 21
19.01566119276803
 31
0.0
  0
LINE
  5
4728
330
18
100
AcDbEntity
  8
0
100
AcDbLine
 10
15.04459525890013
 20
19.14066119276803
 30
0.0
 11
14.86459525890013
 21
19.14066119276803
 31
0.0
  0
LINE
  5
4729
330
18
100
AcDbEntity
  8
0
100
AcDbLine
 10
15.90459526658356
 20
19.14066119276803
 30
0.0
 11
16.08459526658356
 21
19.14066119276803
 31
0.0
  0
SOLID
  5
472A
330
18
100
AcDbEntity
  8
0
100
AcDbTrace
 10
15.04459525890013
 20
19.17066119276803
 30
0.0
 11
15.04459525890013
 21
19.11066119276803
 31
0.0
 12
15.22459525890013
 22
19.14066119276803
 32
0.0
 13
15.22459525890013
 23
19.14066119276803
 33
0.0
  0
SOLID
  5
472B
330
18
100
AcDbEntity
  8
0
100
AcDbTrace
 10
15.90459526658356
 20
19.17066119276803
 30
0.0
 11
15.90459526658356
 21
19.11066119276803
 31
0.0
 12
15.72459526658356
 22
19.14066119276803
 32
0.0
 13
15.72459526658356
 23
19.14066119276803
 33
0.0
  0
MTEXT
  5
472C
330
18
100
AcDbEntity
  8
0
100
AcDbMText
 10
16.35614288563118
 20
19.14066119276803
 30
0.0
 40
0.125
 41
0.0
 71
     5
 72
     1
  1
12mm
 73
     1
 44
1.0
  0
TEXT
  5
4CCF
330
18
100
AcDbEntity
  8
0
100
AcDbText
 10
16.57051797163778
 20
15.80761295260769
 30
0.0
 40
0.1050000525
  1
1
  7
ROMANS
 72
     1
 11
16.61301799288778
 21
15.86011297885769
 31
0.0
100
AcDbText
 73
     2
  0
LINE
  5
4CD0
330
18
100
AcDbEntity
  8
0
 62
     4
100
AcDbLine
 10
16.45551799288778
 20
10.28328086414475
 30
0.0
 11
16.45551799288778
 21
15.95328747914481
 31
0.0
  0
LINE
  5
4CD1
330
18
100
AcDbEntity
  8
0
 62
     4
100
AcDbLine
 10
16.77051799288778
 20
10.28328086414475
 30
0.0
 11
16.77051799288778
 21
15.95328747914481
 31
0.0
  0
ARC
  5
4CD2
330
18
100
AcDbEntity
  8
0
100
AcDbCircle
 10
13.01676799288778
 20
15.8482874791448
 30
0.0
 40
0.065625
100
AcDbArc
 50
321.3178125465103
 51
218.68218745349
  0
TEXT
  5
4CD3
330
18
100
AcDbEntity
  8
0
100
AcDbText
 10
11.21551797163778
 20
15.80761295260769
 30
0.0
 40
0.1050000525
  1
1
  7
ROMANS
 72
     4
 11
11.25801799288778
 21
15.86011297885769
 31
0.0
100
AcDbText
  0
LINE
  5
4CD4
330
18
100
AcDbEntity
  8
0
  6
HIDDEN
100
AcDbLine
 10
15.37926799288778
 20
10.38827739914474
 30
0.0
 11
15.37926799288778
 21
15.8482874791448
 31
0.0
  0
LINE
  5
4CD5
330
18
100
AcDbEntity
  8
0
  6
HIDDEN
100
AcDbLine
 10
15.69426799288778
 20
10.38827739914474
 30
0.0
 11
15.69426799288778
 21
15.8482874791448
 31
0.0
  0
LINE
  5
4CD6
330
18
100
AcDbEntity
  8
0
  6
HIDDEN
100
AcDbLine
 10
12.43926799288777
 20
10.38827739914473
 30
0.0
 11
12.43926799288778
 21
15.8482874791448
 31
0.0
  0
LINE
  5
4CD7
330
18
100
AcDbEntity
  8
0
  6
HIDDEN
100
AcDbLine
 10
12.75426799288778
 20
10.38827739914473
 30
0.0
 11
12.75426799288778
 21
15.8482874791448
 31
0.0
  0
LINE
  5
4CD8
330
18
100
AcDbEntity
  8
0
 62
     4
100
AcDbLine
 10
11.10051799288781
 20
10.28328086414475
 30
0.0
 11
11.10051799288777
 21
15.9532874791448
 31
0.0
  0
LINE
  5
4CD9
330
18
100
AcDbEntity
  8
0
 62
     4
100
AcDbLine
 10
11.4155179928878
 20
10.28328086414475
 30
0.0
 11
11.41551799288777
 21
15.9532874791448
 31
0.0
  0
LINE
  5
4CDA
330
18
100
AcDbEntity
  8
0
  6
HIDDEN
100
AcDbLine
 10
12.49176799288778
 20
10.38827739914473
 30
0.0
 11
12.49176799288779
 21
15.8482874791448
 31
0.0
  0
LINE
  5
4CDB
330
18
100
AcDbEntity
  8
0
  6
HIDDEN
100
AcDbLine
 10
12.70176799288778
 20
10.38827739914473
 30
0.0
 11
12.70176799288778
 21
15.8482874791448
 31
0.0
  0
LINE
  5
4CDC
330
18
100
AcDbEntity
  8
0
  6
HIDDEN
100
AcDbLine
 10
15.64176799288778
 20
10.38827739914474
 30
0.0
 11
15.64176799288778
 21
15.8482874791448
 31
0.0
  0
LINE
  5
4CDD
330
18
100
AcDbEntity
  8
0
  6
HIDDEN
100
AcDbLine
 10
15.43176799288779
 20
10.38827739914474
 30
0.0
 11
15.43176799288779
 21
15.8482874791448
 31
0.0
  0
TEXT
  5
4CDE
330
18
100
AcDbEntity
  8
0
100
AcDbText
 10
14.49708504724024
 20
15.46909782534942
 30
0.0
 40
0.084
  1
28AWG
  7
ROMANS
 72
     4
 11
14.70308504724024
 21
15.51109782534942
 31
0.0
100
AcDbText
  0
TEXT
  5
4CDF
330
18
100
AcDbEntity
  8
0
100
AcDbText
 10
14.49708504724024
 20
15.25909782534941
 30
0.0
 40
0.084
  1
28AWG
  7
ROMANS
 72
     4
 11
14.70308504724024
 21
15.30109782534941
 31
0.0
100
AcDbText
  0
TEXT
  5
4CE0
330
18
100
AcDbEntity
  8
0
100
AcDbText
 10
14.49708504724024
 20
15.04909782534942
 30
0.0
 40
0.084
  1
28AWG
  7
ROMANS
 72
     4
 11
14.70308504724024
 21
15.09109782534942
 31
0.0
100
AcDbText
  0
TEXT
  5
4CE1
330
18
100
AcDbEntity
  8
0
100
AcDbText
 10
14.49708504724024
 20
14.83909782534942
 30
0.0
 40
0.084
  1
28AWG
  7
ROMANS
 72
     4
 11
14.70308504724024
 21
14.88109782534942
 31
0.0
100
AcDbText
  0
TEXT
  5
4CE2
330
18
100
AcDbEntity
  8
0
100
AcDbText
 10
14.49708504724024
 20
15.67909782534942
 30
0.0
 40
0.084
  1
28AWG
  7
ROMANS
 72
     4
 11
14.70308504724024
 21
15.72109782534942
 31
0.0
100
AcDbText
  0
TEXT
  5
4CE3
330
18
100
AcDbEntity
  8
0
100
AcDbText
 10
14.49708504724024
 20
13.99909614534943
 30
0.0
 40
0.084
  1
28AWG
  7
ROMANS
 72
     4
 11
14.70308504724024
 21
14.04109614534943
 31
0.0
100
AcDbText
  0
TEXT
  5
4CE4
330
18
100
AcDbEntity
  8
0
100
AcDbText
 10
14.49708504724023
 20
13.3690911053494
 30
0.0
 40
0.084
  1
28AWG
  7
ROMANS
 72
     4
 11
14.70308504724023
 21
13.4110911053494
 31
0.0
100
AcDbText
  0
TEXT
  5
4CE5
330
18
100
AcDbEntity
  8
0
100
AcDbText
 10
14.49708504724023
 20
12.9490911053494
 30
0.0
 40
0.084
  1
28AWG
  7
ROMANS
 72
     4
 11
14.70308504724023
 21
12.9910911053494
 31
0.0
100
AcDbText
  0
TEXT
  5
4CE6
330
18
100
AcDbEntity
  8
0
100
AcDbText
 10
14.49708504724023
 20
13.15909110534941
 30
0.0
 40
0.084
  1
28AWG
  7
ROMANS
 72
     4
 11
14.70308504724023
 21
13.20109110534941
 31
0.0
100
AcDbText
  0
TEXT
  5
4CEB
330
18
100
AcDbEntity
  8
0
100
AcDbText
 10
14.49708504724023
 20
12.73909110534941
 30
0.0
 40
0.084
  1
28AWG
  7
ROMANS
 72
     4
 11
14.70308504724023
 21
12.78109110534941
 31
0.0
100
AcDbText
  0
TEXT
  5
4CEC
330
18
100
AcDbEntity
  8
0
100
AcDbText
 10
14.49708504724022
 20
10.84908606534937
 30
0.0
 40
0.084
  1
20AWG
  7
ROMANS
 72
     4
 11
14.70308504724022
 21
10.89108606534937
 31
0.0
100
AcDbText
  0
TEXT
  5
4CED
330
18
100
AcDbEntity
  8
0
100
AcDbText
 10
14.49708504724022
 20
10.6390911053494
 30
0.0
 40
0.084
  1
20AWG
  7
ROMANS
 72
     4
 11
14.70308504724022
 21
10.6810911053494
 31
0.0
100
AcDbText
  0
TEXT
  5
4CEE
330
18
100
AcDbEntity
  8
0
100
AcDbText
 10
14.50758504724022
 20
10.42908606534937
 30
0.0
 40
0.084
  1
28AWG
  7
ROMANS
 72
     4
 11
14.71358504724022
 21
10.47108606534937
 31
0.0
100
AcDbText
  0
LINE
  5
4CF3
330
18
100
AcDbEntity
  8
0
100
AcDbLine
 10
11.41551799288778
 20
13.95828411914483
 30
0.0
 11
16.45551799288778
 21
13.95828411914483
 31
0.0
  0
LINE
  5
4CF4
330
18
100
AcDbEntity
  8
0
100
AcDbLine
 10
11.41551799288777
 20
10.80827571914475
 30
0.0
 11
16.45551799288776
 21
10.80827571914475
 31
0.0
  0
TEXT
  5
4CF5
330
18
100
AcDbEntity
  8
0
100
AcDbText
 10
14.49708504724024
 20
14.20909614534943
 30
0.0
 40
0.084
  1
28AWG
  7
ROMANS
 72
     4
 11
14.70308504724024
 21
14.25109614534943
 31
0.0
100
AcDbText
  0
LINE
  5
4CF6
330
18
100
AcDbEntity
  8
0
100
AcDbLine
 10
11.41551799288777
 20
13.11828075914478
 30
0.0
 11
16.45551799288777
 21
13.11828075914479
 31
0.0
  0
LINE
  5
4CF7
330
18
100
AcDbEntity
  8
0
100
AcDbLine
 10
11.41551799288776
 20
13.32828075914478
 30
0.0
 11
16.45551799288777
 21
13.32828075914479
 31
0.0
  0
LINE
  5
4CF8
330
18
100
AcDbEntity
  8
0
100
AcDbLine
 10
11.41551799288776
 20
12.90827907914477
 30
0.0
 11
16.45551799288777
 21
12.90827907914477
 31
0.0
  0
LINE
  5
4CF9
330
18
100
AcDbEntity
  8
0
  6
HIDDEN
100
AcDbLine
 10
11.41551799288778
 20
10.38827571914475
 30
0.0
 11
16.45551799288778
 21
10.38827571914475
 31
0.0
  0
LINE
  5
4CFA
330
18
100
AcDbEntity
  8
0
100
AcDbLine
 10
11.41551799288777
 20
12.69827739914475
 30
0.0
 11
16.45551799288777
 21
12.69827739914475
 31
0.0
  0
LINE
  5
4CFB
330
18
100
AcDbEntity
  8
0
100
AcDbLine
 10
11.41551799288777
 20
15.21828747914479
 30
0.0
 11
16.45551799288778
 21
15.2182874791448
 31
0.0
  0
LINE
  5
4CFC
330
18
100
AcDbEntity
  8
0
100
AcDbLine
 10
11.41551799288777
 20
15.00828747914481
 30
0.0
 11
16.45551799288778
 21
15.00828747914481
 31
0.0
  0
LINE
  5
4CFD
330
18
100
AcDbEntity
  8
0
100
AcDbLine
 10
11.41551799288777
 20
14.79828747914479
 30
0.0
 11
16.45551799288778
 21
14.7982874791448
 31
0.0
  0
LINE
  5
4CFE
330
18
100
AcDbEntity
  8
0
100
AcDbLine
 10
11.41551799288777
 20
14.16828579914482
 30
0.0
 11
16.45551799288778
 21
14.16828579914482
 31
0.0
  0
LINE
  5
4CFF
330
18
100
AcDbEntity
  8
0
100
AcDbLine
 10
11.41551799288777
 20
15.63828747914481
 30
0.0
 11
16.45551799288778
 21
15.63828747914481
 31
0.0
  0
LINE
  5
4D00
330
18
100
AcDbEntity
  8
0
100
AcDbLine
 10
11.41551799288777
 20
15.4282874791448
 30
0.0
 11
16.45551799288778
 21
15.4282874791448
 31
0.0
  0
LINE
  5
4D01
330
18
100
AcDbEntity
  8
0
100
AcDbLine
 10
11.41551799288776
 20
10.59828075914478
 30
0.0
 11
16.45551799288777
 21
10.5982807591448
 31
0.0
  0
ARC
  5
4D05
330
18
100
AcDbEntity
  8
0
  6
HIDDEN
100
AcDbCircle
 10
12.59676799288777
 20
10.38827571914475
 30
0.0
 40
0.1574999999999996
100
AcDbArc
 50
180.0
 51
0.0
  0
ARC
  5
4D06
330
18
100
AcDbEntity
  8
0
  6
HIDDEN
100
AcDbCircle
 10
12.59676799288777
 20
10.38827571914475
 30
0.0
 40
0.1049999999999997
100
AcDbArc
 50
180.0
 51
0.0
  0
LINE
  5
4D0A
330
18
100
AcDbEntity
  8
0
 62
     4
100
AcDbLine
 10
11.10051799288778
 20
10.28327918414477
 30
0.0
 11
11.41551799288778
 21
10.28327918414477
 31
0.0
  0
LWPOLYLINE
  5
4D0B
330
18
100
AcDbEntity
  8
0
100
AcDbPolyline
 90
        2
 70
     1
 43
0.021
 10
11.40501799288778
 20
10.38827571914475
 42
1.0
 10
11.42601799288777
 20
10.38827571914475
 42
1.0
  0
TEXT
  5
4D0C
330
18
100
AcDbEntity
  8
0
100
AcDbText
 10
11.15051793913776
 20
10.76760623260767
 30
0.0
 40
0.1050000525
  1
10
  7
ROMANS
 72
     4
 11
11.25801799288776
 21
10.82010625885767
 31
0.0
100
AcDbText
  0
TEXT
  5
4D0D
330
18
100
AcDbEntity
  8
0
100
AcDbText
 10
11.15051793913776
 20
10.55760623260767
 30
0.0
 40
0.1050000525
  1
16
  7
ROMANS
 72
     4
 11
11.25801799288776
 21
10.61010625885767
 31
0.0
100
AcDbText
  0
TEXT
  5
4D0F
330
18
100
AcDbEntity
  8
0
100
AcDbText
 10
13.46610046749715
 20
9.782268881248198
 30
0.0
 40
0.084
  1
= TWISTED PAIR
  7
ROMANS
 72
     4
 11
13.98810046749715
 21
9.824268881248197
 31
0.0
100
AcDbText
  0
TEXT
  5
4D11
330
18
100
AcDbEntity
  8
0
100
AcDbText
 10
13.48363167809302
 20
10.65153075914479
 30
0.0
 40
0.084
  1
WHITE/GRAY
  7
ROMANS
 72
     4
 11
13.86363167809302
 21
10.68753075914478
 31
0.0
100
AcDbText
  0
LINE
  5
4D12
330
18
100
AcDbEntity
  8
0
100
AcDbLine
 10
13.30928949368217
 20
9.750662201469797
 30
0.0
 11
13.41174649209339
 21
9.8786309514698
 31
0.0
  0
LINE
  5
4D13
330
18
100
AcDbEntity
  8
0
100
AcDbLine
 10
13.41174649209339
 20
9.750662201469797
 30
0.0
 11
13.30928949368217
 21
9.8786309514698
 31
0.0
  0
ARC
  5
4D14
330
18
100
AcDbEntity
  8
0
100
AcDbCircle
 10
13.36051799288779
 20
9.9196465764698
 30
0.0
 40
0.065625
100
AcDbArc
 50
321.3178125465101
 51
218.68218745349
  0
ARC
  5
4D15
330
18
100
AcDbEntity
  8
0
100
AcDbCircle
 10
13.36051799288779
 20
9.709646576469797
 30
0.0
 40
0.065625
100
AcDbArc
 50
141.3178125465109
 51
38.68218745348999
  0
LWPOLYLINE
  5
4D16
330
18
100
AcDbEntity
  8
0
100
AcDbPolyline
 90
        2
 70
     1
 43
0.021
 10
12.74376799288777
 20
10.38827571914475
 42
1.0
 10
12.76476799288777
 20
10.38827571914475
 42
1.0
  0
LWPOLYLINE
  5
4D17
330
18
100
AcDbEntity
  8
0
100
AcDbPolyline
 90
        2
 70
     1
 43
0.021
 10
12.69126799288777
 20
10.38827571914475
 42
1.0
 10
12.71226799288777
 20
10.38827571914475
 42
1.0
  0
ARC
  5
4D18
330
18
100
AcDbEntity
  8
0
100
AcDbCircle
 10
13.01676799288777
 20
10.80827403914475
 30
0.0
 40
0.065625
100
AcDbArc
 50
321.3178125465101
 51
218.68218745349
  0
ARC
  5
4D19
330
18
100
AcDbEntity
  8
0
100
AcDbCircle
 10
13.01676799288777
 20
10.59827403914475
 30
0.0
 40
0.065625
100
AcDbArc
 50
141.3178125465109
 51
38.68218745348999
  0
LINE
  5
4D1A
330
18
100
AcDbEntity
  8
0
100
AcDbLine
 10
12.96553949368216
 20
10.63928966414475
 30
0.0
 11
13.06799649209338
 21
10.76725841414475
 31
0.0
  0
LINE
  5
4D1B
330
18
100
AcDbEntity
  8
0
100
AcDbLine
 10
13.06799649209338
 20
10.63928966414475
 30
0.0
 11
12.96553949368216
 21
10.76725841414475
 31
0.0
  0
TEXT
  5
4D1F
330
18
100
AcDbEntity
  8
0
100
AcDbText
 10
13.68671883224561
 20
10.42908606534937
 30
0.0
 40
0.084
  1
DRAIN
  7
ROMANS
 72
     4
 11
13.86671883224561
 21
10.47108606534937
 31
0.0
100
AcDbText
  0
TEXT
  5
4D20
330
18
100
AcDbEntity
  8
0
100
AcDbText
 10
13.70363167809302
 20
10.85553075914479
 30
0.0
 40
0.084
  1
GRAY
  7
ROMANS
 72
     4
 11
13.86363167809302
 21
10.89753075914479
 31
0.0
100
AcDbText
  0
TEXT
  5
4D21
330
18
100
AcDbEntity
  8
0
100
AcDbText
 10
11.20801796788778
 20
14.54761263760766
 30
0.0
 40
0.1050000525
  1
7
  7
ROMANS
 72
     4
 11
11.25801799288778
 21
14.60011266385766
 31
0.0
100
AcDbText
  0
TEXT
  5
4D28
330
18
100
AcDbEntity
  8
0
100
AcDbText
 10
11.15051793913776
 20
12.65760738760769
 30
0.0
 40
0.1050000525
  1
18
  7
ROMANS
 72
     4
 11
11.25801799288776
 21
12.71010741385769
 31
0.0
100
AcDbText
  0
TEXT
  5
4D2B
330
18
100
AcDbEntity
  8
0
100
AcDbText
 10
11.15051793913778
 20
12.86760455260766
 30
0.0
 40
0.1050000525
  1
17
  7
ROMANS
 72
     4
 11
11.25801799288778
 21
12.92010457885766
 31
0.0
100
AcDbText
  0
TEXT
  5
4D33
330
18
100
AcDbEntity
  8
0
100
AcDbText
 10
11.20551796663778
 20
14.75761274260767
 30
0.0
 40
0.1050000525
  1
6
  7
ROMANS
 72
     4
 11
11.25801799288778
 21
14.81011276885767
 31
0.0
100
AcDbText
  0
TEXT
  5
4D34
330
18
100
AcDbEntity
  8
0
100
AcDbText
 10
11.20801796788778
 20
14.96761253260768
 30
0.0
 40
0.1050000525
  1
5
  7
ROMANS
 72
     4
 11
11.25801799288778
 21
15.02011255885768
 31
0.0
100
AcDbText
  0
TEXT
  5
4D37
330
18
100
AcDbEntity
  8
0
100
AcDbText
 10
11.20801796788778
 20
15.38761274260769
 30
0.0
 40
0.1050000525
  1
3
  7
ROMANS
 72
     4
 11
11.25801799288778
 21
15.44011276885769
 31
0.0
100
AcDbText
  0
TEXT
  5
4D38
330
18
100
AcDbEntity
  8
0
100
AcDbText
 10
11.20551796663778
 20
15.17761263760768
 30
0.0
 40
0.1050000525
  1
4
  7
ROMANS
 72
     4
 11
11.25801799288778
 21
15.23011266385768
 31
0.0
100
AcDbText
  0
TEXT
  5
4D39
330
18
100
AcDbEntity
  8
0
100
AcDbText
 10
11.20801796788778
 20
15.59761284760768
 30
0.0
 40
0.1050000525
  1
2
  7
ROMANS
 72
     4
 11
11.25801799288778
 21
15.65011287385768
 31
0.0
100
AcDbText
  0
ARC
  5
4D3B
330
18
100
AcDbEntity
  8
0
100
AcDbCircle
 10
13.01676799288779
 20
13.95828579914481
 30
0.0
 40
0.065625
100
AcDbArc
 50
141.3178125465109
 51
38.68218745348999
  0
TEXT
  5
4D3C
330
18
100
AcDbEntity
  8
0
100
AcDbText
 10
13.66363167809302
 20
12.95552907914477
 30
0.0
 40
0.084
  1
VIOLET
  7
ROMANS
 72
     4
 11
13.86363167809302
 21
12.99752907914477
 31
0.0
100
AcDbText
  0
TEXT
  5
4D3D
330
18
100
AcDbEntity
  8
0
100
AcDbText
 10
13.43963167809302
 20
12.75152739914475
 30
0.0
 40
0.084
  1
WHITE/VIOLET
  7
ROMANS
 72
     4
 11
13.86363167809302
 21
12.78752739914475
 31
0.0
100
AcDbText
  0
TEXT
  5
4D3F
330
18
100
AcDbEntity
  8
0
100
AcDbText
 10
13.42563167809302
 20
13.17153075914478
 30
0.0
 40
0.084
  1
WHITE/BROWN
  7
ROMANS
 72
     4
 11
13.86363167809302
 21
13.20753075914478
 31
0.0
100
AcDbText
  0
LINE
  5
4D40
330
18
100
AcDbEntity
  8
0
100
AcDbLine
 10
12.96553949368216
 20
12.73929470414478
 30
0.0
 11
13.06799649209338
 21
12.86726345414478
 31
0.0
  0
LINE
  5
4D41
330
18
100
AcDbEntity
  8
0
100
AcDbLine
 10
13.06799649209338
 20
12.73929470414478
 30
0.0
 11
12.96553949368217
 21
12.86726345414478
 31
0.0
  0
ARC
  5
4D45
330
18
100
AcDbEntity
  8
0
100
AcDbCircle
 10
13.01676799288778
 20
12.69827907914478
 30
0.0
 40
0.065625
100
AcDbArc
 50
141.3178125465109
 51
38.68218745348999
  0
ARC
  5
4D47
330
18
100
AcDbEntity
  8
0
100
AcDbCircle
 10
13.01676799288778
 20
13.11828075914479
 30
0.0
 40
0.065625
100
AcDbArc
 50
141.3178125465109
 51
38.68218745348999
  0
ARC
  5
4D48
330
18
100
AcDbEntity
  8
0
100
AcDbCircle
 10
13.01676799288778
 20
12.90827907914478
 30
0.0
 40
0.065625
100
AcDbArc
 50
321.3178125465101
 51
218.68218745349
  0
LINE
  5
4D49
330
18
100
AcDbEntity
  8
0
100
AcDbLine
 10
12.96553949368216
 20
13.15929638414479
 30
0.0
 11
13.06799649209338
 21
13.28726513414479
 31
0.0
  0
LINE
  5
4D4A
330
18
100
AcDbEntity
  8
0
100
AcDbLine
 10
13.06799649209338
 20
13.15929638414479
 30
0.0
 11
12.96553949368217
 21
13.28726513414479
 31
0.0
  0
ARC
  5
4D4B
330
18
100
AcDbEntity
  8
0
100
AcDbCircle
 10
13.01676799288778
 20
13.32828075914479
 30
0.0
 40
0.065625
100
AcDbArc
 50
321.3178125465101
 51
218.68218745349
  0
TEXT
  5
4D4E
330
18
100
AcDbEntity
  8
0
100
AcDbText
 10
13.64363167809302
 20
13.37553075914479
 30
0.0
 40
0.084
  1
BROWN
  7
ROMANS
 72
     4
 11
13.86363167809302
 21
13.41753075914479
 31
0.0
100
AcDbText
  0
TEXT
  5
4D4F
330
18
100
AcDbEntity
  8
0
100
AcDbText
 10
13.44163167809303
 20
14.8515374791448
 30
0.0
 40
0.084
  1
WHITE/GREEN
  7
ROMANS
 72
     4
 11
13.86363167809303
 21
14.8875374791448
 31
0.0
100
AcDbText
  0
TEXT
  5
4D50
330
18
100
AcDbEntity
  8
0
100
AcDbText
 10
13.52163167809303
 20
15.27153747914479
 30
0.0
 40
0.084
  1
WHITE/RED
  7
ROMANS
 72
     4
 11
13.86363167809303
 21
15.30753747914479
 31
0.0
100
AcDbText
  0
TEXT
  5
4D51
330
18
100
AcDbEntity
  8
0
100
AcDbText
 10
13.44763167809303
 20
15.69153747914481
 30
0.0
 40
0.084
  1
WHITE/BLACK
  7
ROMANS
 72
     4
 11
13.86363167809303
 21
15.72753747914481
 31
0.0
100
AcDbText
  0
TEXT
  5
4D52
330
18
100
AcDbEntity
  8
0
100
AcDbText
 10
13.48363167809303
 20
14.01153579914482
 30
0.0
 40
0.084
  1
WHITE/BLUE
  7
ROMANS
 72
     4
 11
13.86363167809303
 21
14.04753579914482
 31
0.0
100
AcDbText
  0
TEXT
  5
4D53
330
18
100
AcDbEntity
  8
0
100
AcDbText
 10
13.70163167809303
 20
14.21553579914482
 30
0.0
 40
0.084
  1
BLUE
  7
ROMANS
 72
     4
 11
13.86363167809303
 21
14.25753579914482
 31
0.0
100
AcDbText
  0
LINE
  5
4D54
330
18
100
AcDbEntity
  8
0
100
AcDbLine
 10
12.96553949368217
 20
13.99930142414481
 30
0.0
 11
13.0679964920934
 21
14.12727017414482
 31
0.0
  0
LINE
  5
4D55
330
18
100
AcDbEntity
  8
0
100
AcDbLine
 10
13.0679964920934
 20
13.99930142414481
 30
0.0
 11
12.96553949368218
 21
14.12727017414482
 31
0.0
  0
ARC
  5
4D56
330
18
100
AcDbEntity
  8
0
100
AcDbCircle
 10
13.01676799288779
 20
14.16828579914482
 30
0.0
 40
0.065625
100
AcDbArc
 50
321.3178125465101
 51
218.68218745349
  0
ARC
  5
4D57
330
18
100
AcDbEntity
  8
0
100
AcDbCircle
 10
13.01676799288779
 20
15.00828747914481
 30
0.0
 40
0.065625
100
AcDbArc
 50
321.3178125465101
 51
218.68218745349
  0
ARC
  5
4D58
330
18
100
AcDbEntity
  8
0
100
AcDbCircle
 10
13.01676799288779
 20
14.7982874791448
 30
0.0
 40
0.065625
100
AcDbArc
 50
141.3178125465109
 51
38.68218745348999
  0
LINE
  5
4D59
330
18
100
AcDbEntity
  8
0
100
AcDbLine
 10
12.96553949368217
 20
14.8393031041448
 30
0.0
 11
13.0679964920934
 21
14.96727185414481
 31
0.0
  0
LINE
  5
4D5A
330
18
100
AcDbEntity
  8
0
100
AcDbLine
 10
13.0679964920934
 20
14.8393031041448
 30
0.0
 11
12.96553949368218
 21
14.96727185414481
 31
0.0
  0
ARC
  5
4D5B
330
18
100
AcDbEntity
  8
0
100
AcDbCircle
 10
13.01676799288779
 20
15.4282874791448
 30
0.0
 40
0.065625
100
AcDbArc
 50
321.3178125465103
 51
218.68218745349
  0
LINE
  5
4D5C
330
18
100
AcDbEntity
  8
0
100
AcDbLine
 10
13.0679964920934
 20
15.25930310414481
 30
0.0
 11
12.96553949368218
 21
15.3872718541448
 31
0.0
  0
LINE
  5
4D5D
330
18
100
AcDbEntity
  8
0
100
AcDbLine
 10
12.96553949368217
 20
15.25930310414481
 30
0.0
 11
13.0679964920934
 21
15.3872718541448
 31
0.0
  0
ARC
  5
4D5E
330
18
100
AcDbEntity
  8
0
100
AcDbCircle
 10
13.01676799288779
 20
15.2182874791448
 30
0.0
 40
0.065625
100
AcDbArc
 50
141.3178125465109
 51
38.68218745348999
  0
ARC
  5
4D5F
330
18
100
AcDbEntity
  8
0
100
AcDbCircle
 10
13.01676799288778
 20
15.63828747914481
 30
0.0
 40
0.065625
100
AcDbArc
 50
141.3178125465109
 51
38.68218745348999
  0
LINE
  5
4D60
330
18
100
AcDbEntity
  8
0
100
AcDbLine
 10
12.96553949368217
 20
15.67930310414481
 30
0.0
 11
13.06799649209338
 21
15.8072718541448
 31
0.0
  0
LINE
  5
4D61
330
18
100
AcDbEntity
  8
0
100
AcDbLine
 10
13.06799649209338
 20
15.67930310414481
 30
0.0
 11
12.96553949368217
 21
15.8072718541448
 31
0.0
  0
TEXT
  5
4D62
330
18
100
AcDbEntity
  8
0
100
AcDbText
 10
13.66163167809303
 20
15.0555374791448
 30
0.0
 40
0.084
  1
GREEN
  7
ROMANS
 72
     4
 11
13.86363167809303
 21
15.0975374791448
 31
0.0
100
AcDbText
  0
TEXT
  5
4D63
330
18
100
AcDbEntity
  8
0
100
AcDbText
 10
13.73963167809303
 20
15.47553747914481
 30
0.0
 40
0.084
  1
RED
  7
ROMANS
 72
     4
 11
13.86363167809303
 21
15.51753747914481
 31
0.0
100
AcDbText
  0
TEXT
  5
4D64
330
18
100
AcDbEntity
  8
0
100
AcDbText
 10
16.50551793913777
 20
10.55761074760773
 30
0.0
 40
0.1050000525
  1
16
  7
ROMANS
 72
     1
 11
16.61301799288777
 21
10.61011077385773
 31
0.0
100
AcDbText
 73
     2
  0
LINE
  5
4D65
330
18
100
AcDbEntity
  8
0
 62
     4
100
AcDbLine
 10
16.45551799288777
 20
10.28327918414477
 30
0.0
 11
16.77051799288777
 21
10.28327918414477
 31
0.0
  0
ARC
  5
4D66
330
18
100
AcDbEntity
  8
0
  6
HIDDEN
100
AcDbCircle
 10
15.53676799288777
 20
10.38827571914475
 30
0.0
 40
0.1049999999999997
100
AcDbArc
 50
180.0
 51
0.0
  0
ARC
  5
4D67
330
18
100
AcDbEntity
  8
0
  6
HIDDEN
100
AcDbCircle
 10
15.53676799288777
 20
10.38827571914476
 30
0.0
 40
0.1574999999999996
100
AcDbArc
 50
180.0
 51
0.0
  0
LWPOLYLINE
  5
4D68
330
18
100
AcDbEntity
  8
0
100
AcDbPolyline
 90
        2
 70
     1
 43
0.021
 10
15.63126799288777
 20
10.38827571914476
 42
1.0
 10
15.65226799288776
 20
10.38827571914476
 42
1.0
  0
LWPOLYLINE
  5
4D69
330
18
100
AcDbEntity
  8
0
100
AcDbPolyline
 90
        2
 70
     1
 43
0.021
 10
15.68376799288777
 20
10.38827571914476
 42
1.0
 10
15.70476799288777
 20
10.38827571914476
 42
1.0
  0
LWPOLYLINE
  5
4D6A
330
18
100
AcDbEntity
  8
0
100
AcDbPolyline
 90
        2
 70
     1
 43
0.021
 10
16.46601799288777
 20
10.38827571914476
 42
-1.0
 10
16.44501799288778
 20
10.38827571914476
 42
-1.0
  0
TEXT
  5
4D6B
330
18
100
AcDbEntity
  8
0
100
AcDbText
 10
15.93162445974468
 20
10.63909950534948
 30
0.0
 40
0.084
  1
24COM
  7
ROMANS
 11
15.93162445974468
 21
10.68109950534948
 31
0.0
100
AcDbText
 73
     2
  0
TEXT
  5
4D6C
330
18
100
AcDbEntity
  8
0
100
AcDbText
 10
16.56051796663778
 20
15.17761263760768
 30
0.0
 40
0.1050000525
  1
4
  7
ROMANS
 72
     1
 11
16.61301799288778
 21
15.23011266385768
 31
0.0
100
AcDbText
 73
     2
  0
TEXT
  5
4D6D
330
18
100
AcDbEntity
  8
0
100
AcDbText
 10
16.56301796788778
 20
15.38761274260769
 30
0.0
 40
0.1050000525
  1
3
  7
ROMANS
 72
     1
 11
16.61301799288778
 21
15.44011276885769
 31
0.0
100
AcDbText
 73
     2
  0
TEXT
  5
4D6E
330
18
100
AcDbEntity
  8
0
100
AcDbText
 10
16.56301796788778
 20
14.96761253260768
 30
0.0
 40
0.1050000525
  1
5
  7
ROMANS
 72
     1
 11
16.61301799288778
 21
15.02011255885768
 31
0.0
100
AcDbText
 73
     2
  0
TEXT
  5
4D6F
330
18
100
AcDbEntity
  8
0
100
AcDbText
 10
16.56051796663778
 20
14.75761242760767
 30
0.0
 40
0.1050000525
  1
6
  7
ROMANS
 72
     1
 11
16.61301799288778
 21
14.81011245385767
 31
0.0
100
AcDbText
 73
     2
  0
TEXT
  5
4D70
330
18
100
AcDbEntity
  8
0
100
AcDbText
 10
16.56301796788778
 20
15.59761295260768
 30
0.0
 40
0.1050000525
  1
2
  7
ROMANS
 72
     1
 11
16.61301799288778
 21
15.65011297885768
 31
0.0
100
AcDbText
 73
     2
  0
TEXT
  5
4D72
330
18
100
AcDbEntity
  8
0
100
AcDbText
 10
16.50551793913777
 20
13.07760660010768
 30
0.0
 40
0.1050000525
  1
15
  7
ROMANS
 72
     1
 11
16.61301799288777
 21
13.13010662635768
 31
0.0
100
AcDbText
 73
     2
  0
TEXT
  5
4D73
330
18
100
AcDbEntity
  8
0
100
AcDbText
 10
16.50551793913777
 20
12.86760570760767
 30
0.0
 40
0.1050000525
  1
17
  7
ROMANS
 72
     1
 11
16.61301799288777
 21
12.92010573385767
 31
0.0
100
AcDbText
 73
     2
  0
TEXT
  5
4D74
330
18
100
AcDbEntity
  8
0
100
AcDbText
 10
16.50301793788777
 20
13.28760581260766
 30
0.0
 40
0.1050000525
  1
14
  7
ROMANS
 72
     1
 11
16.61301799288777
 21
13.34010583885766
 31
0.0
100
AcDbText
 73
     2
  0
TEXT
  5
4D75
330
18
100
AcDbEntity
  8
0
100
AcDbText
 10
16.50551793913777
 20
12.65760570760765
 30
0.0
 40
0.1050000525
  1
18
  7
ROMANS
 72
     1
 11
16.61301799288777
 21
12.71010573385765
 31
0.0
100
AcDbText
 73
     2
  0
TEXT
  5
4D76
330
18
100
AcDbEntity
  8
0
100
AcDbText
 10
15.93162445974469
 20
12.73909446534942
 30
0.0
 40
0.084
  1
IN2
  7
ROMANS
 11
15.93162445974469
 21
12.78109446534942
 31
0.0
100
AcDbText
 73
     2
  0
TEXT
  5
4D77
330
18
100
AcDbEntity
  8
0
100
AcDbText
 10
15.93162445974469
 20
13.36909278534943
 30
0.0
 40
0.084
  1
CMD+
  7
ROMANS
 11
15.93162445974469
 21
13.41109278534943
 31
0.0
100
AcDbText
 73
     2
  0
TEXT
  5
4D78
330
18
100
AcDbEntity
  8
0
100
AcDbText
 10
15.93162445974469
 20
13.15909535784944
 30
0.0
 40
0.084
  1
CMD-
  7
ROMANS
 11
15.93162445974469
 21
13.20109535784944
 31
0.0
100
AcDbText
 73
     2
  0
TEXT
  5
4D79
330
18
100
AcDbEntity
  8
0
100
AcDbText
 10
15.93162445974469
 20
12.94909446534942
 30
0.0
 40
0.084
  1
IN1
  7
ROMANS
 11
15.93162445974469
 21
12.99109446534942
 31
0.0
100
AcDbText
 73
     2
  0
TEXT
  5
4D7A
330
18
100
AcDbEntity
  8
0
100
AcDbText
 10
15.9316244597447
 20
15.04909782534942
 30
0.0
 40
0.084
  1
I
  7
ROMANS
 11
15.9316244597447
 21
15.09109782534942
 31
0.0
100
AcDbText
 73
     2
  0
TEXT
  5
4D7B
330
18
100
AcDbEntity
  8
0
100
AcDbText
 10
15.9316244597447
 20
14.83909782534943
 30
0.0
 40
0.084
  1
I/
  7
ROMANS
 11
15.9316244597447
 21
14.88109782534943
 31
0.0
100
AcDbText
 73
     2
  0
TEXT
  5
4D7C
330
18
100
AcDbEntity
  8
0
100
AcDbText
 10
15.9316244597447
 20
14.20909614534943
 30
0.0
 40
0.084
  1
FAST1+
  7
ROMANS
 11
15.9316244597447
 21
14.25109614534943
 31
0.0
100
AcDbText
 73
     2
  0
TEXT
  5
4D7D
330
18
100
AcDbEntity
  8
0
100
AcDbText
 10
15.9316244597447
 20
15.46909782534942
 30
0.0
 40
0.084
  1
B
  7
ROMANS
 11
15.9316244597447
 21
15.51109782534942
 31
0.0
100
AcDbText
 73
     2
  0
TEXT
  5
4D7E
330
18
100
AcDbEntity
  8
0
100
AcDbText
 10
15.9316244597447
 20
15.25909782534943
 30
0.0
 40
0.084
  1
B/
  7
ROMANS
 11
15.9316244597447
 21
15.30109782534943
 31
0.0
100
AcDbText
 73
     2
  0
TEXT
  5
4D7F
330
18
100
AcDbEntity
  8
0
100
AcDbText
 10
15.9316244597447
 20
15.67909782534941
 30
0.0
 40
0.084
  1
A/
  7
ROMANS
 11
15.9316244597447
 21
15.72109782534941
 31
0.0
100
AcDbText
 73
     2
  0
TEXT
  5
4D80
330
18
100
AcDbEntity
  8
0
100
AcDbText
 10
14.49708504724024
 20
15.88909782534942
 30
0.0
 40
0.084
  1
28AWG
  7
ROMANS
 72
     4
 11
14.70308504724024
 21
15.93109782534942
 31
0.0
100
AcDbText
  0
LINE
  5
4D81
330
18
100
AcDbEntity
  8
0
100
AcDbLine
 10
11.41551799288777
 20
15.84828747914479
 30
0.0
 11
16.45551799288778
 21
15.8482874791448
 31
0.0
  0
ARC
  5
4D82
330
18
100
AcDbEntity
  8
0
  6
HIDDEN
100
AcDbCircle
 10
12.59676799288778
 20
15.8482874791448
 30
0.0
 40
0.1049999999999997
100
AcDbArc
 50
0.0
 51
180.0
  0
ARC
  5
4D83
330
18
100
AcDbEntity
  8
0
  6
HIDDEN
100
AcDbCircle
 10
12.59676799288778
 20
15.8482874791448
 30
0.0
 40
0.1574999999999996
100
AcDbArc
 50
0.0
 51
180.0
  0
LINE
  5
4D84
330
18
100
AcDbEntity
  8
0
 62
     4
100
AcDbLine
 10
11.10051799288778
 20
15.9532874791448
 30
0.0
 11
11.41551799288777
 21
15.9532874791448
 31
0.0
  0
TEXT
  5
4D87
330
18
100
AcDbEntity
  8
0
100
AcDbText
 10
13.66563167809303
 20
15.8955374791448
 30
0.0
 40
0.084
  1
BLACK
  7
ROMANS
 72
     4
 11
13.86363167809303
 21
15.9375374791448
 31
0.0
100
AcDbText
  0
LINE
  5
4D88
330
18
100
AcDbEntity
  8
0
 62
     4
100
AcDbLine
 10
16.45551799288778
 20
15.95328747914481
 30
0.0
 11
16.77051799288778
 21
15.95328747914481
 31
0.0
  0
ARC
  5
4D8A
330
18
100
AcDbEntity
  8
0
  6
HIDDEN
100
AcDbCircle
 10
15.53676799288778
 20
15.8482874791448
 30
0.0
 40
0.1049999999999997
100
AcDbArc
 50
0.0
 51
180.0
  0
ARC
  5
4D8B
330
18
100
AcDbEntity
  8
0
  6
HIDDEN
100
AcDbCircle
 10
15.53676799288778
 20
15.8482874791448
 30
0.0
 40
0.1574999999999996
100
AcDbArc
 50
0.0
 51
180.0
  0
TEXT
  5
4D8C
330
18
100
AcDbEntity
  8
0
100
AcDbText
 10
15.9316244597447
 20
15.88909782534942
 30
0.0
 40
0.084
  1
A
  7
ROMANS
 11
15.9316244597447
 21
15.93109782534942
 31
0.0
100
AcDbText
 73
     2
  0
MTEXT
  5
4ECF
330
18
100
AcDbEntity
  8
0
100
AcDbMText
 10
16.41923505264822
 20
16.48512774308034
 30
0.0
 40
0.125
 41
1.0602
 71
     1
 72
     5
  1
MMC-SD\PI/O
 73
     1
 44
1.0
  0
TEXT
  5
4F4F
330
18
100
AcDbEntity
  8
0
100
AcDbText
 10
15.93162445974467
 20
10.84909446534943
 30
0.0
 40
0.084
  1
+24V
  7
ROMANS
 11
15.93162445974467
 21
10.89109446534943
 31
0.0
100
AcDbText
 73
     2
  0
TEXT
  5
4F50
330
18
100
AcDbEntity
  8
0
100
AcDbText
 10
16.50551793913777
 20
10.76760570760768
 30
0.0
 40
0.1050000525
  1
10
  7
ROMANS
 72
     1
 11
16.61301799288777
 21
10.82010573385768
 31
0.0
100
AcDbText
 73
     2
  0
LWPOLYLINE
  5
4F94
330
18
100
AcDbEntity
  8
500
  6
L10
 62
     2
100
AcDbPolyline
 90
        2
 70
     0
 43
0.0
 10
13.63522128971954
 20
19.16505453307109
 10
14.13436230970487
 20
19.16505453307109
  0
LWPOLYLINE
  5
4F95
330
18
100
AcDbEntity
  8
500
  6
L10
 62
     2
100
AcDbPolyline
 90
        2
 70
     0
 43
0.0
 10
13.63522128971954
 20
19.15505462897155
 10
14.12022088118793
 20
19.15505392186477
  0
LWPOLYLINE
  5
4F96
330
18
100
AcDbEntity
  8
500
  6
L10
 62
     2
100
AcDbPolyline
 90
        2
 70
     0
 43
0.0
 10
13.63522058261276
 20
19.30505389757144
 10
14.13522073733723
 20
19.30505460467822
  0
LWPOLYLINE
  5
4F97
330
18
100
AcDbEntity
  8
500
  6
L10
 62
     2
100
AcDbPolyline
 90
        2
 70
     0
 43
0.0
 10
13.63522058261276
 20
19.30505389757144
 10
14.13522073733723
 20
19.30505460467822
  0
LWPOLYLINE
  5
4F98
330
18
100
AcDbEntity
  8
500
  6
L10
 62
     2
100
AcDbPolyline
 90
        2
 70
     0
 43
0.0
 10
13.63522058261276
 20
19.33005436492708
 10
14.13522003023045
 20
19.33005436492707
  0
LWPOLYLINE
  5
4F99
330
18
100
AcDbEntity
  8
500
  6
L10
 62
     2
100
AcDbPolyline
 90
        2
 70
     0
 43
0.0
 10
13.63522058261276
 20
19.3550548322827
 10
14.13522073733724
 20
19.35505412517591
  0
LWPOLYLINE
  5
4F9A
330
18
100
AcDbEntity
  8
500
  6
L10
 62
     2
100
AcDbPolyline
 90
        2
 70
     0
 43
0.0
 10
13.63522128971954
 20
19.28005413732259
 10
14.13522073733724
 20
19.28005413732258
  0
LWPOLYLINE
  5
4F9B
330
18
100
AcDbEntity
  8
500
  6
L10
 62
     2
100
AcDbPolyline
 90
        2
 70
     0
 43
0.0
 10
13.63522058261276
 20
19.23505456887466
 10
14.13522073733723
 20
19.23505386176788
  0
LWPOLYLINE
  5
4F9C
330
18
100
AcDbEntity
  8
500
  6
L10
 62
     2
100
AcDbPolyline
 90
        2
 70
     0
 43
0.0
 10
13.63522058261276
 20
19.25505437707374
 10
14.13522003023045
 20
19.25505437707374
  0
LWPOLYLINE
  5
4F9D
330
18
100
AcDbEntity
  8
500
  6
L10
 62
     2
100
AcDbPolyline
 90
        2
 70
     0
 43
0.0
 10
13.63522128971953
 20
19.18505434127018
 10
14.13522073733724
 20
19.18505434127017
  0
LWPOLYLINE
  5
4F9E
330
18
100
AcDbEntity
  8
500
  6
L10
 62
     2
100
AcDbPolyline
 90
        2
 70
     0
 43
0.0
 10
13.63522058261276
 20
19.20005419741948
 10
14.13522144444402
 20
19.20005419741949
  0
LWPOLYLINE
  5
4F9F
330
18
100
AcDbEntity
  8
500
  6
L10
 62
     2
100
AcDbPolyline
 90
        2
 70
     0
 43
0.0
 10
13.63522128971954
 20
19.2150540535688
 10
14.13522073733723
 20
19.2150540535688
  0
LWPOLYLINE
  5
4FA0
330
18
100
AcDbEntity
  8
500
  6
L10
 62
     2
100
AcDbPolyline
 90
        2
 70
     0
 43
0.0
 10
13.63522128971954
 20
19.17505443717063
 10
14.13522073733724
 20
19.17505443717063
  0
LWPOLYLINE
  5
4FA1
330
18
100
AcDbEntity
  8
500
  6
L10
 62
     2
100
AcDbPolyline
 90
        2
 70
     0
 43
0.0
 10
13.63522058261275
 20
19.39505444868086
 10
14.13522073733723
 20
19.39505374157408
  0
LWPOLYLINE
  5
4FA2
330
18
100
AcDbEntity
  8
500
  6
L10
 62
     2
100
AcDbPolyline
 90
        2
 70
     0
 43
0.0
 10
13.63522058261275
 20
19.37505464048178
 10
14.13522073733724
 20
19.375053933375
  0
LWPOLYLINE
  5
4FA3
330
18
100
AcDbEntity
  8
500
  6
L10
 62
     2
100
AcDbPolyline
 90
        2
 70
     0
 43
0.0
 10
13.77745163709059
 20
19.58463689919164
 10
14.1124519599591
 20
19.58463689919164
  0
LWPOLYLINE
  5
4FA4
330
18
100
AcDbEntity
  8
500
  6
L10
 62
     2
100
AcDbPolyline
 90
        2
 70
     0
 43
0.0
 10
13.63522058261276
 20
19.50047134183372
 10
14.25603149816312
 20
19.50047199254685
  0
LWPOLYLINE
  5
4FA5
330
18
100
AcDbEntity
  8
500
  6
L10
 62
     2
100
AcDbPolyline
 90
        2
 70
     0
 43
0.0
 10
13.63522058261276
 20
19.41005501193696
 10
14.13522073733724
 20
19.41005430483017
  0
LWPOLYLINE
  5
4FA6
330
18
100
AcDbEntity
  8
500
  6
L10
 62
     2
100
AcDbPolyline
 90
        2
 70
     0
 43
0.0
 10
13.63522058261275
 20
19.42505416097948
 10
14.13522073733723
 20
19.42505486808627
  0
LWPOLYLINE
  5
4FA7
330
18
100
AcDbEntity
  8
500
  6
L10
 62
     2
100
AcDbPolyline
 90
        2
 70
     0
 43
0.0
 10
13.63522058261276
 20
19.4550538732781
 10
14.12022088118792
 20
19.4550538732781
  0
LWPOLYLINE
  5
4FA8
330
18
100
AcDbEntity
  8
500
  6
L10
 62
     2
100
AcDbPolyline
 90
        2
 70
     0
 43
0.0
 10
13.63522058261276
 20
19.43505406507902
 10
14.13522073733723
 20
19.4350547721858
  0
LWPOLYLINE
  5
4FA9
330
18
100
AcDbEntity
  8
500
  6
L10
 62
     2
100
AcDbPolyline
 90
        2
 70
     0
 43
0.0
 10
13.63522058261275
 20
19.44505396917856
 10
14.13436230970488
 20
19.44505467628534
  0
LWPOLYLINE
  5
4FAA
330
18
100
AcDbEntity
  8
500
  6
L10
 62
     2
100
AcDbPolyline
 90
        2
 70
     0
 43
0.0
 10
13.77745219441043
 20
20.39928458978709
 10
14.11245110306537
 20
20.39928458978709
  0
LWPOLYLINE
  5
4FAB
330
18
100
AcDbEntity
  8
500
  6
L10
 62
     2
100
AcDbPolyline
 90
        2
 70
     0
 43
0.0
 10
13.6325723094541
 20
20.58863461521927
 10
14.13257317128536
 20
20.58863461521926
  0
LWPOLYLINE
  5
4FAC
330
18
100
AcDbEntity
  8
500
  6
L10
 62
     2
100
AcDbPolyline
 90
        2
 70
     0
 43
0.0
 10
13.63257301656088
 20
20.60863513052513
 10
14.13257317128536
 20
20.60863442341834
  0
LWPOLYLINE
  5
4FAD
330
18
100
AcDbEntity
  8
500
  6
L10
 62
     2
100
AcDbPolyline
 90
        2
 70
     0
 43
0.0
 10
13.63257301656088
 20
20.57363475906995
 10
14.13257246417858
 20
20.57363475906996
  0
LWPOLYLINE
  5
4FAE
330
18
100
AcDbEntity
  8
500
  6
L10
 62
     2
100
AcDbPolyline
 90
        2
 70
     0
 43
0.0
 10
13.63257301656088
 20
20.48334853682093
 10
14.25574533836686
 20
20.48334794345967
  0
LWPOLYLINE
  5
4FAF
330
18
100
AcDbEntity
  8
500
  6
L10
 62
     2
100
AcDbPolyline
 90
        2
 70
     0
 43
0.0
 10
13.6325723094541
 20
20.55863490292064
 10
14.13257246417858
 20
20.55863419581386
  0
LWPOLYLINE
  5
4FB0
330
18
100
AcDbEntity
  8
500
  6
L10
 62
     2
100
AcDbPolyline
 90
        2
 70
     0
 43
0.0
 10
13.6325723094541
 20
20.53863509472156
 10
14.131714743653
 20
20.53863509472157
  0
LWPOLYLINE
  5
4FB1
330
18
100
AcDbEntity
  8
500
  6
L10
 62
     2
100
AcDbPolyline
 90
        2
 70
     0
 43
0.0
 10
13.6325723094541
 20
20.5486349988211
 10
14.13257246417858
 20
20.54863429171433
  0
LWPOLYLINE
  5
4FB2
330
18
100
AcDbEntity
  8
500
  6
L10
 62
     2
100
AcDbPolyline
 90
        2
 70
     0
 43
0.0
 10
13.63257230945411
 20
20.52863519062202
 10
14.11757260802927
 20
20.52863519062202
  0
LWPOLYLINE
  5
4FB3
330
18
100
AcDbEntity
  8
500
  6
L10
 62
     2
100
AcDbPolyline
 90
        2
 70
     0
 43
0.0
 10
13.63257301656088
 20
20.62863493872421
 10
14.13257246417858
 20
20.62863493872421
  0
LWPOLYLINE
  5
4FB4
330
18
100
AcDbEntity
  8
500
  6
L10
 62
     2
100
AcDbPolyline
 90
        2
 70
     0
 43
0.0
 10
13.63257301656088
 20
20.65363540607984
 10
14.13257317128536
 20
20.65363469897306
  0
LWPOLYLINE
  5
4FB5
330
18
100
AcDbEntity
  8
500
  6
L10
 62
     2
100
AcDbPolyline
 90
        2
 70
     0
 43
0.0
 10
13.63257301656088
 20
20.67863445922191
 10
14.13257246417858
 20
20.67863445922191
  0
LWPOLYLINE
  5
4FB6
330
18
100
AcDbEntity
  8
500
  6
L10
 62
     2
100
AcDbPolyline
 90
        2
 70
     0
 43
0.0
 10
13.63257301656088
 20
20.70363492657754
 10
14.13257246417858
 20
20.70363492657754
  0
LWPOLYLINE
  5
4FB7
330
18
100
AcDbEntity
  8
500
  6
L10
 62
     2
100
AcDbPolyline
 90
        2
 70
     0
 43
0.0
 10
13.63257301656088
 20
20.67863445922191
 10
14.13257246417858
 20
20.67863445922191
  0
LWPOLYLINE
  5
4FB8
330
18
100
AcDbEntity
  8
500
  6
L10
 62
     2
100
AcDbPolyline
 90
        2
 70
     0
 43
0.0
 10
13.63257301656088
 20
20.76863501033133
 10
14.13257246417858
 20
20.76863501033133
  0
LWPOLYLINE
  5
4FB9
330
18
100
AcDbEntity
  8
500
  6
L10
 62
     2
100
AcDbPolyline
 90
        2
 70
     0
 43
0.0
 10
13.6325723094541
 20
20.82863514203535
 10
14.11757190092249
 20
20.82863443492857
  0
LWPOLYLINE
  5
4FBA
330
18
100
AcDbEntity
  8
500
  6
L10
 62
     2
100
AcDbPolyline
 90
        2
 70
     0
 43
0.0
 10
13.6325723094541
 20
20.78363486648064
 10
14.13257246417858
 20
20.78363415937386
  0
LWPOLYLINE
  5
4FBB
330
18
100
AcDbEntity
  8
500
  6
L10
 62
     2
100
AcDbPolyline
 90
        2
 70
     0
 43
0.0
 10
13.6325723094541
 20
20.79863542973673
 10
14.13257246417858
 20
20.79863472262995
  0
LWPOLYLINE
  5
4FBC
330
18
100
AcDbEntity
  8
500
  6
L10
 62
     2
100
AcDbPolyline
 90
        2
 70
     0
 43
0.0
 10
13.6325723094541
 20
20.80863533383627
 10
14.13257246417858
 20
20.80863462672949
  0
LWPOLYLINE
  5
4FBD
330
18
100
AcDbEntity
  8
500
  6
L10
 62
     2
100
AcDbPolyline
 90
        2
 70
     0
 43
0.0
 10
13.6325723094541
 20
20.81863523793581
 10
14.131714743653
 20
20.81863523793581
  0
LWPOLYLINE
  5
4FBE
330
18
100
AcDbEntity
  8
500
  6
L10
 62
     2
100
AcDbPolyline
 90
        2
 70
     0
 43
0.0
 10
13.63257301656088
 20
20.72863539393317
 10
14.13257246417858
 20
20.72863539393317
  0
LWPOLYLINE
  5
4FBF
330
18
100
AcDbEntity
  8
500
  6
L10
 62
     2
100
AcDbPolyline
 90
        2
 70
     0
 43
0.0
 10
13.63257301656088
 20
20.74863520213225
 10
14.13257246417858
 20
20.74863520213225
  0
LWPOLYLINE
  5
4FC0
330
18
100
AcDbEntity
  8
500
  6
L10
 62
     2
100
AcDbPolyline
 90
        2
 70
     0
 43
0.0
 10
14.13257246417858
 20
20.54363504677133
 10
14.1325717570718
 20
20.81363457877926
  0
LWPOLYLINE
  5
4FC1
330
18
100
AcDbEntity
  8
500
  6
L10
 62
     2
100
AcDbPolyline
 90
        2
 70
     0
 43
0.0
 10
14.1325717570718
 20
20.81363457877926
 42
0.41422
 10
14.11757190092249
 20
20.82863443492857
  0
LWPOLYLINE
  5
4FC2
330
18
100
AcDbEntity
  8
500
  6
L10
 62
     2
100
AcDbPolyline
 90
        2
 70
     0
 43
0.0
 10
14.13522073733723
 20
19.44005401712879
 10
14.13522144444402
 20
19.17005448512087
  0
LWPOLYLINE
  5
4FC3
330
18
100
AcDbEntity
  8
500
  6
L10
 62
     2
100
AcDbPolyline
 90
        2
 70
     0
 43
0.0
 10
14.78734625890012
 20
19.73703336414475
 10
14.86534625890013
 20
19.73703336414475
  0
LWPOLYLINE
  5
4FC4
330
18
100
AcDbEntity
  8
500
  6
L10
 62
     2
100
AcDbPolyline
 90
        2
 70
     0
 43
0.0
 10
14.86534625890013
 20
19.82903336414475
 42
1.0
 10
14.78734625890012
 20
19.82903336414475
  0
LWPOLYLINE
  5
4FC5
330
18
100
AcDbEntity
  8
500
  6
L10
 62
     2
100
AcDbPolyline
 90
        2
 70
     0
 43
0.0
 10
14.78734625890012
 20
20.18702936414475
 10
14.86534625890013
 20
20.18702936414475
  0
LWPOLYLINE
  5
4FC6
330
18
100
AcDbEntity
  8
500
  6
L10
 62
     2
100
AcDbPolyline
 90
        2
 70
     0
 43
0.0
 10
14.78734625890012
 20
20.09502936414475
 42
1.0
 10
14.86534625890013
 20
20.09502936414475
  0
LWPOLYLINE
  5
4FC7
330
18
100
AcDbEntity
  8
500
  6
L10
 62
     2
100
AcDbPolyline
 90
        2
 70
     0
 43
0.0
 10
15.22459525890013
 20
20.30008436414476
 10
15.22459525890013
 20
19.62397736414475
  0
LWPOLYLINE
  5
4FC8
330
18
100
AcDbEntity
  8
500
  6
L10
 62
     2
100
AcDbPolyline
 90
        2
 70
     0
 43
0.0
 10
14.86534625890013
 20
20.3412280850127
 10
14.86534625890013
 20
20.09502936414475
  0
LWPOLYLINE
  5
4FC9
330
18
100
AcDbEntity
  8
500
  6
L10
 62
     2
100
AcDbPolyline
 90
        2
 70
     0
 43
0.0
 10
14.99059525890013
 20
20.34134536414475
 10
14.99059525890013
 20
20.07902836414475
  0
LWPOLYLINE
  5
4FCA
330
18
100
AcDbEntity
  8
500
  6
L10
 62
     2
100
AcDbPolyline
 90
        2
 70
     0
 43
0.0
 10
15.06859625890013
 20
20.32759236414475
 10
15.06859625890013
 20
20.07902836414475
  0
LWPOLYLINE
  5
4FCB
330
18
100
AcDbEntity
  8
500
  6
L10
 62
     2
100
AcDbPolyline
 90
        2
 70
     0
 43
0.0
 10
15.06859625890013
 20
20.32759236414475
 10
15.22459525890013
 20
20.30008436414476
  0
LINE
  5
4FCC
330
18
100
AcDbEntity
  8
0
100
AcDbLine
 10
14.99059525890013
 20
20.34134536414475
 30
0.0
 11
14.86534625890013
 21
20.34118909552476
 31
0.0
  0
LWPOLYLINE
  5
4FCD
330
18
100
AcDbEntity
  8
500
  6
L10
 62
     2
100
AcDbPolyline
 90
        2
 70
     0
 43
0.0
 10
14.99059525890013
 20
20.18702936414475
 10
15.06859625890013
 20
20.18702936414475
  0
LWPOLYLINE
  5
4FCE
330
18
100
AcDbEntity
  8
500
  6
L10
 62
     2
100
AcDbPolyline
 90
        2
 70
     0
 43
0.0
 10
14.99059525890013
 20
20.07902836414475
 42
1.0
 10
15.06859625890013
 20
20.07902836414475
  0
LWPOLYLINE
  5
4FCF
330
18
100
AcDbEntity
  8
500
  6
L10
 62
     2
100
AcDbPolyline
 90
        2
 70
     0
 43
0.0
 10
15.06859625890013
 20
19.59647036414475
 10
15.22459525890013
 20
19.62397736414475
  0
LINE
  5
4FD0
330
18
100
AcDbEntity
  8
0
100
AcDbLine
 10
14.99059525890013
 20
19.59647036414475
 30
0.0
 11
14.86534625890013
 21
19.59647036414475
 31
0.0
  0
LWPOLYLINE
  5
4FD1
330
18
100
AcDbEntity
  8
500
  6
L10
 62
     2
100
AcDbPolyline
 90
        2
 70
     0
 43
0.0
 10
14.99059525890013
 20
19.73703336414475
 10
15.06859625890013
 20
19.73703336414475
  0
LWPOLYLINE
  5
4FD2
330
18
100
AcDbEntity
  8
500
  6
L10
 62
     2
100
AcDbPolyline
 90
        2
 70
     0
 43
0.0
 10
15.06859625890013
 20
19.84503336414475
 42
1.0
 10
14.99059525890013
 20
19.84503336414475
  0
LWPOLYLINE
  5
4FD3
330
18
100
AcDbEntity
  8
500
  6
L10
 62
     2
100
AcDbPolyline
 90
        2
 70
     0
 43
0.0
 10
14.99059525890013
 20
19.59647036414475
 10
14.99059525890013
 20
19.84503336414475
  0
LWPOLYLINE
  5
4FD4
330
18
100
AcDbEntity
  8
500
  6
L10
 62
     2
100
AcDbPolyline
 90
        2
 70
     0
 43
0.0
 10
14.86534625890013
 20
19.59647036414475
 10
14.86534625890013
 20
19.82903336414475
  0
LWPOLYLINE
  5
4FD5
330
18
100
AcDbEntity
  8
500
  6
L10
 62
     2
100
AcDbPolyline
 90
        2
 70
     0
 43
0.0
 10
15.06859625890013
 20
19.59647036414475
 10
15.06859625890013
 20
19.84503336414475
  0
LWPOLYLINE
  5
4FD6
330
18
100
AcDbEntity
  8
500
  6
L10
 62
     2
100
AcDbPolyline
 90
        2
 70
     0
 43
0.0
 10
14.17495171413462
 20
20.33678483561158
 10
14.17495171413462
 20
19.64713665336716
  0
LWPOLYLINE
  5
4FD7
330
18
100
AcDbEntity
  8
500
  6
L10
 62
     2
100
AcDbPolyline
 90
        2
 70
     0
 43
0.0
 10
13.85295225654501
 20
20.39928458978709
 10
13.85295225654501
 20
19.58463689919164
  0
LWPOLYLINE
  5
4FD8
330
18
100
AcDbEntity
  8
500
  6
L10
 62
     2
100
AcDbPolyline
 90
        2
 70
     0
 43
0.0
 10
14.08295217215478
 20
20.39928458978709
 10
14.08295217215478
 20
19.58463619208486
  0
LWPOLYLINE
  5
4FD9
330
18
100
AcDbEntity
  8
500
  6
L10
 62
     2
100
AcDbPolyline
 90
        2
 70
     0
 43
0.0
 10
14.03695204761147
 20
20.39928458978709
 10
14.03695204761147
 20
19.58463619208486
  0
LWPOLYLINE
  5
4FDA
330
18
100
AcDbEntity
  8
500
  6
L10
 62
     2
100
AcDbPolyline
 90
        2
 70
     0
 43
0.0
 10
14.12895229669809
 20
20.39706695858988
 10
14.12895229669809
 20
19.58685367895066
  0
LWPOLYLINE
  5
4FDB
330
18
100
AcDbEntity
  8
500
  6
L10
 62
     2
100
AcDbPolyline
 90
        2
 70
     0
 43
0.0
 10
13.99095192306815
 20
20.39928458978709
 10
13.99095192306815
 20
19.58463619208486
  0
LWPOLYLINE
  5
4FDC
330
18
100
AcDbEntity
  8
500
  6
L10
 62
     2
100
AcDbPolyline
 90
        2
 70
     0
 43
0.0
 10
13.89895180504519
 20
20.39928458978709
 10
13.89895238108832
 20
19.58463689919164
  0
LWPOLYLINE
  5
4FDD
330
18
100
AcDbEntity
  8
500
  6
L10
 62
     2
100
AcDbPolyline
 90
        2
 70
     0
 43
0.0
 10
13.94495179852485
 20
20.18410283439416
 10
13.94495179852485
 20
19.81588697959055
  0
LWPOLYLINE
  5
4FDE
330
18
100
AcDbEntity
  8
500
  6
L10
 62
     2
100
AcDbPolyline
 90
        2
 70
     0
 43
0.0
 10
14.44700069841016
 20
19.59647036414475
 10
14.44700069841016
 20
20.34066714099087
  0
LINE
  5
4FDF
330
18
100
AcDbEntity
  8
0
100
AcDbLine
 10
14.25574533836686
 20
20.48334794345967
 30
0.0
 11
14.44700069841016
 21
20.34066714099087
 31
0.0
  0
LWPOLYLINE
  5
4FE0
330
18
100
AcDbEntity
  8
500
  6
L10
 62
     2
100
AcDbPolyline
 90
        2
 70
     0
 43
0.0
 10
14.58259625890013
 20
20.34113076725081
 10
14.58259625890013
 20
20.09502936414475
  0
LWPOLYLINE
  5
4FE1
330
18
100
AcDbEntity
  8
500
  6
L10
 62
     2
100
AcDbPolyline
 90
        2
 70
     0
 43
0.0
 10
14.66059625890013
 20
20.3412280850127
 10
14.66059625890013
 20
20.09502936414475
  0
LWPOLYLINE
  5
4FE2
330
18
100
AcDbEntity
  8
500
  6
L10
 62
     2
100
AcDbPolyline
 90
        2
 70
     0
 43
0.0
 10
14.78734625890012
 20
20.34115001522587
 10
14.78734625890012
 20
20.09502936414475
  0
LINE
  5
4FE3
330
18
100
AcDbEntity
  8
0
100
AcDbLine
 10
14.78734625890012
 20
20.34115001522587
 30
0.0
 11
14.66059625890013
 21
20.3412280850127
 31
0.0
  0
LINE
  5
4FE4
330
18
100
AcDbEntity
  8
0
100
AcDbLine
 10
14.58259625890013
 20
20.34113076725081
 30
0.0
 11
14.44700069841016
 21
20.34066714099087
 31
0.0
  0
LWPOLYLINE
  5
4FE5
330
18
100
AcDbEntity
  8
500
  6
L10
 62
     2
100
AcDbPolyline
 90
        2
 70
     0
 43
0.0
 10
14.58259625890013
 20
20.09502936414475
 42
1.0
 10
14.66059625890013
 20
20.09502936414475
  0
LWPOLYLINE
  5
4FE6
330
18
100
AcDbEntity
  8
500
  6
L10
 62
     2
100
AcDbPolyline
 90
        2
 70
     0
 43
0.0
 10
14.58259625890013
 20
20.18702936414475
 10
14.66059625890013
 20
20.18702936414475
  0
LWPOLYLINE
  5
4FE7
330
18
100
AcDbEntity
  8
500
  6
L10
 62
     2
100
AcDbPolyline
 90
        2
 70
     0
 43
0.0
 10
13.94495179852485
 20
20.39928458978709
 10
13.94495179852485
 20
20.24658099311361
  0
LWPOLYLINE
  5
4FE8
330
18
100
AcDbEntity
  8
500
  6
L10
 62
     2
100
AcDbPolyline
 90
        2
 70
     0
 43
0.0
 10
14.11757260802927
 20
20.52863519062202
 42
0.4142140000000001
 10
14.13257246417858
 20
20.54363504677133
  0
LWPOLYLINE
  5
4FE9
330
18
100
AcDbEntity
  8
500
  6
L10
 62
     2
100
AcDbPolyline
 90
        2
 70
     0
 43
0.0
 10
14.17495156434767
 20
20.33678412850479
 42
0.4142140000000001
 10
14.11245110306537
 20
20.39928458978709
  0
CIRCLE
  5
4FEA
330
18
100
AcDbEntity
  8
500
  6
L10
 62
     2
100
AcDbCircle
 10
13.94412571090433
 20
20.21534191375388
 30
0.0
 40
0.03125
  0
LINE
  5
4FEB
330
18
100
AcDbEntity
  8
0
100
AcDbLine
 10
14.25603149816312
 20
19.50047199254685
 30
0.0
 11
14.44700069841016
 21
19.59647036414475
 31
0.0
  0
LWPOLYLINE
  5
4FEC
330
18
100
AcDbEntity
  8
500
  6
L10
 62
     2
100
AcDbPolyline
 90
        2
 70
     0
 43
0.0
 10
14.66059625890013
 20
19.82903336414475
 42
1.0
 10
14.58259625890013
 20
19.82903336414475
  0
LWPOLYLINE
  5
4FED
330
18
100
AcDbEntity
  8
500
  6
L10
 62
     2
100
AcDbPolyline
 90
        2
 70
     0
 43
0.0
 10
14.58259625890013
 20
19.73703336414475
 10
14.66059625890013
 20
19.73703336414475
  0
LINE
  5
4FEE
330
18
100
AcDbEntity
  8
0
100
AcDbLine
 10
14.78734625890012
 20
19.59647036414475
 30
0.0
 11
14.66059625890013
 21
19.59647036414475
 31
0.0
  0
LWPOLYLINE
  5
4FEF
330
18
100
AcDbEntity
  8
500
  6
L10
 62
     2
100
AcDbPolyline
 90
        2
 70
     0
 43
0.0
 10
14.66059625890013
 20
19.59647036414475
 10
14.66059625890013
 20
19.82903336414475
  0
LWPOLYLINE
  5
4FF0
330
18
100
AcDbEntity
  8
500
  6
L10
 62
     2
100
AcDbPolyline
 90
        2
 70
     0
 43
0.0
 10
14.78734625890012
 20
19.59647036414475
 10
14.78734625890012
 20
19.82903336414475
  0
LINE
  5
4FF1
330
18
100
AcDbEntity
  8
0
100
AcDbLine
 10
14.58259625890013
 20
19.59647036414475
 30
0.0
 11
14.44700069841016
 21
19.59647036414475
 31
0.0
  0
LWPOLYLINE
  5
4FF2
330
18
100
AcDbEntity
  8
500
  6
L10
 62
     2
100
AcDbPolyline
 90
        2
 70
     0
 43
0.0
 10
14.58259625890013
 20
19.59647036414475
 10
14.58259625890013
 20
19.82903336414475
  0
LWPOLYLINE
  5
4FF3
330
18
100
AcDbEntity
  8
500
  6
L10
 62
     2
100
AcDbPolyline
 90
        2
 70
     0
 43
0.0
 10
13.94495179852485
 20
19.75338722541503
 10
13.94495179852484
 20
19.58463619208486
  0
LWPOLYLINE
  5
4FF4
330
18
100
AcDbEntity
  8
500
  6
L10
 62
     2
100
AcDbPolyline
 90
        2
 70
     0
 43
0.0
 10
14.1124519599591
 20
19.58463689919164
 42
0.4142140000000001
 10
14.17495171413462
 20
19.64713665336716
  0
CIRCLE
  5
4FF5
330
18
100
AcDbEntity
  8
500
  6
L10
 62
     2
100
AcDbCircle
 10
13.94495109141807
 20
19.78463639539601
 30
0.0
 40
0.03125
  0
LWPOLYLINE
  5
4FF6
330
18
100
AcDbEntity
  8
500
  6
L10
 62
     2
100
AcDbPolyline
 90
        2
 70
     0
 43
0.0
 10
14.13522073733723
 20
19.44005401712879
 42
0.41422
 10
14.12022088118792
 20
19.4550538732781
  0
LWPOLYLINE
  5
4FF8
330
18
100
AcDbEntity
  8
500
  6
L10
 62
     2
100
AcDbPolyline
 90
        2
 70
     0
 43
0.0
 10
14.12022088118793
 20
19.15505392186477
 42
0.4142140000000001
 10
14.13522144444402
 20
19.17005448512087
  0
LWPOLYLINE
  5
4FF9
330
18
100
AcDbEntity
  8
500
  6
L10
 62
     2
100
AcDbPolyline
 90
        2
 70
     0
 43
0.0
 10
12.87957288395498
 20
20.64713497344039
 10
12.87957217684821
 20
20.71013465211021
  0
LWPOLYLINE
  5
4FFA
330
18
100
AcDbEntity
  8
500
  6
L10
 62
     2
100
AcDbPolyline
 90
        2
 70
     0
 43
0.0
 10
12.90657304928781
 20
20.64713497344039
 10
12.90657234218103
 20
20.7101346521102
  0
LWPOLYLINE
  5
4FFB
330
18
100
AcDbEntity
  8
500
  6
L10
 62
     2
100
AcDbPolyline
 90
        2
 70
     0
 43
0.0
 10
12.80757315017423
 20
20.6471342663336
 10
12.80757315017423
 20
20.7101346521102
  0
LWPOLYLINE
  5
4FFC
330
18
100
AcDbEntity
  8
500
  6
L10
 62
     2
100
AcDbPolyline
 90
        2
 70
     0
 43
0.0
 10
12.85257271862215
 20
20.64713497344039
 10
12.85257342572894
 20
20.71013465211021
  0
LWPOLYLINE
  5
4FFD
330
18
100
AcDbEntity
  8
500
  6
L10
 62
     2
100
AcDbPolyline
 90
        2
 70
     0
 43
0.0
 10
12.82557255328933
 20
20.62913486321851
 10
12.82557326039611
 20
20.72813476233208
  0
LWPOLYLINE
  5
4FFE
330
18
100
AcDbEntity
  8
500
  6
L10
 62
     2
100
AcDbPolyline
 90
        2
 70
     0
 43
0.0
 10
11.98626742885167
 20
19.23649499679479
 10
11.98626795656148
 20
20.72639657207312
  0
LINE
  5
4FFF
330
18
100
AcDbEntity
  8
0
 62
     2
100
AcDbLine
 10
11.92076812771036
 20
19.25269481315177
 30
0.0
 11
11.9207672412066
 21
20.71019671886336
 31
0.0
  0
CIRCLE
  5
5000
330
18
100
AcDbEntity
  8
500
  6
L10
 62
     2
100
AcDbCircle
 10
11.67376777147033
 20
20.65419669022051
 30
0.0
 40
0.06
  0
LWPOLYLINE
  5
5001
330
18
100
AcDbEntity
  8
500
  6
L10
 62
     2
100
AcDbPolyline
 90
        2
 70
     0
 43
0.0
 10
11.42676777402426
 20
20.71034672604521
 10
11.42676777402425
 20
19.25269466099158
  0
LWPOLYLINE
  5
5002
330
18
100
AcDbEntity
  8
500
  6
L10
 62
     2
100
AcDbPolyline
 90
        2
 70
     0
 43
0.0
 10
11.36126705866938
 20
19.23649499679479
 10
11.36126705866938
 20
20.72658028528092
  0
LWPOLYLINE
  5
5003
330
18
100
AcDbEntity
  8
500
  6
L10
 62
     2
100
AcDbPolyline
 90
        2
 70
     0
 43
0.0
 10
12.93522093168392
 20
20.84463484717326
 10
12.93522093168392
 20
19.13905421672686
  0
LWPOLYLINE
  5
5004
330
18
100
AcDbEntity
  8
500
  6
L10
 62
     2
100
AcDbPolyline
 90
        2
 70
     0
 43
0.0
 10
13.6325723094541
 20
20.81363457877926
 10
13.63257230945411
 20
20.48321772206641
  0
LWPOLYLINE
  5
5005
330
18
100
AcDbEntity
  8
500
  6
L10
 62
     2
100
AcDbPolyline
 90
        2
 70
     0
 43
0.0
 10
13.08857314237707
 20
20.56413407235793
 10
13.08857314237707
 20
20.84463484717326
  0
LWPOLYLINE
  5
5006
330
18
100
AcDbEntity
  8
500
  6
L10
 62
     2
100
AcDbPolyline
 90
        2
 70
     0
 43
0.0
 10
11.89246741360995
 20
20.82019707817186
 10
11.45506671511714
 20
20.82019707817187
  0
LWPOLYLINE
  5
5007
330
18
100
AcDbEntity
  8
500
  6
L10
 62
     2
100
AcDbPolyline
 90
        2
 70
     0
 43
0.0
 10
11.9207672412066
 20
20.71019671886336
 42
0.414212
 10
11.85876741152538
 20
20.77219654854457
  0
LWPOLYLINE
  5
5008
330
18
100
AcDbEntity
  8
500
  6
L10
 62
     2
100
AcDbPolyline
 90
        2
 70
     0
 43
0.0
 10
12.82557326039611
 20
20.72813476233208
 10
12.93257265852526
 20
20.72813476233208
  0
LWPOLYLINE
  5
5009
330
18
100
AcDbEntity
  8
500
  6
L10
 62
     2
100
AcDbPolyline
 90
        2
 70
     0
 43
0.0
 10
12.93257265852526
 20
20.84463484717326
 10
13.6015720410601
 20
20.84463484717326
  0
LWPOLYLINE
  5
500A
330
18
100
AcDbEntity
  8
500
  6
L10
 62
     2
100
AcDbPolyline
 90
        2
 70
     0
 43
0.0
 10
13.6325723094541
 20
20.81363457877926
 42
0.4142170000000001
 10
13.6015720410601
 20
20.84463484717326
  0
LWPOLYLINE
  5
500B
330
18
100
AcDbEntity
  8
500
  6
L10
 62
     2
100
AcDbPolyline
 90
        2
 70
     0
 43
0.0
 10
12.82557326039611
 20
20.72813476233208
 10
12.80757315017423
 20
20.7101346521102
  0
LWPOLYLINE
  5
500C
330
18
100
AcDbEntity
  8
500
  6
L10
 62
     2
100
AcDbPolyline
 90
        2
 70
     0
 43
0.0
 10
11.98626795656147
 20
20.72639653522034
 42
0.4142140000000001
 10
11.89246741360995
 20
20.82019707817186
  0
LWPOLYLINE
  5
500D
330
18
100
AcDbEntity
  8
500
  6
L10
 62
     2
100
AcDbPolyline
 90
        2
 70
     0
 43
0.0
 10
11.45506671511714
 20
20.82019707817187
 42
0.414211
 10
11.3612668792724
 20
20.72639724232713
  0
LWPOLYLINE
  5
500E
330
18
100
AcDbEntity
  8
500
  6
L10
 62
     2
100
AcDbPolyline
 90
        2
 70
     0
 43
0.0
 10
11.85876741152538
 20
20.77219654854457
 10
11.48876742430849
 20
20.77219725565136
  0
LWPOLYLINE
  5
500F
330
18
100
AcDbEntity
  8
500
  6
L10
 62
     2
100
AcDbPolyline
 90
        2
 70
     0
 43
0.0
 10
11.48876742430849
 20
20.77219725565136
 42
0.4142149999999999
 10
11.42676759462727
 20
20.71019742597014
  0
LWPOLYLINE
  5
5010
330
18
100
AcDbEntity
  8
500
  6
L10
 62
     2
100
AcDbPolyline
 90
        2
 70
     0
 43
0.0
 10
11.73183980237904
 20
19.44835055239931
 42
0.466311
 10
11.85976743991096
 20
19.55569431153089
  0
LWPOLYLINE
  5
5011
330
18
100
AcDbEntity
  8
500
  6
L10
 62
     2
100
AcDbPolyline
 90
        2
 70
     0
 43
0.0
 10
11.85876759092236
 20
19.19069427636378
 42
0.414211
 10
11.92076812771036
 20
19.25269481315177
  0
LWPOLYLINE
  5
5012
330
18
100
AcDbEntity
  8
500
  6
L10
 62
     2
100
AcDbPolyline
 90
        2
 70
     0
 43
0.0
 10
11.85976796762076
 20
20.40719722048424
 42
0.466307
 10
11.73184033008883
 20
20.51454097961582
  0
LINE
  5
5013
330
18
100
AcDbEntity
  8
0
100
AcDbLine
 10
11.75176748568644
 20
19.5846948819477
 30
0.0
 11
12.11126755218096
 21
19.58469488194769
 31
0.0
  0
LINE
  5
5014
330
18
100
AcDbEntity
  8
0
100
AcDbLine
 10
11.75176659918267
 20
20.33819703366928
 30
0.0
 11
12.11126781906469
 21
20.33819703366926
 31
0.0
  0
LWPOLYLINE
  5
5015
330
18
100
AcDbEntity
  8
500
  6
L10
 62
     2
100
AcDbPolyline
 90
        2
 70
     0
 43
0.0
 10
11.89246759300693
 20
19.14269516095005
 10
11.4550676016209
 20
19.14269445384326
  0
LWPOLYLINE
  5
5016
330
18
100
AcDbEntity
  8
500
  6
L10
 62
     2
100
AcDbPolyline
 90
        2
 70
     0
 43
0.0
 10
13.63522058261276
 20
19.17005448512087
 10
13.63522058261276
 20
19.50047134183372
  0
LWPOLYLINE
  5
5017
330
18
100
AcDbEntity
  8
500
  6
L10
 62
     2
100
AcDbPolyline
 90
        2
 70
     0
 43
0.0
 10
13.09122070842895
 20
19.41955428443541
 10
13.09122141553573
 20
19.13905421672686
  0
LWPOLYLINE
  5
5018
330
18
100
AcDbEntity
  8
500
  6
L10
 62
     2
100
AcDbPolyline
 90
        2
 70
     0
 43
0.0
 10
11.89246759300693
 20
19.14269516095005
 42
0.4142140000000001
 10
11.98626742885167
 20
19.23649499679479
  0
LWPOLYLINE
  5
5019
330
18
100
AcDbEntity
  8
500
  6
L10
 62
     2
100
AcDbPolyline
 90
        2
 70
     0
 43
0.0
 10
12.69783518817164
 20
19.45656687312229
 10
12.9298348017586
 20
19.45656758022907
  0
LWPOLYLINE
  5
501A
330
18
100
AcDbEntity
  8
500
  6
L10
 62
     2
100
AcDbPolyline
 90
        2
 70
     0
 43
0.0
 10
12.82822082644798
 20
19.35455420068162
 10
12.93522022457713
 20
19.35455420068162
  0
LWPOLYLINE
  5
501B
330
18
100
AcDbEntity
  8
500
  6
L10
 62
     2
100
AcDbPolyline
 90
        2
 70
     0
 43
0.0
 10
12.82822082644799
 20
19.25555500867482
 10
12.93522093168392
 20
19.25555430156803
  0
LWPOLYLINE
  5
501C
330
18
100
AcDbEntity
  8
500
  6
L10
 62
     2
100
AcDbPolyline
 90
        2
 70
     0
 43
0.0
 10
12.69783518817164
 20
20.51640938561124
 10
12.93375993425256
 20
20.51640866654112
  0
LWPOLYLINE
  5
501D
330
18
100
AcDbEntity
  8
500
  6
L10
 62
     2
100
AcDbPolyline
 90
        2
 70
     0
 43
0.0
 10
12.82557255328933
 20
20.62913486321851
 10
12.93257336563204
 20
20.6291348632185
  0
TEXT
  5
501E
330
18
100
AcDbEntity
  8
0
100
AcDbText
 10
13.47357463861025
 20
19.88335896709316
 30
0.0
 40
0.125
  1
P1
 50
90.00000000000007
 72
     1
 11
13.41107463861025
 21
19.99050182423602
 31
0.0
100
AcDbText
 73
     2
  0
LWPOLYLINE
  5
501F
330
18
100
AcDbEntity
  8
500
  6
L10
 62
     2
100
AcDbPolyline
 90
        2
 70
     0
 43
0.0
 10
13.05895195144557
 20
19.64713665336716
 10
13.05895195144557
 20
20.3369210089373
  0
TEXT
  5
5020
330
18
100
AcDbEntity
  8
0
100
AcDbText
 10
13.25988451161378
 20
19.69483292199002
 30
0.0
 40
0.125
  1
BKOUT
 50
90.0
 72
     1
 11
13.19738451161378
 21
20.00733292199002
 31
0.0
100
AcDbText
 73
     2
  0
LWPOLYLINE
  5
5021
330
18
100
AcDbEntity
  8
500
  6
L10
 62
     2
100
AcDbPolyline
 90
        2
 70
     0
 43
0.0
 10
13.55895139906327
 20
19.64713665336716
 10
13.55895195638318
 20
20.33678493848963
  0
LWPOLYLINE
  5
5022
330
18
100
AcDbEntity
  8
500
  6
L10
 62
     2
100
AcDbPolyline
 90
        2
 70
     0
 43
0.0
 10
13.8069521320017
 20
20.39928458978709
 10
13.8069521320017
 20
19.58463689919164
  0
LWPOLYLINE
  5
5023
330
18
100
AcDbEntity
  8
500
  6
L10
 62
     2
100
AcDbPolyline
 90
        2
 70
     0
 43
0.0
 10
13.76095143199918
 20
20.39706700005474
 10
13.76095200745839
 20
19.58685438605744
  0
LWPOLYLINE
  5
5024
330
18
100
AcDbEntity
  8
500
  6
L10
 62
     2
100
AcDbPolyline
 90
        2
 70
     0
 43
0.0
 10
13.71495244023491
 20
20.33678483561158
 10
13.71495188291508
 20
19.64713665336716
  0
LWPOLYLINE
  5
5025
330
18
100
AcDbEntity
  8
500
  6
L10
 62
     2
100
AcDbPolyline
 90
        2
 70
     0
 43
0.0
 10
13.08857384948385
 20
20.62663453364023
 10
13.57007255527859
 20
20.62663453364023
  0
LWPOLYLINE
  5
5026
330
18
100
AcDbEntity
  8
500
  6
L10
 62
     2
100
AcDbPolyline
 90
        2
 70
     0
 43
0.0
 10
13.12145226294092
 20
20.39928458978709
 10
13.49645220220759
 20
20.39928458978709
  0
LWPOLYLINE
  5
5027
330
18
100
AcDbEntity
  8
500
  6
L10
 62
     2
100
AcDbPolyline
 90
        2
 70
     0
 43
0.0
 10
13.6325723094541
 20
20.56413477946471
 42
0.4142140000000001
 10
13.57007255527859
 20
20.62663453364023
  0
LWPOLYLINE
  5
5028
330
18
100
AcDbEntity
  8
500
  6
L10
 62
     2
100
AcDbPolyline
 90
        2
 70
     0
 43
0.0
 10
13.77745219441043
 20
20.39928458978709
 42
0.414212
 10
13.71495244023491
 20
20.33678483561158
  0
LWPOLYLINE
  5
5029
330
18
100
AcDbEntity
  8
500
  6
L10
 62
     2
100
AcDbPolyline
 90
        2
 70
     0
 43
0.0
 10
13.5589519563831
 20
20.33678483561158
 42
0.4142149999999999
 10
13.49645220220759
 20
20.39928458978709
  0
LWPOLYLINE
  5
502A
330
18
100
AcDbEntity
  8
500
  6
L10
 62
     2
100
AcDbPolyline
 90
        2
 70
     0
 43
0.0
 10
13.12145226294092
 20
20.39928458978709
 42
0.4142140000000001
 10
13.05895180165862
 20
20.33678412850479
  0
LWPOLYLINE
  5
502B
330
18
100
AcDbEntity
  8
500
  6
L10
 62
     2
100
AcDbPolyline
 90
        2
 70
     0
 43
0.0
 10
13.09122070842895
 20
19.3570545302599
 10
13.57272082843724
 20
19.3570545302599
  0
LWPOLYLINE
  5
502C
330
18
100
AcDbEntity
  8
500
  6
L10
 62
     2
100
AcDbPolyline
 90
        2
 70
     0
 43
0.0
 10
13.12145241272787
 20
19.58463619208486
 10
13.49645164488775
 20
19.58463689919164
  0
LWPOLYLINE
  5
502D
330
18
100
AcDbEntity
  8
500
  6
L10
 62
     2
100
AcDbPolyline
 90
        2
 70
     0
 43
0.0
 10
13.71495188291508
 20
19.64713665336716
 42
0.4142140000000001
 10
13.77745163709059
 20
19.58463689919164
  0
LWPOLYLINE
  5
502E
330
18
100
AcDbEntity
  8
500
  6
L10
 62
     2
100
AcDbPolyline
 90
        2
 70
     0
 43
0.0
 10
13.49645164488775
 20
19.58463689919164
 42
0.4142140000000001
 10
13.55895139906327
 20
19.64713665336716
  0
LWPOLYLINE
  5
502F
330
18
100
AcDbEntity
  8
500
  6
L10
 62
     2
100
AcDbPolyline
 90
        2
 70
     0
 43
0.0
 10
13.57272082843724
 20
19.3570545302599
 42
0.414212
 10
13.63522058261275
 20
19.41955428443541
  0
LWPOLYLINE
  5
5030
330
18
100
AcDbEntity
  8
500
  6
L10
 62
     2
100
AcDbPolyline
 90
        2
 70
     0
 43
0.0
 10
13.05895195144557
 20
19.64713665336716
 42
0.4142140000000001
 10
13.12145241272787
 20
19.58463619208486
  0
LWPOLYLINE
  5
5031
330
18
100
AcDbEntity
  8
500
  6
L10
 62
     2
100
AcDbPolyline
 90
        2
 70
     0
 43
0.0
 10
12.88222115711364
 20
19.33655409045974
 10
12.88222045000686
 20
19.27355441178992
  0
LWPOLYLINE
  5
5032
330
18
100
AcDbEntity
  8
500
  6
L10
 62
     2
100
AcDbPolyline
 90
        2
 70
     0
 43
0.0
 10
12.90922061533969
 20
19.33655479756652
 10
12.90922061533969
 20
19.27355441178992
  0
LWPOLYLINE
  5
5033
330
18
100
AcDbEntity
  8
500
  6
L10
 62
     2
100
AcDbPolyline
 90
        2
 70
     0
 43
0.0
 10
12.69783518817164
 20
20.51640938561124
 10
12.69783518817164
 20
19.45656687312229
  0
LINE
  5
5034
330
18
100
AcDbEntity
  8
0
 62
     7
100
AcDbLine
 10
12.84205836045991
 20
20.32388932895913
 30
0.0
 11
12.84205836045992
 21
20.25988932895913
 31
0.0
  0
LINE
  5
5035
330
18
100
AcDbEntity
  8
0
100
AcDbLine
 10
12.76405836045992
 20
20.32388932895913
 30
0.0
 11
12.84205836045991
 21
20.32388932895913
 31
0.0
  0
LWPOLYLINE
  5
5036
330
18
100
AcDbEntity
  8
500
  6
L10
 62
     2
100
AcDbPolyline
 90
        2
 70
     0
 43
0.0
 10
12.82557255328933
 20
20.62913486321851
 10
12.80757315017423
 20
20.6471342663336
  0
LINE
  5
5037
330
18
100
AcDbEntity
  8
0
 62
     7
100
AcDbLine
 10
12.84419104142099
 20
20.06029495436401
 30
0.0
 11
12.84419104142099
 21
19.99629495436401
 31
0.0
  0
LINE
  5
5038
330
18
100
AcDbEntity
  8
0
100
AcDbLine
 10
12.76619104142099
 20
20.06029495436403
 30
0.0
 11
12.84419104142099
 21
20.06029495436401
 31
0.0
  0
LINE
  5
5039
330
18
100
AcDbEntity
  8
0
100
AcDbLine
 10
12.76619104142098
 20
19.99629495436403
 30
0.0
 11
12.84419104142099
 21
19.99629495436401
 31
0.0
  0
LINE
  5
503A
330
18
100
AcDbEntity
  8
0
100
AcDbLine
 10
12.76405836045992
 20
20.25988932895913
 30
0.0
 11
12.84205836045992
 21
20.25988932895913
 31
0.0
  0
LINE
  5
503B
330
18
100
AcDbEntity
  8
0
100
AcDbLine
 10
12.76619104142099
 20
20.19629495436402
 30
0.0
 11
12.84419104142099
 21
20.19629495436402
 31
0.0
  0
LINE
  5
503C
330
18
100
AcDbEntity
  8
0
100
AcDbLine
 10
12.76619104142098
 20
20.13229495436402
 30
0.0
 11
12.84419104142099
 21
20.13229495436402
 31
0.0
  0
LINE
  5
503D
330
18
100
AcDbEntity
  8
0
 62
     7
100
AcDbLine
 10
12.84419104142099
 20
20.19629495436402
 30
0.0
 11
12.84419104142099
 21
20.13229495436402
 31
0.0
  0
LINE
  5
503F
330
18
100
AcDbEntity
  8
0
100
AcDbLine
 10
12.76619104142098
 20
19.86029495436401
 30
0.0
 11
12.84419104142099
 21
19.86029495436401
 31
0.0
  0
LINE
  5
5040
330
18
100
AcDbEntity
  8
0
100
AcDbLine
 10
12.76609082227007
 20
19.73046771613003
 30
0.0
 11
12.84409082227008
 21
19.73046771613003
 31
0.0
  0
LINE
  5
5041
330
18
100
AcDbEntity
  8
0
 62
     7
100
AcDbLine
 10
12.84409082227008
 20
19.79446771613004
 30
0.0
 11
12.84409082227008
 21
19.73046771613003
 31
0.0
  0
LINE
  5
5042
330
18
100
AcDbEntity
  8
0
100
AcDbLine
 10
12.76609082227007
 20
19.79446771613004
 30
0.0
 11
12.84409082227008
 21
19.79446771613004
 31
0.0
  0
LINE
  5
5043
330
18
100
AcDbEntity
  8
0
100
AcDbLine
 10
12.76609082227008
 20
19.65846771613004
 30
0.0
 11
12.84409082227007
 21
19.65846771613003
 31
0.0
  0
LINE
  5
5044
330
18
100
AcDbEntity
  8
0
100
AcDbLine
 10
12.76619104142099
 20
19.92429495436402
 30
0.0
 11
12.84419104142098
 21
19.92429495436402
 31
0.0
  0
LINE
  5
5045
330
18
100
AcDbEntity
  8
0
 62
     7
100
AcDbLine
 10
12.84419104142098
 20
19.92429495436402
 30
0.0
 11
12.84419104142099
 21
19.86029495436401
 31
0.0
  0
LINE
  5
5046
330
18
100
AcDbEntity
  8
0
100
AcDbLine
 10
12.76609082227007
 20
19.59446771613004
 30
0.0
 11
12.84409082227007
 21
19.59446771613002
 31
0.0
  0
LINE
  5
5047
330
18
100
AcDbEntity
  8
0
 62
     7
100
AcDbLine
 10
12.84409082227007
 20
19.65846771613003
 30
0.0
 11
12.84409082227007
 21
19.59446771613002
 31
0.0
  0
LWPOLYLINE
  5
5048
330
18
100
AcDbEntity
  8
500
  6
L10
 62
     2
100
AcDbPolyline
 90
        2
 70
     0
 43
0.0
 10
12.8102207162261
 20
19.33655409045974
 10
12.8102207162261
 20
19.2735551188967
  0
LWPOLYLINE
  5
5049
330
18
100
AcDbEntity
  8
500
  6
L10
 62
     2
100
AcDbPolyline
 90
        2
 70
     0
 43
0.0
 10
12.82822082644798
 20
19.35455420068162
 10
12.82822082644799
 20
19.25555500867482
  0
LWPOLYLINE
  5
504A
330
18
100
AcDbEntity
  8
500
  6
L10
 62
     2
100
AcDbPolyline
 90
        2
 70
     0
 43
0.0
 10
12.82822082644798
 20
19.35455420068162
 10
12.8102207162261
 20
19.33655409045974
  0
LWPOLYLINE
  5
504B
330
18
100
AcDbEntity
  8
500
  6
L10
 62
     2
100
AcDbPolyline
 90
        2
 70
     0
 43
0.0
 10
12.85522099178081
 20
19.33655409045974
 10
12.85522028467403
 20
19.27355441178992
  0
LWPOLYLINE
  5
504C
330
18
100
AcDbEntity
  8
500
  6
L10
 62
     2
100
AcDbPolyline
 90
        2
 70
     0
 43
0.0
 10
12.82822082644799
 20
19.25555500867482
 10
12.8102207162261
 20
19.2735551188967
  0
LWPOLYLINE
  5
504E
330
18
100
AcDbEntity
  8
500
  6
L10
 62
     2
100
AcDbPolyline
 90
        2
 70
     0
 43
0.0
 10
12.93522093168392
 20
19.13905421672686
 10
13.60422031421876
 20
19.13905421672686
  0
LWPOLYLINE
  5
504F
330
18
100
AcDbEntity
  8
500
  6
L10
 62
     2
100
AcDbPolyline
 90
        2
 70
     0
 43
0.0
 10
13.60422031421876
 20
19.13905421672686
 42
0.414209
 10
13.63522058261276
 20
19.17005448512087
  0
LWPOLYLINE
  5
5050
330
18
100
AcDbEntity
  8
500
  6
L10
 62
     2
100
AcDbPolyline
 90
        2
 70
     0
 43
0.0
 10
11.42676777402426
 20
19.25269481315177
 42
0.4142149999999999
 10
11.48876831081226
 20
19.19069427636378
  0
LWPOLYLINE
  5
5051
330
18
100
AcDbEntity
  8
500
  6
L10
 62
     2
100
AcDbPolyline
 90
        2
 70
     0
 43
0.0
 10
11.36126705866938
 20
19.23649499679479
 42
0.4142140000000001
 10
11.4550676016209
 20
19.14269445384326
  0
CIRCLE
  5
5052
330
18
100
AcDbEntity
  8
500
  6
L10
 62
     2
100
AcDbCircle
 10
11.5957677089414
 20
19.94469496506505
 30
0.0
 40
0.02
  0
CIRCLE
  5
5053
330
18
100
AcDbEntity
  8
500
  6
L10
 62
     2
100
AcDbCircle
 10
11.75176819279322
 20
19.94469496506505
 30
0.0
 40
0.02
  0
LWPOLYLINE
  5
5054
330
18
100
AcDbEntity
  8
500
  6
L10
 62
     2
100
AcDbPolyline
 90
        2
 70
     0
 43
0.0
 10
11.85976788335634
 20
20.40733250031129
 10
11.85976743991096
 20
19.55569431153089
  0
LINE
  5
5055
330
18
100
AcDbEntity
  8
0
 62
     2
100
AcDbLine
 10
11.83876778272328
 20
19.55569431153089
 30
0.0
 11
11.8387676033263
 21
20.40719651337745
 31
0.0
  0
LWPOLYLINE
  5
5056
330
18
100
AcDbEntity
  8
500
  6
L10
 62
     2
100
AcDbPolyline
 90
        2
 70
     0
 43
0.0
 10
11.50876768646951
 20
20.38032555153007
 10
11.50876811901134
 20
19.58284862614202
  0
LINE
  5
5057
330
18
100
AcDbEntity
  8
0
 62
     2
100
AcDbLine
 10
11.48776775471687
 20
19.58284933324881
 30
0.0
 11
11.48776828242667
 21
20.38004219876633
 31
0.0
  0
LINE
  5
5058
330
18
100
AcDbEntity
  8
0
100
AcDbLine
 10
11.2362668792724
 20
20.33819703366926
 30
0.0
 11
11.59576752954442
 21
20.33819703366927
 31
0.0
  0
CIRCLE
  5
5059
330
18
100
AcDbEntity
  8
500
  6
L10
 62
     2
100
AcDbCircle
 10
11.59576752954442
 20
20.33819703366928
 30
0.0
 40
0.02
  0
CIRCLE
  5
505A
330
18
100
AcDbEntity
  8
500
  6
L10
 62
     2
100
AcDbCircle
 10
11.75176659918267
 20
20.33819703366928
 30
0.0
 40
0.02
  0
LWPOLYLINE
  5
505B
330
18
100
AcDbEntity
  8
500
  6
L10
 62
     2
100
AcDbPolyline
 90
        2
 70
     0
 43
0.0
 10
11.73548687975941
 20
20.49386022758646
 10
11.58148609388479
 20
20.46670591297533
  0
LWPOLYLINE
  5
505C
330
18
100
AcDbEntity
  8
500
  6
L10
 62
     2
100
AcDbPolyline
 90
        2
 70
     0
 43
0.0
 10
11.73184033008883
 20
20.51454097961582
 10
11.57783954421421
 20
20.4873866650047
  0
LWPOLYLINE
  5
505D
330
18
100
AcDbEntity
  8
500
  6
L10
 62
     2
100
AcDbPolyline
 90
        2
 70
     0
 43
0.0
 10
11.8387676033263
 20
20.40719651337745
 42
0.466307
 10
11.73548687975941
 20
20.49386022758646
  0
CIRCLE
  5
505E
330
18
100
AcDbEntity
  8
500
  6
L10
 62
     2
100
AcDbCircle
 10
11.67376706436355
 20
20.38319730922399
 30
0.0
 40
0.02
  0
LWPOLYLINE
  5
505F
330
18
100
AcDbEntity
  8
500
  6
L10
 62
     2
100
AcDbPolyline
 90
        2
 70
     0
 43
0.0
 10
11.58148609388479
 20
20.46670591297533
 42
0.3639699999999999
 10
11.50876723250757
 20
20.38004290587311
  0
LWPOLYLINE
  5
5060
330
18
100
AcDbEntity
  8
500
  6
L10
 62
     2
100
AcDbPolyline
 90
        2
 70
     0
 43
0.0
 10
11.57783954421421
 20
20.4873866650047
 42
0.363971
 10
11.48776828242667
 20
20.38004219876633
  0
CIRCLE
  5
5061
330
18
100
AcDbEntity
  8
500
  6
L10
 62
     2
100
AcDbCircle
 10
11.67376795086731
 20
19.98969453351298
 30
0.0
 40
0.02
  0
CIRCLE
  5
5062
330
18
100
AcDbEntity
  8
500
  6
L10
 62
     2
100
AcDbCircle
 10
11.75176748568644
 20
20.03469480906769
 30
0.0
 40
0.02
  0
CIRCLE
  5
5063
330
18
100
AcDbEntity
  8
500
  6
L10
 62
     2
100
AcDbCircle
 10
11.67376706436355
 20
20.29319675811457
 30
0.0
 40
0.02
  0
CIRCLE
  5
5064
330
18
100
AcDbEntity
  8
500
  6
L10
 62
     2
100
AcDbCircle
 10
11.75176730628946
 20
20.24819718966663
 30
0.0
 40
0.02
  0
CIRCLE
  5
5065
330
18
100
AcDbEntity
  8
500
  6
L10
 62
     2
100
AcDbCircle
 10
11.67376724376053
 20
20.16969492862505
 30
0.0
 40
0.02
  0
CIRCLE
  5
5066
330
18
100
AcDbEntity
  8
500
  6
L10
 62
     2
100
AcDbCircle
 10
11.67376795086731
 20
20.07969508462241
 30
0.0
 40
0.02
  0
CIRCLE
  5
5067
330
18
100
AcDbEntity
  8
500
  6
L10
 62
     2
100
AcDbCircle
 10
11.75176748568644
 20
20.12469536017712
 30
0.0
 40
0.02
  0
CIRCLE
  5
5068
330
18
100
AcDbEntity
  8
500
  6
L10
 62
     2
100
AcDbCircle
 10
11.59576770894141
 20
20.03469551617448
 30
0.0
 40
0.02
  0
CIRCLE
  5
5069
330
18
100
AcDbEntity
  8
500
  6
L10
 62
     2
100
AcDbCircle
 10
11.59576682243764
 20
20.24819718966663
 30
0.0
 40
0.02
  0
CIRCLE
  5
506A
330
18
100
AcDbEntity
  8
500
  6
L10
 62
     2
100
AcDbCircle
 10
11.5957677089414
 20
20.12469465307034
 30
0.0
 40
0.02
  0
LINE
  5
506C
330
18
100
AcDbEntity
  8
0
100
AcDbLine
 10
11.23626705866938
 20
19.67469472595035
 30
0.0
 11
11.59576770894141
 21
19.67469472595034
 31
0.0
  0
CIRCLE
  5
506D
330
18
100
AcDbEntity
  8
500
  6
L10
 62
     2
100
AcDbCircle
 10
11.75176748568644
 20
19.5846948819477
 30
0.0
 40
0.02
  0
CIRCLE
  5
506E
330
18
100
AcDbEntity
  8
500
  6
L10
 62
     2
100
AcDbCircle
 10
11.67376724376053
 20
19.62969445039563
 30
0.0
 40
0.02
  0
CIRCLE
  5
506F
330
18
100
AcDbEntity
  8
500
  6
L10
 62
     2
100
AcDbCircle
 10
11.67376795086731
 20
19.8096948455077
 30
0.0
 40
0.02
  0
CIRCLE
  5
5070
330
18
100
AcDbEntity
  8
500
  6
L10
 62
     2
100
AcDbCircle
 10
11.67376724376053
 20
19.89969468951034
 30
0.0
 40
0.02
  0
CIRCLE
  5
5071
330
18
100
AcDbEntity
  8
500
  6
L10
 62
     2
100
AcDbCircle
 10
11.75176748568643
 20
19.85469512106241
 30
0.0
 40
0.02
  0
CIRCLE
  5
5072
330
18
100
AcDbEntity
  8
500
  6
L10
 62
     2
100
AcDbCircle
 10
11.75176748568644
 20
19.76469456995298
 30
0.0
 40
0.02
  0
CIRCLE
  5
5073
330
18
100
AcDbEntity
  8
500
  6
L10
 62
     2
100
AcDbCircle
 10
11.67376795086731
 20
19.71969429439827
 30
0.0
 40
0.02
  0
CIRCLE
  5
5074
330
18
100
AcDbEntity
  8
500
  6
L10
 62
     2
100
AcDbCircle
 10
11.75176819279322
 20
19.67469472595034
 30
0.0
 40
0.02
  0
CIRCLE
  5
5075
330
18
100
AcDbEntity
  8
500
  6
L10
 62
     2
100
AcDbCircle
 10
11.59576770894141
 20
19.67469472595034
 30
0.0
 40
0.02
  0
CIRCLE
  5
5076
330
18
100
AcDbEntity
  8
500
  6
L10
 62
     2
100
AcDbCircle
 10
11.5957677089414
 20
19.85469441395562
 30
0.0
 40
0.02
  0
CIRCLE
  5
5077
330
18
100
AcDbEntity
  8
500
  6
L10
 62
     2
100
AcDbCircle
 10
11.59576770894141
 20
19.76469527705977
 30
0.0
 40
0.02
  0
LWPOLYLINE
  5
5078
330
18
100
AcDbEntity
  8
500
  6
L10
 62
     2
100
AcDbPolyline
 90
        2
 70
     0
 43
0.0
 10
11.73548705915639
 20
19.46903201153546
 10
11.58148627328178
 20
19.49618632614658
  0
LWPOLYLINE
  5
5079
330
18
100
AcDbEntity
  8
500
  6
L10
 62
     2
100
AcDbPolyline
 90
        2
 70
     0
 43
0.0
 10
11.73183980237904
 20
19.44835055239931
 10
11.57784043071798
 20
19.47550486701044
  0
CIRCLE
  5
507A
330
18
100
AcDbEntity
  8
500
  6
L10
 62
     2
100
AcDbCircle
 10
11.67376724376053
 20
19.30869484179462
 30
0.0
 40
0.06
  0
LWPOLYLINE
  5
507B
330
18
100
AcDbEntity
  8
500
  6
L10
 62
     2
100
AcDbPolyline
 90
        2
 70
     0
 43
0.0
 10
11.73548705915639
 20
19.46903201153546
 42
0.4663090000000001
 10
11.83876778272328
 20
19.55569431153089
  0
LWPOLYLINE
  5
507C
330
18
100
AcDbEntity
  8
500
  6
L10
 62
     2
100
AcDbPolyline
 90
        2
 70
     0
 43
0.0
 10
11.48776775471687
 20
19.58284933324881
 42
0.363972
 10
11.57784043071798
 20
19.47550486701044
  0
LWPOLYLINE
  5
507D
330
18
100
AcDbEntity
  8
500
  6
L10
 62
     2
100
AcDbPolyline
 90
        2
 70
     0
 43
0.0
 10
11.50876811901134
 20
19.58284862614202
 42
0.363969
 10
11.58148627328178
 20
19.49618632614658
  0
LWPOLYLINE
  5
507F
330
18
100
AcDbEntity
  8
500
  6
L10
 62
     2
100
AcDbPolyline
 90
        2
 70
     0
 43
0.0
 10
11.85876759092236
 20
19.19069427636378
 10
11.48876831081226
 20
19.19069427636378
  0
MTEXT
  5
5097
330
18
100
AcDbEntity
  8
0
100
AcDbMText
 10
14.30986653350513
 20
18.28355553442658
 30
0.0
 40
0.125
 41
0.0
 71
     1
 72
     1
  1
D-SUB CONNECTOR\P26 PIN HD FEMALE
 73
     1
 44
1.0
  0
LEADER
  5
5099
330
18
100
AcDbEntity
  8
0
100
AcDbLeader
  3
STANDARD
 76
     3
 10
13.26972062295133
 20
19.13905421672686
 30
0.0
 10
14.00862625318737
 20
18.20191137091121
 30
0.0
 10
14.22737625318737
 20
18.20191137091121
 30
0.0
1001
ACAD
1000
DSTYLE
1002
{
1070
   147
1040
0.09
1070
    77
1070
     0
1070
    44
1040
0.125
1070
   140
1040
0.125
1002
}
  0
MTEXT
  5
509C
330
18
100
AcDbEntity
  8
0
100
AcDbMText
 10
12.19646101261545
 20
21.36572967929771
 30
0.0
 40
0.125
 41
0.0
 71
     1
 72
     1
  1
PVC BLACK OVERMOLD
 73
     1
 44
1.0
  0
LEADER
  5
509D
330
18
100
AcDbEntity
  8
0
100
AcDbLeader
  3
STANDARD
 76
     3
 10
14.78734625890012
 20
20.34115001522587
 30
0.0
 10
14.50862625318737
 20
21.29566137091121
 30
0.0
 10
14.38362625318737
 20
21.29566137091121
 30
0.0
1001
ACAD
1000
DSTYLE
1002
{
1070
   147
1040
0.09
1070
    77
1070
     0
1070
    44
1040
0.125
1070
   140
1040
0.125
1002
}
  0
MTEXT
  5
509E
330
18
100
AcDbEntity
  8
0
100
AcDbMText
 10
12.38891960105873
 20
18.18867019237697
 30
0.0
 40
0.125
 41
0.0
 71
     3
 72
     1
  1
LABEL CONNECTOR\PAS SHOWN 
 73
     1
 44
1.0
  0
LEADER
  5
509F
330
18
100
AcDbEntity
  8
0
100
AcDbLeader
  3
STANDARD
 76
     3
 10
13.30895202880781
 20
19.58463654563825
 30
0.0
 10
12.63362625318737
 20
18.10816137091121
 30
0.0
 10
12.44612625318737
 20
18.10816137091121
 30
0.0
1001
ACAD
1000
DSTYLE
1002
{
1070
   147
1040
0.09
1070
    77
1070
     0
1070
    44
1040
0.125
1070
   140
1040
0.125
1002
}
  0
TEXT
  5
50A0
330
18
100
AcDbEntity
  8
0
100
AcDbText
 10
9.885796303253133
 20
19.8306111902481
 30
0.0
 40
0.125
  1
FACE VIEW
100
AcDbText
  0
TEXT
  5
50A1
330
18
100
AcDbEntity
  8
0
100
AcDbText
 10
10.94246043338619
 20
20.32903279889568
 30
0.0
 40
0.125
  1
26
 72
     4
 11
11.06150805243381
 21
20.39153279889568
 31
0.0
100
AcDbText
  0
TEXT
  5
50A2
330
18
100
AcDbEntity
  8
0
100
AcDbText
 10
12.27304531549681
 20
20.22566116038994
 30
0.0
 40
0.125
  1
9
 72
     4
 11
12.32959293454443
 21
20.28816116038994
 31
0.0
100
AcDbText
  0
TEXT
  5
50A3
330
18
100
AcDbEntity
  8
0
100
AcDbText
 10
12.28536132665492
 20
19.56897110351986
 30
0.0
 40
0.125
  1
1
 72
     4
 11
12.33595656475016
 21
19.63147110351986
 31
0.0
100
AcDbText
  0
TEXT
  5
50A4
330
18
100
AcDbEntity
  8
0
100
AcDbText
 10
10.93899255386923
 20
19.56537827819939
 30
0.0
 40
0.125
  1
19
 72
     4
 11
11.06399255386923
 21
19.62787827819939
 31
0.0
100
AcDbText
  0
INSERT
  5
517C
330
18
100
AcDbEntity
  8
0
100
AcDbBlockReference
 66
     1
  2
ASSEMBLY_C
 10
8.333017992887789
 20
7.689530864144758
 30
0.0
  0
ATTRIB
  5
517E
330
517C
100
AcDbEntity
  8
Title Block
  6
Continuous
100
AcDbText
 10
25.75801799288778
 20
9.564530864144758
 30
0.0
 40
0.1010611419
  1
G. MUMM
100
AcDbAttribute
  2
GEN-TITLE-NAME{5}
 70
     0
  0
ATTRIB
  5
517F
330
517C
100
AcDbEntity
  8
Title Block
  6
Continuous
100
AcDbText
 10
25.75801799288778
 20
9.314530864144758
 30
0.0
 40
0.1010611419
  1

100
AcDbAttribute
  2
GEN-TITLE-CHKM{5}
 70
     0
  0
ATTRIB
  5
5180
330
517C
100
AcDbEntity
  8
Title Block
  6
Continuous
100
AcDbText
 10
25.75801799288778
 20
9.064530864144758
 30
0.0
 40
0.1010611419
  1

100
AcDbAttribute
  2
GEN-TITLE-APPM{5}
 70
     0
  0
ATTRIB
  5
5181
330
517C
100
AcDbEntity
  8
Title Block
  6
Continuous
100
AcDbText
 10
24.06142658766408
 20
8.575654390101048
 30
0.0
 40
0.14
  1
CABLE, BKOUT BD, I/O MMC-SD
 41
0.8
100
AcDbAttribute
  2
GEN-TITLE-DES1{15.54}
 70
     0
  0
ATTRIB
  5
5182
330
517C
100
AcDbEntity
  8
Title Block
  6
Continuous
100
AcDbText
 10
29.23301799288779
 20
9.064530864144758
 30
0.0
 40
0.11808994431015
  1
1
 41
0.8
100
AcDbAttribute
  2
GEN-TITLE-SHEET-OF{2.62}
 70
     0
  0
ATTRIB
  5
5183
330
517C
100
AcDbEntity
  8
Title Block
  6
Continuous
100
AcDbText
 10
28.83301799288778
 20
9.064530864144758
 30
0.0
 40
0.11808994431015
  1
1
 41
0.8
100
AcDbAttribute
  2
GEN-TITLE-SHEET{2.62}
 70
     0
  0
ATTRIB
  5
5184
330
517C
100
AcDbEntity
  8
Title Block
  6
Continuous
100
AcDbText
 10
27.28301799288779
 20
9.064530864144758
 30
0.0
 40
0.1010611419
  1

 41
0.8
100
AcDbAttribute
  2
GEN-TITLE-MAT{11.15}
 70
     0
  0
ATTRIB
  5
5185
330
517C
100
AcDbEntity
  8
Title Block
  6
Continuous
100
AcDbText
 10
27.28301799288779
 20
9.314530864144758
 30
0.0
 40
0.1010611419
  1

100
AcDbAttribute
  2
GEN-TITLE-MACH{5}
 70
     0
  0
ATTRIB
  5
5186
330
517C
100
AcDbEntity
  8
Title Block
  6
Continuous
100
AcDbText
 10
27.28301799288779
 20
9.564530864144758
 30
0.0
 40
0.1010611419
  1

100
AcDbAttribute
  2
GEN-TITLE-REF{5}
 70
     0
  0
ATTRIB
  5
5187
330
517C
100
AcDbEntity
  8
Title Block
  6
Continuous
100
AcDbText
 10
28.75801799288778
 20
9.314530864144758
 30
0.0
 40
0.1010611419
  1
16.06.03
100
AcDbAttribute
  2
GEN-TITLE-PLOT{5}
 70
     0
  0
ATTRIB
  5
5188
330
517C
100
AcDbEntity
  8
Title Block
  6
Continuous
100
AcDbText
 10
27.00574923467736
 20
8.582115140830104
 30
0.0
 40
0.14
  1
MD.1000.8495
 41
0.8
100
AcDbAttribute
  2
GEN-TITLE-NR{13.37}
 70
     0
  0
SEQEND
  5
517D
330
517C
100
AcDbEntity
  8
0
  0
MTEXT
  5
518B
330
18
100
AcDbEntity
  8
0
100
AcDbMText
 10
11.06423505264821
 20
16.48512774308033
 30
0.0
 40
0.125
 41
1.0602
 71
     1
 72
     5
  1
BKOUT\PP1
 73
     1
 44
1.0
  0
TEXT
  5
518C
330
18
100
AcDbEntity
  8
0
100
AcDbText
 10
16.56301796788778
 20
14.54761242760767
 30
0.0
 40
0.1050000525
  1
7
  7
ROMANS
 72
     1
 11
16.61301799288778
 21
14.60011245385767
 31
0.0
100
AcDbText
 73
     2
  0
TEXT
  5
518F
330
18
100
AcDbEntity
  8
0
100
AcDbText
 10
16.56301796788778
 20
14.12761074760769
 30
0.0
 40
0.1050000525
  1
8
  7
ROMANS
 72
     1
 11
16.61301799288778
 21
14.18011077385769
 31
0.0
100
AcDbText
 73
     2
  0
TEXT
  5
5190
330
18
100
AcDbEntity
  8
0
100
AcDbText
 10
16.56551796913778
 20
13.91761074760769
 30
0.0
 40
0.1050000525
  1
9
  7
ROMANS
 72
     1
 11
16.61301799288778
 21
13.97011077385769
 31
0.0
100
AcDbText
 73
     2
  0
TEXT
  5
5191
330
18
100
AcDbEntity
  8
0
100
AcDbText
 10
11.20801796788778
 20
14.12761106260769
 30
0.0
 40
0.1050000525
  1
8
  7
ROMANS
 72
     4
 11
11.25801799288778
 21
14.18011108885769
 31
0.0
100
AcDbText
  0
TEXT
  5
5192
330
18
100
AcDbEntity
  8
0
100
AcDbText
 10
11.21051796913778
 20
13.91761095760768
 30
0.0
 40
0.1050000525
  1
9
  7
ROMANS
 72
     4
 11
11.25801799288778
 21
13.97011098385768
 31
0.0
100
AcDbText
  0
TEXT
  5
5197
330
18
100
AcDbEntity
  8
0
100
AcDbText
 10
15.9316244597447
 20
13.99909446534944
 30
0.0
 40
0.084
  1
FAST1-
  7
ROMANS
 11
15.9316244597447
 21
14.04109446534944
 31
0.0
100
AcDbText
 73
     2
  0
LINE
  5
5199
330
18
100
AcDbEntity
  8
0
100
AcDbLine
 10
11.41551799288778
 20
13.53828243914481
 30
0.0
 11
16.45551799288778
 21
13.53828243914481
 31
0.0
  0
TEXT
  5
519A
330
18
100
AcDbEntity
  8
0
100
AcDbText
 10
13.63163167809303
 20
13.7955341191448
 30
0.0
 40
0.084
  1
YELLOW
  7
ROMANS
 72
     4
 11
13.86363167809303
 21
13.8375341191448
 31
0.0
100
AcDbText
  0
LINE
  5
519B
330
18
100
AcDbEntity
  8
0
100
AcDbLine
 10
11.41551799288777
 20
13.7482841191448
 30
0.0
 11
16.45551799288778
 21
13.7482841191448
 31
0.0
  0
TEXT
  5
519C
330
18
100
AcDbEntity
  8
0
100
AcDbText
 10
13.40763167809303
 20
13.5915341191448
 30
0.0
 40
0.084
  1
WHITE/YELLOW
  7
ROMANS
 72
     4
 11
13.86363167809303
 21
13.6275341191448
 31
0.0
100
AcDbText
  0
ARC
  5
519E
330
18
100
AcDbEntity
  8
0
100
AcDbCircle
 10
13.01676799288779
 20
13.53828411914479
 30
0.0
 40
0.065625
100
AcDbArc
 50
141.3178125465109
 51
38.68218745348999
  0
LINE
  5
519F
330
18
100
AcDbEntity
  8
0
100
AcDbLine
 10
12.96553949368217
 20
13.57929974414479
 30
0.0
 11
13.0679964920934
 21
13.7072684941448
 31
0.0
  0
LINE
  5
51A0
330
18
100
AcDbEntity
  8
0
100
AcDbLine
 10
13.0679964920934
 20
13.57929974414479
 30
0.0
 11
12.96553949368218
 21
13.7072684941448
 31
0.0
  0
ARC
  5
51A2
330
18
100
AcDbEntity
  8
0
100
AcDbCircle
 10
13.01676799288779
 20
13.7482841191448
 30
0.0
 40
0.065625
100
AcDbArc
 50
321.3178125465101
 51
218.68218745349
  0
TEXT
  5
51A3
330
18
100
AcDbEntity
  8
0
100
AcDbText
 10
15.9316244597447
 20
13.57909278534942
 30
0.0
 40
0.084
  1
FAST2-
  7
ROMANS
 11
15.9316244597447
 21
13.62109278534942
 31
0.0
100
AcDbText
 73
     2
  0
TEXT
  5
51A5
330
18
100
AcDbEntity
  8
0
100
AcDbText
 10
14.49708504724024
 20
13.57909446534941
 30
0.0
 40
0.084
  1
28AWG
  7
ROMANS
 72
     4
 11
14.70308504724024
 21
13.62109446534941
 31
0.0
100
AcDbText
  0
TEXT
  5
51A6
330
18
100
AcDbEntity
  8
0
100
AcDbText
 10
14.49708504724024
 20
13.78909446534941
 30
0.0
 40
0.084
  1
28AWG
  7
ROMANS
 72
     4
 11
14.70308504724024
 21
13.83109446534941
 31
0.0
100
AcDbText
  0
TEXT
  5
51A7
330
18
100
AcDbEntity
  8
0
100
AcDbText
 10
15.9316244597447
 20
13.7890944653494
 30
0.0
 40
0.084
  1
FAST2+
  7
ROMANS
 11
15.9316244597447
 21
13.8310944653494
 31
0.0
100
AcDbText
 73
     2
  0
TEXT
  5
51A9
330
18
100
AcDbEntity
  8
0
100
AcDbText
 10
11.15051793913773
 20
13.0776090676077
 30
0.0
 40
0.1050000525
  1
15
  7
ROMANS
 72
     4
 11
11.25801799288773
 21
13.1301090938577
 31
0.0
100
AcDbText
  0
TEXT
  5
51AA
330
18
100
AcDbEntity
  8
0
100
AcDbText
 10
11.14801793788775
 20
13.28760623260767
 30
0.0
 40
0.1050000525
  1
14
  7
ROMANS
 72
     4
 11
11.25801799288775
 21
13.34010625885767
 31
0.0
100
AcDbText
  0
TEXT
  5
51AB
330
18
100
AcDbEntity
  8
0
100
AcDbText
 10
11.16551794663776
 20
13.70760959260767
 30
0.0
 40
0.1050000525
  1
11
  7
ROMANS
 72
     4
 11
11.25801799288776
 21
13.76010961885767
 31
0.0
100
AcDbText
  0
TEXT
  5
51AC
330
18
100
AcDbEntity
  8
0
100
AcDbText
 10
11.15051793913774
 20
13.4976124276077
 30
0.0
 40
0.1050000525
  1
12
  7
ROMANS
 72
     4
 11
11.25801799288774
 21
13.5501124538577
 31
0.0
100
AcDbText
  0
TEXT
  5
51AD
330
18
100
AcDbEntity
  8
0
100
AcDbText
 10
16.52051794663778
 20
13.70760917260766
 30
0.0
 40
0.1050000525
  1
11
  7
ROMANS
 72
     1
 11
16.61301799288778
 21
13.76010919885766
 31
0.0
100
AcDbText
 73
     2
  0
TEXT
  5
51AE
330
18
100
AcDbEntity
  8
0
100
AcDbText
 10
16.50551793913778
 20
13.49760996010769
 30
0.0
 40
0.1050000525
  1
12
  7
ROMANS
 72
     1
 11
16.61301799288778
 21
13.55010998635769
 31
0.0
100
AcDbText
 73
     2
  0
TEXT
  5
51B5
330
18
100
AcDbEntity
  8
0
100
AcDbText
 10
11.15051793913773
 20
14.33761578760775
 30
0.0
 40
0.1050000525
  1
13
  7
ROMANS
 72
     4
 11
11.25801799288773
 21
14.39011581385775
 31
0.0
100
AcDbText
  0
TEXT
  5
51B6
330
18
100
AcDbEntity
  8
0
100
AcDbText
 10
16.50551793913778
 20
14.33761332010774
 30
0.0
 40
0.1050000525
  1
13
  7
ROMANS
 72
     1
 11
16.61301799288778
 21
14.39011334635774
 31
0.0
100
AcDbText
 73
     2
  0
TEXT
  5
51C0
330
18
100
AcDbEntity
  8
0
100
AcDbText
 10
13.71763167809302
 20
12.53552739914475
 30
0.0
 40
0.084
  1
PINK
  7
ROMANS
 72
     4
 11
13.86363167809302
 21
12.57752739914475
 31
0.0
100
AcDbText
  0
TEXT
  5
51C1
330
18
100
AcDbEntity
  8
0
100
AcDbText
 10
13.49963167809302
 20
12.33152571914473
 30
0.0
 40
0.084
  1
WHITE/PINK
  7
ROMANS
 72
     4
 11
13.86363167809302
 21
12.36752571914473
 31
0.0
100
AcDbText
  0
LINE
  5
51C2
330
18
100
AcDbEntity
  8
0
100
AcDbLine
 10
11.41551799288777
 20
12.27827571914473
 30
0.0
 11
16.45551799288777
 21
12.27827571914473
 31
0.0
  0
LINE
  5
51C3
330
18
100
AcDbEntity
  8
0
100
AcDbLine
 10
11.41551799288776
 20
12.48827739914475
 30
0.0
 11
16.45551799288777
 21
12.48827739914475
 31
0.0
  0
TEXT
  5
51C4
330
18
100
AcDbEntity
  8
0
100
AcDbText
 10
11.15801794288776
 20
12.23760570760767
 30
0.0
 40
0.1050000525
  1
20
  7
ROMANS
 72
     4
 11
11.25801799288776
 21
12.29010573385767
 31
0.0
100
AcDbText
  0
TEXT
  5
51C5
330
18
100
AcDbEntity
  8
0
100
AcDbText
 10
11.15301794038778
 20
12.44760287260764
 30
0.0
 40
0.1050000525
  1
19
  7
ROMANS
 72
     4
 11
11.25801799288778
 21
12.50010289885764
 31
0.0
100
AcDbText
  0
ARC
  5
51C6
330
18
100
AcDbEntity
  8
0
100
AcDbCircle
 10
13.01676799288778
 20
12.27827739914476
 30
0.0
 40
0.065625
100
AcDbArc
 50
141.3178125465109
 51
38.68218745348999
  0
LINE
  5
51C7
330
18
100
AcDbEntity
  8
0
100
AcDbLine
 10
13.06799649209338
 20
12.31929302414476
 30
0.0
 11
12.96553949368217
 21
12.44726177414476
 31
0.0
  0
LINE
  5
51C8
330
18
100
AcDbEntity
  8
0
100
AcDbLine
 10
12.96553949368216
 20
12.31929302414476
 30
0.0
 11
13.06799649209338
 21
12.44726177414476
 31
0.0
  0
ARC
  5
51C9
330
18
100
AcDbEntity
  8
0
100
AcDbCircle
 10
13.01676799288778
 20
12.48827739914476
 30
0.0
 40
0.065625
100
AcDbArc
 50
321.3178125465101
 51
218.68218745349
  0
TEXT
  5
51CA
330
18
100
AcDbEntity
  8
0
100
AcDbText
 10
14.49708504724023
 20
12.31908942534939
 30
0.0
 40
0.084
  1
28AWG
  7
ROMANS
 72
     4
 11
14.70308504724023
 21
12.36108942534939
 31
0.0
100
AcDbText
  0
TEXT
  5
51CB
330
18
100
AcDbEntity
  8
0
100
AcDbText
 10
14.49708504724023
 20
12.52908942534938
 30
0.0
 40
0.084
  1
28AWG
  7
ROMANS
 72
     4
 11
14.70308504724023
 21
12.57108942534938
 31
0.0
100
AcDbText
  0
TEXT
  5
51CC
330
18
100
AcDbEntity
  8
0
100
AcDbText
 10
15.93162445974469
 20
12.3190927853494
 30
0.0
 40
0.084
  1
IN4
  7
ROMANS
 11
15.93162445974469
 21
12.3610927853494
 31
0.0
100
AcDbText
 73
     2
  0
TEXT
  5
51CD
330
18
100
AcDbEntity
  8
0
100
AcDbText
 10
16.51301794288777
 20
12.23760402760763
 30
0.0
 40
0.1050000525
  1
20
  7
ROMANS
 72
     1
 11
16.61301799288777
 21
12.29010405385763
 31
0.0
100
AcDbText
 73
     2
  0
TEXT
  5
51CE
330
18
100
AcDbEntity
  8
0
100
AcDbText
 10
16.50801794038777
 20
12.44760402760765
 30
0.0
 40
0.1050000525
  1
19
  7
ROMANS
 72
     1
 11
16.61301799288777
 21
12.50010405385765
 31
0.0
100
AcDbText
 73
     2
  0
TEXT
  5
51CF
330
18
100
AcDbEntity
  8
0
100
AcDbText
 10
15.93162445974469
 20
12.5290927853494
 30
0.0
 40
0.084
  1
IN3
  7
ROMANS
 11
15.93162445974469
 21
12.5710927853494
 31
0.0
100
AcDbText
 73
     2
  0
LINE
  5
51D0
330
18
100
AcDbEntity
  8
0
100
AcDbLine
 10
11.41551799288776
 20
12.06827571914473
 30
0.0
 11
16.45551799288777
 21
12.06827571914473
 31
0.0
  0
LINE
  5
51D1
330
18
100
AcDbEntity
  8
0
100
AcDbLine
 10
11.41551799288777
 20
11.85827403914471
 30
0.0
 11
16.45551799288777
 21
11.85827403914471
 31
0.0
  0
TEXT
  5
51D2
330
18
100
AcDbEntity
  8
0
100
AcDbText
 10
13.57363167809302
 20
11.91152403914471
 30
0.0
 40
0.084
  1
GRY/GRN
  7
ROMANS
 72
     4
 11
13.86363167809302
 21
11.94752403914471
 31
0.0
100
AcDbText
  0
TEXT
  5
51D3
330
18
100
AcDbEntity
  8
0
100
AcDbText
 10
13.58763167809302
 20
12.12152571914473
 30
0.0
 40
0.084
  1
BLK/YEL
  7
ROMANS
 72
     4
 11
13.86363167809302
 21
12.15752571914473
 31
0.0
100
AcDbText
  0
TEXT
  5
51D4
330
18
100
AcDbEntity
  8
0
100
AcDbText
 10
11.17301795038778
 20
12.02760119260761
 30
0.0
 40
0.1050000525
  1
21
  7
ROMANS
 72
     4
 11
11.25801799288778
 21
12.08010121885761
 31
0.0
100
AcDbText
  0
TEXT
  5
51D5
330
18
100
AcDbEntity
  8
0
100
AcDbText
 10
11.15801794288776
 20
11.81760402760764
 30
0.0
 40
0.1050000525
  1
22
  7
ROMANS
 72
     4
 11
11.25801799288776
 21
11.87010405385764
 31
0.0
100
AcDbText
  0
LINE
  5
51D6
330
18
100
AcDbEntity
  8
0
100
AcDbLine
 10
12.96553949368216
 20
11.89929134414474
 30
0.0
 11
13.06799649209338
 21
12.02726009414474
 31
0.0
  0
LINE
  5
51D7
330
18
100
AcDbEntity
  8
0
100
AcDbLine
 10
13.06799649209338
 20
11.89929134414474
 30
0.0
 11
12.96553949368217
 21
12.02726009414474
 31
0.0
  0
ARC
  5
51D8
330
18
100
AcDbEntity
  8
0
100
AcDbCircle
 10
13.01676799288778
 20
11.85827571914474
 30
0.0
 40
0.065625
100
AcDbArc
 50
141.3178125465109
 51
38.68218745348999
  0
ARC
  5
51D9
330
18
100
AcDbEntity
  8
0
100
AcDbCircle
 10
13.01676799288778
 20
12.06827571914474
 30
0.0
 40
0.065625
100
AcDbArc
 50
321.3178125465101
 51
218.68218745349
  0
TEXT
  5
51DA
330
18
100
AcDbEntity
  8
0
100
AcDbText
 10
14.49708504724023
 20
12.10908774534936
 30
0.0
 40
0.084
  1
28AWG
  7
ROMANS
 72
     4
 11
14.70308504724023
 21
12.15108774534936
 31
0.0
100
AcDbText
  0
TEXT
  5
51DB
330
18
100
AcDbEntity
  8
0
100
AcDbText
 10
14.49708504724023
 20
11.89908774534937
 30
0.0
 40
0.084
  1
28AWG
  7
ROMANS
 72
     4
 11
14.70308504724023
 21
11.94108774534937
 31
0.0
100
AcDbText
  0
TEXT
  5
51DC
330
18
100
AcDbEntity
  8
0
100
AcDbText
 10
16.52801795038777
 20
12.02760234760762
 30
0.0
 40
0.1050000525
  1
21
  7
ROMANS
 72
     1
 11
16.61301799288777
 21
12.08010237385762
 31
0.0
100
AcDbText
 73
     2
  0
TEXT
  5
51DD
330
18
100
AcDbEntity
  8
0
100
AcDbText
 10
16.51301794288777
 20
11.81760234760761
 30
0.0
 40
0.1050000525
  1
22
  7
ROMANS
 72
     1
 11
16.61301799288777
 21
11.87010237385761
 31
0.0
100
AcDbText
 73
     2
  0
TEXT
  5
51DE
330
18
100
AcDbEntity
  8
0
100
AcDbText
 10
15.93162445974469
 20
11.89909110534937
 30
0.0
 40
0.084
  1
IN6
  7
ROMANS
 11
15.93162445974469
 21
11.94109110534937
 31
0.0
100
AcDbText
 73
     2
  0
TEXT
  5
51DF
330
18
100
AcDbEntity
  8
0
100
AcDbText
 10
15.93162445974469
 20
12.10909110534938
 30
0.0
 40
0.084
  1
IN5
  7
ROMANS
 11
15.93162445974469
 21
12.15109110534938
 31
0.0
100
AcDbText
 73
     2
  0
TEXT
  5
51EC
330
18
100
AcDbEntity
  8
0
100
AcDbText
 10
13.58163167809302
 20
11.28152235914468
 30
0.0
 40
0.084
  1
GRY/BLU
  7
ROMANS
 72
     4
 11
13.86363167809302
 21
11.31752235914468
 31
0.0
100
AcDbText
  0
TEXT
  5
51ED
330
18
100
AcDbEntity
  8
0
100
AcDbText
 10
13.59763167809302
 20
11.07152067914466
 30
0.0
 40
0.084
  1
YEL/BLU
  7
ROMANS
 72
     4
 11
13.86363167809302
 21
11.10752067914466
 31
0.0
100
AcDbText
  0
LINE
  5
51EE
330
18
100
AcDbEntity
  8
0
100
AcDbLine
 10
11.41551799288777
 20
11.01827067914466
 30
0.0
 11
16.45551799288777
 21
11.01827067914466
 31
0.0
  0
LINE
  5
51EF
330
18
100
AcDbEntity
  8
0
100
AcDbLine
 10
11.41551799288776
 20
11.22827235914468
 30
0.0
 11
16.45551799288777
 21
11.22827235914468
 31
0.0
  0
LINE
  5
51F0
330
18
100
AcDbEntity
  8
0
100
AcDbLine
 10
11.41551799288776
 20
11.64827403914471
 30
0.0
 11
16.45551799288777
 21
11.64827403914471
 31
0.0
  0
LINE
  5
51F1
330
18
100
AcDbEntity
  8
0
100
AcDbLine
 10
11.41551799288777
 20
11.43827235914468
 30
0.0
 11
16.45551799288777
 21
11.43827235914468
 31
0.0
  0
TEXT
  5
51F2
330
18
100
AcDbEntity
  8
0
100
AcDbText
 10
13.59363167809302
 20
11.49152235914469
 30
0.0
 40
0.084
  1
YEL/RED
  7
ROMANS
 72
     4
 11
13.86363167809302
 21
11.52752235914469
 31
0.0
100
AcDbText
  0
TEXT
  5
51F3
330
18
100
AcDbEntity
  8
0
100
AcDbText
 10
13.56963167809302
 20
11.70152403914471
 30
0.0
 40
0.084
  1
GRN/RED
  7
ROMANS
 72
     4
 11
13.86363167809302
 21
11.7375240391447
 31
0.0
100
AcDbText
  0
TEXT
  5
51F4
330
18
100
AcDbEntity
  8
0
100
AcDbText
 10
11.15801794288776
 20
10.9776006676076
 30
0.0
 40
0.1050000525
  1
26
  7
ROMANS
 72
     4
 11
11.25801799288776
 21
11.0301006938576
 31
0.0
100
AcDbText
  0
TEXT
  5
51F5
330
18
100
AcDbEntity
  8
0
100
AcDbText
 10
11.15801794288778
 20
11.18759783260757
 30
0.0
 40
0.1050000525
  1
25
  7
ROMANS
 72
     4
 11
11.25801799288778
 21
11.24009785885757
 31
0.0
100
AcDbText
  0
TEXT
  5
51F6
330
18
100
AcDbEntity
  8
0
100
AcDbText
 10
11.15551794163776
 20
11.39760234760762
 30
0.0
 40
0.1050000525
  1
24
  7
ROMANS
 72
     4
 11
11.25801799288776
 21
11.45010237385762
 31
0.0
100
AcDbText
  0
TEXT
  5
51F7
330
18
100
AcDbEntity
  8
0
100
AcDbText
 10
11.15801794288778
 20
11.60759951260759
 30
0.0
 40
0.1050000525
  1
23
  7
ROMANS
 72
     4
 11
11.25801799288778
 21
11.66009953885759
 31
0.0
100
AcDbText
  0
ARC
  5
51F8
330
18
100
AcDbEntity
  8
0
100
AcDbCircle
 10
13.01676799288778
 20
11.22827235914469
 30
0.0
 40
0.065625
100
AcDbArc
 50
321.3178125465101
 51
218.68218745349
  0
LINE
  5
51F9
330
18
100
AcDbEntity
  8
0
100
AcDbLine
 10
13.06799649209338
 20
11.05928798414469
 30
0.0
 11
12.96553949368217
 21
11.18725673414469
 31
0.0
  0
LINE
  5
51FA
330
18
100
AcDbEntity
  8
0
100
AcDbLine
 10
12.96553949368216
 20
11.05928798414469
 30
0.0
 11
13.06799649209338
 21
11.18725673414469
 31
0.0
  0
ARC
  5
51FB
330
18
100
AcDbEntity
  8
0
100
AcDbCircle
 10
13.01676799288778
 20
11.0182723591447
 30
0.0
 40
0.065625
100
AcDbArc
 50
141.3178125465109
 51
38.68218745348999
  0
LINE
  5
51FC
330
18
100
AcDbEntity
  8
0
100
AcDbLine
 10
12.96553949368216
 20
11.47928966414472
 30
0.0
 11
13.06799649209338
 21
11.60725841414472
 31
0.0
  0
LINE
  5
51FD
330
18
100
AcDbEntity
  8
0
100
AcDbLine
 10
13.06799649209338
 20
11.47928966414472
 30
0.0
 11
12.96553949368217
 21
11.60725841414472
 31
0.0
  0
ARC
  5
51FE
330
18
100
AcDbEntity
  8
0
100
AcDbCircle
 10
13.01676799288778
 20
11.43827403914472
 30
0.0
 40
0.065625
100
AcDbArc
 50
141.3178125465109
 51
38.68218745348999
  0
ARC
  5
51FF
330
18
100
AcDbEntity
  8
0
100
AcDbCircle
 10
13.01676799288778
 20
11.64827403914472
 30
0.0
 40
0.065625
100
AcDbArc
 50
321.3178125465101
 51
218.68218745349
  0
TEXT
  5
5200
330
18
100
AcDbEntity
  8
0
100
AcDbText
 10
14.49708504724023
 20
11.05908438534932
 30
0.0
 40
0.084
  1
28AWG
  7
ROMANS
 72
     4
 11
14.70308504724023
 21
11.10108438534932
 31
0.0
100
AcDbText
  0
TEXT
  5
5201
330
18
100
AcDbEntity
  8
0
100
AcDbText
 10
14.49708504724023
 20
11.26908438534931
 30
0.0
 40
0.084
  1
28AWG
  7
ROMANS
 72
     4
 11
14.70308504724023
 21
11.31108438534931
 31
0.0
100
AcDbText
  0
TEXT
  5
5202
330
18
100
AcDbEntity
  8
0
100
AcDbText
 10
14.49708504724023
 20
11.68908606534933
 30
0.0
 40
0.084
  1
28AWG
  7
ROMANS
 72
     4
 11
14.70308504724023
 21
11.73108606534933
 31
0.0
100
AcDbText
  0
TEXT
  5
5203
330
18
100
AcDbEntity
  8
0
100
AcDbText
 10
14.49708504724023
 20
11.47908606534934
 30
0.0
 40
0.084
  1
28AWG
  7
ROMANS
 72
     4
 11
14.70308504724023
 21
11.52108606534934
 31
0.0
100
AcDbText
  0
TEXT
  5
5204
330
18
100
AcDbEntity
  8
0
100
AcDbText
 10
16.51301794288777
 20
10.97759898760757
 30
0.0
 40
0.1050000525
  1
26
  7
ROMANS
 72
     1
 11
16.61301799288777
 21
11.03009901385757
 31
0.0
100
AcDbText
 73
     2
  0
TEXT
  5
5205
330
18
100
AcDbEntity
  8
0
100
AcDbText
 10
16.51051794163777
 20
11.39760066760759
 30
0.0
 40
0.1050000525
  1
24
  7
ROMANS
 72
     1
 11
16.61301799288777
 21
11.45010069385759
 31
0.0
100
AcDbText
 73
     2
  0
TEXT
  5
5206
330
18
100
AcDbEntity
  8
0
100
AcDbText
 10
16.51301794288777
 20
11.6076006676076
 30
0.0
 40
0.1050000525
  1
23
  7
ROMANS
 72
     1
 11
16.61301799288777
 21
11.6601006938576
 31
0.0
100
AcDbText
 73
     2
  0
TEXT
  5
5207
330
18
100
AcDbEntity
  8
0
100
AcDbText
 10
15.93162445974469
 20
11.05908774534933
 30
0.0
 40
0.084
  1
OUT4
  7
ROMANS
 11
15.93162445974469
 21
11.10108774534933
 31
0.0
100
AcDbText
 73
     2
  0
TEXT
  5
5208
330
18
100
AcDbEntity
  8
0
100
AcDbText
 10
15.93162445974469
 20
11.47908942534935
 30
0.0
 40
0.084
  1
OUT2
  7
ROMANS
 11
15.93162445974469
 21
11.52108942534935
 31
0.0
100
AcDbText
 73
     2
  0
TEXT
  5
5209
330
18
100
AcDbEntity
  8
0
100
AcDbText
 10
15.93162445974469
 20
11.26908774534933
 30
0.0
 40
0.084
  1
OUT3
  7
ROMANS
 11
15.93162445974469
 21
11.31108774534933
 31
0.0
100
AcDbText
 73
     2
  0
TEXT
  5
520A
330
18
100
AcDbEntity
  8
0
100
AcDbText
 10
15.93162445974469
 20
11.68908942534936
 30
0.0
 40
0.084
  1
OUT1
  7
ROMANS
 11
15.93162445974469
 21
11.73108942534936
 31
0.0
100
AcDbText
 73
     2
  0
TEXT
  5
520B
330
18
100
AcDbEntity
  8
0
100
AcDbText
 10
16.51301794288777
 20
11.18759898760758
 30
0.0
 40
0.1050000525
  1
25
  7
ROMANS
 72
     1
 11
16.61301799288777
 21
11.24009901385758
 31
0.0
100
AcDbText
 73
     2
  0
LINE
  5
521C
330
18
100
AcDbEntity
  8
0
100
AcDbLine
 10
11.41551799288778
 20
14.37828579914485
 30
0.0
 11
16.45551799288778
 21
14.37828579914485
 31
0.0
  0
LINE
  5
521D
330
18
100
AcDbEntity
  8
0
100
AcDbLine
 10
11.41551799288777
 20
14.58828747914484
 30
0.0
 11
16.45551799288778
 21
14.58828747914484
 31
0.0
  0
TEXT
  5
521E
330
18
100
AcDbEntity
  8
0
100
AcDbText
 10
14.49708504724024
 20
14.41909782534946
 30
0.0
 40
0.084
  1
28AWG
  7
ROMANS
 72
     4
 11
14.70308504724024
 21
14.46109782534946
 31
0.0
100
AcDbText
  0
TEXT
  5
521F
330
18
100
AcDbEntity
  8
0
100
AcDbText
 10
14.49708504724024
 20
14.62909782534945
 30
0.0
 40
0.084
  1
28AWG
  7
ROMANS
 72
     4
 11
14.70308504724024
 21
14.67109782534945
 31
0.0
100
AcDbText
  0
TEXT
  5
5220
330
18
100
AcDbEntity
  8
0
100
AcDbText
 10
13.61563167809303
 20
14.63553747914484
 30
0.0
 40
0.084
  1
ORANGE
  7
ROMANS
 72
     4
 11
13.86363167809303
 21
14.67753747914484
 31
0.0
100
AcDbText
  0
TEXT
  5
5221
330
18
100
AcDbEntity
  8
0
100
AcDbText
 10
13.39563167809303
 20
14.43153747914484
 30
0.0
 40
0.084
  1
WHITE/ORANGE
  7
ROMANS
 72
     4
 11
13.86363167809303
 21
14.46753747914484
 31
0.0
100
AcDbText
  0
LINE
  5
5222
330
18
100
AcDbEntity
  8
0
100
AcDbLine
 10
12.96553949368217
 20
14.41930310414483
 30
0.0
 11
13.0679964920934
 21
14.54727185414484
 31
0.0
  0
LINE
  5
5223
330
18
100
AcDbEntity
  8
0
100
AcDbLine
 10
13.0679964920934
 20
14.41930310414483
 30
0.0
 11
12.96553949368218
 21
14.54727185414484
 31
0.0
  0
ARC
  5
5224
330
18
100
AcDbEntity
  8
0
100
AcDbCircle
 10
13.01676799288779
 20
14.58828747914484
 30
0.0
 40
0.065625
100
AcDbArc
 50
321.3178125465101
 51
218.68218745349
  0
ARC
  5
5225
330
18
100
AcDbEntity
  8
0
100
AcDbCircle
 10
13.01676799288779
 20
14.37828747914483
 30
0.0
 40
0.065625
100
AcDbArc
 50
141.3178125465109
 51
38.68218745348999
  0
TEXT
  5
5226
330
18
100
AcDbEntity
  8
0
100
AcDbText
 10
15.9316244597447
 20
14.41909614534946
 30
0.0
 40
0.084
  1
SHIELD
  7
ROMANS
 11
15.9316244597447
 21
14.46109614534946
 31
0.0
100
AcDbText
 73
     2
  0
TEXT
  5
5227
330
18
100
AcDbEntity
  8
0
100
AcDbText
 10
15.9316244597447
 20
14.62909782534945
 30
0.0
 40
0.084
  1
SHIELD
  7
ROMANS
 11
15.9316244597447
 21
14.67109782534945
 31
0.0
100
AcDbText
 73
     2
  0
MTEXT
  5
52BD
330
18
100
AcDbEntity
  8
0
100
AcDbMText
 10
21.3046366928087
 20
14.79181602826456
 30
0.0
 40
0.1
 41
5.652499999999999
 71
     1
 72
     5
  3
SPECIFICATIONS:\P\P1. LABEL CABLE AND CONNECTORS AS SHOWN.\P\P2. INSPECT FOR SHORTS. CONNECTIVITY MUST CONFORM TO WIRING DIAGRAM.\P\P3. PACKAGE PER MD.1000.5034 PACKAGING SPECIFICATION.\P\P4. WIRING DIAGRAM SHOWING PIN ORIENTATION AND COLOR CODE MUST
  1
 BE INCLUDED IN BOX.\P\P5. CHANGES TO THESE SPECIFICATIONS MUST BE APPROVED, IN WRITING, BY THE G&L Motion Control ENGINEERING DEPARTMENT.
 73
     1
 44
1.0
  0
LINE
  5
52BE
330
18
100
AcDbEntity
  8
0
 62
     4
100
AcDbLine
 10
29.59177621629917
 20
10.67749072695785
 30
0.0
 11
21.30899158204758
 21
10.67749072695784
 31
0.0
  0
LINE
  5
52BF
330
18
100
AcDbEntity
  8
0
 62
     4
100
AcDbLine
 10
29.59177621629917
 20
11.67749072695784
 30
0.0
 11
21.30899158204758
 21
11.67749072695784
 31
0.0
  0
LINE
  5
52C0
330
18
100
AcDbEntity
  8
0
 62
     4
100
AcDbLine
 10
29.59177621629917
 20
11.42749072695784
 30
0.0
 11
21.30899158204758
 21
11.42749072695784
 31
0.0
  0
LINE
  5
52C1
330
18
100
AcDbEntity
  8
0
 62
     4
100
AcDbLine
 10
29.59177621629917
 20
11.17749072695785
 30
0.0
 11
21.30899158204758
 21
11.17749072695784
 31
0.0
  0
LINE
  5
52C2
330
18
100
AcDbEntity
  8
0
 62
     4
100
AcDbLine
 10
29.59177621629917
 20
10.92749072695785
 30
0.0
 11
21.30899158204758
 21
10.92749072695784
 31
0.0
  0
LINE
  5
52C3
330
18
100
AcDbEntity
  8
0
 62
     4
100
AcDbLine
 10
29.59177621629917
 20
12.17749072695783
 30
0.0
 11
21.30899158204758
 21
12.17749072695783
 31
0.0
  0
LINE
  5
52C4
330
18
100
AcDbEntity
  8
0
 62
     4
100
AcDbLine
 10
21.30899158204758
 20
10.67749072695784
 30
0.0
 11
21.30899158204758
 21
12.17749072695783
 31
0.0
  0
LINE
  5
52C5
330
18
100
AcDbEntity
  8
0
 62
     4
100
AcDbLine
 10
23.18399158204759
 20
10.67749072695784
 30
0.0
 11
23.18399158204758
 21
12.17749072695783
 31
0.0
  0
LINE
  5
52C6
330
18
100
AcDbEntity
  8
0
 62
     4
100
AcDbLine
 10
24.43399158204758
 20
10.67749072695784
 30
0.0
 11
24.43399158204758
 21
12.17749072695783
 31
0.0
  0
TEXT
  5
52CA
330
18
100
AcDbEntity
  8
0
100
AcDbText
 10
21.57403221650309
 20
11.75190894399522
 30
0.0
 40
0.125
  1
PART NUMBER
  7
ROMANS
 72
     1
 11
22.24962745459833
 21
11.75190894399522
 31
0.0
100
AcDbText
  0
TEXT
  5
52CB
330
18
100
AcDbEntity
  8
0
100
AcDbText
 10
21.70602552838562
 20
11.23983158537096
 30
0.0
 40
0.125
  1
Pxxxxx-M3
  7
ROMANS
 72
     1
 11
22.23281124267133
 21
11.23983158537096
 31
0.0
100
AcDbText
  0
TEXT
  5
52CC
330
18
100
AcDbEntity
  8
0
100
AcDbText
 10
21.70900171886181
 20
10.98983158537097
 30
0.0
 40
0.125
  1
Pxxxxx-M9
  7
ROMANS
 72
     1
 11
22.23281124267133
 21
10.98983158537097
 31
0.0
100
AcDbText
  0
TEXT
  5
52CD
330
18
100
AcDbEntity
  8
0
100
AcDbText
 10
21.72388267124276
 20
11.48983158537095
 30
0.0
 40
0.125
  1
Pxxxxx-M1
  7
ROMANS
 72
     1
 11
22.23281124267133
 21
11.48983158537095
 31
0.0
100
AcDbText
  0
TEXT
  5
52CE
330
18
100
AcDbEntity
  8
0
100
AcDbText
 10
21.71093697840785
 20
11.94442600601691
 30
0.0
 40
0.125
  1
REFERENCE
  7
ROMANS
 72
     1
 11
22.24962745459833
 21
11.94442600601691
 31
0.0
100
AcDbText
  0
TEXT
  5
52CF
330
18
100
AcDbEntity
  8
0
100
AcDbText
 10
23.21970586776187
 20
11.75190894399522
 30
0.0
 40
0.125
  1
(IN METERS)
  7
ROMANS
 72
     1
 11
23.80899158204758
 21
11.75190894399522
 31
0.0
100
AcDbText
  0
TEXT
  5
52D0
330
18
100
AcDbEntity
  8
0
100
AcDbText
 10
23.4607772963333
 20
11.94442600601691
 30
0.0
 40
0.125
  1
LENGTH
  7
ROMANS
 72
     1
 11
23.80899158204758
 21
11.94442600601691
 31
0.0
100
AcDbText
  0
TEXT
  5
52D1
330
18
100
AcDbEntity
  8
0
100
AcDbText
 10
23.75839634395235
 20
11.48983158537095
 30
0.0
 40
0.125
  1
1
  7
ROMANS
 72
     1
 11
23.80899158204758
 21
11.48983158537095
 31
0.0
100
AcDbText
  0
TEXT
  5
52D2
330
18
100
AcDbEntity
  8
0
100
AcDbText
 10
23.75244396299997
 20
10.98983158537096
 30
0.0
 40
0.125
  1
9
  7
ROMANS
 72
     1
 11
23.80899158204758
 21
10.98983158537096
 31
0.0
100
AcDbText
  0
TEXT
  5
52D3
330
18
100
AcDbEntity
  8
0
100
AcDbText
 10
23.74946777252378
 20
11.23983158537096
 30
0.0
 40
0.125
  1
3
  7
ROMANS
 72
     1
 11
23.80899158204758
 21
11.23983158537096
 31
0.0
100
AcDbText
  0
TEXT
  5
52D4
330
18
100
AcDbEntity
  8
0
100
AcDbText
 10
24.82387253442854
 20
10.98983158537096
 30
0.0
 40
0.125
  1
M.1302.6985
  7
ROMANS
 72
     1
 11
25.43399158204759
 21
10.98983158537096
 31
0.0
100
AcDbText
  0
TEXT
  5
52D5
330
18
100
AcDbEntity
  8
0
100
AcDbText
 10
24.82089634395235
 20
11.23983158537096
 30
0.0
 40
0.125
  1
M.1302.6984
  7
ROMANS
 72
     1
 11
25.43399158204759
 21
11.23983158537096
 31
0.0
100
AcDbText
  0
TEXT
  5
52D6
330
18
100
AcDbEntity
  8
0
100
AcDbText
 10
24.82387253442854
 20
11.48983158537095
 30
0.0
 40
0.125
  1
M.1302.6982
  7
ROMANS
 72
     1
 11
25.43399158204759
 21
11.48983158537095
 31
0.0
100
AcDbText
  0
TEXT
  5
52D7
330
18
100
AcDbEntity
  8
0
100
AcDbText
 10
24.75839634395235
 20
11.75190894399522
 30
0.0
 40
0.125
  1
PART NUMBER
  7
ROMANS
 72
     1
 11
25.43399158204759
 21
11.75190894399522
 31
0.0
100
AcDbText
  0
TEXT
  5
52D8
330
18
100
AcDbEntity
  8
0
100
AcDbText
 10
24.95184872490473
 20
11.94442600601691
 30
0.0
 40
0.125
  1
G&L Motion Control
  7
ROMANS
 72
     1
 11
25.43399158204759
 21
11.94442600601691
 31
0.0
100
AcDbText
  0
LINE
  5
52DA
330
18
100
AcDbEntity
  8
0
 62
     4
100
AcDbLine
 10
26.43399158204758
 20
10.67749072695785
 30
0.0
 11
26.43399158204759
 21
12.17749072695783
 31
0.0
  0
LINE
  5
52DB
330
18
100
AcDbEntity
  8
0
 62
     4
100
AcDbLine
 10
29.59177621629917
 20
10.67749072695785
 30
0.0
 11
29.59177621629917
 21
12.17749072695783
 31
0.0
  0
TEXT
  5
52DC
330
18
100
AcDbEntity
  8
0
100
AcDbText
 10
26.59813679519087
 20
10.98983158537093
 30
0.0
 40
0.125
  1
BKOUT BD, I/O, MMC-SD 9M
 41
0.95
  7
ROMANS
 72
     1
 11
27.95527965233373
 21
10.98983158537093
 31
0.0
100
AcDbText
  0
TEXT
  5
52DD
330
18
100
AcDbEntity
  8
0
100
AcDbText
 10
26.59813679519088
 20
11.23983158537095
 30
0.0
 40
0.125
  1
BKOUT BD, I/O, MMC-SD 3M
 41
0.95
  7
ROMANS
 72
     1
 11
27.95527965233373
 21
11.23983158537095
 31
0.0
100
AcDbText
  0
TEXT
  5
52DE
330
18
100
AcDbEntity
  8
0
100
AcDbText
 10
26.91911062966665
 20
11.75190894399522
 30
0.0
 40
0.125
  1
SHORT DESCRIPTION
  7
ROMANS
 72
     1
 11
27.8714915820476
 21
11.75190894399522
 31
0.0
100
AcDbText
  0
TEXT
  5
52DF
330
18
100
AcDbEntity
  8
0
100
AcDbText
 10
26.59813679519087
 20
11.48983158537095
 30
0.0
 40
0.125
  1
BKOUT BD, I/O, MMC-SD 1M
 41
0.95
  7
ROMANS
 72
     1
 11
27.95527965233373
 21
11.48983158537095
 31
0.0
100
AcDbText
  0
TEXT
  5
52E0
330
18
100
AcDbEntity
  8
0
100
AcDbText
 10
26.77030110585713
 20
11.94442600601691
 30
0.0
 40
0.125
  1
G&L Motion Control
  7
ROMANS
 72
     1
 11
27.8714915820476
 21
11.94442600601691
 31
0.0
100
AcDbText
  0
TEXT
  5
5321
330
18
100
AcDbEntity
  8
1
 62
     2
100
AcDbText
 10
18.79649858033016
 20
22.52522366628124
 30
0.0
 40
0.125
  1
TOLERANCE
  7
SIMPLEX
 72
     1
 11
19.31733191366349
 21
22.58772366628124
 31
0.0
100
AcDbText
 73
     2
  0
LINE
  5
5322
330
18
100
AcDbEntity
  8
1
 62
     4
100
AcDbLine
 10
18.3793319136635
 20
21.98272366628124
 30
0.0
 11
20.25533191366349
 21
21.98272366628124
 31
0.0
  0
LINE
  5
5323
330
18
100
AcDbEntity
  8
1
 62
     4
100
AcDbLine
 10
18.3793319136635
 20
21.75772366628124
 30
0.0
 11
20.25533191366349
 21
21.75772366628124
 31
0.0
  0
LINE
  5
5324
330
18
100
AcDbEntity
  8
1
 62
     4
100
AcDbLine
 10
18.3793319136635
 20
21.53272366628124
 30
0.0
 11
20.25533191366349
 21
21.53272366628124
 31
0.0
  0
LINE
  5
5325
330
18
100
AcDbEntity
  8
1
 62
     4
100
AcDbLine
 10
18.3793319136635
 20
21.30772366628124
 30
0.0
 11
20.25533191366349
 21
21.30772366628124
 31
0.0
  0
TEXT
  5
5326
330
18
100
AcDbEntity
  8
1
 62
     7
100
AcDbText
 10
18.46554619937778
 20
22.05179192858429
 30
0.0
 40
0.09375
  1
3M TO 8.99M = +6", -0"
 41
0.9
  7
SIMPLEX
 72
     4
 11
19.31733191366349
 21
22.09866692858429
 31
0.0
100
AcDbText
  0
TEXT
  5
5327
330
18
100
AcDbEntity
  8
1
 62
     7
100
AcDbText
 10
18.45215334223492
 20
21.82679192858429
 30
0.0
 40
0.09375
  1
M9 TO 14.99M = +12", -0"
 41
0.85
  7
SIMPLEX
 72
     4
 11
19.31733191366349
 21
21.87366692858429
 31
0.0
100
AcDbText
  0
TEXT
  5
5328
330
18
100
AcDbEntity
  8
1
 62
     7
100
AcDbText
 10
18.46733191366349
 20
21.60179192858429
 30
0.0
 40
0.09375
  1
M15 TO 29.99M = +18", -0"
 41
0.8
  7
SIMPLEX
 72
     4
 11
19.31733191366349
 21
21.64866692858429
 31
0.0
100
AcDbText
  0
TEXT
  5
5329
330
18
100
AcDbEntity
  8
1
 62
     7
100
AcDbText
 10
18.46554619937778
 20
21.37679192858429
 30
0.0
 40
0.09375
  1
M30 AND OVER = +24", -0"
 41
0.8
  7
SIMPLEX
 72
     4
 11
19.31733191366349
 21
21.4236669285843
 31
0.0
100
AcDbText
  0
TEXT
  5
532A
330
18
100
AcDbEntity
  8
1
 62
     7
100
AcDbText
 10
18.46755512794921
 20
22.27679192858429
 30
0.0
 40
0.09375
  1
UP TO 2.99M = +4", -0"
 41
0.9
  7
SIMPLEX
 72
     4
 11
19.31733191366349
 21
22.3236669285843
 31
0.0
100
AcDbText
  0
LINE
  5
532B
330
18
100
AcDbEntity
  8
1
 62
     4
100
AcDbLine
 10
18.3793319136635
 20
22.20772366628123
 30
0.0
 11
20.25533191366349
 21
22.20772366628124
 31
0.0
  0
LINE
  5
532C
330
18
100
AcDbEntity
  8
1
 62
     4
100
AcDbLine
 10
20.25533191366349
 20
22.80772366628124
 30
0.0
 11
18.3793319136635
 21
22.80772366628124
 31
0.0
  0
LINE
  5
532D
330
18
100
AcDbEntity
  8
1
 62
     4
100
AcDbLine
 10
18.3793319136635
 20
22.43272366628124
 30
0.0
 11
20.25533191366349
 21
22.43272366628124
 31
0.0
  0
TEXT
  5
532E
330
18
100
AcDbEntity
  8
1
 62
     2
100
AcDbText
 10
17.06356016947
 20
21.85275915284752
 30
0.0
 40
0.156
  1
L(meters)
  7
SIMPLEX
 72
     1
 11
17.61327445518429
 21
21.93075915284752
 31
0.0
100
AcDbText
 73
     2
  0
LINE
  5
532F
330
18
100
AcDbEntity
  8
1
 62
     4
100
AcDbLine
 10
18.3793319136635
 20
22.80772366628124
 30
0.0
 11
18.3793319136635
 21
21.30772366628124
 31
0.0
  0
LINE
  5
5330
330
18
100
AcDbEntity
  8
1
 62
     4
100
AcDbLine
 10
20.25533191366349
 20
21.30772366628124
 30
0.0
 11
20.25533191366349
 21
22.80772366628124
 31
0.0
  0
LEADER
  5
5356
330
18
100
AcDbEntity
  8
0
100
AcDbLeader
  3
STANDARD
 73
     0
 40
0.1488095238095238
 41
1.839285714285713
 76
     3
 10
17.01735748854084
 20
20.14203087462665
 30
0.0
 10
17.32720944936105
 20
20.51008996327931
 30
0.0
 10
17.7403454336052
 20
20.51008996327931
 30
0.0
340
5357
213
0.0
223
-0.0625
233
0.0
1001
ACAD
1000
DSTYLE
1002
{
1070
   147
1040
0.09
1070
    77
1070
     0
1002
}
  0
MTEXT
  5
5357
102
{ACAD_REACTORS
330
5356
102
}
330
18
100
AcDbEntity
  8
0
100
AcDbMText
 10
17.8303454336052
 20
20.57258996327931
 30
0.0
 40
0.125
 41
0.0
 71
     1
 72
     1
  1
LABEL, SEE NOTE 1
 73
     1
 44
1.0
  0
LWPOLYLINE
  5
54FB
330
18
100
AcDbEntity
  8
500
  6
L10
 62
     2
100
AcDbPolyline
 90
        2
 70
     0
 43
0.0
 10
23.96913970073675
 20
19.71797730865812
 10
23.48148432760828
 20
19.23032272369903
  0
LWPOLYLINE
  5
54FC
330
18
100
AcDbEntity
  8
500
  6
L10
 62
     2
100
AcDbPolyline
 90
        2
 70
     0
 43
0.0
 10
23.56529726246332
 20
18.42830156033367
 10
23.09224326246333
 20
18.90135556033366
  0
LWPOLYLINE
  5
54FD
330
18
100
AcDbEntity
  8
500
  6
L10
 62
     2
100
AcDbPolyline
 90
        2
 70
     0
 43
0.0
 10
23.65333226246332
 20
18.73695456033367
 10
23.45498826246332
 20
18.53861056033366
  0
LWPOLYLINE
  5
54FE
330
18
100
AcDbEntity
  8
500
  6
L10
 62
     2
100
AcDbPolyline
 90
        2
 70
     0
 43
0.0
 10
23.60913726246332
 20
18.69276056033367
 10
23.26866626246332
 20
19.03323156033366
  0
LWPOLYLINE
  5
54FF
330
18
100
AcDbEntity
  8
500
  6
L10
 62
     2
100
AcDbPolyline
 90
        2
 70
     0
 43
0.0
 10
23.74664940035411
 20
18.87676979644474
 10
23.48148440035411
 20
19.14193479644475
  0
LWPOLYLINE
  5
5500
330
18
100
AcDbEntity
  8
500
  6
L10
 62
     2
100
AcDbPolyline
 90
        2
 70
     0
 43
0.0
 10
23.22940079443874
 20
19.39401840236011
 10
23.80544370073674
 20
19.97006130865812
  0
LWPOLYLINE
  5
5501
330
18
100
AcDbEntity
  8
500
  6
L10
 62
     2
100
AcDbPolyline
 90
        2
 70
     0
 43
0.0
 10
23.26192779443875
 20
19.36149140236011
 10
23.83797070073675
 20
19.93753430865812
  0
LWPOLYLINE
  5
5502
330
18
100
AcDbEntity
  8
500
  6
L10
 62
     2
100
AcDbPolyline
 90
        2
 70
     0
 43
0.0
 10
23.29602327408749
 20
19.33053206818664
 10
23.86892970073675
 20
19.90343930865812
  0
LWPOLYLINE
  5
5503
330
18
100
AcDbEntity
  8
500
  6
L10
 62
     2
100
AcDbPolyline
 90
        2
 70
     0
 43
0.0
 10
23.37117540035411
 20
19.34063179644475
 10
23.85883070073675
 20
19.82828630865812
  0
LWPOLYLINE
  5
5504
330
18
100
AcDbEntity
  8
500
  6
L10
 62
     2
100
AcDbPolyline
 90
        2
 70
     0
 43
0.0
 10
23.06676629443874
 20
19.55665290236012
 10
23.64280970073675
 20
20.13269630865812
  0
LWPOLYLINE
  5
5505
330
18
100
AcDbEntity
  8
500
  6
L10
 62
     2
100
AcDbPolyline
 90
        2
 70
     0
 43
0.0
 10
23.09929329443874
 20
19.52412590236011
 10
23.67533670073674
 20
20.10016930865812
  0
LWPOLYLINE
  5
5506
330
18
100
AcDbEntity
  8
500
  6
L10
 62
     2
100
AcDbPolyline
 90
        2
 70
     0
 43
0.0
 10
23.03580739649646
 20
19.59074800441783
 10
23.60871470073675
 20
20.16365530865812
  0
LWPOLYLINE
  5
5507
330
18
100
AcDbEntity
  8
500
  6
L10
 62
     2
100
AcDbPolyline
 90
        2
 70
     0
 43
0.0
 10
23.13182029443874
 20
19.49159890236011
 10
23.70786370073675
 20
20.06764230865812
  0
LWPOLYLINE
  5
5508
330
18
100
AcDbEntity
  8
500
  6
L10
 62
     2
100
AcDbPolyline
 90
        2
 70
     0
 43
0.0
 10
23.19687420176275
 20
19.42654499503611
 10
23.77291670073674
 20
20.00258830865812
  0
LWPOLYLINE
  5
5509
330
18
100
AcDbEntity
  8
500
  6
L10
 62
     2
100
AcDbPolyline
 90
        2
 70
     0
 43
0.0
 10
23.62194970073674
 20
20.15355530865812
 42
0.4142140000000001
 10
23.53356170073674
 20
20.15355530865812
  0
LEADER
  5
550A
330
18
100
AcDbEntity
  8
0
100
AcDbLeader
  3
STANDARD
 73
     0
 40
0.125
 41
2.547619047619047
 76
     3
 10
23.26915521843649
 20
20.31203643877038
 30
0.0
 10
24.20665521843649
 20
21.31203643877038
 30
0.0
 10
24.49234089839784
 20
21.31017425392334
 30
0.0
340
550B
213
0.0
223
-0.0625
233
0.0
1001
ACAD
1000
DSTYLE
1002
{
1070
   147
1040
0.09
1070
    77
1070
     0
1070
    44
1040
0.125
1070
   140
1040
0.125
1002
}
  0
MTEXT
  5
550B
102
{ACAD_REACTORS
330
550A
102
}
330
18
100
AcDbEntity
  8
0
100
AcDbMText
 10
24.58234089839784
 20
21.37267425392334
 30
0.0
 40
0.125
 41
0.0
 71
     1
 72
     1
  1
\A1;45%%D PVC BLACK OVERMOLD
 73
     1
 44
1.0
  0
LEADER
  5
550C
330
18
100
AcDbEntity
  8
0
100
AcDbLeader
  3
STANDARD
 73
     0
 40
0.3333333333333333
 41
1.738095238095237
 76
     3
 10
23.71721210038515
 20
19.0911933468634
 30
0.0
 10
22.84221210038515
 20
18.3724433468634
 30
0.0
 10
22.56096210038515
 20
18.3724433468634
 30
0.0
340
550D
213
0.0
223
-0.0625
233
0.0
1001
ACAD
1000
DSTYLE
1002
{
1070
   147
1040
0.09
1070
    77
1070
     0
1070
    44
1040
0.125
1070
   140
1040
0.125
1002
}
  0
MTEXT
  5
550D
102
{ACAD_REACTORS
330
550C
102
}
330
18
100
AcDbEntity
  8
0
100
AcDbMText
 10
22.47096210038515
 20
18.4349433468634
 30
0.0
 40
0.125
 41
0.0
 71
     3
 72
     1
  1
LABEL CONNECTOR\PAS SHOWN 
 73
     1
 44
1.0
  0
LINE
  5
550E
330
18
100
AcDbEntity
  8
0
 62
     2
100
AcDbLine
 10
22.57067541212083
 20
20.3064613573783
 30
0.0
 11
23.58807082152023
 21
20.3064613573783
 31
0.0
  0
LWPOLYLINE
  5
550F
330
18
100
AcDbEntity
  8
500
  6
L10
 62
     2
100
AcDbPolyline
 90
        2
 70
     0
 43
0.0
 10
23.31650377286471
 20
19.61122838078608
 10
23.57687170073675
 20
19.87159630865812
  0
LWPOLYLINE
  5
5510
330
18
100
AcDbEntity
  8
500
  6
L10
 62
     2
100
AcDbPolyline
 90
        2
 70
     0
 43
0.0
 10
23.25134226246332
 20
19.10429556033366
 10
22.89778826246332
 20
19.45784956033367
  0
LWPOLYLINE
  5
5511
330
18
100
AcDbEntity
  8
500
  6
L10
 62
     2
100
AcDbPolyline
 90
        2
 70
     0
 43
0.0
 10
23.23719926246332
 20
19.09015356033366
 10
22.88364626246332
 20
19.44370756033367
  0
LWPOLYLINE
  5
5512
330
18
100
AcDbEntity
  8
500
  6
L10
 62
     2
100
AcDbPolyline
 90
        2
 70
     0
 43
0.0
 10
23.26194826246332
 20
19.11490256033366
 10
22.90839526246332
 20
19.46845556033366
  0
LWPOLYLINE
  5
5513
330
18
100
AcDbEntity
  8
500
  6
L10
 62
     2
100
AcDbPolyline
 90
        2
 70
     0
 43
0.0
 10
23.32579026246332
 20
19.17874456033366
 10
22.94227097261081
 20
19.56226458053218
  0
LWPOLYLINE
  5
5514
330
18
100
AcDbEntity
  8
500
  6
L10
 62
     2
100
AcDbPolyline
 90
        2
 70
     0
 43
0.0
 10
23.27255526246332
 20
19.12550856033367
 10
22.91900226246332
 20
19.47906256033367
  0
LWPOLYLINE
  5
5515
330
18
100
AcDbEntity
  8
500
  6
L10
 62
     2
100
AcDbPolyline
 90
        2
 70
     0
 43
0.0
 10
23.28669726246332
 20
19.13965056033367
 10
22.93375026246332
 20
19.49259756033367
  0
LWPOLYLINE
  5
5516
330
18
100
AcDbEntity
  8
500
  6
L10
 62
     2
100
AcDbPolyline
 90
        2
 70
     0
 43
0.0
 10
23.27962626246332
 20
19.13257956033367
 10
22.92607326246332
 20
19.48613356033367
  0
LWPOLYLINE
  5
5517
330
18
100
AcDbEntity
  8
500
  6
L10
 62
     2
100
AcDbPolyline
 90
        2
 70
     0
 43
0.0
 10
23.29376826246332
 20
19.14672156033367
 10
22.95082126246332
 20
19.48966856033367
  0
LWPOLYLINE
  5
5518
330
18
100
AcDbEntity
  8
500
  6
L10
 62
     2
100
AcDbPolyline
 90
        2
 70
     0
 43
0.0
 10
23.22305726246332
 20
19.07601156033367
 10
22.86950426246332
 20
19.42956456033367
  0
LWPOLYLINE
  5
5519
330
18
100
AcDbEntity
  8
500
  6
L10
 62
     2
100
AcDbPolyline
 90
        2
 70
     0
 43
0.0
 10
23.20537926246332
 20
19.05833356033367
 10
22.85182626246332
 20
19.41188756033367
  0
LWPOLYLINE
  5
551A
330
18
100
AcDbEntity
  8
500
  6
L10
 62
     2
100
AcDbPolyline
 90
        2
 70
     0
 43
0.0
 10
23.18770226246332
 20
19.04065656033367
 10
22.83414926246333
 20
19.39420956033367
  0
LWPOLYLINE
  5
551B
330
18
100
AcDbEntity
  8
500
  6
L10
 62
     2
100
AcDbPolyline
 90
        2
 70
     0
 43
0.0
 10
23.17002426246332
 20
19.02297856033366
 10
22.81647126246332
 20
19.37653156033366
  0
LWPOLYLINE
  5
551C
330
18
100
AcDbEntity
  8
500
  6
L10
 62
     2
100
AcDbPolyline
 90
        2
 70
     0
 43
0.0
 10
23.18770226246332
 20
19.04065656033367
 10
22.83414926246333
 20
19.39420956033367
  0
LWPOLYLINE
  5
551D
330
18
100
AcDbEntity
  8
500
  6
L10
 62
     2
100
AcDbPolyline
 90
        2
 70
     0
 43
0.0
 10
23.12406226246332
 20
18.97701656033367
 10
22.77050926246332
 20
19.33056956033367
  0
LWPOLYLINE
  5
551E
330
18
100
AcDbEntity
  8
500
  6
L10
 62
     2
100
AcDbPolyline
 90
        2
 70
     0
 43
0.0
 10
23.08163626246332
 20
18.93458956033367
 10
22.73869026246332
 20
19.27753656033367
  0
LWPOLYLINE
  5
551F
330
18
100
AcDbEntity
  8
500
  6
L10
 62
     2
100
AcDbPolyline
 90
        2
 70
     0
 43
0.0
 10
23.11345626246332
 20
18.96640956033366
 10
22.75990326246332
 20
19.31996356033367
  0
LWPOLYLINE
  5
5520
330
18
100
AcDbEntity
  8
500
  6
L10
 62
     2
100
AcDbPolyline
 90
        2
 70
     0
 43
0.0
 10
23.10284926246332
 20
18.95580256033366
 10
22.74929626246332
 20
19.30935656033367
  0
LWPOLYLINE
  5
5521
330
18
100
AcDbEntity
  8
500
  6
L10
 62
     2
100
AcDbPolyline
 90
        2
 70
     0
 43
0.0
 10
23.09577826246332
 20
18.94873156033367
 10
22.74222526246332
 20
19.30228556033367
  0
LWPOLYLINE
  5
5522
330
18
100
AcDbEntity
  8
500
  6
L10
 62
     2
100
AcDbPolyline
 90
        2
 70
     0
 43
0.0
 10
23.08870726246332
 20
18.94166056033366
 10
22.73576026246332
 20
19.29460756033367
  0
LWPOLYLINE
  5
5523
330
18
100
AcDbEntity
  8
500
  6
L10
 62
     2
100
AcDbPolyline
 90
        2
 70
     0
 43
0.0
 10
23.15234626246332
 20
19.00530056033367
 10
22.79879326246332
 20
19.35885356033367
  0
LWPOLYLINE
  5
5524
330
18
100
AcDbEntity
  8
500
  6
L10
 62
     2
100
AcDbPolyline
 90
        2
 70
     0
 43
0.0
 10
23.13820426246332
 20
18.99115856033366
 10
22.78465126246332
 20
19.34471156033367
  0
LWPOLYLINE
  5
5525
330
18
100
AcDbEntity
  8
500
  6
L10
 62
     2
100
AcDbPolyline
 90
        2
 70
     0
 43
0.0
 10
23.48148440035411
 20
19.23032279644474
 42
0.4142149999999999
 10
23.48148440035411
 20
19.14193479644475
  0
LWPOLYLINE
  5
5526
330
18
100
AcDbEntity
  8
500
  6
L10
 62
     2
100
AcDbPolyline
 90
        2
 70
     0
 43
0.0
 10
23.09224326246333
 20
18.94519656033367
 10
23.32588326246332
 20
19.17883656033367
  0
LWPOLYLINE
  5
5527
330
18
100
AcDbEntity
  8
500
  6
L10
 62
     2
100
AcDbPolyline
 90
        2
 70
     0
 43
0.0
 10
23.09224326246333
 20
18.94519656033367
 42
0.4142170000000001
 10
23.09224326246333
 20
18.90135556033366
  0
LWPOLYLINE
  5
5528
330
18
100
AcDbEntity
  8
500
  6
L10
 62
     2
100
AcDbPolyline
 90
        2
 70
     0
 43
0.0
 10
23.26866626246332
 20
19.12161956033367
 42
0.4142140000000001
 10
23.26866626246332
 20
19.03323156033366
  0
LWPOLYLINE
  5
5529
330
18
100
AcDbEntity
  8
500
  6
L10
 62
     2
100
AcDbPolyline
 90
        2
 70
     0
 43
0.0
 10
22.57067541212083
 20
19.8079023573783
 42
1.0
 10
22.49267541212083
 20
19.8079023573783
  0
LWPOLYLINE
  5
552A
330
18
100
AcDbEntity
  8
500
  6
L10
 62
     2
100
AcDbPolyline
 90
        2
 70
     0
 43
0.0
 10
22.57067541212083
 20
19.7159023573783
 10
22.49267541212083
 20
19.7159023573783
  0
LWPOLYLINE
  5
552B
330
18
100
AcDbEntity
  8
500
  6
L10
 62
     2
100
AcDbPolyline
 90
        2
 70
     0
 43
0.0
 10
22.49267541212083
 20
20.0738983573783
 42
1.0
 10
22.57067541212083
 20
20.0738983573783
  0
LWPOLYLINE
  5
552C
330
18
100
AcDbEntity
  8
500
  6
L10
 62
     2
100
AcDbPolyline
 90
        2
 70
     0
 43
0.0
 10
22.57067541212083
 20
20.1658983573783
 10
22.49267541212083
 20
20.1658983573783
  0
LWPOLYLINE
  5
552D
330
18
100
AcDbEntity
  8
500
  6
L10
 62
     2
100
AcDbPolyline
 90
        2
 70
     0
 43
0.0
 10
22.16467641212083
 20
19.6028473573783
 10
22.16467641212083
 20
20.2789543573783
  0
LWPOLYLINE
  5
552E
330
18
100
AcDbEntity
  8
500
  6
L10
 62
     2
100
AcDbPolyline
 90
        2
 70
     0
 43
0.0
 10
22.32067541212083
 20
19.5753393573783
 10
22.16467641212083
 20
19.6028473573783
  0
LWPOLYLINE
  5
552F
330
18
100
AcDbEntity
  8
500
  6
L10
 62
     2
100
AcDbPolyline
 90
        2
 70
     0
 43
0.0
 10
22.32067541212083
 20
19.5753393573783
 10
22.32067541212083
 20
19.8239033573783
  0
LWPOLYLINE
  5
5530
330
18
100
AcDbEntity
  8
500
  6
L10
 62
     2
100
AcDbPolyline
 90
        2
 70
     0
 43
0.0
 10
22.39867641212083
 20
19.5615863573783
 10
22.39867641212083
 20
19.8239033573783
  0
LWPOLYLINE
  5
5531
330
18
100
AcDbEntity
  8
500
  6
L10
 62
     2
100
AcDbPolyline
 90
        2
 70
     0
 43
0.0
 10
22.49267541212083
 20
19.56170363651035
 10
22.49267541212083
 20
19.8079023573783
  0
LINE
  5
5532
330
18
100
AcDbEntity
  8
0
100
AcDbLine
 10
22.39867641212083
 20
19.5615863573783
 30
0.0
 11
22.49267541212083
 21
19.56170363651035
 31
0.0
  0
LWPOLYLINE
  5
5533
330
18
100
AcDbEntity
  8
500
  6
L10
 62
     2
100
AcDbPolyline
 90
        2
 70
     0
 43
0.0
 10
22.39867641212083
 20
19.8239033573783
 42
1.0
 10
22.32067541212083
 20
19.8239033573783
  0
LWPOLYLINE
  5
5534
330
18
100
AcDbEntity
  8
500
  6
L10
 62
     2
100
AcDbPolyline
 90
        2
 70
     0
 43
0.0
 10
22.39867641212083
 20
19.7159023573783
 10
22.32067541212083
 20
19.7159023573783
  0
LWPOLYLINE
  5
5535
330
18
100
AcDbEntity
  8
500
  6
L10
 62
     2
100
AcDbPolyline
 90
        2
 70
     0
 43
0.0
 10
22.32067541212083
 20
20.3064613573783
 10
22.16467641212083
 20
20.2789543573783
  0
LWPOLYLINE
  5
5536
330
18
100
AcDbEntity
  8
500
  6
L10
 62
     2
100
AcDbPolyline
 90
        2
 70
     0
 43
0.0
 10
22.32067541212083
 20
20.3064613573783
 10
22.32067541212083
 20
20.0578983573783
  0
LWPOLYLINE
  5
5537
330
18
100
AcDbEntity
  8
500
  6
L10
 62
     2
100
AcDbPolyline
 90
        2
 70
     0
 43
0.0
 10
22.49267541212083
 20
20.3064613573783
 10
22.49267541212083
 20
20.0738983573783
  0
LWPOLYLINE
  5
5538
330
18
100
AcDbEntity
  8
500
  6
L10
 62
     2
100
AcDbPolyline
 90
        2
 70
     0
 43
0.0
 10
22.39867641212083
 20
20.3064613573783
 10
22.39867641212083
 20
20.0578983573783
  0
LWPOLYLINE
  5
5539
330
18
100
AcDbEntity
  8
500
  6
L10
 62
     2
100
AcDbPolyline
 90
        2
 70
     0
 43
0.0
 10
22.32067541212083
 20
20.0578983573783
 42
1.0
 10
22.39867641212083
 20
20.0578983573783
  0
LWPOLYLINE
  5
553A
330
18
100
AcDbEntity
  8
500
  6
L10
 62
     2
100
AcDbPolyline
 90
        2
 70
     0
 43
0.0
 10
22.39867641212083
 20
20.1658983573783
 10
22.32067541212083
 20
20.1658983573783
  0
LINE
  5
553B
330
18
100
AcDbEntity
  8
0
100
AcDbLine
 10
22.39867641212083
 20
20.3064613573783
 30
0.0
 11
22.49267541212083
 21
20.3064613573783
 31
0.0
  0
LWPOLYLINE
  5
553C
330
18
100
AcDbEntity
  8
500
  6
L10
 62
     2
100
AcDbPolyline
 90
        2
 70
     0
 43
0.0
 10
23.04590679443874
 20
19.66590040236011
 10
23.53356170073674
 20
20.15355530865812
  0
LWPOLYLINE
  5
553D
330
18
100
AcDbEntity
  8
500
  6
L10
 62
     2
100
AcDbPolyline
 90
        2
 70
     0
 43
0.0
 10
22.72867541212083
 20
20.2831553573783
 10
22.72867541212083
 20
19.5986453573783
  0
LWPOLYLINE
  5
553E
330
18
100
AcDbEntity
  8
500
  6
L10
 62
     2
100
AcDbPolyline
 90
        2
 70
     0
 43
0.0
 10
23.04590740035411
 20
19.66590079644475
 42
0.4142140000000001
 10
23.04590740035411
 20
19.57751179644475
  0
LWPOLYLINE
  5
553F
330
18
100
AcDbEntity
  8
500
  6
L10
 62
     2
100
AcDbPolyline
 90
        2
 70
     0
 43
0.0
 10
22.57067541212083
 20
19.56180095427224
 10
22.57067541212083
 20
19.8079023573783
  0
LWPOLYLINE
  5
5540
330
18
100
AcDbEntity
  8
500
  6
L10
 62
     2
100
AcDbPolyline
 90
        2
 70
     0
 43
0.0
 10
22.92960826246332
 20
19.48966856033367
 10
22.73869026246332
 20
19.29874956033367
  0
LINE
  5
5541
330
18
100
AcDbEntity
  8
0
 62
     2
100
AcDbLine
 10
22.57067541212083
 20
19.56180095427224
 30
0.0
 11
22.9422709726108
 21
19.56226458053218
 31
0.0
  0
LWPOLYLINE
  5
5542
330
18
100
AcDbEntity
  8
500
  6
L10
 62
     2
100
AcDbPolyline
 90
        2
 70
     0
 43
0.0
 10
22.73869026246332
 20
19.29874956033367
 42
0.41422
 10
22.73869026246332
 20
19.27753656033367
  0
LWPOLYLINE
  5
5543
330
18
100
AcDbEntity
  8
500
  6
L10
 62
     2
100
AcDbPolyline
 90
        2
 70
     0
 43
0.0
 10
22.95082126246332
 20
19.48966856033367
 42
0.4142140000000001
 10
22.92960826246332
 20
19.48966856033367
  0
CIRCLE
  5
5544
330
18
100
AcDbEntity
  8
500
  6
L10
 62
     2
100
AcDbCircle
 10
23.29499854016974
 20
19.58855488377447
 30
0.0
 40
0.03125
  0
LWPOLYLINE
  5
5545
330
18
100
AcDbEntity
  8
500
  6
L10
 62
     2
100
AcDbPolyline
 90
        2
 70
     0
 43
0.0
 10
23.28278740035411
 20
19.34063179644475
 42
0.414212
 10
23.37117540035411
 20
19.34063179644475
  0
LWPOLYLINE
  5
5546
330
18
100
AcDbEntity
  8
500
  6
L10
 62
     2
100
AcDbPolyline
 90
        2
 70
     0
 43
0.0
 10
23.28278740035411
 20
19.34063179644475
 10
23.04590740035411
 20
19.57751179644475
  0
LWPOLYLINE
  5
5547
330
18
100
AcDbEntity
  8
500
  6
L10
 62
     2
100
AcDbPolyline
 90
        2
 70
     0
 43
0.0
 10
23.16434729443874
 20
19.45907190236011
 10
23.27232504315813
 20
19.5670496510795
  0
LWPOLYLINE
  5
5548
330
18
100
AcDbEntity
  8
500
  6
L10
 62
     2
100
AcDbPolyline
 90
        2
 70
     0
 43
0.0
 10
22.57067541212083
 20
20.3064613573783
 10
22.57067541212083
 20
20.0738983573783
  0
LWPOLYLINE
  5
5549
330
18
100
AcDbEntity
  8
500
  6
L10
 62
     2
100
AcDbPolyline
 90
        2
 70
     0
 43
0.0
 10
24.32269270073675
 20
19.36442430865812
 10
23.8349415053567
 20
18.87667311327808
  0
LWPOLYLINE
  5
554A
330
18
100
AcDbEntity
  8
500
  6
L10
 62
     2
100
AcDbPolyline
 90
        2
 70
     0
 43
0.0
 10
23.5634246505544
 20
18.43017417224259
 10
24.76945228020348
 20
19.63620180189166
  0
LWPOLYLINE
  5
554B
330
18
100
AcDbEntity
  8
500
  6
L10
 62
     2
100
AcDbPolyline
 90
        2
 70
     0
 43
0.0
 10
23.96337216917753
 20
18.49440755287664
 10
24.71279399674826
 20
19.24382938044736
  0
TEXT
  5
554C
330
18
100
AcDbEntity
  8
0
100
AcDbText
 10
24.21422907287026
 20
19.54012223250386
 30
0.0
 40
0.125
  1
MMC-SD
 50
225.0000000000001
 72
     1
 11
23.97010887460348
 21
19.20761368658875
 31
0.0
100
AcDbText
 73
     2
  0
LINE
  5
554D
330
18
100
AcDbEntity
  8
0
100
AcDbLine
 10
24.56701935380094
 20
19.19458278095043
 30
0.0
 11
24.51186502486841
 21
19.24973710988299
 31
0.0
  0
LINE
  5
554E
330
18
100
AcDbEntity
  8
0
 62
     7
100
AcDbLine
 10
24.46661019087247
 20
19.20448227588705
 30
0.0
 11
24.51186502486841
 21
19.24973710988299
 31
0.0
  0
LWPOLYLINE
  5
554F
330
18
100
AcDbEntity
  8
500
  6
L10
 62
     2
100
AcDbPolyline
 90
        2
 70
     0
 43
0.0
 10
24.72501814852026
 20
17.45849275644163
 10
25.75573380833025
 20
18.48920841625162
  0
LWPOLYLINE
  5
5550
330
18
100
AcDbEntity
  8
500
  6
L10
 62
     2
100
AcDbPolyline
 90
        2
 70
     0
 43
0.0
 10
25.81350470073674
 20
18.45434730865812
 10
24.75985528870189
 20
17.40069789662326
  0
LWPOLYLINE
  5
5551
330
18
100
AcDbEntity
  8
500
  6
L10
 62
     2
100
AcDbPolyline
 90
        2
 70
     0
 43
0.0
 10
25.49410470073675
 20
18.83851930865812
 10
25.75573370073675
 20
18.57689030865812
  0
LWPOLYLINE
  5
5552
330
18
100
AcDbEntity
  8
500
  6
L10
 62
     2
100
AcDbPolyline
 90
        2
 70
     0
 43
0.0
 10
25.50421570073674
 20
18.89628930865812
 10
25.81350470073674
 20
18.58700130865812
  0
CIRCLE
  5
5553
330
18
100
AcDbEntity
  8
500
  6
L10
 62
     2
100
AcDbCircle
 10
25.54148070073674
 20
18.62426530865812
 30
0.0
 40
0.06
  0
LINE
  5
5554
330
18
100
AcDbEntity
  8
0
100
AcDbLine
 10
25.59203904838506
 20
18.05610496100979
 30
0.0
 11
25.33783370073674
 21
18.31031030865812
 31
0.0
  0
LWPOLYLINE
  5
5555
330
18
100
AcDbEntity
  8
500
  6
L10
 62
     2
100
AcDbPolyline
 90
        2
 70
     0
 43
0.0
 10
24.90039566480831
 20
17.74983566102317
 10
25.46429670073675
 20
18.31373730865811
  0
LWPOLYLINE
  5
5556
330
18
100
AcDbEntity
  8
500
  6
L10
 62
     2
100
AcDbPolyline
 90
        2
 70
     0
 43
0.0
 10
24.31804284646859
 20
17.84277020068431
 42
0.4142140000000001
 10
24.31804284646859
 20
17.71011620068431
  0
LWPOLYLINE
  5
5557
330
18
100
AcDbEntity
  8
500
  6
L10
 62
     2
100
AcDbPolyline
 90
        2
 70
     0
 43
0.0
 10
24.37581384646859
 20
17.80790920068431
 42
0.414212
 10
24.37581384646859
 20
17.72022820068431
  0
LWPOLYLINE
  5
5558
330
18
100
AcDbEntity
  8
500
  6
L10
 62
     2
100
AcDbPolyline
 90
        2
 70
     0
 43
0.0
 10
24.65979984646859
 20
17.82986920068431
 10
24.78789584646859
 20
17.74017520068432
  0
LWPOLYLINE
  5
5559
330
18
100
AcDbEntity
  8
500
  6
L10
 62
     2
100
AcDbPolyline
 90
        2
 70
     0
 43
0.0
 10
24.64775484646859
 20
17.81266720068431
 10
24.77585084646859
 20
17.72297320068431
  0
LINE
  5
555A
330
18
100
AcDbEntity
  8
0
100
AcDbLine
 10
25.12287219411692
 20
17.586937853036
 30
0.0
 11
24.86866684646859
 21
17.84114320068431
 31
0.0
  0
LINE
  5
555B
330
18
100
AcDbEntity
  8
0
 62
     2
100
AcDbLine
 10
25.47914570073674
 20
18.29888730865812
 30
0.0
 11
24.91544484646859
 21
17.73518720068431
 31
0.0
  0
LWPOLYLINE
  5
555C
330
18
100
AcDbEntity
  8
500
  6
L10
 62
     2
100
AcDbPolyline
 90
        2
 70
     0
 43
0.0
 10
24.37581384646859
 20
17.72022820068431
 10
24.63744284646859
 20
17.45859820068431
  0
LWPOLYLINE
  5
555D
330
18
100
AcDbEntity
  8
500
  6
L10
 62
     2
100
AcDbPolyline
 90
        2
 70
     0
 43
0.0
 10
24.31804284646859
 20
17.71011620068431
 10
24.62733184646859
 20
17.40082720068431
  0
LWPOLYLINE
  5
555E
330
18
100
AcDbEntity
  8
500
  6
L10
 62
     2
100
AcDbPolyline
 90
        2
 70
     0
 43
0.0
 10
24.62733184646859
 20
17.40082720068431
 42
0.414211
 10
24.75998484646859
 20
17.40082720068431
  0
LWPOLYLINE
  5
555F
330
18
100
AcDbEntity
  8
500
  6
L10
 62
     2
100
AcDbPolyline
 90
        2
 70
     0
 43
0.0
 10
24.77585084646859
 20
17.72297320068431
 42
0.363971
 10
24.91544484646859
 20
17.73518720068431
  0
CIRCLE
  5
5560
330
18
100
AcDbEntity
  8
500
  6
L10
 62
     2
100
AcDbCircle
 10
24.59006684646859
 20
17.67285220068431
 30
0.0
 40
0.06
  0
LWPOLYLINE
  5
5561
330
18
100
AcDbEntity
  8
500
  6
L10
 62
     2
100
AcDbPolyline
 90
        2
 70
     0
 43
0.0
 10
24.63744284646859
 20
17.45859820068431
 42
0.4142149999999999
 10
24.72512384646859
 20
17.45859820068431
  0
LWPOLYLINE
  5
5562
330
18
100
AcDbEntity
  8
500
  6
L10
 62
     2
100
AcDbPolyline
 90
        2
 70
     0
 43
0.0
 10
24.78789584646859
 20
17.74017520068432
 42
0.3639699999999999
 10
24.90059584646859
 20
17.75003520068431
  0
TEXT
  5
5563
330
18
100
AcDbEntity
  8
0
100
AcDbText
 10
25.08081392124703
 20
17.38699465886733
 30
0.0
 40
0.125
  1
19
 72
     4
 11
25.20581392124703
 21
17.44949465886733
 31
0.0
100
AcDbText
  0
LWPOLYLINE
  5
5564
330
18
100
AcDbEntity
  8
500
  6
L10
 62
     2
100
AcDbPolyline
 90
        2
 70
     0
 43
0.0
 10
25.37156270073674
 20
18.89628930865812
 10
24.31804282040974
 20
17.84277017462548
  0
LINE
  5
5565
330
18
100
AcDbEntity
  8
0
100
AcDbLine
 10
24.75835884646859
 20
17.95145120068431
 30
0.0
 11
24.50415309604519
 21
18.20565695110773
 31
0.0
  0
LINE
  5
5566
330
18
100
AcDbEntity
  8
0
 62
     2
100
AcDbLine
 10
25.40642270073675
 20
18.83851930865812
 30
0.0
 11
24.37581384646859
 21
17.80790920068431
 31
0.0
  0
LWPOLYLINE
  5
5567
330
18
100
AcDbEntity
  8
500
  6
L10
 62
     2
100
AcDbPolyline
 90
        2
 70
     0
 43
0.0
 10
23.72333526246332
 20
18.43501956033367
 10
23.64767526246332
 20
18.51067956033367
  0
LWPOLYLINE
  5
5568
330
18
100
AcDbEntity
  8
500
  6
L10
 62
     2
100
AcDbPolyline
 90
        2
 70
     0
 43
0.0
 10
23.79333926246332
 20
18.50502256033367
 10
23.79333926246332
 20
18.47956756033367
  0
LWPOLYLINE
  5
5569
330
18
100
AcDbEntity
  8
500
  6
L10
 62
     2
100
AcDbPolyline
 90
        2
 70
     0
 43
0.0
 10
23.76151926246332
 20
18.51138656033366
 10
23.71697126246332
 20
18.46683956033366
  0
LWPOLYLINE
  5
556A
330
18
100
AcDbEntity
  8
500
  6
L10
 62
     2
100
AcDbPolyline
 90
        2
 70
     0
 43
0.0
 10
23.79333926246332
 20
18.50502256033367
 10
23.72333526246332
 20
18.43501956033367
  0
LWPOLYLINE
  5
556B
330
18
100
AcDbEntity
  8
500
  6
L10
 62
     2
100
AcDbPolyline
 90
        2
 70
     0
 43
0.0
 10
23.79333926246332
 20
18.47956756033367
 10
23.74879126246332
 20
18.43501956033367
  0
LWPOLYLINE
  5
556C
330
18
100
AcDbEntity
  8
500
  6
L10
 62
     2
100
AcDbPolyline
 90
        2
 70
     0
 43
0.0
 10
23.72333526246332
 20
18.43501956033367
 10
23.74879126246332
 20
18.43501956033367
  0
TEXT
  5
556D
330
18
100
AcDbEntity
  8
0
100
AcDbText
 10
24.34230582927687
 20
18.20997279681594
 30
0.0
 40
0.125
  1
1
 72
     4
 11
24.39290106737211
 21
18.27247279681594
 31
0.0
100
AcDbText
  0
LINE
  5
556E
330
18
100
AcDbEntity
  8
0
100
AcDbLine
 10
24.05267755255393
 20
18.67736664464648
 30
0.0
 11
23.99752322362138
 21
18.73252097357902
 31
0.0
  0
LINE
  5
556F
330
18
100
AcDbEntity
  8
0
 62
     7
100
AcDbLine
 10
23.99752322362138
 20
18.73252097357902
 30
0.0
 11
24.04277805761732
 21
18.77777580757498
 31
0.0
  0
LWPOLYLINE
  5
5570
330
18
100
AcDbEntity
  8
500
  6
L10
 62
     2
100
AcDbPolyline
 90
        2
 70
     0
 43
0.0
 10
23.79333926246332
 20
18.50502256033367
 10
23.71767826246332
 20
18.58068356033366
  0
LWPOLYLINE
  5
5571
330
18
100
AcDbEntity
  8
500
  6
L10
 62
     2
100
AcDbPolyline
 90
        2
 70
     0
 43
0.0
 10
23.74242726246332
 20
18.53047856033366
 10
23.69788026246332
 20
18.48593056033367
  0
LWPOLYLINE
  5
5572
330
18
100
AcDbEntity
  8
500
  6
L10
 62
     2
100
AcDbPolyline
 90
        2
 70
     0
 43
0.0
 10
23.72333526246332
 20
18.54957056033367
 10
23.67878826246332
 20
18.50502256033367
  0
LWPOLYLINE
  5
5573
330
18
100
AcDbEntity
  8
500
  6
L10
 62
     2
100
AcDbPolyline
 90
        2
 70
     0
 43
0.0
 10
23.96337216917753
 20
18.49440755287664
 10
23.79654868983335
 20
18.66123204913952
  0
LWPOLYLINE
  5
5574
330
18
100
AcDbEntity
  8
500
  6
L10
 62
     2
100
AcDbPolyline
 90
        2
 70
     0
 43
0.0
 10
23.74664940035411
 20
18.87676979644474
 42
0.4142140000000001
 10
23.83503840035411
 20
18.87676979644474
  0
LINE
  5
5575
330
18
100
AcDbEntity
  8
0
100
AcDbLine
 10
24.18664720089765
 20
18.81435235932956
 30
0.0
 11
24.13149287196509
 21
18.86950668826212
 31
0.0
  0
LINE
  5
5576
330
18
100
AcDbEntity
  8
0
 62
     7
100
AcDbLine
 10
24.08623803796915
 20
18.82425185426617
 30
0.0
 11
24.13149287196509
 21
18.86950668826212
 31
0.0
  0
LINE
  5
5577
330
18
100
AcDbEntity
  8
0
100
AcDbLine
 10
24.09793238654987
 20
18.72262147864242
 30
0.0
 11
24.04277805761732
 21
18.77777580757498
 31
0.0
  0
LINE
  5
5578
330
18
100
AcDbEntity
  8
0
100
AcDbLine
 10
24.14139236690171
 20
18.76909752533362
 30
0.0
 11
24.08623803796915
 21
18.82425185426617
 31
0.0
  0
LINE
  5
5579
330
18
100
AcDbEntity
  8
0
100
AcDbLine
 10
24.28281372313902
 20
18.91051888157092
 30
0.0
 11
24.22765939420647
 21
18.96567321050349
 31
0.0
  0
LINE
  5
557A
330
18
100
AcDbEntity
  8
0
100
AcDbLine
 10
24.33372541138446
 20
18.96143056981637
 30
0.0
 11
24.2785710824519
 21
19.01658489874891
 31
0.0
  0
LINE
  5
557B
330
18
100
AcDbEntity
  8
0
 62
     7
100
AcDbLine
 10
24.2785710824519
 20
19.01658489874891
 30
0.0
 11
24.32382591644785
 21
19.06183973274486
 31
0.0
  0
LINE
  5
557C
330
18
100
AcDbEntity
  8
0
 62
     7
100
AcDbLine
 10
24.18240456021054
 20
18.92041837650755
 30
0.0
 11
24.22765939420647
 21
18.96567321050349
 31
0.0
  0
LINE
  5
557D
330
18
100
AcDbEntity
  8
0
100
AcDbLine
 10
24.23755888914307
 20
18.86526404757499
 30
0.0
 11
24.18240456021054
 21
18.92041837650755
 31
0.0
  0
LINE
  5
557E
330
18
100
AcDbEntity
  8
0
100
AcDbLine
 10
24.3789802453804
 20
19.00668540381231
 30
0.0
 11
24.32382591644785
 21
19.06183973274486
 31
0.0
  0
LINE
  5
557F
330
18
100
AcDbEntity
  8
0
100
AcDbLine
 10
24.47085283155958
 20
19.09841625870906
 30
0.0
 11
24.41569850262702
 21
19.15357058764162
 31
0.0
  0
LINE
  5
5580
330
18
100
AcDbEntity
  8
0
 62
     7
100
AcDbLine
 10
24.37044366863108
 20
19.10831575364568
 30
0.0
 11
24.41569850262702
 21
19.15357058764162
 31
0.0
  0
LINE
  5
5581
330
18
100
AcDbEntity
  8
0
100
AcDbLine
 10
24.42559799756363
 20
19.05316142471312
 30
0.0
 11
24.37044366863108
 21
19.10831575364568
 31
0.0
  0
LINE
  5
5582
330
18
100
AcDbEntity
  8
0
100
AcDbLine
 10
24.521764519805
 20
19.14932794695449
 30
0.0
 11
24.46661019087247
 21
19.20448227588705
 31
0.0
  0
LWPOLYLINE
  5
5583
330
18
100
AcDbEntity
  8
500
  6
L10
 62
     2
100
AcDbPolyline
 90
        2
 70
     0
 43
0.0
 10
24.63310424876947
 20
17.97893348381731
 10
25.23530370073674
 20
18.58113230865812
  0
CIRCLE
  5
5584
330
18
100
AcDbEntity
  8
500
  6
L10
 62
     2
100
AcDbCircle
 10
25.29116470073674
 20
18.48425830865812
 30
0.0
 40
0.02
  0
LWPOLYLINE
  5
5585
330
18
100
AcDbEntity
  8
500
  6
L10
 62
     2
100
AcDbPolyline
 90
        2
 70
     0
 43
0.0
 10
25.38446270073674
 20
18.55453230865811
 10
25.47415670073675
 20
18.42643630865811
  0
LWPOLYLINE
  5
5586
330
18
100
AcDbEntity
  8
500
  6
L10
 62
     2
100
AcDbPolyline
 90
        2
 70
     0
 43
0.0
 10
25.40166570073675
 20
18.56657730865811
 10
25.49135870073675
 20
18.43848230865812
  0
LINE
  5
5587
330
18
100
AcDbEntity
  8
0
 62
     2
100
AcDbLine
 10
25.25015270073675
 20
18.56628330865812
 30
0.0
 11
24.64804984646859
 21
17.96418020068431
 31
0.0
  0
CIRCLE
  5
5588
330
18
100
AcDbEntity
  8
500
  6
L10
 62
     2
100
AcDbCircle
 10
25.01963570073674
 20
17.99211230865812
 30
0.0
 40
0.02
  0
CIRCLE
  5
5589
330
18
100
AcDbEntity
  8
500
  6
L10
 62
     2
100
AcDbCircle
 10
25.03660570073674
 20
18.22970030865812
 30
0.0
 40
0.02
  0
CIRCLE
  5
558A
330
18
100
AcDbEntity
  8
500
  6
L10
 62
     2
100
AcDbCircle
 10
24.90932670073674
 20
18.10242030865811
 30
0.0
 40
0.02
  0
CIRCLE
  5
558B
330
18
100
AcDbEntity
  8
500
  6
L10
 62
     2
100
AcDbCircle
 10
24.75835884646859
 20
17.95145120068431
 30
0.0
 40
0.02
  0
CIRCLE
  5
558C
330
18
100
AcDbEntity
  8
500
  6
L10
 62
     2
100
AcDbCircle
 10
24.78169284646859
 20
17.86447720068432
 30
0.0
 40
0.02
  0
LWPOLYLINE
  5
558D
330
18
100
AcDbEntity
  8
500
  6
L10
 62
     2
100
AcDbPolyline
 90
        2
 70
     0
 43
0.0
 10
24.63319984646859
 20
17.97902920068431
 42
0.466307
 10
24.64775484646859
 20
17.81266720068431
  0
LWPOLYLINE
  5
558E
330
18
100
AcDbEntity
  8
500
  6
L10
 62
     2
100
AcDbPolyline
 90
        2
 70
     0
 43
0.0
 10
24.64804984646859
 20
17.96418020068431
 42
0.466307
 10
24.65979984646859
 20
17.82986920068431
  0
CIRCLE
  5
558F
330
18
100
AcDbEntity
  8
500
  6
L10
 62
     2
100
AcDbCircle
 10
24.86866684646859
 20
17.84114320068431
 30
0.0
 40
0.02
  0
CIRCLE
  5
5590
330
18
100
AcDbEntity
  8
500
  6
L10
 62
     2
100
AcDbCircle
 10
24.84533284646859
 20
17.92811720068431
 30
0.0
 40
0.02
  0
CIRCLE
  5
5591
330
18
100
AcDbEntity
  8
500
  6
L10
 62
     2
100
AcDbCircle
 10
24.93230684646859
 20
17.90478220068431
 30
0.0
 40
0.02
  0
CIRCLE
  5
5592
330
18
100
AcDbEntity
  8
500
  6
L10
 62
     2
100
AcDbCircle
 10
24.82199784646859
 20
18.01509120068431
 30
0.0
 40
0.02
  0
CIRCLE
  5
5593
330
18
100
AcDbEntity
  8
500
  6
L10
 62
     2
100
AcDbCircle
 10
24.93266170073674
 20
18.01544630865812
 30
0.0
 40
0.02
  0
CIRCLE
  5
5594
330
18
100
AcDbEntity
  8
500
  6
L10
 62
     2
100
AcDbCircle
 10
24.99630070073674
 20
18.07908630865812
 30
0.0
 40
0.02
  0
CIRCLE
  5
5595
330
18
100
AcDbEntity
  8
500
  6
L10
 62
     2
100
AcDbCircle
 10
24.97296670073674
 20
18.16606030865812
 30
0.0
 40
0.02
  0
CIRCLE
  5
5596
330
18
100
AcDbEntity
  8
500
  6
L10
 62
     2
100
AcDbCircle
 10
25.14691470073675
 20
18.11939130865812
 30
0.0
 40
0.02
  0
CIRCLE
  5
5597
330
18
100
AcDbEntity
  8
500
  6
L10
 62
     2
100
AcDbCircle
 10
25.08327470073674
 20
18.05575130865812
 30
0.0
 40
0.02
  0
CIRCLE
  5
5598
330
18
100
AcDbEntity
  8
500
  6
L10
 62
     2
100
AcDbCircle
 10
25.27419370073674
 20
18.24667030865812
 30
0.0
 40
0.02
  0
CIRCLE
  5
5599
330
18
100
AcDbEntity
  8
500
  6
L10
 62
     2
100
AcDbCircle
 10
25.18721970073674
 20
18.27000530865812
 30
0.0
 40
0.02
  0
CIRCLE
  5
559A
330
18
100
AcDbEntity
  8
500
  6
L10
 62
     2
100
AcDbCircle
 10
25.12358070073674
 20
18.20636530865812
 30
0.0
 40
0.02
  0
CIRCLE
  5
559B
330
18
100
AcDbEntity
  8
500
  6
L10
 62
     2
100
AcDbCircle
 10
25.05994070073674
 20
18.14272630865812
 30
0.0
 40
0.02
  0
CIRCLE
  5
559C
330
18
100
AcDbEntity
  8
500
  6
L10
 62
     2
100
AcDbCircle
 10
25.21055470073674
 20
18.18303130865811
 30
0.0
 40
0.02
  0
CIRCLE
  5
559D
330
18
100
AcDbEntity
  8
500
  6
L10
 62
     2
100
AcDbCircle
 10
25.10024570073674
 20
18.29333930865812
 30
0.0
 40
0.02
  0
CIRCLE
  5
559E
330
18
100
AcDbEntity
  8
500
  6
L10
 62
     2
100
AcDbCircle
 10
25.16388570073674
 20
18.35697930865812
 30
0.0
 40
0.02
  0
CIRCLE
  5
559F
330
18
100
AcDbEntity
  8
500
  6
L10
 62
     2
100
AcDbCircle
 10
25.25085970073674
 20
18.33364530865812
 30
0.0
 40
0.02
  0
CIRCLE
  5
55A0
330
18
100
AcDbEntity
  8
500
  6
L10
 62
     2
100
AcDbCircle
 10
25.22752470073674
 20
18.42061930865812
 30
0.0
 40
0.02
  0
CIRCLE
  5
55A1
330
18
100
AcDbEntity
  8
500
  6
L10
 62
     2
100
AcDbCircle
 10
25.31449970073675
 20
18.39728430865812
 30
0.0
 40
0.02
  0
LWPOLYLINE
  5
55A2
330
18
100
AcDbEntity
  8
500
  6
L10
 62
     2
100
AcDbPolyline
 90
        2
 70
     0
 43
0.0
 10
25.47914570073674
 20
18.29888730865812
 42
0.363972
 10
25.49135870073675
 20
18.43848230865812
  0
CIRCLE
  5
55A3
330
18
100
AcDbEntity
  8
500
  6
L10
 62
     2
100
AcDbCircle
 10
25.33783370073674
 20
18.31031030865812
 30
0.0
 40
0.02
  0
LWPOLYLINE
  5
55A4
330
18
100
AcDbEntity
  8
500
  6
L10
 62
     2
100
AcDbPolyline
 90
        2
 70
     0
 43
0.0
 10
25.46429670073675
 20
18.31373730865811
 42
0.363969
 10
25.47415670073675
 20
18.42643630865811
  0
TEXT
  5
55A5
330
18
100
AcDbEntity
  8
0
100
AcDbText
 10
24.85667718819184
 20
18.79355402797086
 30
0.0
 40
0.125
  1
9
 72
     4
 11
24.91322480723946
 21
18.85605402797086
 31
0.0
100
AcDbText
  0
LWPOLYLINE
  5
55A6
330
18
100
AcDbEntity
  8
500
  6
L10
 62
     2
100
AcDbPolyline
 90
        2
 70
     0
 43
0.0
 10
25.49410470073675
 20
18.83851930865812
 42
0.414211
 10
25.40642270073675
 20
18.83851930865812
  0
LWPOLYLINE
  5
55A7
330
18
100
AcDbEntity
  8
500
  6
L10
 62
     2
100
AcDbPolyline
 90
        2
 70
     0
 43
0.0
 10
25.38446270073674
 20
18.55453230865811
 42
0.4663090000000001
 10
25.25015270073675
 20
18.56628330865812
  0
LWPOLYLINE
  5
55A8
330
18
100
AcDbEntity
  8
500
  6
L10
 62
     2
100
AcDbPolyline
 90
        2
 70
     0
 43
0.0
 10
25.40166570073675
 20
18.56657730865811
 42
0.466311
 10
25.23530370073674
 20
18.58113230865812
  0
LINE
  5
55A9
330
18
100
AcDbEntity
  8
0
100
AcDbLine
 10
25.29116470073674
 20
18.48425830865812
 30
0.0
 11
25.03695976588145
 21
18.73846324351341
 31
0.0
  0
LWPOLYLINE
  5
55AA
330
18
100
AcDbEntity
  8
500
  6
L10
 62
     2
100
AcDbPolyline
 90
        2
 70
     0
 43
0.0
 10
25.50421570073674
 20
18.89628930865812
 42
0.4142140000000001
 10
25.37156270073674
 20
18.89628930865812
  0
TEXT
  5
55AB
330
18
100
AcDbEntity
  8
0
100
AcDbText
 10
25.51733701950382
 20
17.55704968262602
 30
0.0
 40
0.125
  1
FACE VIEW
100
AcDbText
  0
LWPOLYLINE
  5
55AC
330
18
100
AcDbEntity
  8
500
  6
L10
 62
     2
100
AcDbPolyline
 90
        2
 70
     0
 43
0.0
 10
25.81350470073674
 20
18.45434730865812
 42
0.4142140000000001
 10
25.81350470073674
 20
18.58700130865812
  0
TEXT
  5
55AD
330
18
100
AcDbEntity
  8
0
100
AcDbText
 10
25.60321095498239
 20
17.90351321724241
 30
0.0
 40
0.125
  1
26
 72
     4
 11
25.72225857403001
 21
17.96601321724241
 31
0.0
100
AcDbText
  0
LWPOLYLINE
  5
55AE
330
18
100
AcDbEntity
  8
500
  6
L10
 62
     2
100
AcDbPolyline
 90
        2
 70
     0
 43
0.0
 10
25.75573370073675
 20
18.48920830865812
 42
0.4142149999999999
 10
25.75573370073675
 20
18.57689030865812
  0
MTEXT
  5
55AF
102
{ACAD_REACTORS
330
55B1
102
}
330
18
100
AcDbEntity
  8
0
100
AcDbMText
 10
25.12386020073674
 20
20.80414530865812
 30
0.0
 40
0.125
 41
0.0
 71
     1
 72
     1
  1
JACKSCREW 4-40
 73
     1
 44
1.0
  0
MTEXT
  5
55B0
102
{ACAD_REACTORS
330
55D8
102
}
330
18
100
AcDbEntity
  8
0
100
AcDbMText
 10
25.39096200815032
 20
20.23206474368877
 30
0.0
 40
0.125
 41
0.0
 71
     1
 72
     1
  1
D-SUB CONNECTOR,\P26 PIN HD MALE
 73
     1
 44
1.0
  0
LEADER
  5
55B1
330
18
100
AcDbEntity
  8
0
100
AcDbLeader
  3
STANDARD
 73
     0
 40
0.125
 41
1.684523809523809
 76
     3
 10
24.20094380076175
 20
20.19153885746026
 30
0.0
 10
24.72136020073675
 20
20.74164530865812
 30
0.0
 10
25.03386020073675
 20
20.74164530865812
 30
0.0
340
55AF
213
0.0
223
-0.0625
233
0.0
1001
ACAD
1000
DSTYLE
1002
{
1070
   147
1040
0.09
1070
    77
1070
     0
1070
    44
1040
0.125
1070
   140
1040
0.125
1002
}
  0
LWPOLYLINE
  5
55B2
330
18
100
AcDbEntity
  8
500
  6
L10
 62
     2
100
AcDbPolyline
 90
        2
 70
     0
 43
0.0
 10
24.46080028020348
 20
19.54816680189166
 10
24.65914328020347
 20
19.74651080189166
  0
LWPOLYLINE
  5
55B3
330
18
100
AcDbEntity
  8
500
  6
L10
 62
     2
100
AcDbPolyline
 90
        2
 70
     0
 43
0.0
 10
24.76945228020348
 20
19.63620180189166
 10
24.29639828020348
 20
20.10925580189166
  0
LWPOLYLINE
  5
55B4
330
18
100
AcDbEntity
  8
500
  6
L10
 62
     2
100
AcDbPolyline
 90
        2
 70
     0
 43
0.0
 10
23.85883070073675
 20
19.91667430865812
 10
23.62194970073674
 20
20.15355530865812
  0
LWPOLYLINE
  5
55B5
330
18
100
AcDbEntity
  8
500
  6
L10
 62
     2
100
AcDbPolyline
 90
        2
 70
     0
 43
0.0
 10
24.01891728020348
 20
19.87561580189166
 10
23.58807082152023
 20
20.3064613573783
  0
LWPOLYLINE
  5
55B6
330
18
100
AcDbEntity
  8
500
  6
L10
 62
     2
100
AcDbPolyline
 90
        2
 70
     0
 43
0.0
 10
23.62106570073674
 20
19.91579030865812
 10
23.74039070073675
 20
20.03511530865812
  0
LWPOLYLINE
  5
55B7
330
18
100
AcDbEntity
  8
500
  6
L10
 62
     2
100
AcDbPolyline
 90
        2
 70
     0
 43
0.0
 10
24.25255728020347
 20
20.10925580189166
 10
24.01891728020348
 20
19.87561580189166
  0
LWPOLYLINE
  5
55B8
330
18
100
AcDbEntity
  8
500
  6
L10
 62
     2
100
AcDbPolyline
 90
        2
 70
     0
 43
0.0
 10
24.08285128020347
 20
19.93954980189166
 10
23.72929828020347
 20
20.29310380189166
  0
LWPOLYLINE
  5
55B9
330
18
100
AcDbEntity
  8
500
  6
L10
 62
     2
100
AcDbPolyline
 90
        2
 70
     0
 43
0.0
 10
24.07224528020348
 20
19.92894380189166
 10
23.71869128020347
 20
20.28249680189166
  0
LWPOLYLINE
  5
55BA
330
18
100
AcDbEntity
  8
500
  6
L10
 62
     2
100
AcDbPolyline
 90
        2
 70
     0
 43
0.0
 10
24.05103228020347
 20
19.90773080189166
 10
23.70808528020348
 20
20.25067780189166
  0
LWPOLYLINE
  5
55BB
330
18
100
AcDbEntity
  8
500
  6
L10
 62
     2
100
AcDbPolyline
 90
        2
 70
     0
 43
0.0
 10
24.06517428020348
 20
19.92187280189166
 10
23.71162028020348
 20
20.27542580189166
  0
LWPOLYLINE
  5
55BC
330
18
100
AcDbEntity
  8
500
  6
L10
 62
     2
100
AcDbPolyline
 90
        2
 70
     0
 43
0.0
 10
24.05810328020347
 20
19.91480180189165
 10
23.70515628020347
 20
20.26774780189166
  0
LWPOLYLINE
  5
55BD
330
18
100
AcDbEntity
  8
500
  6
L10
 62
     2
100
AcDbPolyline
 90
        2
 70
     0
 43
0.0
 10
24.16452228020347
 20
19.93283280189166
 42
0.414212
 10
24.07613428020348
 20
19.93283280189166
  0
LWPOLYLINE
  5
55BE
330
18
100
AcDbEntity
  8
500
  6
L10
 62
     2
100
AcDbPolyline
 90
        2
 70
     0
 43
0.0
 10
24.05752770073675
 20
19.71797730865812
 42
0.4142140000000001
 10
23.96913970073675
 20
19.71797730865812
  0
TEXT
  5
55BF
330
18
100
AcDbEntity
  8
0
100
AcDbText
 10
23.89825202305846
 20
19.5263486584357
 30
0.0
 40
0.125
  1
I/O
 50
225.0000000000001
 72
     1
 11
23.83090852008832
 21
19.37061680781724
 31
0.0
100
AcDbText
 73
     2
  0
CIRCLE
  5
55C0
330
18
100
AcDbEntity
  8
500
  6
L10
 62
     2
100
AcDbCircle
 10
23.59896970073674
 20
19.89369330865812
 30
0.0
 40
0.03125
  0
LWPOLYLINE
  5
55C1
330
18
100
AcDbEntity
  8
500
  6
L10
 62
     2
100
AcDbPolyline
 90
        2
 70
     0
 43
0.0
 10
23.85883070073675
 20
19.82828630865812
 42
0.4142140000000001
 10
23.85883070073675
 20
19.91667430865811
  0
LWPOLYLINE
  5
55C2
330
18
100
AcDbEntity
  8
500
  6
L10
 62
     2
100
AcDbPolyline
 90
        2
 70
     0
 43
0.0
 10
24.32269270073675
 20
19.45281330865812
 10
24.05752770073675
 20
19.71797730865812
  0
LWPOLYLINE
  5
55C3
330
18
100
AcDbEntity
  8
500
  6
L10
 62
     2
100
AcDbPolyline
 90
        2
 70
     0
 43
0.0
 10
24.32269270073675
 20
19.36442430865812
 42
0.4142140000000001
 10
24.32269270073675
 20
19.45281330865812
  0
LWPOLYLINE
  5
55C4
330
18
100
AcDbEntity
  8
500
  6
L10
 62
     2
100
AcDbPolyline
 90
        2
 70
     0
 43
0.0
 10
24.50499428020348
 20
19.59236080189166
 10
24.16452228020347
 20
19.93283280189166
  0
LWPOLYLINE
  5
55C5
330
18
100
AcDbEntity
  8
500
  6
L10
 62
     2
100
AcDbPolyline
 90
        2
 70
     0
 43
0.0
 10
24.25609228020348
 20
20.11279180189166
 10
23.90314628020348
 20
20.46573780189166
  0
LWPOLYLINE
  5
55C6
330
18
100
AcDbEntity
  8
500
  6
L10
 62
     2
100
AcDbPolyline
 90
        2
 70
     0
 43
0.0
 10
24.26316328020348
 20
20.11986280189166
 10
23.92021728020347
 20
20.46280980189166
  0
LWPOLYLINE
  5
55C7
330
18
100
AcDbEntity
  8
500
  6
L10
 62
     2
100
AcDbPolyline
 90
        2
 70
     0
 43
0.0
 10
24.15709828020347
 20
20.01379680189166
 10
23.80354428020348
 20
20.36734980189166
  0
LWPOLYLINE
  5
55C8
330
18
100
AcDbEntity
  8
500
  6
L10
 62
     2
100
AcDbPolyline
 90
        2
 70
     0
 43
0.0
 10
24.15709828020347
 20
20.01379680189166
 10
23.80354428020348
 20
20.36734980189166
  0
LWPOLYLINE
  5
55C9
330
18
100
AcDbEntity
  8
500
  6
L10
 62
     2
100
AcDbPolyline
 90
        2
 70
     0
 43
0.0
 10
24.13942028020347
 20
19.99611880189166
 10
23.78586728020347
 20
20.34967180189166
  0
LWPOLYLINE
  5
55CA
330
18
100
AcDbEntity
  8
500
  6
L10
 62
     2
100
AcDbPolyline
 90
        2
 70
     0
 43
0.0
 10
24.12174228020347
 20
19.97844080189166
 10
23.76818928020348
 20
20.33199480189166
  0
LWPOLYLINE
  5
55CB
330
18
100
AcDbEntity
  8
500
  6
L10
 62
     2
100
AcDbPolyline
 90
        2
 70
     0
 43
0.0
 10
24.17477528020347
 20
20.03147480189166
 10
23.82122228020347
 20
20.38502780189166
  0
LWPOLYLINE
  5
55CC
330
18
100
AcDbEntity
  8
500
  6
L10
 62
     2
100
AcDbPolyline
 90
        2
 70
     0
 43
0.0
 10
24.20659528020348
 20
20.06329380189166
 10
23.85304228020348
 20
20.41684780189166
  0
LWPOLYLINE
  5
55CD
330
18
100
AcDbEntity
  8
500
  6
L10
 62
     2
100
AcDbPolyline
 90
        2
 70
     0
 43
0.0
 10
24.19245328020347
 20
20.04915180189166
 10
23.83890028020347
 20
20.40270480189166
  0
LWPOLYLINE
  5
55CE
330
18
100
AcDbEntity
  8
500
  6
L10
 62
     2
100
AcDbPolyline
 90
        2
 70
     0
 43
0.0
 10
24.24195028020347
 20
20.09864980189166
 10
23.88839728020347
 20
20.45220280189166
  0
LWPOLYLINE
  5
55CF
330
18
100
AcDbEntity
  8
500
  6
L10
 62
     2
100
AcDbPolyline
 90
        2
 70
     0
 43
0.0
 10
24.23134428020347
 20
20.08804280189167
 10
23.87779028020347
 20
20.44159680189166
  0
LWPOLYLINE
  5
55D0
330
18
100
AcDbEntity
  8
500
  6
L10
 62
     2
100
AcDbPolyline
 90
        2
 70
     0
 43
0.0
 10
24.22073728020347
 20
20.07743680189166
 10
23.86718428020347
 20
20.43098980189166
  0
LWPOLYLINE
  5
55D1
330
18
100
AcDbEntity
  8
500
  6
L10
 62
     2
100
AcDbPolyline
 90
        2
 70
     0
 43
0.0
 10
24.24902128020347
 20
20.10572080189166
 10
23.89546828020348
 20
20.45927380189167
  0
LWPOLYLINE
  5
55D2
330
18
100
AcDbEntity
  8
500
  6
L10
 62
     2
100
AcDbPolyline
 90
        2
 70
     0
 43
0.0
 10
24.09345828020347
 20
19.95015680189166
 10
23.73990528020347
 20
20.30371080189166
  0
LWPOLYLINE
  5
55D3
330
18
100
AcDbEntity
  8
500
  6
L10
 62
     2
100
AcDbPolyline
 90
        2
 70
     0
 43
0.0
 10
24.10760028020348
 20
19.96429880189166
 10
23.75404728020347
 20
20.31785280189166
  0
LWPOLYLINE
  5
55D4
330
18
100
AcDbEntity
  8
500
  6
L10
 62
     2
100
AcDbPolyline
 90
        2
 70
     0
 43
0.0
 10
23.70808528020348
 20
20.27189080189166
 10
23.89900328020347
 20
20.46280980189166
  0
LWPOLYLINE
  5
55D5
330
18
100
AcDbEntity
  8
500
  6
L10
 62
     2
100
AcDbPolyline
 90
        2
 70
     0
 43
0.0
 10
23.70808528020348
 20
20.27189080189166
 42
0.41422
 10
23.70808528020348
 20
20.25067780189166
  0
LWPOLYLINE
  5
55D6
330
18
100
AcDbEntity
  8
500
  6
L10
 62
     2
100
AcDbPolyline
 90
        2
 70
     0
 43
0.0
 10
23.92021728020347
 20
20.46280980189166
 42
0.4142140000000001
 10
23.89900328020347
 20
20.46280980189166
  0
LWPOLYLINE
  5
55D7
330
18
100
AcDbEntity
  8
500
  6
L10
 62
     2
100
AcDbPolyline
 90
        2
 70
     0
 43
0.0
 10
24.29639828020348
 20
20.10925580189166
 42
0.414209
 10
24.25255728020347
 20
20.10925580189166
  0
LEADER
  5
55D8
330
18
100
AcDbEntity
  8
0
100
AcDbLeader
  3
STANDARD
 73
     0
 40
0.3333333333333334
 41
1.898809523809523
 76
     3
 10
24.73846200815033
 20
19.26331474368877
 30
0.0
 10
25.11346200815033
 20
20.16956474368877
 30
0.0
 10
25.30096200815032
 20
20.16956474368877
 30
0.0
340
55B0
213
0.0
223
-0.0625
233
0.0
1001
ACAD
1000
DSTYLE
1002
{
1070
   147
1040
0.09
1070
    77
1070
     0
1070
    44
1040
0.125
1070
   140
1040
0.125
1002
}
  0
LWPOLYLINE
  5
55D9
330
18
100
AcDbEntity
  8
500
  6
L10
 62
     2
100
AcDbPolyline
 90
        2
 70
     0
 43
0.0
 10
24.71279399674826
 20
19.24382938044736
 10
24.54874499674826
 20
19.40787738044735
  0
LWPOLYLINE
  5
55DA
330
18
100
AcDbEntity
  8
500
  6
L10
 62
     2
100
AcDbPolyline
 90
        2
 70
     0
 43
0.0
 10
24.69273128020347
 20
19.40815980189166
 10
24.61707128020348
 20
19.48381980189166
  0
LWPOLYLINE
  5
55DB
330
18
100
AcDbEntity
  8
500
  6
L10
 62
     2
100
AcDbPolyline
 90
        2
 70
     0
 43
0.0
 10
24.66727528020348
 20
19.45907180189166
 10
24.71182328020347
 20
19.50361880189166
  0
LWPOLYLINE
  5
55DC
330
18
100
AcDbEntity
  8
500
  6
L10
 62
     2
100
AcDbPolyline
 90
        2
 70
     0
 43
0.0
 10
24.64818328020347
 20
19.47816280189166
 10
24.69273128020347
 20
19.52271080189166
  0
LWPOLYLINE
  5
55DD
330
18
100
AcDbEntity
  8
500
  6
L10
 62
     2
100
AcDbPolyline
 90
        2
 70
     0
 43
0.0
 10
24.71818728020347
 20
19.40815980189166
 10
24.76273428020347
 20
19.45270680189166
  0
LWPOLYLINE
  5
55DE
330
18
100
AcDbEntity
  8
500
  6
L10
 62
     2
100
AcDbPolyline
 90
        2
 70
     0
 43
0.0
 10
24.69273128020347
 20
19.40815980189166
 10
24.76273428020347
 20
19.47816280189166
  0
LWPOLYLINE
  5
55DF
330
18
100
AcDbEntity
  8
500
  6
L10
 62
     2
100
AcDbPolyline
 90
        2
 70
     0
 43
0.0
 10
24.69273128020347
 20
19.40815980189166
 10
24.71818728020347
 20
19.40815980189166
  0
LWPOLYLINE
  5
55E0
330
18
100
AcDbEntity
  8
500
  6
L10
 62
     2
100
AcDbPolyline
 90
        2
 70
     0
 43
0.0
 10
24.68636728020348
 20
19.43997980189165
 10
24.73091528020348
 20
19.48452680189166
  0
LWPOLYLINE
  5
55E1
330
18
100
AcDbEntity
  8
500
  6
L10
 62
     2
100
AcDbPolyline
 90
        2
 70
     0
 43
0.0
 10
24.76273428020347
 20
19.47816280189166
 10
24.76273428020347
 20
19.45270680189166
  0
LWPOLYLINE
  5
55E2
330
18
100
AcDbEntity
  8
500
  6
L10
 62
     2
100
AcDbPolyline
 90
        2
 70
     0
 43
0.0
 10
24.76273428020347
 20
19.47816280189166
 10
24.68707428020348
 20
19.55382380189166
  0
ENDSEC
  0
SECTION
  2
OBJECTS
  0
DICTIONARY
  5
C
330
0
100
AcDbDictionary
281
     1
  3
ACAD_GROUP
350
D
  3
ACAD_LAYOUT
350
418A
  3
ACAD_MLINESTYLE
350
1B
  3
ACAD_PLOTSETTINGS
350
418B
  3
ACAD_PLOTSTYLENAME
350
4188
  3
AcadDim
350
4ED9
  3
ACDBHEADERROUNDTRIPXREC
350
55E7
  3
ACDBVARIABLEDICTIONARY
350
4CA
  3
AcmDictionary
350
47AC
  3
AMG
350
4791
  3
AMGSNAPSETTINGS
350
47DE
  3
ASE_INDEX_DICTIONARY
350
4945
  3
DWGPROPS
350
540D
  0
DICTIONARY
  5
488B
330
18
100
AcDbDictionary
280
     1
281
     1
  3
ACAD_INDEX
360
5383
  0
DICTIONARY
  5
D
102
{ACAD_REACTORS
330
C
102
}
330
C
100
AcDbDictionary
281
     1
  0
DICTIONARY
  5
418A
102
{ACAD_REACTORS
330
C
102
}
330
C
100
AcDbDictionary
281
     1
  3
Layout1
350
418D
  3
Model
350
418C
  0
DICTIONARY
  5
1B
102
{ACAD_REACTORS
330
C
102
}
330
C
100
AcDbDictionary
281
     1
  3
STANDARD
350
1C
  0
DICTIONARY
  5
418B
102
{ACAD_REACTORS
330
C
102
}
330
C
100
AcDbDictionary
281
     1
  0
ACDBDICTIONARYWDFLT
  5
4188
102
{ACAD_REACTORS
330
C
102
}
330
C
100
AcDbDictionary
281
     1
  3
Normal
350
4189
100
AcDbDictionaryWithDefault
340
4189
  0
XRECORD
  5
4ED9
102
{ACAD_REACTORS
330
C
102
}
330
C
100
AcDbXrecord
280
     1
 90
   990106
  3

 60
     0
 61
     0
 62
     1
 63
     3
 64
     0
 65
     0
 66
     0
 67
     3
 68
     1
 69
     0
 70
     0
 71
     0
 72
     0
 40
0.0
170
     0
  0
DICTIONARY
  5
55E7
102
{ACAD_REACTORS
330
C
102
}
330
C
100
AcDbDictionary
281
     1
  3
CEPSNTYPE
350
55F1
  3
FINGERPRINTGUID
350
55F2
  3
HYPERLINKBASE
350
55EA
  3
INSUNITS
350
55F0
  3
LAYOUTDICT
350
55EC
  3
LWETCUNION
350
55EF
  3
PLOTSETDICT
350
55ED
  3
PLOTSTYLNAMDICT
350
55EE
  3
PSVPSCALE
350
55F4
  3
PUCSBASE
350
55F7
  3
PUCSORGBACK
350
55FD
  3
PUCSORGBOTTOM
350
55F9
  3
PUCSORGFRONT
350
55FC
  3
PUCSORGLEFT
350
55FA
  3
PUCSORGRIGHT
350
55FB
  3
PUCSORGTOP
350
55F8
  3
PUCSORTHOREF
350
55F5
  3
PUCSORTHOVIEW
350
55F6
  3
STYLESHEET
350
55EB
  3
TSTACKALIGN
350
55E8
  3
TSTACKSIZE
350
55E9
  3
UCSBASE
350
5600
  3
UCSORGBACK
350
5606
  3
UCSORGBOTTOM
350
5602
  3
UCSORGFRONT
350
5605
  3
UCSORGLEFT
350
5603
  3
UCSORGRIGHT
350
5604
  3
UCSORGTOP
350
5601
  3
UCSORTHOREF
350
55FE
  3
UCSORTHOVIEW
350
55FF
  3
VERSIONGUID
350
55F3
  0
DICTIONARY
  5
4CA
102
{ACAD_REACTORS
330
C
102
}
330
C
100
AcDbDictionary
281
     1
  3
DIMASSOC
350
5253
  3
INDEXCTL
350
479A
  3
SORTENTS
350
4CB
  0
DICTIONARY
  5
47AC
102
{ACAD_REACTORS
330
C
102
}
330
C
100
AcDbDictionary
281
     1
  3
AcmStdDictionary
350
47B2
  0
DICTIONARY
  5
4791
102
{ACAD_REACTORS
330
C
102
}
330
C
100
AcDbDictionary
281
     1
  3
AcMgSettings
350
4792
  0
DICTIONARY
  5
47DE
102
{ACAD_REACTORS
330
C
102
}
330
C
100
AcDbDictionary
281
     1
  3
DIMENSION
350
47E3
  3
FEA
350
47E2
  3
HATCH (1)
350
47DF
  3
HATCH (2)
350
47E0
  3
SIMPLE WELD
350
47E4
  3
SYMBOLS
350
47E1
  0
DICTIONARY
  5
4945
102
{ACAD_REACTORS
330
C
102
}
330
C
100
AcDbDictionary
281
     1
  3
ASEBlockHierarchyIndexRecord
350
4947
1001
DCO15
1040
1451630500.334
  0
XRECORD
  5
540D
102
{ACAD_REACTORS
330
C
102
}
330
C
100
AcDbXrecord
280
     1
  1
DWGPROPS COOKIE
  2

  3

  4

  6

  7

  8

  9

300
AmdtFileType=84
301
=
302
=
303
=
304
=
305
=
306
=
307
=
308
=
309
=
 40
1.917165983796296
 41
2450708.349033448
 42
2452891.341506435
  1

 90
        1
  0
DICTIONARY
  5
5383
102
{ACAD_REACTORS
330
488B
102
}
330
488B
100
AcDbDictionary
281
     1
  3
*A1
350
5384
  0
LAYOUT
  5
418D
102
{ACAD_REACTORS
330
418A
102
}
330
418A
100
AcDbPlotSettings
  1

  2
HP LaserJet 4V
  4

  6

 40
0.0
 41
0.0
 42
0.0
 43
0.0
 44
0.0
 45
0.0
 46
0.0
 47
0.0
 48
0.0
 49
0.0
140
0.0
141
0.0
142
1.0
143
1.0
 70
   688
 72
     0
 73
     0
 74
     5
  7
monochrome.ctb
 75
    16
147
1.0
148
0.0
149
0.0
100
AcDbLayout
  1
Layout1
 70
     1
 71
     1
 10
0.0
 20
0.0
 11
12.0
 21
9.0
 12
0.0
 22
0.0
 32
0.0
 14
1.000000000000000E+20
 24
1.000000000000000E+20
 34
1.000000000000000E+20
 15
-1.000000000000000E+20
 25
-1.000000000000000E+20
 35
-1.000000000000000E+20
146
0.0
 13
0.0
 23
0.0
 33
0.0
 16
1.0
 26
0.0
 36
0.0
 17
0.0
 27
1.0
 37
0.0
 76
     0
330
15
  0
LAYOUT
  5
418C
102
{ACAD_REACTORS
330
418A
102
}
330
418A
100
AcDbPlotSettings
  1

  2
\\Fdlfs06\Engineering - HP LaserJet 5Si MX
  4
Letter
  6

 40
7.143749713897705
 41
6.974400997161865
 42
7.14373779296875
 43
6.297088623046875
 44
215.8999938964843
 45
279.3999938964843
 46
0.0
 47
0.762
 48
0.0
 49
0.0
140
0.0
141
0.0
142
1.0
143
2.110984315373177
 70
 11956
 72
     0
 73
     1
 74
     1
  7
monochrome.ctb
 75
     0
147
0.4737126622483793
148
-211.6046448675241
149
-201.5132668503032
100
AcDbLayout
  1
Model
 70
     1
 71
     0
 10
0.0
 20
0.0
 11
12.0
 21
9.0
 12
0.0
 22
0.0
 32
0.0
 14
0.0
 24
0.0
 34
0.0
 15
0.0
 25
0.0
 35
0.0
146
0.0
 13
0.0
 23
0.0
 33
0.0
 16
1.0
 26
0.0
 36
0.0
 17
0.0
 27
1.0
 37
0.0
 76
     0
330
18
  0
MLINESTYLE
  5
1C
102
{ACAD_REACTORS
330
1B
102
}
330
1B
100
AcDbMlineStyle
  2
STANDARD
 70
     0
  3

 62
   256
 51
90.0
 52
90.0
 71
     2
 49
0.5
 62
   256
  6
BYLAYER
 49
-0.5
 62
   256
  6
BYLAYER
  0
ACDBPLACEHOLDER
  5
4189
102
{ACAD_REACTORS
330
4188
102
}
330
4188
  0
XRECORD
  5
55F1
102
{ACAD_REACTORS
330
55E7
102
}
330
55E7
100
AcDbXrecord
280
     1
 90
        0
  0
XRECORD
  5
55F2
102
{ACAD_REACTORS
330
55E7
102
}
330
55E7
100
AcDbXrecord
280
     1
  1
{21BBB917-79A7-48EA-B0E7-997A5F90763C}
  0
XRECORD
  5
55EA
102
{ACAD_REACTORS
330
55E7
102
}
330
55E7
100
AcDbXrecord
280
     1
  1

  0
XRECORD
  5
55F0
102
{ACAD_REACTORS
330
55E7
102
}
330
55E7
100
AcDbXrecord
280
     1
 90
        0
  0
XRECORD
  5
55EC
102
{ACAD_REACTORS
330
55E7
102
}
330
55E7
100
AcDbXrecord
280
     1
340
418A
  0
XRECORD
  5
55EF
102
{ACAD_REACTORS
330
55E7
102
}
330
55E7
100
AcDbXrecord
280
     1
 90
    10781
  0
XRECORD
  5
55ED
102
{ACAD_REACTORS
330
55E7
102
}
330
55E7
100
AcDbXrecord
280
     1
340
418B
  0
XRECORD
  5
55EE
102
{ACAD_REACTORS
330
55E7
102
}
330
55E7
100
AcDbXrecord
280
     1
340
4188
  0
XRECORD
  5
55F4
102
{ACAD_REACTORS
330
55E7
102
}
330
55E7
100
AcDbXrecord
280
     1
 40
0.0
  0
XRECORD
  5
55F7
102
{ACAD_REACTORS
330
55E7
102
}
330
55E7
100
AcDbXrecord
280
     1
340
0
  0
XRECORD
  5
55FD
102
{ACAD_REACTORS
330
55E7
102
}
330
55E7
100
AcDbXrecord
280
     1
 10
0.0
 20
0.0
 30
0.0
  0
XRECORD
  5
55F9
102
{ACAD_REACTORS
330
55E7
102
}
330
55E7
100
AcDbXrecord
280
     1
 10
0.0
 20
0.0
 30
0.0
  0
XRECORD
  5
55FC
102
{ACAD_REACTORS
330
55E7
102
}
330
55E7
100
AcDbXrecord
280
     1
 10
0.0
 20
0.0
 30
0.0
  0
XRECORD
  5
55FA
102
{ACAD_REACTORS
330
55E7
102
}
330
55E7
100
AcDbXrecord
280
     1
 10
0.0
 20
0.0
 30
0.0
  0
XRECORD
  5
55FB
102
{ACAD_REACTORS
330
55E7
102
}
330
55E7
100
AcDbXrecord
280
     1
 10
0.0
 20
0.0
 30
0.0
  0
XRECORD
  5
55F8
102
{ACAD_REACTORS
330
55E7
102
}
330
55E7
100
AcDbXrecord
280
     1
 10
0.0
 20
0.0
 30
0.0
  0
XRECORD
  5
55F5
102
{ACAD_REACTORS
330
55E7
102
}
330
55E7
100
AcDbXrecord
280
     1
340
0
  0
XRECORD
  5
55F6
102
{ACAD_REACTORS
330
55E7
102
}
330
55E7
100
AcDbXrecord
280
     1
 70
     0
  0
XRECORD
  5
55EB
102
{ACAD_REACTORS
330
55E7
102
}
330
55E7
100
AcDbXrecord
280
     1
  1
monochrome.ctb
  0
XRECORD
  5
55E8
102
{ACAD_REACTORS
330
55E7
102
}
330
55E7
100
AcDbXrecord
280
     1
 90
        1
  0
XRECORD
  5
55E9
102
{ACAD_REACTORS
330
55E7
102
}
330
55E7
100
AcDbXrecord
280
     1
 90
       70
  0
XRECORD
  5
5600
102
{ACAD_REACTORS
330
55E7
102
}
330
55E7
100
AcDbXrecord
280
     1
340
0
  0
XRECORD
  5
5606
102
{ACAD_REACTORS
330
55E7
102
}
330
55E7
100
AcDbXrecord
280
     1
 10
0.0
 20
0.0
 30
0.0
  0
XRECORD
  5
5602
102
{ACAD_REACTORS
330
55E7
102
}
330
55E7
100
AcDbXrecord
280
     1
 10
0.0
 20
0.0
 30
0.0
  0
XRECORD
  5
5605
102
{ACAD_REACTORS
330
55E7
102
}
330
55E7
100
AcDbXrecord
280
     1
 10
0.0
 20
0.0
 30
0.0
  0
XRECORD
  5
5603
102
{ACAD_REACTORS
330
55E7
102
}
330
55E7
100
AcDbXrecord
280
     1
 10
0.0
 20
0.0
 30
0.0
  0
XRECORD
  5
5604
102
{ACAD_REACTORS
330
55E7
102
}
330
55E7
100
AcDbXrecord
280
     1
 10
0.0
 20
0.0
 30
0.0
  0
XRECORD
  5
5601
102
{ACAD_REACTORS
330
55E7
102
}
330
55E7
100
AcDbXrecord
280
     1
 10
0.0
 20
0.0
 30
0.0
  0
XRECORD
  5
55FE
102
{ACAD_REACTORS
330
55E7
102
}
330
55E7
100
AcDbXrecord
280
     1
340
0
  0
XRECORD
  5
55FF
102
{ACAD_REACTORS
330
55E7
102
}
330
55E7
100
AcDbXrecord
280
     1
 70
     0
  0
XRECORD
  5
55F3
102
{ACAD_REACTORS
330
55E7
102
}
330
55E7
100
AcDbXrecord
280
     1
  1
{61CC9C7E-D0F1-4954-A7E2-5D19FC311D89}
  0
DICTIONARYVAR
  5
5253
102
{ACAD_REACTORS
330
4CA
102
}
330
4CA
100
DictionaryVariables
280
     0
  1
0
  0
DICTIONARYVAR
  5
479A
102
{ACAD_REACTORS
330
4CA
102
}
330
4CA
100
DictionaryVariables
280
     0
  1
1
  0
DICTIONARYVAR
  5
4CB
102
{ACAD_REACTORS
330
4CA
102
}
330
4CA
100
DictionaryVariables
280
     0
  1
96
  0
DICTIONARY
  5
47B2
102
{ACAD_REACTORS
330
47AC
102
}
330
47AC
100
AcDbDictionary
281
     1
  0
DICTIONARY
  5
4792
102
{ACAD_REACTORS
330
4791
102
}
330
4791
100
AcDbDictionary
281
     1
  3
DWGSETTINGS
350
4793
  3
TRANSSETTINGS
350
4794
  0
ACAMGFILTERDAT
  5
47E3
102
{ACAD_REACTORS
330
47DE
102
}
330
47DE
100
AcAmgFilterDat
 70
    15
  1
DIMENSION,AMDT_*_DIM
  2
*
  3
*
  4
*
  5
*
290
     1
  0
ACAMGFILTERDAT
  5
47E2
102
{ACAD_REACTORS
330
47DE
102
}
330
47DE
100
AcAmgFilterDat
 70
    15
  1
*
  2
AM_FEA-AM_*
  3
*
  4
*
  5
*
290
     1
  0
ACAMGFILTERDAT
  5
47DF
102
{ACAD_REACTORS
330
47DE
102
}
330
47DE
100
AcAmgFilterDat
 70
    15
  1
HATCH
  2
*
  3
*
  4
*
  5
*
290
     1
  0
ACAMGFILTERDAT
  5
47E0
102
{ACAD_REACTORS
330
47DE
102
}
330
47DE
100
AcAmgFilterDat
 70
    15
  1
LINE
  2
8,8N,*-8,*-8N,AM_8,AM_8N,*-AM_8,*-AM_8N
  3
*
  4
*
  5
INSERT,STDPART2D
290
     1
  0
ACAMGFILTERDAT
  5
47E4
102
{ACAD_REACTORS
330
47DE
102
}
330
47DE
100
AcAmgFilterDat
 70
    15
  1
ARC
  2
AM_5
  3
*
  4
2
  5
INSERT
290
     0
  0
ACAMGFILTERDAT
  5
47E1
102
{ACAD_REACTORS
330
47DE
102
}
330
47DE
100
AcAmgFilterDat
 70
    15
  1
ACMFCFRAME,ACMDATUMTARGET,ACMDATUMID,ACMWELDSYM,ACMSURFSYM,ACMFEATID,ACMPARTREF,ACMBALLOON,AMDTEDGESYM
  2
*
  3
*
  4
*
  5
*
290
     1
  0
XRECORD
  5
4947
102
{ACAD_REACTORS
330
4945
102
}
330
4945
100
AcDbXrecord
280
     1
330
0
330
41A0
330
41AF
330
41B5
330
41BB
  0
LAYER_INDEX
  5
5384
102
{ACAD_REACTORS
330
5383
102
}
330
5383
100
AcDbIndex
 40
2452891.556491968
100
AcDbLayerIndex
  8
0
360
5385
 90
      404
  8
DEFPOINTS
360
5386
 90
        2
  8
500
360
5387
 90
      384
  8
4
360
5388
 90
        0
  8
BORDER
360
5389
 90
        0
  8
Title Block
360
538A
 90
        0
  8
L0
360
538B
 90
        0
  8
1
360
538C
 90
       16
  0
IDBUFFER
  5
5385
330
0
100
AcDbIdBuffer
330
3EF3
330
3EF4
330
3EF6
330
3EF7
330
3F27
330
3F28
330
3F29
330
3F41
330
3F42
330
3F44
330
3F45
330
3F46
330
3F49
330
3F4A
330
3F4B
330
3F4C
330
3F4D
330
3F4E
330
3F4F
330
3F53
330
3F6F
330
4038
330
462E
330
462F
330
4726
330
4727
330
4728
330
4729
330
472A
330
472B
330
472C
330
4CCF
330
4CD0
330
4CD1
330
4CD2
330
4CD3
330
4CD4
330
4CD5
330
4CD6
330
4CD7
330
4CD8
330
4CD9
330
4CDA
330
4CDB
330
4CDC
330
4CDD
330
4CDE
330
4CDF
330
4CE0
330
4CE1
330
4CE2
330
4CE3
330
4CE4
330
4CE5
330
4CE6
330
4CEB
330
4CEC
330
4CED
330
4CEE
330
4CF3
330
4CF4
330
4CF5
330
4CF6
330
4CF7
330
4CF8
330
4CF9
330
4CFA
330
4CFB
330
4CFC
330
4CFD
330
4CFE
330
4CFF
330
4D00
330
4D01
330
4D05
330
4D06
330
4D0A
330
4D0B
330
4D0C
330
4D0D
330
4D0F
330
4D11
330
4D12
330
4D13
330
4D14
330
4D15
330
4D16
330
4D17
330
4D18
330
4D19
330
4D1A
330
4D1B
330
4D1F
330
4D20
330
4D21
330
4D28
330
4D2B
330
4D33
330
4D34
330
4D37
330
4D38
330
4D39
330
4D3B
330
4D3C
330
4D3D
330
4D3F
330
4D40
330
4D41
330
4D45
330
4D47
330
4D48
330
4D49
330
4D4A
330
4D4B
330
4D4E
330
4D4F
330
4D50
330
4D51
330
4D52
330
4D53
330
4D54
330
4D55
330
4D56
330
4D57
330
4D58
330
4D59
330
4D5A
330
4D5B
330
4D5C
330
4D5D
330
4D5E
330
4D5F
330
4D60
330
4D61
330
4D62
330
4D63
330
4D64
330
4D65
330
4D66
330
4D67
330
4D68
330
4D69
330
4D6A
330
4D6B
330
4D6C
330
4D6D
330
4D6E
330
4D6F
330
4D70
330
4D72
330
4D73
330
4D74
330
4D75
330
4D76
330
4D77
330
4D78
330
4D79
330
4D7A
330
4D7B
330
4D7C
330
4D7D
330
4D7E
330
4D7F
330
4D80
330
4D81
330
4D82
330
4D83
330
4D84
330
4D87
330
4D88
330
4D8A
330
4D8B
330
4D8C
330
4ECF
330
4F4F
330
4F50
330
4FCC
330
4FD0
330
4FDF
330
4FE3
330
4FE4
330
4FEB
330
4FEE
330
4FF1
330
4FFF
330
5013
330
5014
330
501E
330
5020
330
5034
330
5035
330
5037
330
5038
330
5039
330
503A
330
503B
330
503C
330
503D
330
503F
330
5040
330
5041
330
5042
330
5043
330
5044
330
5045
330
5046
330
5047
330
5055
330
5057
330
5058
330
506C
330
5097
330
5099
330
509C
330
509D
330
509E
330
509F
330
50A0
330
50A1
330
50A2
330
50A3
330
50A4
330
517C
330
518B
330
518C
330
518F
330
5190
330
5191
330
5192
330
5197
330
5199
330
519A
330
519B
330
519C
330
519E
330
519F
330
51A0
330
51A2
330
51A3
330
51A5
330
51A6
330
51A7
330
51A9
330
51AA
330
51AB
330
51AC
330
51AD
330
51AE
330
51B5
330
51B6
330
51C0
330
51C1
330
51C2
330
51C3
330
51C4
330
51C5
330
51C6
330
51C7
330
51C8
330
51C9
330
51CA
330
51CB
330
51CC
330
51CD
330
51CE
330
51CF
330
51D0
330
51D1
330
51D2
330
51D3
330
51D4
330
51D5
330
51D6
330
51D7
330
51D8
330
51D9
330
51DA
330
51DB
330
51DC
330
51DD
330
51DE
330
51DF
330
51EC
330
51ED
330
51EE
330
51EF
330
51F0
330
51F1
330
51F2
330
51F3
330
51F4
330
51F5
330
51F6
330
51F7
330
51F8
330
51F9
330
51FA
330
51FB
330
51FC
330
51FD
330
51FE
330
51FF
330
5200
330
5201
330
5202
330
5203
330
5204
330
5205
330
5206
330
5207
330
5208
330
5209
330
520A
330
520B
330
521C
330
521D
330
521E
330
521F
330
5220
330
5221
330
5222
330
5223
330
5224
330
5225
330
5226
330
5227
330
52BD
330
52BE
330
52BF
330
52C0
330
52C1
330
52C2
330
52C3
330
52C4
330
52C5
330
52C6
330
52CA
330
52CB
330
52CC
330
52CD
330
52CE
330
52CF
330
52D0
330
52D1
330
52D2
330
52D3
330
52D4
330
52D5
330
52D6
330
52D7
330
52D8
330
52DA
330
52DB
330
52DC
330
52DD
330
52DE
330
52DF
330
52E0
330
5356
330
5357
330
550A
330
550B
330
550C
330
550D
330
550E
330
5532
330
553B
330
5541
330
554C
330
554D
330
554E
330
5554
330
555A
330
555B
330
5563
330
5565
330
5566
330
556D
330
556E
330
556F
330
5575
330
5576
330
5577
330
5578
330
5579
330
557A
330
557B
330
557C
330
557D
330
557E
330
557F
330
5580
330
5581
330
5582
330
5587
330
55A5
330
55A9
330
55AB
330
55AD
330
55AF
330
55B0
330
55B1
330
55BF
330
55D8
  0
IDBUFFER
  5
5386
330
0
100
AcDbIdBuffer
330
3F3F
330
3F6E
  0
IDBUFFER
  5
5387
330
0
100
AcDbIdBuffer
330
4F94
330
4F95
330
4F96
330
4F97
330
4F98
330
4F99
330
4F9A
330
4F9B
330
4F9C
330
4F9D
330
4F9E
330
4F9F
330
4FA0
330
4FA1
330
4FA2
330
4FA3
330
4FA4
330
4FA5
330
4FA6
330
4FA7
330
4FA8
330
4FA9
330
4FAA
330
4FAB
330
4FAC
330
4FAD
330
4FAE
330
4FAF
330
4FB0
330
4FB1
330
4FB2
330
4FB3
330
4FB4
330
4FB5
330
4FB6
330
4FB7
330
4FB8
330
4FB9
330
4FBA
330
4FBB
330
4FBC
330
4FBD
330
4FBE
330
4FBF
330
4FC0
330
4FC1
330
4FC2
330
4FC3
330
4FC4
330
4FC5
330
4FC6
330
4FC7
330
4FC8
330
4FC9
330
4FCA
330
4FCB
330
4FCD
330
4FCE
330
4FCF
330
4FD1
330
4FD2
330
4FD3
330
4FD4
330
4FD5
330
4FD6
330
4FD7
330
4FD8
330
4FD9
330
4FDA
330
4FDB
330
4FDC
330
4FDD
330
4FDE
330
4FE0
330
4FE1
330
4FE2
330
4FE5
330
4FE6
330
4FE7
330
4FE8
330
4FE9
330
4FEA
330
4FEC
330
4FED
330
4FEF
330
4FF0
330
4FF2
330
4FF3
330
4FF4
330
4FF5
330
4FF6
330
4FF8
330
4FF9
330
4FFA
330
4FFB
330
4FFC
330
4FFD
330
4FFE
330
5000
330
5001
330
5002
330
5003
330
5004
330
5005
330
5006
330
5007
330
5008
330
5009
330
500A
330
500B
330
500C
330
500D
330
500E
330
500F
330
5010
330
5011
330
5012
330
5015
330
5016
330
5017
330
5018
330
5019
330
501A
330
501B
330
501C
330
501D
330
501F
330
5021
330
5022
330
5023
330
5024
330
5025
330
5026
330
5027
330
5028
330
5029
330
502A
330
502B
330
502C
330
502D
330
502E
330
502F
330
5030
330
5031
330
5032
330
5033
330
5036
330
5048
330
5049
330
504A
330
504B
330
504C
330
504E
330
504F
330
5050
330
5051
330
5052
330
5053
330
5054
330
5056
330
5059
330
505A
330
505B
330
505C
330
505D
330
505E
330
505F
330
5060
330
5061
330
5062
330
5063
330
5064
330
5065
330
5066
330
5067
330
5068
330
5069
330
506A
330
506D
330
506E
330
506F
330
5070
330
5071
330
5072
330
5073
330
5074
330
5075
330
5076
330
5077
330
5078
330
5079
330
507A
330
507B
330
507C
330
507D
330
507F
330
54FB
330
54FC
330
54FD
330
54FE
330
54FF
330
5500
330
5501
330
5502
330
5503
330
5504
330
5505
330
5506
330
5507
330
5508
330
5509
330
550F
330
5510
330
5511
330
5512
330
5513
330
5514
330
5515
330
5516
330
5517
330
5518
330
5519
330
551A
330
551B
330
551C
330
551D
330
551E
330
551F
330
5520
330
5521
330
5522
330
5523
330
5524
330
5525
330
5526
330
5527
330
5528
330
5529
330
552A
330
552B
330
552C
330
552D
330
552E
330
552F
330
5530
330
5531
330
5533
330
5534
330
5535
330
5536
330
5537
330
5538
330
5539
330
553A
330
553C
330
553D
330
553E
330
553F
330
5540
330
5542
330
5543
330
5544
330
5545
330
5546
330
5547
330
5548
330
5549
330
554A
330
554B
330
554F
330
5550
330
5551
330
5552
330
5553
330
5555
330
5556
330
5557
330
5558
330
5559
330
555C
330
555D
330
555E
330
555F
330
5560
330
5561
330
5562
330
5564
330
5567
330
5568
330
5569
330
556A
330
556B
330
556C
330
5570
330
5571
330
5572
330
5573
330
5574
330
5583
330
5584
330
5585
330
5586
330
5588
330
5589
330
558A
330
558B
330
558C
330
558D
330
558E
330
558F
330
5590
330
5591
330
5592
330
5593
330
5594
330
5595
330
5596
330
5597
330
5598
330
5599
330
559A
330
559B
330
559C
330
559D
330
559E
330
559F
330
55A0
330
55A1
330
55A2
330
55A3
330
55A4
330
55A6
330
55A7
330
55A8
330
55AA
330
55AC
330
55AE
330
55B2
330
55B3
330
55B4
330
55B5
330
55B6
330
55B7
330
55B8
330
55B9
330
55BA
330
55BB
330
55BC
330
55BD
330
55BE
330
55C0
330
55C1
330
55C2
330
55C3
330
55C4
330
55C5
330
55C6
330
55C7
330
55C8
330
55C9
330
55CA
330
55CB
330
55CC
330
55CD
330
55CE
330
55CF
330
55D0
330
55D1
330
55D2
330
55D3
330
55D4
330
55D5
330
55D6
330
55D7
330
55D9
330
55DA
330
55DB
330
55DC
330
55DD
330
55DE
330
55DF
330
55E0
330
55E1
330
55E2
  0
IDBUFFER
  5
5388
330
0
100
AcDbIdBuffer
  0
IDBUFFER
  5
5389
330
0
100
AcDbIdBuffer
  0
IDBUFFER
  5
538A
330
0
100
AcDbIdBuffer
  0
IDBUFFER
  5
538B
330
0
100
AcDbIdBuffer
  0
IDBUFFER
  5
538C
330
0
100
AcDbIdBuffer
330
5321
330
5322
330
5323
330
5324
330
5325
330
5326
330
5327
330
5328
330
5329
330
532A
330
532B
330
532C
330
532D
330
532E
330
532F
330
5330
  0
ENDSEC
  0
EOF
