  0
SECTION
  2
HEADER
  9
$ACADVER
  1
AC1015
  9
$ACADMAINTVER
 70
    11
  9
$DWGCODEPAGE
  3
ANSI_1252
  9
$INSBASE
 10
0.0
 20
0.0
 30
0.0
  9
$EXTMIN
 10
8.330764438056093
 20
7.933472151918067
 30
-0.0000000000000005
  9
$EXTMAX
 10
30.33336937027516
 20
24.69103878479099
 30
0.0000000000000148
  9
$LIMMIN
 10
0.0
 20
0.0
  9
$LIMMAX
 10
12.0
 20
9.0
  9
$ORTHOMODE
 70
     0
  9
$REGENMODE
 70
     1
  9
$FILLMODE
 70
     1
  9
$QTEXTMODE
 70
     0
  9
$MIRRTEXT
 70
     0
  9
$LTSCALE
 40
0.25
  9
$ATTMODE
 70
     1
  9
$TEXTSIZE
 40
0.1
  9
$TRACEWID
 40
0.05
  9
$TEXTSTYLE
  7
STANDARD
  9
$CLAYER
  8
0
  9
$CELTYPE
  6
BYLAYER
  9
$CECOLOR
 62
   256
  9
$CELTSCALE
 40
1.0
  9
$DISPSILH
 70
     0
  9
$DIMSCALE
 40
1.0
  9
$DIMASZ
 40
0.18
  9
$DIMEXO
 40
0.0625
  9
$DIMDLI
 40
0.38
  9
$DIMRND
 40
0.0
  9
$DIMDLE
 40
0.0
  9
$DIMEXE
 40
0.125
  9
$DIMTP
 40
0.0
  9
$DIMTM
 40
0.0
  9
$DIMTXT
 40
0.125
  9
$DIMCEN
 40
0.09
  9
$DIMTSZ
 40
0.0
  9
$DIMTOL
 70
     0
  9
$DIMLIM
 70
     0
  9
$DIMTIH
 70
     1
  9
$DIMTOH
 70
     1
  9
$DIMSE1
 70
     0
  9
$DIMSE2
 70
     0
  9
$DIMTAD
 70
     0
  9
$DIMZIN
 70
     0
  9
$DIMBLK
  1

  9
$DIMASO
 70
     0
  9
$DIMSHO
 70
     1
  9
$DIMPOST
  1

  9
$DIMAPOST
  1

  9
$DIMALT
 70
     0
  9
$DIMALTD
 70
     2
  9
$DIMALTF
 40
25.4
  9
$DIMLFAC
 40
1.0
  9
$DIMTOFL
 70
     0
  9
$DIMTVP
 40
0.0
  9
$DIMTIX
 70
     0
  9
$DIMSOXD
 70
     0
  9
$DIMSAH
 70
     0
  9
$DIMBLK1
  1

  9
$DIMBLK2
  1

  9
$DIMSTYLE
  2
STANDARD
  9
$DIMCLRD
 70
     0
  9
$DIMCLRE
 70
     0
  9
$DIMCLRT
 70
     0
  9
$DIMTFAC
 40
1.0
  9
$DIMGAP
 40
0.09
  9
$DIMJUST
 70
     0
  9
$DIMSD1
 70
     0
  9
$DIMSD2
 70
     0
  9
$DIMTOLJ
 70
     1
  9
$DIMTZIN
 70
     0
  9
$DIMALTZ
 70
     0
  9
$DIMALTTZ
 70
     0
  9
$DIMUPT
 70
     0
  9
$DIMDEC
 70
     4
  9
$DIMTDEC
 70
     4
  9
$DIMALTU
 70
     2
  9
$DIMALTTD
 70
     2
  9
$DIMTXSTY
  7
STANDARD
  9
$DIMAUNIT
 70
     0
  9
$DIMADEC
 70
     0
  9
$DIMALTRND
 40
0.0
  9
$DIMAZIN
 70
     0
  9
$DIMDSEP
 70
    46
  9
$DIMATFIT
 70
     3
  9
$DIMFRAC
 70
     0
  9
$DIMLDRBLK
  1

  9
$DIMLUNIT
 70
     2
  9
$DIMLWD
 70
    -2
  9
$DIMLWE
 70
    -2
  9
$DIMTMOVE
 70
     0
  9
$LUNITS
 70
     2
  9
$LUPREC
 70
     4
  9
$SKETCHINC
 40
0.1
  9
$FILLETRAD
 40
0.0
  9
$AUNITS
 70
     0
  9
$AUPREC
 70
     0
  9
$MENU
  1
.
  9
$ELEVATION
 40
0.0
  9
$PELEVATION
 40
0.0
  9
$THICKNESS
 40
0.0
  9
$LIMCHECK
 70
     0
  9
$CHAMFERA
 40
0.5
  9
$CHAMFERB
 40
0.5
  9
$CHAMFERC
 40
1.0
  9
$CHAMFERD
 40
0.0
  9
$SKPOLY
 70
     0
  9
$TDCREATE
 40
2450708.349033448
  9
$TDUCREATE
 40
2450708.557366782
  9
$TDUPDATE
 40
2452891.558314884
  9
$TDUUPDATE
 40
2452891.766648217
  9
$TDINDWG
 40
1.9086432870
  9
$TDUSRTIMER
 40
1.9086431019
  9
$USRTIMER
 70
     1
  9
$ANGBASE
 50
0.0
  9
$ANGDIR
 70
     0
  9
$PDMODE
 70
    35
  9
$PDSIZE
 40
0.0
  9
$PLINEWID
 40
0.0
  9
$SPLFRAME
 70
     0
  9
$SPLINETYPE
 70
     6
  9
$SPLINESEGS
 70
     8
  9
$HANDSEED
  5
57E0
  9
$SURFTAB1
 70
     6
  9
$SURFTAB2
 70
     6
  9
$SURFTYPE
 70
     6
  9
$SURFU
 70
     6
  9
$SURFV
 70
     6
  9
$UCSBASE
  2

  9
$UCSNAME
  2

  9
$UCSORG
 10
8.333017992887789
 20
7.689530864144758
 30
0.0
  9
$UCSXDIR
 10
1.0
 20
0.0
 30
0.0
  9
$UCSYDIR
 10
0.0
 20
1.0
 30
0.0
  9
$UCSORTHOREF
  2

  9
$UCSORTHOVIEW
 70
     0
  9
$UCSORGTOP
 10
0.0
 20
0.0
 30
0.0
  9
$UCSORGBOTTOM
 10
0.0
 20
0.0
 30
0.0
  9
$UCSORGLEFT
 10
0.0
 20
0.0
 30
0.0
  9
$UCSORGRIGHT
 10
0.0
 20
0.0
 30
0.0
  9
$UCSORGFRONT
 10
0.0
 20
0.0
 30
0.0
  9
$UCSORGBACK
 10
0.0
 20
0.0
 30
0.0
  9
$PUCSBASE
  2

  9
$PUCSNAME
  2

  9
$PUCSORG
 10
0.0
 20
0.0
 30
0.0
  9
$PUCSXDIR
 10
1.0
 20
0.0
 30
0.0
  9
$PUCSYDIR
 10
0.0
 20
1.0
 30
0.0
  9
$PUCSORTHOREF
  2

  9
$PUCSORTHOVIEW
 70
     0
  9
$PUCSORGTOP
 10
0.0
 20
0.0
 30
0.0
  9
$PUCSORGBOTTOM
 10
0.0
 20
0.0
 30
0.0
  9
$PUCSORGLEFT
 10
0.0
 20
0.0
 30
0.0
  9
$PUCSORGRIGHT
 10
0.0
 20
0.0
 30
0.0
  9
$PUCSORGFRONT
 10
0.0
 20
0.0
 30
0.0
  9
$PUCSORGBACK
 10
0.0
 20
0.0
 30
0.0
  9
$USERI1
 70
     0
  9
$USERI2
 70
     0
  9
$USERI3
 70
     0
  9
$USERI4
 70
     0
  9
$USERI5
 70
     0
  9
$USERR1
 40
0.0
  9
$USERR2
 40
0.0
  9
$USERR3
 40
0.0
  9
$USERR4
 40
0.0
  9
$USERR5
 40
0.0
  9
$WORLDVIEW
 70
     1
  9
$SHADEDGE
 70
     3
  9
$SHADEDIF
 70
    70
  9
$TILEMODE
 70
     1
  9
$MAXACTVP
 70
    48
  9
$PINSBASE
 10
0.0
 20
0.0
 30
0.0
  9
$PLIMCHECK
 70
     0
  9
$PEXTMIN
 10
1.000000000000000E+20
 20
1.000000000000000E+20
 30
1.000000000000000E+20
  9
$PEXTMAX
 10
-1.000000000000000E+20
 20
-1.000000000000000E+20
 30
-1.000000000000000E+20
  9
$PLIMMIN
 10
0.0
 20
0.0
  9
$PLIMMAX
 10
12.0
 20
9.0
  9
$UNITMODE
 70
     0
  9
$VISRETAIN
 70
     1
  9
$PLINEGEN
 70
     0
  9
$PSLTSCALE
 70
     1
  9
$TREEDEPTH
 70
  3020
  9
$CMLSTYLE
  2
STANDARD
  9
$CMLJUST
 70
     0
  9
$CMLSCALE
 40
1.0
  9
$PROXYGRAPHICS
 70
     1
  9
$MEASUREMENT
 70
     0
  9
$CELWEIGHT
370
    -1
  9
$ENDCAPS
280
     0
  9
$JOINSTYLE
280
     0
  9
$LWDISPLAY
290
     0
  9
$INSUNITS
 70
     0
  9
$HYPERLINKBASE
  1

  9
$STYLESHEET
  1
monochrome.ctb
  9
$XEDIT
290
     1
  9
$CEPSNTYPE
380
     0
  9
$PSTYLEMODE
290
     1
  9
$FINGERPRINTGUID
  2
{21BBB917-79A7-48EA-B0E7-997A5F90763C}
  9
$VERSIONGUID
  2
{F69A5FBF-0396-4570-80BB-51531A719E0E}
  9
$EXTNAMES
290
     1
  9
$PSVPSCALE
 40
0.0
  9
$OLESTARTUP
290
     0
  0
ENDSEC
  0
SECTION
  2
CLASSES
  0
CLASS
  1
LWPOLYLINE
  2
AcDbPolyline
  3
AutoCAD 2000
 90
    32768
280
     0
281
     1
  0
CLASS
  1
DICTIONARYVAR
  2
AcDbDictionaryVar
  3
AutoCAD 2000
 90
        0
280
     0
281
     0
  0
CLASS
  1
HATCH
  2
AcDbHatch
  3
AutoCAD 2000
 90
    32768
280
     0
281
     1
  0
CLASS
  1
ACDBDICTIONARYWDFLT
  2
AcDbDictionaryWithDefault
  3
AutoCAD 2000
 90
        0
280
     0
281
     0
  0
CLASS
  1
ACDBPLACEHOLDER
  2
AcDbPlaceHolder
  3
AutoCAD 2000
 90
        0
280
     0
281
     0
  0
CLASS
  1
LAYOUT
  2
AcDbLayout
  3
AutoCAD 2000
 90
        0
280
     0
281
     0
  0
CLASS
  1
ACME_DOCUMENT
  2
AcMeDbDoc
  3
AcMeServices
 90
        0
280
     0
281
     0
  0
CLASS
  1
AMGSETTINGSOBJ
  2
AmgSettingsObj
  3
"AcadM|Product Description: AutoCAD Mechanical 2000|Company: Autodesk"
 90
        0
280
     0
281
     0
  0
CLASS
  1
ACMESCOPE
  2
AcMeScope
  3
AcMeServices
 90
        0
280
     0
281
     0
  0
CLASS
  1
ACMECOMMANDHISTORY
  2
AcMeCommandHistory
  3
AcMeServices
 90
        0
280
     0
281
     0
  0
CLASS
  1
ACIMSYSVARMAN
  2
AcImSysVarManager
  3
AcMeServices
 90
        0
280
     0
281
     0
  0
CLASS
  1
ACIMREALSYSVAR
  2
AcImRealSysVar
  3
AcMeServices
 90
        0
280
     0
281
     0
  0
CLASS
  1
ACIMINTSYSVAR
  2
AcImIntSysVar
  3
AcMeServices
 90
        0
280
     0
281
     0
  0
CLASS
  1
ACMEDRAWINGMAN
  2
AcMeDrawingMan
  3
AcMeServices
 90
        0
280
     0
281
     0
  0
CLASS
  1
ACMEVIEW
  2
AcMeView
  3
AcMeServices
 90
        0
280
     0
281
     0
  0
CLASS
  1
ACDBENTITYCACHE
  2
AcMeEntityCache
  3
AcMeServices
 90
        0
280
     0
281
     0
  0
CLASS
  1
GSMANAGER
  2
AcMeGSManager
  3
AcMeServices
 90
        0
280
     0
281
     0
  0
CLASS
  1
AMDTINTERNALREACTOR
  2
AmdtInternalReactor
  3
AcMeServices
 90
        0
280
     0
281
     0
  0
CLASS
  1
ACMESTATEMGR
  2
AcMeStateMgr
  3
AcMeServices
 90
        0
280
     0
281
     0
  0
CLASS
  1
ACGREFMASTER
  2
AcGrefMaster
  3
AcAttribServices
 90
        0
280
     0
281
     0
  0
CLASS
  1
ACME_DATABASE
  2
AcMeDbDatabase
  3
AcMeServices
 90
        0
280
     0
281
     0
  0
CLASS
  1
ACRFINSADJUSTERMGR
  2
AcRfInsAdjusterMgr
  3
AcMeServices
 90
        0
280
     0
281
     0
  0
CLASS
  1
ACGREFMASTER
  2
AcGrefacadMaster
  3
AcGrefServices
 90
        0
280
     0
281
     0
  0
CLASS
  1
AMIMASTER
  2
AmiMaster
  3
AmiServices
 90
        0
280
     0
281
     0
  0
CLASS
  1
ACMDATADICTIONARY
  2
AcmDataDictionary
  3
"AcmSymBB|Product Description: AutoCAD Mechanical 2000|Company: Autodesk"
 90
        0
280
     0
281
     0
  0
CLASS
  1
ACMDATAENTRYBLOCK
  2
AcmDataEntryBlock
  3
"AcmSymBB|Product Description: AutoCAD Mechanical 2000|Company: Autodesk"
 90
        0
280
     0
281
     0
  0
CLASS
  1
ACIMSTRSYSVAR
  2
AcImStrSysVar
  3
AcMeServices
 90
        0
280
     0
281
     0
  0
CLASS
  1
ACMSTANDARDANSI
  2
AcmStandardANSI
  3
"Amdt_StdImp|Product Description: AutoCAD Mechanical 2000|Company: Autodesk"
 90
        0
280
     0
281
     0
  0
CLASS
  1
AMGOBJPROPCFG
  2
AmgObjPropCfg
  3
"AmgLay|Product Description: AutoCAD Mechanical 2000|Company: Autodesk"
 90
        1
280
     0
281
     0
  0
CLASS
  1
ACMSURFSTANDARDANSI
  2
AcmSurfTextStdANSI
  3
"Amdt_StdImp|Product Description: AutoCAD Mechanical 2000|Company: Autodesk"
 90
        0
280
     0
281
     0
  0
CLASS
  1
ACMFCFSTANDARDANSI
  2
AcmFCFStdANSI
  3
"Amdt_StdImp|Product Description: AutoCAD Mechanical 2000|Company: Autodesk"
 90
        0
280
     0
281
     0
  0
CLASS
  1
ACMWELDSTANDARDANSI
  2
AcmWeldingStdANSI
  3
"Amdt_StdImp|Product Description: AutoCAD Mechanical 2000|Company: Autodesk"
 90
        0
280
     0
281
     0
  0
CLASS
  1
ACMIDSTANDARDANSI
  2
AcmIdStdANSI
  3
"Amdt_StdImp|Product Description: AutoCAD Mechanical 2000|Company: Autodesk"
 90
        0
280
     0
281
     0
  0
CLASS
  1
ACMDATUMSTANDARDANSI
  2
AcmDatumStdANSI
  3
"Amdt_StdImp|Product Description: AutoCAD Mechanical 2000|Company: Autodesk"
 90
        0
280
     0
281
     0
  0
CLASS
  1
ACMBOMSTANDARDANSI
  2
AcmBOMStdANSI
  3
"Amdt_StdImp|Product Description: AutoCAD Mechanical 2000|Company: Autodesk"
 90
        0
280
     0
281
     0
  0
CLASS
  1
ACMDETAILSTANDARDANSI
  2
AmdtDetailSymStdANSI
  3
"Amdt_StdImp|Product Description: AutoCAD Mechanical 2000|Company: Autodesk"
 90
        0
280
     0
281
     0
  0
CLASS
  1
ACMSECTIONSTANDARDANSI
  2
AmdtSectionSymStdANSI
  3
"Amdt_StdImp|Product Description: AutoCAD Mechanical 2000|Company: Autodesk"
 90
        0
280
     0
281
     0
  0
CLASS
  1
ACMCENTERLINESTANDARDANSI
  2
AmdtCenterLineStdANSI
  3
"Amdt_StdImp|Product Description: AutoCAD Mechanical 2000|Company: Autodesk"
 90
        0
280
     0
281
     0
  0
CLASS
  1
ACMTHREADLINESTANDARDANSI
  2
AmdtThreadLineStdANSI
  3
"Amdt_StdImp|Product Description: AutoCAD Mechanical 2000|Company: Autodesk"
 90
        0
280
     0
281
     0
  0
CLASS
  1
"AcAmgLayStd"
  2
AcAmgLayStd
  3
"AcAmgLayStd|Product Description: AutoCAD Mechanical 2000|Company: Autodesk"
 90
        0
280
     0
281
     0
  0
CLASS
  1
"AcAmgDimStd"
  2
AcAmgDimStd
  3
"AcAmgDimStd|Product Description: AutoCAD Mechanical 2000|Company: Autodesk"
 90
        0
280
     0
281
     0
  0
CLASS
  1
AcAmgTitleStd
  2
AcAmgTitleStd
  3
"TITLEAPP"
 90
        0
280
     0
281
     0
  0
CLASS
  1
ACAMGFILTERDAT
  2
AcAmgFilterDat
  3
"AcadM|Product Description: AutoCAD Mechanical 2000|Company: Autodesk"
 90
        0
280
     0
281
     0
  0
CLASS
  1
AMDTFORMULAUPDATEDISPATCHER
  2
AmdtFormulaUpdateDispatcher
  3
AcMeServices
 90
        0
280
     0
281
     0
  0
CLASS
  1
LAYER_INDEX
  2
AcDbLayerIndex
  3
AutoCAD 2000
 90
        0
280
     0
281
     0
  0
CLASS
  1
IDBUFFER
  2
AcDbIdBuffer
  3
AutoCAD 2000
 90
        0
280
     0
281
     0
  0
ENDSEC
  0
SECTION
  2
TABLES
  0
TABLE
  2
VPORT
  5
8
330
0
100
AcDbSymbolTable
 70
     6
  0
VPORT
  5
57BF
330
8
100
AcDbSymbolTableRecord
100
AcDbViewportTableRecord
  2
*Active
 70
     0
 10
0.0
 20
0.0
 11
1.0
 21
1.0
 12
19.33206690416562
 22
16.31225546835453
 13
0.0
 23
0.0
 14
0.125
 24
0.125
 15
0.5
 25
0.5
 16
0.0
 26
0.0
 36
1.0
 17
0.0
 27
0.0
 37
0.0
 40
16.93520868198464
 41
1.607079646017699
 42
50.0
 43
0.0
 44
0.0
 50
0.0
 51
0.0
 71
     0
 72
  2000
 73
     1
 74
     0
 75
     0
 76
     0
 77
     0
 78
     0
281
     0
 65
     1
110
8.333017992887789
120
7.689530864144758
130
0.0
111
1.0
121
0.0
131
0.0
112
0.0
122
1.0
132
0.0
 79
     0
146
0.0
  0
ENDTAB
  0
TABLE
  2
LTYPE
  5
5
330
0
100
AcDbSymbolTable
 70
    27
  0
LTYPE
  5
12
330
5
100
AcDbSymbolTableRecord
100
AcDbLinetypeTableRecord
  2
BYBLOCK
 70
     0
  3

 72
    65
 73
     0
 40
0.0
  0
LTYPE
  5
13
330
5
100
AcDbSymbolTableRecord
100
AcDbLinetypeTableRecord
  2
BYLAYER
 70
     0
  3

 72
    65
 73
     0
 40
0.0
  0
LTYPE
  5
14
330
5
100
AcDbSymbolTableRecord
100
AcDbLinetypeTableRecord
  2
CONTINUOUS
 70
     0
  3
Solid line
 72
    65
 73
     0
 40
0.0
  0
LTYPE
  5
5B3
330
5
100
AcDbSymbolTableRecord
100
AcDbLinetypeTableRecord
  2
HIDDEN
 70
     0
  3
_ _ _ _ _ _ _ _ _ _ _ _ _ _ _ _ _ _ _ _ _ _ _
 72
    65
 73
     2
 40
0.375
 49
0.25
 74
     0
 49
-0.125
 74
     0
  0
LTYPE
  5
3B68
330
5
100
AcDbSymbolTableRecord
100
AcDbLinetypeTableRecord
  2
CENTER
 70
     0
  3
____ _ ____ _ ____ _ ____ _ ____ _ ____ _ ____ 
 72
    65
 73
     4
 40
2.0
 49
1.25
 74
     0
 49
-0.25
 74
     0
 49
0.25
 74
     0
 49
-0.25
 74
     0
  0
LTYPE
  5
41BF
330
5
100
AcDbSymbolTableRecord
100
AcDbLinetypeTableRecord
  2
L10
 70
     0
  3
L10
 72
    65
 73
     0
 40
0.0
  0
LTYPE
  5
41C0
330
5
100
AcDbSymbolTableRecord
100
AcDbLinetypeTableRecord
  2
LDM
 70
     0
  3
LDM
 72
    65
 73
     0
 40
0.0
  0
LTYPE
  5
4523
330
5
100
AcDbSymbolTableRecord
100
AcDbLinetypeTableRecord
  2
MS
 70
     0
  3
MEDIUM_SOLID
 72
    65
 73
     0
 40
0.0
  0
LTYPE
  5
47B5
330
5
100
AcDbSymbolTableRecord
100
AcDbLinetypeTableRecord
  2
AM_ISO02W050
 70
     0
  3
__ __ __ __ __ __ __ __ __ __ __ __ __ __ __
 72
    65
 73
     2
 40
7.5
 49
6.0
 74
     0
 49
-1.5
 74
     0
  0
LTYPE
  5
47B6
330
5
100
AcDbSymbolTableRecord
100
AcDbLinetypeTableRecord
  2
AM_ISO08W050
 70
     0
  3
____ . ____ . ____ . ____ . ____ . ____ . ____
 72
    65
 73
     4
 40
18.0
 49
12.0
 74
     0
 49
-1.5
 74
     0
 49
3.0
 74
     0
 49
-1.5
 74
     0
  0
LTYPE
  5
47B7
330
5
100
AcDbSymbolTableRecord
100
AcDbLinetypeTableRecord
  2
AM_ISO09W050
 70
     0
  3
_____ . . _____ . . _____ . . ____ .. ____
 72
    65
 73
     6
 40
22.5
 49
12.0
 74
     0
 49
-1.5
 74
     0
 49
3.0
 74
     0
 49
-1.5
 74
     0
 49
3.0
 74
     0
 49
-1.5
 74
     0
  0
LTYPE
  5
47B8
330
5
100
AcDbSymbolTableRecord
100
AcDbLinetypeTableRecord
  2
Amconstr
 70
     0
  3
_______________________
 72
    65
 73
     2
 40
9999.0
 49
9999.0
 74
     0
 49
0.0
 74
     0
  0
LTYPE
  5
47B9
330
5
100
AcDbSymbolTableRecord
100
AcDbLinetypeTableRecord
  2
AM_ISO08W050x2
 70
     0
  3
__ . __ . __ . __ . __ . __
 72
    65
 73
     4
 40
9.0
 49
6.0
 74
     0
 49
-0.75
 74
     0
 49
1.5
 74
     0
 49
-0.75
 74
     0
  0
LTYPE
  5
47BA
330
5
100
AcDbSymbolTableRecord
100
AcDbLinetypeTableRecord
  2
AM_ISO02W050x2
 70
     0
  3
 _ _ _ _ _ _ _ _ _ _ _ _
 72
    65
 73
     2
 40
3.75
 49
3.0
 74
     0
 49
-0.75
 74
     0
  0
LTYPE
  5
47BD
330
5
100
AcDbSymbolTableRecord
100
AcDbLinetypeTableRecord
  2
Amzigzag
 70
     0
  3
/\/-/\/-/\/-/\/-/\/-/\/
 72
    65
 73
     2
 40
11.00009999999999
 49
0.0001
 74
     4
 75
   135
340
47BC
 46
0.04
 50
0.0
 44
0.0
 45
0.0
 49
-11.0
 74
     0
  0
LTYPE
  5
47BE
330
5
100
AcDbSymbolTableRecord
100
AcDbLinetypeTableRecord
  2
PHANTOM2
 70
     0
  3
Phantom (.5x) ___ _ _ ___ _ _ ___ _ _ ___ _ _
 72
    65
 73
     6
 40
1.25
 49
0.625
 74
     0
 49
-0.125
 74
     0
 49
0.125
 74
     0
 49
-0.125
 74
     0
 49
0.125
 74
     0
 49
-0.125
 74
     0
  0
LTYPE
  5
47BF
330
5
100
AcDbSymbolTableRecord
100
AcDbLinetypeTableRecord
  2
CENTER2
 70
     0
  3
Center (.5x) ___ _ ___ _ ___ _ ___ _ ___ _ ___
 72
    65
 73
     4
 40
1.125
 49
0.75
 74
     0
 49
-0.125
 74
     0
 49
0.125
 74
     0
 49
-0.125
 74
     0
  0
LTYPE
  5
47C0
330
5
100
AcDbSymbolTableRecord
100
AcDbLinetypeTableRecord
  2
HIDDEN2
 70
     0
  3
Hidden (.5x) _ _ _ _ _ _ _ _ _ _ _ _ _ _ _ _ _
 72
    65
 73
     2
 40
0.1875
 49
0.125
 74
     0
 49
-0.0625
 74
     0
  0
LTYPE
  5
47C1
330
5
100
AcDbSymbolTableRecord
100
AcDbLinetypeTableRecord
  2
Amzigzag2
 70
     0
  3
/\/-/\/-/\/-/\/-/\/-/\/
 72
    65
 73
     2
 40
0.4401
 49
0.0001
 74
     4
 75
   135
340
47BC
 46
0.0016
 50
0.0
 44
0.0
 45
0.0
 49
-0.4400000000000001
 74
     0
  0
LTYPE
  5
47CE
330
5
100
AcDbSymbolTableRecord
100
AcDbLinetypeTableRecord
  2
ACANSTGB
 70
     0
  3
__ . . __ . .
 72
    65
 73
     6
 40
0.35433070866
 49
0.15748031496
 74
     0
 49
-0.03937007874
 74
     0
 49
0.03937007874
 74
     0
 49
-0.03937007874
 74
     0
 49
0.03937007874
 74
     0
 49
-0.03937007874
 74
     0
  0
LTYPE
  5
47CF
330
5
100
AcDbSymbolTableRecord
100
AcDbLinetypeTableRecord
  2
ACANSTGL
 70
     0
  3
_ _ _ _ _
 72
    65
 73
     2
 40
0.11811023622
 49
0.07874015748
 74
     0
 49
-0.03937007874
 74
     0
  0
LTYPE
  5
47E7
330
5
100
AcDbSymbolTableRecord
100
AcDbLinetypeTableRecord
  2
gen3
 70
     0
  3
-- -- -- -- -- -- -- -- -- -- -- -- -- -- --
 72
    65
 73
     2
 40
6.25
 49
4.75
 74
     0
 49
-1.5
 74
     0
  0
LTYPE
  5
47E8
330
5
100
AcDbSymbolTableRecord
100
AcDbLinetypeTableRecord
  2
gen7
 70
     0
  3
____ . ____ . ____ . ____ . ____ . ____ . ____
 72
    65
 73
     4
 40
13.75
 49
9.75
 74
     0
 49
-1.5
 74
     0
 49
1.0
 74
     0
 49
-1.5
 74
     0
  0
LTYPE
  5
47E9
330
5
100
AcDbSymbolTableRecord
100
AcDbLinetypeTableRecord
  2
gen3a
 70
     0
  3
 - - - - -
 72
    65
 73
     2
 40
3.125
 49
2.25
 74
     0
 49
-0.875
 74
     0
  0
LTYPE
  5
47EA
330
5
100
AcDbSymbolTableRecord
100
AcDbLinetypeTableRecord
  2
gen7a
 70
     0
  3
__ . __ . __
 72
    65
 73
     4
 40
6.875
 49
4.75
 74
     0
 49
-0.875
 74
     0
 49
0.375
 74
     0
 49
-0.875
 74
     0
  0
LTYPE
  5
47EB
330
5
100
AcDbSymbolTableRecord
100
AcDbLinetypeTableRecord
  2
gen4a
 70
     0
  3
_____ . . _____ . . _____ . . ____ .. ____
 72
    65
 73
     6
 40
16.25
 49
9.75
 74
     0
 49
-1.5
 74
     0
 49
1.0
 74
     0
 49
-1.5
 74
     0
 49
1.0
 74
     0
 49
-1.5
 74
     0
  0
LTYPE
  5
47EC
330
5
100
AcDbSymbolTableRecord
100
AcDbLinetypeTableRecord
  2
genzigzag
 70
     0
  3
/\/-/\/-/\/-/\/-/\/-/\/
 72
    65
 73
     2
 40
12.0001
 49
0.0001
 74
     4
 75
   135
340
47EE
 46
2.0
 50
0.0
 44
0.0
 45
0.0
 49
-12.0
 74
     0
  0
LTYPE
  5
50C2
330
5
100
AcDbSymbolTableRecord
100
AcDbLinetypeTableRecord
  2
LS
 70
     0
  3
LIGHT_SOLID
 72
    65
 73
     0
 40
0.0
  0
LTYPE
  5
50C3
330
5
100
AcDbSymbolTableRecord
100
AcDbLinetypeTableRecord
  2
LP
 70
     0
  3
LIGHT_PHANTOM
 72
    65
 73
     6
 40
1.5
 49
0.75
 74
     0
 49
-0.14999998
 74
     0
 49
0.14999998
 74
     0
 49
-0.14999998
 74
     0
 49
0.14999998
 74
     0
 49
-0.14999998
 74
     0
  0
ENDTAB
  0
TABLE
  2
LAYER
  5
2
330
0
100
AcDbSymbolTable
 70
     8
  0
LAYER
  5
E
330
2
100
AcDbSymbolTableRecord
100
AcDbLayerTableRecord
  2
0
 70
     0
 62
     7
  6
CONTINUOUS
370
    -3
390
4189
  0
LAYER
  5
3B6A
330
2
100
AcDbSymbolTableRecord
100
AcDbLayerTableRecord
  2
DEFPOINTS
 70
     0
 62
     7
  6
CONTINUOUS
290
     0
370
    -3
390
4189
  0
LAYER
  5
41C1
330
2
100
AcDbSymbolTableRecord
100
AcDbLayerTableRecord
  2
500
 70
     0
 62
     7
  6
CONTINUOUS
370
    -3
390
4189
  0
LAYER
  5
41C2
330
2
100
AcDbSymbolTableRecord
100
AcDbLayerTableRecord
  2
4
 70
     0
 62
     7
  6
CONTINUOUS
370
    -3
390
4189
  0
LAYER
  5
4524
330
2
100
AcDbSymbolTableRecord
100
AcDbLayerTableRecord
  2
BORDER
 70
     0
 62
    15
  6
CONTINUOUS
370
    -3
390
4189
  0
LAYER
  5
4525
330
2
100
AcDbSymbolTableRecord
100
AcDbLayerTableRecord
  2
Title Block
 70
     0
 62
     2
  6
CONTINUOUS
370
    -3
390
4189
  0
LAYER
  5
47ED
330
2
100
AcDbSymbolTableRecord
100
AcDbLayerTableRecord
  2
L0
 70
     0
 62
    20
  6
CONTINUOUS
370
    -3
390
4189
  0
LAYER
  5
54DB
330
2
100
AcDbSymbolTableRecord
100
AcDbLayerTableRecord
  2
1
 70
     0
 62
     7
  6
CONTINUOUS
370
    -3
390
4189
  0
ENDTAB
  0
TABLE
  2
STYLE
  5
3
330
0
100
AcDbSymbolTable
 70
    16
  0
STYLE
  5
F
330
3
100
AcDbSymbolTableRecord
100
AcDbTextStyleTableRecord
  2
STANDARD
 70
     0
 40
0.0
 41
1.0
 50
0.0
 71
     0
 42
0.1
  3
romans.shx
  4

  0
STYLE
  5
E3
330
3
100
AcDbSymbolTableRecord
100
AcDbTextStyleTableRecord
  2
ROMANS
 70
     0
 40
0.0
 41
1.0
 50
0.0
 71
     0
 42
0.09375
  3
romans
  4

  0
STYLE
  5
E5
330
3
100
AcDbSymbolTableRecord
100
AcDbTextStyleTableRecord
  2
ROMANS_HLF
 70
     0
 40
0.0
 41
0.5
 50
0.0
 71
     0
 42
0.062
  3
C:\ACADWIN\FONTS\ROMANS.SHX
  4

  0
STYLE
  5
EB6
330
3
100
AcDbSymbolTableRecord
100
AcDbTextStyleTableRecord
  2
ARIEL_B
 70
     0
 40
0.0
 41
1.0
 50
0.0
 71
     0
 42
0.125
  3
ARIALBD.TTF
  4

1001
ACAD
1000
Arial
1071
 33554466
  0
STYLE
  5
EB7
330
3
100
AcDbSymbolTableRecord
100
AcDbTextStyleTableRecord
  2
ARIEL_SP
 70
     0
 40
0.0
 41
1.12
 50
0.0
 71
     0
 42
0.18
  3

  4

1001
ACAD
1000
Arial Narrow Special G1
1071
 33554978
  0
STYLE
  5
EB8
330
3
100
AcDbSymbolTableRecord
100
AcDbTextStyleTableRecord
  2
TIMES_NEW
 70
     0
 40
0.0
 41
1.0
 50
0.0
 71
     0
 42
0.1
  3
TIMESBD.TTF
  4

1001
ACAD
1000
Times New Roman
1071
 33554450
  0
STYLE
  5
EB9
330
3
100
AcDbSymbolTableRecord
100
AcDbTextStyleTableRecord
  2
ARIEL
 70
     0
 40
0.0
 41
1.0
 50
0.0
 71
     0
 42
0.1
  3
ARIAL.TTF
  4

1001
ACAD
1000
Arial
1071
       34
  0
STYLE
  5
41C3
330
3
100
AcDbSymbolTableRecord
100
AcDbTextStyleTableRecord
  2
T1
 70
     0
 40
4.0
 41
0.9
 50
0.0
 71
     0
 42
0.0
  3
medtext
  4

  0
STYLE
  5
41C4
330
3
100
AcDbSymbolTableRecord
100
AcDbTextStyleTableRecord
  2
TDM
 70
     0
 40
4.0
 41
0.9
 50
0.0
 71
     0
 42
0.0
  3
medtext
  4

  0
STYLE
  5
4526
330
3
100
AcDbSymbolTableRecord
100
AcDbTextStyleTableRecord
  2
AE
 70
     0
 40
0.0
 41
1.0
 50
0.0
 71
     0
 42
0.16408998
  3
MIGRATOR
  4

  0
STYLE
  5
4527
330
3
100
AcDbSymbolTableRecord
100
AcDbTextStyleTableRecord
  2

 70
     1
 40
0.0
 41
1.0
 50
0.0
 71
     0
 42
1.0
  3
symtb128
  4

  0
STYLE
  5
47BC
330
3
100
AcDbSymbolTableRecord
100
AcDbTextStyleTableRecord
  2

 70
     1
 40
0.0
 41
1.0
 50
0.0
 71
     0
 42
0.125
  3
ltypeshp.shx
  4

  0
STYLE
  5
47C2
330
3
100
AcDbSymbolTableRecord
100
AcDbTextStyleTableRecord
  2
ACANSTS
 70
     0
 40
1.0
 41
1.0
 50
0.0
 71
     0
 42
0.125
  3
romans.shx
  4

  0
STYLE
  5
47CD
330
3
100
AcDbSymbolTableRecord
100
AcDbTextStyleTableRecord
  2
ACANSGDT
 70
     0
 40
0.0
 41
1.0
 50
0.0
 71
     0
 42
0.125
  3
amgdtans.shx
  4

  0
STYLE
  5
47EE
330
3
100
AcDbSymbolTableRecord
100
AcDbTextStyleTableRecord
  2

 70
     1
 40
0.0
 41
1.0
 50
0.0
 71
     0
 42
2.5
  3
genltshp.shx
  4

  0
STYLE
  5
54DC
330
3
100
AcDbSymbolTableRecord
100
AcDbTextStyleTableRecord
  2
SIMPLEX
 70
     0
 40
0.0938
 41
1.0
 50
0.0
 71
     0
 42
0.0938
  3
C:\ACADWIN\FONTS\SIMPLEX.SHX
  4

  0
ENDTAB
  0
TABLE
  2
VIEW
  5
6
330
0
100
AcDbSymbolTable
 70
     0
  0
ENDTAB
  0
TABLE
  2
UCS
  5
7
330
0
100
AcDbSymbolTable
 70
     0
  0
ENDTAB
  0
TABLE
  2
APPID
  5
9
330
0
100
AcDbSymbolTable
 70
     7
  0
APPID
  5
10
330
9
100
AcDbSymbolTableRecord
100
AcDbRegAppTableRecord
  2
ACAD
 70
     0
  0
APPID
  5
4529
330
9
100
AcDbSymbolTableRecord
100
AcDbRegAppTableRecord
  2
GENIUS_GENBLLY_14
 70
     0
  0
APPID
  5
452A
330
9
100
AcDbSymbolTableRecord
100
AcDbRegAppTableRecord
  2
GENIUS_GENTRA_14
 70
     0
  0
APPID
  5
4796
330
9
100
AcDbSymbolTableRecord
100
AcDbRegAppTableRecord
  2
MCAD_NO_VIS
 70
     0
  0
APPID
  5
4797
330
9
100
AcDbSymbolTableRecord
100
AcDbRegAppTableRecord
  2
ACAD_TEMP_GRAPHIC
 70
     0
  0
APPID
  5
47A9
330
9
100
AcDbSymbolTableRecord
100
AcDbRegAppTableRecord
  2
ACATTRIBSERVICES
 70
     0
  0
APPID
  5
4946
330
9
100
AcDbSymbolTableRecord
100
AcDbRegAppTableRecord
  2
DCO15
 70
     0
  0
ENDTAB
  0
TABLE
  2
DIMSTYLE
  5
A
330
0
100
AcDbSymbolTable
 70
    15
100
AcDbDimStyleTable
 71
     1
340
1D
  0
DIMSTYLE
105
1D
330
A
100
AcDbSymbolTableRecord
100
AcDbDimStyleTableRecord
  2
STANDARD
 70
     0
340
F
  0
DIMSTYLE
105
41C5
330
A
100
AcDbSymbolTableRecord
100
AcDbDimStyleTableRecord
  2
MEDDIM
 70
     0
 45
0.01
 78
    12
146
0.7
172
     1
176
     7
177
     7
178
     7
273
     4
277
     4
279
     2
340
F
  0
DIMSTYLE
105
4528
330
A
100
AcDbSymbolTableRecord
100
AcDbDimStyleTableRecord
  2
GEN-ANSI
 70
     0
  3
<>
  4
mm
 41
0.14
 42
0.125
 43
0.5
 44
0.125
 47
0.1
 48
0.1
 73
     0
 74
     0
 77
     1
 78
     7
140
0.12
141
0.0
146
0.71
147
0.06
176
   256
177
   256
178
     2
274
     4
340
F
  0
DIMSTYLE
105
47D2
330
A
100
AcDbSymbolTableRecord
100
AcDbDimStyleTableRecord
  2
AM_ANSI
 70
     0
  4
mm
 41
0.1
 42
0.05
 43
0.5
 44
0.1
 47
0.1
 48
0.1
 78
     7
 79
     2
140
0.12
141
0.0
146
0.71
147
0.06
176
   256
177
   256
178
     2
274
     4
284
     7
340
F
371
    -1
372
    -1
  0
DIMSTYLE
105
47D3
330
A
100
AcDbSymbolTableRecord
100
AcDbDimStyleTableRecord
  2
AM_ANSI$3
 70
     0
  4
mm
 41
0.1
 42
0.05
 43
0.5
 44
0.1
 47
0.1
 48
0.1
 78
     7
 79
     2
140
0.12
141
0.0
146
0.71
147
0.06
176
   256
177
   256
178
     2
274
     4
284
     7
288
     1
289
     0
340
F
371
    -1
372
    -1
  0
DIMSTYLE
105
47D4
330
A
100
AcDbSymbolTableRecord
100
AcDbDimStyleTableRecord
  2
AM_ANSI$4
 70
     0
  4
mm
 41
0.1
 42
0.05
 43
0.5
 44
0.1
 47
0.1
 48
0.1
 78
     7
 79
     2
140
0.12
141
0.0
146
0.71
147
0.06
176
   256
177
   256
178
     2
274
     4
284
     7
288
     1
289
     0
340
F
371
    -1
372
    -1
  0
DIMSTYLE
105
47D5
330
A
100
AcDbSymbolTableRecord
100
AcDbDimStyleTableRecord
  2
AM_ANSI$7
 70
     0
  4
mm
 41
0.1
 42
0.05
 43
0.5
 44
0.1
 47
0.1
 48
0.1
 78
     7
 79
     2
140
0.24
141
0.0
146
0.71
147
0.06
176
   256
177
   256
178
     2
274
     4
284
     7
340
F
371
    -1
372
    -1
  0
DIMSTYLE
105
47D6
330
A
100
AcDbSymbolTableRecord
100
AcDbDimStyleTableRecord
  2
AM_ANSI$SF
 70
     0
  4
mm
 41
0.1
 42
0.05
 43
0.5
 44
0.1
 47
0.1
 48
0.1
 75
     1
 76
     1
 78
     7
 79
     2
140
0.12
141
0.0
146
0.71
147
0.06
176
   256
177
   256
178
     2
274
     4
284
     7
340
F
371
    -1
372
    -1
  0
DIMSTYLE
105
47DB
330
A
100
AcDbSymbolTableRecord
100
AcDbDimStyleTableRecord
  2
AM_ANSI$SH
 70
     0
  4
mm
 41
0.1
 42
0.05
 43
0.5
 44
0.1
 47
0.1
 48
0.1
 75
     1
 76
     1
 78
     7
 79
     2
140
0.12
141
0.0
146
0.71
147
0.06
173
     1
176
   256
177
   256
178
     2
274
     4
284
     7
340
F
343
47D7
371
    -1
372
    -1
  0
DIMSTYLE
105
47EF
330
A
100
AcDbSymbolTableRecord
100
AcDbDimStyleTableRecord
  2
GEN-ANSI$3
 70
     0
  3
<>
  4
mm
 41
0.14
 42
0.125
 43
0.5
 44
0.125
 47
0.1
 48
0.1
 78
     7
140
0.12
141
0.0
146
0.71
147
0.06
176
   256
177
   256
178
     2
274
     4
288
     1
289
     0
340
F
  0
DIMSTYLE
105
47F0
330
A
100
AcDbSymbolTableRecord
100
AcDbDimStyleTableRecord
  2
GEN-ANSI$4
 70
     0
  3
<>
  4
mm
 41
0.14
 42
0.125
 43
0.5
 44
0.125
 47
0.1
 48
0.1
 78
     7
140
0.12
141
0.0
146
0.71
147
0.06
176
   256
177
   256
178
     2
274
     4
288
     1
289
     0
340
F
  0
DIMSTYLE
105
47F1
330
A
100
AcDbSymbolTableRecord
100
AcDbDimStyleTableRecord
  2
GEN-ANSI$6
 70
     0
  3
<>
  4
mm
 41
0.14
 42
0.125
 43
0.5
 44
0.125
 47
0.1
 48
0.1
 78
     7
140
0.12
141
0.0
146
0.71
147
0.06
176
   256
177
   256
178
     2
274
     4
340
F
  0
DIMSTYLE
105
47F2
330
A
100
AcDbSymbolTableRecord
100
AcDbDimStyleTableRecord
  2
GEN-ANSI-POS
 70
     0
  3
<>
  4
mm
 41
0.1
 42
0.125
 43
0.5
 44
0.125
 47
0.1
 48
0.1
 73
     0
 74
     0
 78
     7
140
0.2
141
0.0
146
0.71
147
0.06
176
   256
177
   256
178
     2
274
     4
340
F
  0
DIMSTYLE
105
47F3
330
A
100
AcDbSymbolTableRecord
100
AcDbDimStyleTableRecord
  2
GEN-ANSI-AXE-F
 70
     0
  3
<>
  4
mm
 41
0.14
 42
0.125
 43
0.5
 44
0.125
 47
0.1
 48
0.1
 75
     1
 76
     1
 78
     7
140
0.12
141
0.0
146
0.71
147
0.06
173
     1
176
   256
177
   256
178
     2
274
     4
340
F
343
47D7
  0
DIMSTYLE
105
47F4
330
A
100
AcDbSymbolTableRecord
100
AcDbDimStyleTableRecord
  2
GEN-ANSI-AXE-H
 70
     0
  3
<>
  4
mm
 41
0.14
 42
0.125
 43
0.5
 44
0.125
 47
0.1
 48
0.1
 73
     0
 74
     0
 75
     1
 76
     1
 78
     7
140
0.12
141
0.0
144
2.0
146
0.71
147
0.06
172
     1
173
     1
176
   256
177
   256
178
     2
274
     4
340
F
343
47D7
  0
ENDTAB
  0
TABLE
  2
BLOCK_RECORD
  5
1
330
0
100
AcDbSymbolTable
 70
    15
  0
BLOCK_RECORD
  5
18
102
{ACAD_XDICTIONARY
360
488B
102
}
330
1
100
AcDbSymbolTableRecord
100
AcDbBlockTableRecord
  2
*MODEL_SPACE
340
418C
  0
BLOCK_RECORD
  5
15
330
1
100
AcDbSymbolTableRecord
100
AcDbBlockTableRecord
  2
*PAPER_SPACE
340
418D
  0
BLOCK_RECORD
  5
1747
330
1
100
AcDbSymbolTableRecord
100
AcDbBlockTableRecord
  2
TBSINE98_U
340
0
  0
BLOCK_RECORD
  5
35CE
330
1
100
AcDbSymbolTableRecord
100
AcDbBlockTableRecord
  2
BORD-B
340
0
  0
BLOCK_RECORD
  5
419E
330
1
100
AcDbSymbolTableRecord
100
AcDbBlockTableRecord
  2
MEDCLUMP_NTE_659_
340
0
  0
BLOCK_RECORD
  5
41A4
330
1
100
AcDbSymbolTableRecord
100
AcDbBlockTableRecord
  2
MEDFUNV_6
340
0
102
{BLKREFS
331
41A0
331
41AF
331
41B5
331
41BB
102
}
  0
BLOCK_RECORD
  5
41AD
330
1
100
AcDbSymbolTableRecord
100
AcDbBlockTableRecord
  2
MEDCLUMP_NTE_655_
340
0
  0
BLOCK_RECORD
  5
41B3
330
1
100
AcDbSymbolTableRecord
100
AcDbBlockTableRecord
  2
MEDCLUMP_NTE_651_
340
0
  0
BLOCK_RECORD
  5
41B9
330
1
100
AcDbSymbolTableRecord
100
AcDbBlockTableRecord
  2
MEDCLUMP_NTE_647_
340
0
  0
BLOCK_RECORD
  5
452B
330
1
100
AcDbSymbolTableRecord
100
AcDbBlockTableRecord
  2
ASSEMBLY_B
340
0
  0
BLOCK_RECORD
  5
45E9
330
1
100
AcDbSymbolTableRecord
100
AcDbBlockTableRecord
  2
A$C6BD72E2A
340
0
  0
BLOCK_RECORD
  5
45EE
330
1
100
AcDbSymbolTableRecord
100
AcDbBlockTableRecord
  2
A$C64DF1C68
340
0
  0
BLOCK_RECORD
  5
46C3
330
1
100
AcDbSymbolTableRecord
100
AcDbBlockTableRecord
  2
A$C4856593E
340
0
  0
BLOCK_RECORD
  5
474F
330
1
100
AcDbSymbolTableRecord
100
AcDbBlockTableRecord
  2
A$C274720C3
340
0
  0
BLOCK_RECORD
  5
47D7
330
1
100
AcDbSymbolTableRecord
100
AcDbBlockTableRecord
  2
GENAXEH
340
0
  0
BLOCK_RECORD
  5
50C4
330
1
100
AcDbSymbolTableRecord
100
AcDbBlockTableRecord
  2
ASSEMBLY_C
340
0
102
{BLKREFS
331
517C
102
}
  0
ENDTAB
  0
ENDSEC
  0
SECTION
  2
BLOCKS
  0
BLOCK
  5
19
330
18
100
AcDbEntity
  8
0
100
AcDbBlockBegin
  2
*MODEL_SPACE
 70
     0
 10
0.0
 20
0.0
 30
0.0
  3
*MODEL_SPACE
  1

  0
ENDBLK
  5
1A
330
18
100
AcDbEntity
  8
0
100
AcDbBlockEnd
  0
BLOCK
  5
16
330
15
100
AcDbEntity
 67
     1
  8
0
100
AcDbBlockBegin
  2
*PAPER_SPACE
 70
     0
 10
0.0
 20
0.0
 30
0.0
  3
*PAPER_SPACE
  1

  0
ENDBLK
  5
17
330
15
100
AcDbEntity
 67
     1
  8
0
100
AcDbBlockEnd
  0
BLOCK
  5
17A9
330
1747
100
AcDbEntity
  8
0
100
AcDbBlockBegin
  2
TBSINE98_U
 70
     2
 10
0.0
 20
0.0
 30
0.0
  3
TBSINE98_U
  1

  0
LINE
  5
1748
330
1747
100
AcDbEntity
  8
0
 62
     4
100
AcDbLine
 10
0.0
 20
1.374999999999999
 30
0.0
 11
-4.0
 21
1.375
 31
0.0
  0
TEXT
  5
1749
330
1747
100
AcDbEntity
  8
0
 62
     4
100
AcDbText
 10
-5.420391657898547
 20
2.562348232292053
 30
0.0
 40
0.125
  1
MATERIALS LIST
 41
1.968078602400067
  7
ROMANS
 72
     5
 11
-2.585421290155593
 21
2.562348232292053
 31
0.0
100
AcDbText
  0
TEXT
  5
174A
330
1747
100
AcDbEntity
  8
0
 62
     7
100
AcDbText
 10
-3.969435524660248
 20
0.6553540019688049
 30
0.0
 40
0.063
  1
SIZE
 41
1.977647930413569
  7
ROMANS
 72
     5
 11
-3.583794178229601
 21
0.6553540019688049
 31
0.0
100
AcDbText
  0
LINE
  5
174B
330
1747
100
AcDbEntity
  8
0
 62
     4
100
AcDbLine
 10
0.0
 20
2.999999999999998
 30
0.0
 11
-8.000000000000001
 21
3.0
 31
0.0
  0
LINE
  5
174C
330
1747
100
AcDbEntity
  8
0
 62
     4
100
AcDbLine
 10
0.0
 20
2.749999999999998
 30
0.0
 11
-8.000000000000001
 21
2.75
 31
0.0
  0
LINE
  5
174D
330
1747
100
AcDbEntity
  8
0
 62
     4
100
AcDbLine
 10
0.0
 20
2.499999999999999
 30
0.0
 11
-8.0
 21
2.5
 31
0.0
  0
LINE
  5
174E
330
1747
100
AcDbEntity
  8
0
 62
     4
100
AcDbLine
 10
0.0
 20
0.7499999999999993
 30
0.0
 11
-4.0
 21
0.75
 31
0.0
  0
LINE
  5
174F
330
1747
100
AcDbEntity
  8
0
 62
     4
100
AcDbLine
 10
0.0
 20
0.2499999999999992
 30
0.0
 11
-4.0
 21
0.2499999999999996
 31
0.0
  0
LINE
  5
1750
330
1747
100
AcDbEntity
  8
0
 62
     4
100
AcDbLine
 10
-7.0
 20
3.0
 30
0.0
 11
-7.0
 21
2.5
 31
0.0
  0
LINE
  5
1751
330
1747
100
AcDbEntity
  8
0
 62
     4
100
AcDbLine
 10
-8.0
 20
0.0000000000000008
 30
0.0
 11
-8.000000000000008
 21
3.0
 31
0.0
  0
TEXT
  5
1752
330
1747
100
AcDbEntity
  8
0
100
AcDbText
 10
-7.523808085300968
 20
1.535654825308041
 30
0.0
 40
0.084
  1
S5-20020
  7
ROMANS
 72
     1
 11
-7.191808085300968
 21
1.535654825308041
 31
0.0
100
AcDbText
  0
TEXT
  5
1753
330
1747
100
AcDbEntity
  8
0
 62
     7
100
AcDbText
 10
-7.937867400239865
 20
1.671353367048056
 30
0.0
 40
0.0625
  1
3) Fabrication Standards Per:
  7
ROMANS
100
AcDbText
  0
TEXT
  5
1754
330
1747
100
AcDbEntity
  8
0
 62
     7
100
AcDbText
 10
-7.91485043418524
 20
0.7187500000000006
 30
0.0
 40
0.0625
  1
PROCESS SPECIFICATIONS:
  7
ROMANS
100
AcDbText
  0
LINE
  5
1755
330
1747
100
AcDbEntity
  8
0
 62
     4
100
AcDbLine
 10
-6.0
 20
0.8125
 30
0.0
 11
-7.999999999999997
 21
0.8124999999999996
 31
0.0
  0
TEXT
  5
1756
330
1747
100
AcDbEntity
  8
0
 62
     7
100
AcDbText
 10
-7.91485043418524
 20
1.28125
 30
0.0
 40
0.0625
  1
MATERIAL SPECIFICATIONS:
  7
ROMANS
100
AcDbText
  0
LINE
  5
1757
330
1747
100
AcDbEntity
  8
0
 62
     4
100
AcDbLine
 10
-6.0
 20
1.374999999999999
 30
0.0
 11
-7.999999999999997
 21
1.374999999999999
 31
0.0
  0
TEXT
  5
1758
330
1747
100
AcDbEntity
  8
0
 62
     7
100
AcDbText
 10
-7.918167783944689
 20
2.38454662786736
 30
0.0
 40
0.063
  1
%%UUNLESS OTHERWISE SPECIFIED
 41
1.271494138093697
  7
ROMANS
 72
     5
 11
-6.068143813018359
 21
2.38454662786736
 31
0.0
100
AcDbText
  0
TEXT
  5
1759
330
1747
100
AcDbEntity
  8
0
 62
     7
100
AcDbText
 10
-7.895003595128808
 20
1.786679721223629
 30
0.0
 40
0.0625
  1
3 PL DEC %%P0.005
  7
ROMANS
100
AcDbText
  0
TEXT
  5
175A
330
1747
100
AcDbEntity
  8
0
 62
     7
100
AcDbText
 10
-7.937372251514232
 20
2.230086754058263
 30
0.0
 40
0.0625
  1
1) All dimensions are in inches.
  7
ROMANS
100
AcDbText
  0
TEXT
  5
175B
330
1747
100
AcDbEntity
  8
0
 62
     7
100
AcDbText
 10
-7.935001329560299
 20
2.111228873760972
 30
0.0
 40
0.0625
  1
2) Tolerances are as follows:
  7
ROMANS
100
AcDbText
  0
TEXT
  5
175C
330
1747
100
AcDbEntity
  8
0
 62
     7
100
AcDbText
 10
-7.895003595128808
 20
1.989060673604581
 30
0.0
 40
0.0625
  1
1 PL DEC %%P0.05
  7
ROMANS
100
AcDbText
  0
TEXT
  5
175D
330
1747
100
AcDbEntity
  8
0
 62
     7
100
AcDbText
 10
-7.895003595128808
 20
1.887870197414105
 30
0.0
 40
0.0625
  1
2 PL DEC %%P0.01
  7
ROMANS
100
AcDbText
  0
TEXT
  5
175E
330
1747
100
AcDbEntity
  8
0
100
AcDbText
 10
-7.928571428571428
 20
2.5625
 30
0.0
 40
0.125
  1
QUANTITY
  7
ROMANS
 72
     1
 11
-7.5
 21
2.5625
 31
0.0
100
AcDbText
  0
LINE
  5
175F
330
1747
100
AcDbEntity
  8
0
 62
     4
100
AcDbLine
 10
-4.0
 20
1.75
 30
0.0
 11
-6.0
 21
1.749999999999999
 31
0.0
  0
TEXT
  5
1760
330
1747
100
AcDbEntity
  8
0
 62
     7
100
AcDbText
 10
-5.732160063336098
 20
2.334239652357628
 30
0.0
 40
0.063
  1
SIGNATURES    
 41
1.488772902752936
  7
ROMANS
 72
     5
 11
-4.521787693397961
 21
2.334239652357628
 31
0.0
100
AcDbText
  0
LINE
  5
1761
330
1747
100
AcDbEntity
  8
0
 62
     4
100
AcDbLine
 10
-4.0
 20
1.0
 30
0.0
 11
-6.0
 21
0.9999999999999996
 31
0.0
  0
LINE
  5
1762
330
1747
100
AcDbEntity
  8
0
 62
     4
100
AcDbLine
 10
-4.0
 20
1.5
 30
0.0
 11
-6.0
 21
1.5
 31
0.0
  0
LINE
  5
1763
330
1747
100
AcDbEntity
  8
0
 62
     4
100
AcDbLine
 10
-4.629993325288353
 20
2.0
 30
0.0
 11
-6.0
 21
2.0
 31
0.0
  0
LINE
  5
1764
330
1747
100
AcDbEntity
  8
0
 62
     4
100
AcDbLine
 10
-4.0
 20
2.25
 30
0.0
 11
-6.0
 21
2.25
 31
0.0
  0
LINE
  5
1765
330
1747
100
AcDbEntity
  8
0
 62
     4
100
AcDbLine
 10
-6.0
 20
0.0000000000000006
 30
0.0
 11
-6.0
 21
2.5
 31
0.0
  0
TEXT
  5
1766
330
1747
100
AcDbEntity
  8
0
 62
     7
100
AcDbText
 10
-6.861816199145001
 20
1.979848532971896
 30
0.0
 40
0.0625
  1
Fractions %%P1/64
  7
ROMANS
100
AcDbText
  0
LINE
  5
1767
330
1747
100
AcDbEntity
  8
0
 62
     7
100
AcDbLine
 10
-6.940909897136906
 20
2.046954603288238
 30
0.0
 11
-6.940909897136906
 21
1.788259346073721
 31
0.0
  0
TEXT
  5
1768
330
1747
100
AcDbEntity
  8
0
 62
     7
100
AcDbText
 10
-6.861816199145001
 20
1.878658056781419
 30
0.0
 40
0.0625
  1
Angles %%P1%%D
  7
ROMANS
100
AcDbText
  0
TEXT
  5
1769
330
1747
100
AcDbEntity
  8
0
 62
     7
100
AcDbText
 10
-5.963333000415435
 20
1.40625
 30
0.0
 40
0.0625
  1
APPROVAL:
  7
ROMANS
100
AcDbText
  0
TEXT
  5
176A
330
1747
100
AcDbEntity
  8
0
 62
     7
100
AcDbText
 10
-5.963333000415435
 20
1.65625
 30
0.0
 40
0.0625
  1
ENGINEER:
  7
ROMANS
100
AcDbText
  0
TEXT
  5
176B
330
1747
100
AcDbEntity
  8
0
 62
     7
100
AcDbText
 10
-5.963333000415435
 20
1.90625
 30
0.0
 40
0.0625
  1
CHECKED:
  7
ROMANS
100
AcDbText
  0
TEXT
  5
176C
330
1747
100
AcDbEntity
  8
0
 62
     7
100
AcDbText
 10
-5.963333000415435
 20
2.15625
 30
0.0
 40
0.0625
  1
DRAWN:
  7
ROMANS
100
AcDbText
  0
LINE
  5
176D
330
1747
100
AcDbEntity
  8
0
 62
     4
100
AcDbLine
 10
-4.625
 20
1.25
 30
0.0
 11
-4.625
 21
2.5
 31
0.0
  0
LINE
  5
176E
330
1747
100
AcDbEntity
  8
0
 62
     4
100
AcDbLine
 10
-4.0
 20
-0.0000000000000002
 30
0.0
 11
-4.0
 21
2.499999999999999
 31
0.0
  0
TEXT
  5
176F
330
1747
100
AcDbEntity
  8
0
 62
     7
100
AcDbText
 10
-3.96875
 20
0.1562499999999998
 30
0.0
 40
0.0625
  1
SCALE:
  7
ROMANS
100
AcDbText
  0
TEXT
  5
1770
330
1747
100
AcDbEntity
  8
0
 62
     7
100
AcDbText
 10
-4.523788562182197
 20
2.330709001405228
 30
0.0
 40
0.063
  1
DATE 
 41
1.629632321826135
  7
ROMANS
 72
     5
 11
-4.059343350461748
 21
2.330709001405228
 31
0.0
100
AcDbText
  0
LINE
  5
1771
330
1747
100
AcDbEntity
  8
0
 62
     4
100
AcDbLine
 10
-4.0
 20
2.0
 30
0.0
 11
-4.629993325288353
 21
2.0
 31
0.0
  0
TEXT
  5
1772
330
1747
100
AcDbEntity
  8
0
 62
     7
100
AcDbText
 10
-6.62182461425405
 20
2.809752012300165
 30
0.0
 40
0.125
  1
PART NUMBER
  7
ROMANS
100
AcDbText
  0
LINE
  5
1773
330
1747
100
AcDbEntity
  8
0
 62
     4
100
AcDbLine
 10
-4.875
 20
2.75
 30
0.0
 11
-4.875
 21
3.0
 31
0.0
  0
TEXT
  5
1774
330
1747
100
AcDbEntity
  8
0
 62
     7
100
AcDbText
 10
-0.4670598567034113
 20
0.6522025548911583
 30
0.0
 40
0.063
  1
REVISION
 41
1.009853945519423
  7
ROMANS
 72
     5
 11
-0.061098570604603
 21
0.6522025548911583
 31
0.0
100
AcDbText
  0
TEXT
  5
1775
330
1747
100
AcDbEntity
  8
0
 62
     7
100
AcDbText
 10
-2.96875
 20
0.65625
 30
0.0
 40
0.0625
  1
DWG NO:
  7
ROMANS
100
AcDbText
  0
TEXT
  5
1776
330
1747
100
AcDbEntity
  8
0
 62
     7
100
AcDbText
 10
-3.484095684822441
 20
0.3371060842089175
 30
0.0
 40
0.125
  1
1GK44
 41
0.7013009593496522
  7
ROMANS
 72
     5
 11
-3.066654637590505
 21
0.3371060842089175
 31
0.0
100
AcDbText
  0
LINE
  5
1777
330
1747
100
AcDbEntity
  8
0
 62
     4
100
AcDbLine
 10
-3.0
 20
0.2499999999999996
 30
0.0
 11
-3.0
 21
0.7499999999999993
 31
0.0
  0
LINE
  5
1778
330
1747
100
AcDbEntity
  8
0
 62
     4
100
AcDbLine
 10
-3.5
 20
0.2499999999999996
 30
0.0
 11
-3.5
 21
0.7499999999999996
 31
0.0
  0
LINE
  5
1779
330
1747
100
AcDbEntity
  8
0
 62
     4
100
AcDbLine
 10
-3.0
 20
-0.0000000000000004
 30
0.0
 11
-3.0
 21
0.2499999999999996
 31
0.0
  0
TEXT
  5
177A
330
1747
100
AcDbEntity
  8
0
 62
     7
100
AcDbText
 10
-3.48024114584756
 20
0.65625
 30
0.0
 40
0.0625
  1
FSCM NO.
  7
ROMANS
100
AcDbText
  0
LINE
  5
177B
330
1747
100
AcDbEntity
  8
0
 62
     4
100
AcDbLine
 10
-1.5
 20
0.2499999999999995
 30
0.0
 11
-1.5
 21
0.0
 31
0.0
  0
TEXT
  5
177C
330
1747
100
AcDbEntity
  8
0
 62
     7
100
AcDbText
 10
-1.468749999999995
 20
0.0937499999999998
 30
0.0
 40
0.0625
  1
SHEET
  7
ROMANS
100
AcDbText
  0
LINE
  5
177D
330
1747
100
AcDbEntity
  8
0
 62
     4
100
AcDbLine
 10
-0.5
 20
0.7499999999999992
 30
0.0
 11
-0.5
 21
0.2499999999999993
 31
0.0
  0
TEXT
  5
177E
330
1747
100
AcDbEntity
  8
0
 62
     7
100
AcDbText
 10
-0.6435443161433945
 20
0.0937499999999998
 30
0.0
 40
0.0625
  1
OF
  7
ROMANS
100
AcDbText
  0
TEXT
  5
177F
330
1747
100
AcDbEntity
  8
0
 62
     7
100
AcDbText
 10
-0.3125000000000071
 20
2.8125
 30
0.0
 40
0.125
  1
ITEM
 41
0.6666666666666668
  7
ROMANS
 72
     5
 11
-0.0625000000000071
 21
2.8125
 31
0.0
100
AcDbText
  0
TEXT
  5
1780
330
1747
100
AcDbEntity
  8
0
 62
     7
100
AcDbText
 10
-3.243361572958096
 20
2.8125
 30
0.0
 40
0.125
  1
DESCRIPTION
  7
ROMANS
 72
     4
 11
-2.651099668196191
 21
2.875
 31
0.0
100
AcDbText
  0
LINE
  5
1781
330
1747
100
AcDbEntity
  8
0
 62
     4
100
AcDbLine
 10
-0.3750000000000071
 20
2.75
 30
0.0
 11
-0.3750000000000071
 21
3.0
 31
0.0
  0
TEXT
  5
1782
330
1747
100
AcDbEntity
  8
0
 62
     7
100
AcDbText
 10
-7.937867400239865
 20
1.422071028625071
 30
0.0
 40
0.0625
  1
4) Note Reference =
  7
ROMANS
100
AcDbText
  0
LWPOLYLINE
  5
1783
330
1747
100
AcDbEntity
  8
0
100
AcDbPolyline
 90
        3
 70
     1
 43
0.0
 10
-6.715282350570625
 20
1.538977047231945
 10
-6.794993665800288
 20
1.400912999316027
 10
-6.63557103534096
 20
1.400912999316027
  0
TEXT
  5
1784
330
1747
100
AcDbEntity
  8
0
100
AcDbText
 10
-6.764944016577074
 20
1.414762344628339
 30
0.0
 40
0.062
  1
xx
  7
ROMANS
 72
     4
 11
-6.714753540386598
 21
1.435429011295005
 31
0.0
100
AcDbText
  0
ATTDEF
  5
1785
330
1747
100
AcDbEntity
  8
0
100
AcDbText
 10
-2.0
 20
1.1624
 30
0.0
 40
0.125
  1

  7
ROMANS
 72
     4
 11
-2.0
 21
1.1624
 31
0.0
100
AcDbAttributeDefinition
  3
Part Name
  2
PART_NAME_1
 70
     0
  0
ATTDEF
  5
1786
330
1747
100
AcDbEntity
  8
0
100
AcDbText
 10
-2.0
 20
0.9488999999999998
 30
0.0
 40
0.125
  1

  7
ROMANS
 72
     4
 11
-2.0
 21
0.9488999999999998
 31
0.0
100
AcDbAttributeDefinition
  3
Part Name (Cont'd.)
  2
PART_NAME_2
 70
     0
  0
ATTDEF
  5
1787
330
1747
100
AcDbEntity
  8
0
 62
     4
100
AcDbText
 10
-3.75
 20
0.4613000000000002
 30
0.0
 40
0.25
  1

  7
ROMANS
 72
     4
 11
-3.75
 21
0.4613000000000002
 31
0.0
100
AcDbAttributeDefinition
  3
Drawing Size
  2
SIZE
 70
     0
  0
ATTDEF
  5
1788
330
1747
100
AcDbEntity
  8
0
 62
     4
100
AcDbText
 10
-1.751599999999999
 20
0.3466
 30
0.0
 40
0.25
  1

 41
0.5
  7
ROMANS_HLF
 72
     1
 11
-1.751599999999999
 21
0.3466
 31
0.0
100
AcDbAttributeDefinition
  3
Part Number
  2
PART_NO
 70
     0
  0
ATTDEF
  5
1789
330
1747
100
AcDbEntity
  8
0
 62
     1
100
AcDbText
 10
-0.3571428571428572
 20
0.3355999999999999
 30
0.0
 40
0.25
  1
A
  7
ROMANS
 72
     4
 11
-0.25
 21
0.4605999999999999
 31
0.0
100
AcDbAttributeDefinition
  3
Revision Level
  2
REV
 70
     0
  0
ATTDEF
  5
178A
330
1747
100
AcDbEntity
  8
0
100
AcDbText
 10
-2.25
 20
0.1284999999999999
 30
0.0
 40
0.125
  1

  7
ROMANS
 72
     4
 11
-2.25
 21
0.1284999999999999
 31
0.0
100
AcDbAttributeDefinition
  3
Drawing Number
  2
DWG_NO
 70
     0
  0
ATTDEF
  5
178B
330
1747
100
AcDbEntity
  8
0
100
AcDbText
 10
-0.9880952380952381
 20
0.0659999999999999
 30
0.0
 40
0.125
  1
1
  7
ROMANS
 72
     4
 11
-0.9375
 21
0.1284999999999999
 31
0.0
100
AcDbAttributeDefinition
  3
Sheet
  2
SHT
 70
     0
  0
ATTDEF
  5
178C
330
1747
100
AcDbEntity
  8
0
100
AcDbText
 10
-0.3005952380952381
 20
0.0659999999999999
 30
0.0
 40
0.125
  1
1
  7
ROMANS
 72
     4
 11
-0.25
 21
0.1284999999999999
 31
0.0
100
AcDbAttributeDefinition
  3
of
  2
SHTS
 70
     0
  0
ATTDEF
  5
178D
330
1747
100
AcDbEntity
  8
0
100
AcDbText
 10
-5.082599999999998
 20
2.066399999999998
 30
0.0
 40
0.125
  1

 41
0.5
  7
ROMANS_HLF
 72
     1
 11
-5.082599999999998
 21
2.066399999999998
 31
0.0
100
AcDbAttributeDefinition
  3
Drawn By
  2
DWN_BY
 70
     0
  0
ATTDEF
  5
178E
330
1747
100
AcDbEntity
  8
0
100
AcDbText
 10
-4.580599999999999
 20
2.0628
 30
0.0
 40
0.125
  1

 41
0.9909999999999994
  7
ROMANS
 72
     5
 11
-4.085099999999999
 21
2.0628
 31
0.0
100
AcDbAttributeDefinition
  3
Date Drawn
  2
DDWN
 70
     0
  0
ATTDEF
  5
178F
330
1747
100
AcDbEntity
  8
0
100
AcDbText
 10
-5.082599999999998
 20
1.811999999999999
 30
0.0
 40
0.125
  1

 41
0.5
  7
ROMANS_HLF
 72
     1
 11
-5.082599999999998
 21
1.811999999999999
 31
0.0
100
AcDbAttributeDefinition
  3
Checked By
  2
CKD_BY
 70
     0
  0
ATTDEF
  5
1790
330
1747
100
AcDbEntity
  8
0
100
AcDbText
 10
-4.580599999999999
 20
1.8128
 30
0.0
 40
0.125
  1

 41
1.027703703703702
  7
ROMANS
 72
     5
 11
-4.085099999999999
 21
1.8128
 31
0.0
100
AcDbAttributeDefinition
  3
Date Checked
  2
DCKD
 70
     0
  0
ATTDEF
  5
1791
330
1747
100
AcDbEntity
  8
0
100
AcDbText
 10
-5.082599999999998
 20
1.560299999999999
 30
0.0
 40
0.125
  1

 41
0.5
  7
ROMANS_HLF
 72
     1
 11
-5.082599999999998
 21
1.560299999999999
 31
0.0
100
AcDbAttributeDefinition
  3
Engineer
  2
ENGINEER
 70
     0
  0
ATTDEF
  5
1792
330
1747
100
AcDbEntity
  8
0
100
AcDbText
 10
-5.082599999999998
 20
1.3119
 30
0.0
 40
0.125
  1

 41
0.5
  7
ROMANS_HLF
 72
     1
 11
-5.082599999999998
 21
1.3119
 31
0.0
100
AcDbAttributeDefinition
  3
Approved By
  2
APPROVED
 70
     0
  0
ATTDEF
  5
1793
330
1747
100
AcDbEntity
  8
0
100
AcDbText
 10
-4.580599999999999
 20
1.3104
 30
0.0
 40
0.125
  1

 41
1.067230769230767
  7
ROMANS
 72
     5
 11
-4.085099999999999
 21
1.3104
 31
0.0
100
AcDbAttributeDefinition
  3
Date Approved
  2
DAPP
 70
     0
  0
ATTDEF
  5
1794
330
1747
100
AcDbEntity
  8
0
100
AcDbText
 10
-7.150297619047618
 20
0.9713
 30
0.0
 40
0.125
  1
NOTED
 41
0.5
  7
ROMANS_HLF
 72
     1
 11
-7.0
 21
0.9713
 31
0.0
100
AcDbAttributeDefinition
  3
Material Specifications
  2
MATL
 70
     0
  0
ATTDEF
  5
1795
330
1747
100
AcDbEntity
  8
0
 62
     4
100
AcDbText
 10
-7.494047619047618
 20
0.4043000000000001
 30
0.0
 40
0.125
  1
S3-20003
  7
ROMANS
 72
     1
 11
-7.0
 21
0.4043000000000001
 31
0.0
100
AcDbAttributeDefinition
  3
Process Specifications
  2
PROSPEC
 70
     0
  0
ATTDEF
  5
1796
330
1747
100
AcDbEntity
  8
0
100
AcDbText
 10
-3.399999999999998
 20
0.1284999999999999
 30
0.0
 40
0.125
  1

  7
ROMANS
 72
     4
 11
-3.399999999999998
 21
0.1284999999999999
 31
0.0
100
AcDbAttributeDefinition
  3
Drawing Scale
  2
SCALEINF
 70
     0
  0
ATTDEF
  5
1797
330
1747
100
AcDbEntity
  8
0
100
AcDbText
 10
-2.0
 20
1.062499999999998
 30
0.0
 40
0.125
  1

  7
ROMANS
 72
     4
 11
-2.0
 21
1.062499999999998
 31
0.0
100
AcDbAttributeDefinition
  3
PART NAME (SINGLE)
  2
PART_NAME
 70
     0
  0
TEXT
  5
1798
330
1747
100
AcDbEntity
  8
0
100
AcDbText
 10
-3.754758353666758
 20
2.033974249143326
 30
0.0
 40
0.4
  1
Amphenol
 41
1.274999999999999
  7
ARIEL_B
100
AcDbText
  0
LWPOLYLINE
  5
1799
330
1747
100
AcDbEntity
  8
0
100
AcDbPolyline
 90
        2
 70
     0
 43
0.01
 10
-3.792532404425073
 20
1.869382651091297
 10
-0.3055336094780969
 20
1.869382651091297
  0
TEXT
  5
179A
330
1747
100
AcDbEntity
  8
0
100
AcDbText
 10
-3.765666804133456
 20
1.678026171289234
 30
0.0
 40
0.138
  1
SINE
  7
TIMES_NEW
100
AcDbText
  0
TEXT
  5
179B
330
1747
100
AcDbEntity
  8
0
100
AcDbText
 10
-3.236722618441723
 20
1.678026171289234
 30
0.0
 40
0.138
  1
Systems
  7
ARIEL
100
AcDbText
  0
TEXT
  5
179C
330
1747
100
AcDbEntity
  8
0
100
AcDbText
 10
-2.488256459700579
 20
1.678026171289234
 30
0.0
 40
0.138
  1
* PYLE
  7
ARIEL_B
100
AcDbText
  0
TEXT
  5
179D
330
1747
100
AcDbEntity
  8
0
100
AcDbText
 10
-1.79294388352306
 20
1.678026171289234
 30
0.0
 40
0.138
  1
Connectors Corp.
  7
ARIEL
100
AcDbText
  0
TEXT
  5
179E
330
1747
100
AcDbEntity
  8
0
100
AcDbText
 10
-3.765666804133456
 20
1.466964199677793
 30
0.0
 40
0.1
  1
25325 Joy Blvd. * Mt. Clemens, Mi. 48045
  7
ARIEL
100
AcDbText
  0
LINE
  5
179F
330
1747
100
AcDbEntity
  8
0
 62
     4
100
AcDbLine
 10
-6.0
 20
1.749999999999999
 30
0.0
 11
-6.360547003696745
 21
1.749999999999999
 31
0.0
  0
LINE
  5
17A0
330
1747
100
AcDbEntity
  8
0
 62
     4
100
AcDbLine
 10
-6.360547003696745
 20
1.749999999999999
 30
0.0
 11
-6.360547003696745
 21
1.374999999999999
 31
0.0
  0
TEXT
  5
17A1
330
1747
100
AcDbEntity
  8
0
100
AcDbText
 10
-6.242559626317676
 20
1.46139203230111
 30
0.0
 40
0.18
  1
U
 41
1.12
  7
ARIEL_SP
 72
     4
 11
-6.175359626317677
 21
1.551392032301111
 31
0.0
100
AcDbText
  0
LINE
  5
17A2
330
1747
100
AcDbEntity
  8
0
 62
     4
100
AcDbLine
 10
-4.0
 20
1.25
 30
0.0
 11
-6.0
 21
1.25
 31
0.0
  0
TEXT
  5
17A3
330
1747
100
AcDbEntity
  8
0
 62
     7
100
AcDbText
 10
-5.963333000415435
 20
1.15625
 30
0.0
 40
0.0625
  1
CUSTOMER:
  7
ROMANS
100
AcDbText
  0
ATTDEF
  5
17A4
330
1747
100
AcDbEntity
  8
0
100
AcDbText
 10
-4.83957001919628
 20
1.0619
 30
0.0
 40
0.125
  1

 41
0.5
  7
ROMANS_HLF
 72
     1
 11
-4.83957001919628
 21
1.0619
 31
0.0
100
AcDbAttributeDefinition
  3
CUSTOMER
  2
CUSTOMER
 70
     0
  0
TEXT
  5
17A5
330
1747
100
AcDbEntity
  8
0
 62
     7
100
AcDbText
 10
-7.914850434185237
 20
0.1562500000000018
 30
0.0
 40
0.0625
  1
NEXT ASS'Y:
  7
ROMANS
100
AcDbText
  0
LINE
  5
17A6
330
1747
100
AcDbEntity
  8
0
 62
     4
100
AcDbLine
 10
-5.999999999999997
 20
0.2500000000000013
 30
0.0
 11
-7.999999999999996
 21
0.2500000000000009
 31
0.0
  0
ATTDEF
  5
17A7
330
1747
100
AcDbEntity
  8
0
100
AcDbText
 10
-6.752715026732418
 20
0.061900000000001
 30
0.0
 40
0.125
  1

 41
0.5
  7
ROMANS_HLF
 72
     1
 11
-6.752715026732418
 21
0.061900000000001
 31
0.0
100
AcDbAttributeDefinition
  3
NEXT ASSEMBLY
  2
NXT_ASSY
 70
     0
  0
MTEXT
  5
17A8
330
1747
100
AcDbEntity
  8
0
100
AcDbMText
 10
-4.99344211614258
 20
0.9448050576824812
 30
0.0
 40
0.063
 41
1.928099999999998
 71
     2
 72
     5
  3
THE USE OF THIS DOCUMENT IS UNLIMITED. DESIGN FEATURES, SPECIFICATIONS AND PERFORMANCE DATA SHOWN HEREON ARE THE PROPERTY OF AMPHENOL CORP. ALL DIMENSIONS ARE SUBJECT TO NORMAL MANUFACTURING VARIATIONS. DOCUMENTS REFERENCED HEREON MAY CONTAIN LIMITED
  1
 RIGHTS DATA.
  7
ROMANS
 73
     1
 44
1.0
  0
ENDBLK
  5
17AA
330
1747
100
AcDbEntity
  8
0
100
AcDbBlockEnd
  0
BLOCK
  5
35FB
330
35CE
100
AcDbEntity
  8
0
100
AcDbBlockBegin
  2
BORD-B
 70
     2
 10
0.0
 20
0.0
 30
0.0
  3
BORD-B
  1

  0
ATTDEF
  5
35CF
330
35CE
100
AcDbEntity
  8
0
 62
     7
100
AcDbText
 10
16.12524999999687
 20
2.166416666740623
 30
0.0
 40
0.124999999996875
  1

 50
270.0
 41
0.5
  7
ROMANS
 72
     4
 11
16.12524999999687
 21
2.166416666740623
 31
0.0
100
AcDbAttributeDefinition
  3

  2
NOSHEETS
 70
     0
  0
ATTDEF
  5
35D0
330
35CE
100
AcDbEntity
  8
0
 62
     7
100
AcDbText
 10
16.12524999999687
 20
2.666416666728121
 30
0.0
 40
0.124999999996875
  1

 50
270.0
 41
0.5
  7
ROMANS
 72
     4
 11
16.12524999999687
 21
2.666416666728121
 31
0.0
100
AcDbAttributeDefinition
  3

  2
SHEETNO
 70
     0
  0
ATTDEF
  5
35D1
330
35CE
100
AcDbEntity
  8
0
 62
     7
100
AcDbText
 10
16.12524999999687
 20
3.124750000049997
 30
0.0
 40
0.124999999996875
  1

 50
270.0
 41
0.5
  7
ROMANS
 72
     4
 11
16.12524999999687
 21
3.124750000049997
 31
0.0
100
AcDbAttributeDefinition
  3

  2
REV
 70
     0
  0
ATTDEF
  5
35D2
330
35CE
100
AcDbEntity
  8
0
 62
     7
100
AcDbText
 10
16.12524999999687
 20
4.124750000024998
 30
0.0
 40
0.124999999996875
  1

 50
270.0
 41
0.5
  7
ROMANS
 72
     4
 11
16.12524999999687
 21
4.124750000024998
 31
0.0
100
AcDbAttributeDefinition
  3

  2
PARTNO
 70
     0
  0
ATTDEF
  5
35D3
330
35CE
100
AcDbEntity
  8
0
 62
     7
100
AcDbText
 10
16.12524999999687
 20
6.624749999962496
 30
0.0
 40
0.124999999996875
  1

 50
270.0
 41
0.5
  7
ROMANS
 72
     4
 11
16.12524999999687
 21
6.624749999962496
 31
0.0
100
AcDbAttributeDefinition
  3

  2
TITLE
 70
     0
  0
TEXT
  5
35D4
330
35CE
100
AcDbEntity
  8
0
 62
     7
100
AcDbText
 10
16.12524999999687
 20
2.437250000067184
 30
0.0
 40
0.0624999999984375
  1
OF:
 50
270.0
  7
ROMANS
100
AcDbText
  0
TEXT
  5
35D5
330
35CE
100
AcDbEntity
  8
0
 62
     7
100
AcDbText
 10
16.12524999999687
 20
2.937250000054683
 30
0.0
 40
0.0624999999984375
  1
SH:
 50
270.0
  7
ROMANS
100
AcDbText
  0
LINE
  5
35D6
330
35CE
100
AcDbEntity
  8
0
 62
     4
100
AcDbLine
 10
16.25024999999373
 20
1.999750000078122
 30
0.0
 11
16.00024999999999
 21
1.999750000078121
 31
0.0
  0
LINE
  5
35D7
330
35CE
100
AcDbEntity
  8
0
 62
     4
100
AcDbLine
 10
16.25024999999373
 20
2.499750000065621
 30
0.0
 11
16.00024999999999
 21
2.499750000065621
 31
0.0
  0
LINE
  5
35D8
330
35CE
100
AcDbEntity
  8
0
 62
     4
100
AcDbLine
 10
16.25024999999373
 20
2.99975000005312
 30
0.0
 11
16.00024999999999
 21
2.99975000005312
 31
0.0
  0
LINE
  5
35D9
330
35CE
100
AcDbEntity
  8
0
 62
     4
100
AcDbLine
 10
16.25024999999373
 20
3.49975000004062
 30
0.0
 11
16.00024999999999
 21
3.49975000004062
 31
0.0
  0
LINE
  5
35DA
330
35CE
100
AcDbEntity
  8
0
 62
     4
100
AcDbLine
 10
16.25024999999373
 20
5.249749999996871
 30
0.0
 11
16.00025
 21
5.249749999996871
 31
0.0
  0
TEXT
  5
35DB
330
35CE
100
AcDbEntity
  8
0
 62
     7
100
AcDbText
 10
16.12524999999687
 20
3.437250000042183
 30
0.0
 40
0.0624999999984375
  1
REV:
 50
270.0
  7
ROMANS
100
AcDbText
  0
TEXT
  5
35DC
330
35CE
100
AcDbEntity
  8
0
 62
     7
100
AcDbText
 10
16.12524999999687
 20
5.187249999998433
 30
0.0
 40
0.0624999999984375
  1
DWG NO:
 50
270.0
  7
ROMANS
100
AcDbText
  0
TEXT
  5
35DD
330
35CE
100
AcDbEntity
  8
0
 62
     7
100
AcDbText
 10
16.12524999999687
 20
8.187249999923432
 30
0.0
 40
0.0624999999984375
  1
TITLE:
 50
270.0
  7
ROMANS
100
AcDbText
  0
LINE
  5
35DE
330
35CE
100
AcDbEntity
  8
0
 62
     4
100
AcDbLine
 10
16.25024999999373
 20
8.249749999921871
 30
0.0
 11
16.00025
 21
8.249749999921871
 31
0.0
  0
LINE
  5
35DF
330
35CE
100
AcDbEntity
  8
0
 62
     4
100
AcDbLine
 10
16.25024999999373
 20
8.249749999921871
 30
0.0
 11
16.25024999999373
 21
1.999750000078122
 31
0.0
  0
LINE
  5
35E0
330
35CE
100
AcDbEntity
  8
0
 62
     4
100
AcDbLine
 10
10.93774999999999
 20
9.749749999999997
 30
0.0
 11
10.93774999999999
 21
10.24974999999999
 31
0.0
  0
TEXT
  5
35E1
330
35CE
100
AcDbEntity
  8
0
100
AcDbText
 10
11.05158928571428
 20
9.827874999999997
 30
0.0
 40
0.09375
  1
REV
  7
ROMANS
 72
     4
 11
11.18775
 21
9.874749999999997
 31
0.0
100
AcDbText
  0
LINE
  5
35E2
330
35CE
100
AcDbEntity
  8
0
 62
     4
100
AcDbLine
 10
15.00024999999999
 20
9.999749999999997
 30
0.0
 11
15.00024999999999
 21
9.749749999999997
 31
0.0
  0
LINE
  5
35E3
330
35CE
100
AcDbEntity
  8
0
 62
     4
100
AcDbLine
 10
14.25024999999999
 20
9.999749999999997
 30
0.0
 11
14.25024999999999
 21
9.749749999999997
 31
0.0
  0
TEXT
  5
35E4
330
35CE
100
AcDbEntity
  8
0
100
AcDbText
 10
12.77480357142857
 20
9.827874999999997
 30
0.0
 40
0.09375
  1
DESCRIPTION
  7
ROMANS
 72
     4
 11
13.219
 21
9.874749999999997
 31
0.0
100
AcDbText
  0
TEXT
  5
35E5
330
35CE
100
AcDbEntity
  8
0
100
AcDbText
 10
14.45560714285714
 20
9.827874999999997
 30
0.0
 40
0.09375
  1
DATE
  7
ROMANS
 72
     4
 11
14.62525
 21
9.874749999999997
 31
0.0
100
AcDbText
  0
TEXT
  5
35E6
330
35CE
100
AcDbEntity
  8
0
 62
     4
100
AcDbText
 10
13.11408928571427
 20
10.077875
 30
0.0
 40
0.09375
  1
REVISIONS
  7
ROMANS
 72
     4
 11
13.46899999999999
 21
10.12475
 31
0.0
100
AcDbText
  0
LINE
  5
35E7
330
35CE
100
AcDbEntity
  8
0
 62
     1
100
AcDbLine
 10
0.2502499999999994
 20
-0.0002500000000003
 30
0.0
 11
16.00025
 21
-0.0002500000000003
 31
0.0
  0
LINE
  5
35E8
330
35CE
100
AcDbEntity
  8
0
 62
     1
100
AcDbLine
 10
0.2502499999999994
 20
10.24974999999999
 30
0.0
 11
0.2502499999999994
 21
-0.0002500000000003
 31
0.0
  0
LINE
  5
35E9
330
35CE
100
AcDbEntity
  8
0
 62
     1
100
AcDbLine
 10
16.00025
 20
10.24974999999999
 30
0.0
 11
16.00025
 21
-0.0002500000000039
 31
0.0
  0
LINE
  5
35EA
330
35CE
100
AcDbEntity
  8
0
 62
     1
100
AcDbLine
 10
0.2502500000000012
 20
10.24974999999999
 30
0.0
 11
16.00025
 21
10.24974999999999
 31
0.0
  0
LINE
  5
35EB
330
35CE
100
AcDbEntity
  8
0
 62
     4
100
AcDbLine
 10
10.93774999999999
 20
9.999749999999997
 30
0.0
 11
16.00025
 21
9.999749999999997
 31
0.0
  0
LINE
  5
35EC
330
35CE
100
AcDbEntity
  8
0
 62
     4
100
AcDbLine
 10
10.93774999999999
 20
9.749749999999997
 30
0.0
 11
16.00025
 21
9.749749999999997
 31
0.0
  0
LINE
  5
35ED
330
35CE
100
AcDbEntity
  8
0
 62
     4
100
AcDbLine
 10
11.43774999999999
 20
9.749749999999997
 30
0.0
 11
11.43774999999999
 21
9.999749999999997
 31
0.0
  0
LINE
  5
35EE
330
35CE
100
AcDbEntity
  8
0
 62
     4
100
AcDbLine
 10
11.93775
 20
9.749749999999997
 30
0.0
 11
11.93775
 21
9.999749999999997
 31
0.0
  0
TEXT
  5
35EF
330
35CE
100
AcDbEntity
  8
0
100
AcDbText
 10
11.54712499999999
 20
9.827874999999997
 30
0.0
 40
0.09375
  1
ECO
  7
ROMANS
 72
     4
 11
11.68774999999999
 21
9.874749999999997
 31
0.0
100
AcDbText
  0
LINE
  5
35F0
330
35CE
100
AcDbEntity
  8
0
 62
     4
100
AcDbLine
 10
15.50024999999999
 20
9.999749999999997
 30
0.0
 11
15.50024999999999
 21
9.749749999999997
 31
0.0
  0
TEXT
  5
35F1
330
35CE
100
AcDbEntity
  8
0
100
AcDbText
 10
15.57391071428571
 20
9.827874999999997
 30
0.0
 40
0.09375
  1
APPR
  7
ROMANS
 72
     4
 11
15.75025
 21
9.874749999999997
 31
0.0
100
AcDbText
  0
TEXT
  5
35F2
330
35CE
100
AcDbEntity
  8
0
100
AcDbText
 10
15.15649999999999
 20
9.827874999999997
 30
0.0
 40
0.09375
  1
BY
  7
ROMANS
 72
     4
 11
15.25025
 21
9.874749999999997
 31
0.0
100
AcDbText
  0
LINE
  5
35F3
330
35CE
100
AcDbEntity
  8
0
100
AcDbLine
 10
-0.3747500000000006
 20
-0.3752500000000003
 30
0.0
 11
-0.3747500000000006
 21
-0.1252500000000003
 31
0.0
  0
LINE
  5
35F4
330
35CE
100
AcDbEntity
  8
0
100
AcDbLine
 10
-0.3747500000000006
 20
-0.3752500000000003
 30
0.0
 11
-0.1247500000000006
 21
-0.3752500000000003
 31
0.0
  0
LINE
  5
35F5
330
35CE
100
AcDbEntity
  8
0
100
AcDbLine
 10
-0.3747500000000006
 20
10.62474999999998
 30
0.0
 11
-0.3747500000000006
 21
10.37474999999999
 31
0.0
  0
LINE
  5
35F6
330
35CE
100
AcDbEntity
  8
0
100
AcDbLine
 10
-0.3747500000000006
 20
10.62474999999998
 30
0.0
 11
-0.1247500000000006
 21
10.62474999999998
 31
0.0
  0
LINE
  5
35F7
330
35CE
100
AcDbEntity
  8
0
100
AcDbLine
 10
16.62525
 20
10.62474999999998
 30
0.0
 11
16.37525
 21
10.62474999999998
 31
0.0
  0
LINE
  5
35F8
330
35CE
100
AcDbEntity
  8
0
100
AcDbLine
 10
16.62525
 20
10.62474999999998
 30
0.0
 11
16.62525
 21
10.37474999999999
 31
0.0
  0
LINE
  5
35F9
330
35CE
100
AcDbEntity
  8
0
100
AcDbLine
 10
16.62525
 20
-0.3752500000000003
 30
0.0
 11
16.62525
 21
-0.1252500000000003
 31
0.0
  0
LINE
  5
35FA
330
35CE
100
AcDbEntity
  8
0
100
AcDbLine
 10
16.62525
 20
-0.3752500000000003
 30
0.0
 11
16.37525
 21
-0.3752500000000003
 31
0.0
  0
ENDBLK
  5
35FC
330
35CE
100
AcDbEntity
  8
0
100
AcDbBlockEnd
  0
BLOCK
  5
41A2
330
419E
100
AcDbEntity
  8
0
100
AcDbBlockBegin
  2
MEDCLUMP_NTE_659_
 70
     0
 10
0.0
 20
0.0
 30
0.0
  3
MEDCLUMP_NTE_659_
  1

  0
TEXT
  5
419F
330
419E
100
AcDbEntity
  8
4
 62
     1
100
AcDbText
 10
2.482552
 20
10.60499999999999
 30
0.0
 40
0.13
  1
PIN 15
 41
1.092
  7
TDM
 72
     5
 11
3.158552
 21
10.60499999999999
 31
0.0
100
AcDbText
  0
INSERT
  5
41A0
330
419E
100
AcDbEntity
  8
4
100
AcDbBlockReference
  2
MEDFUNV_6
 10
1.794118999999999
 20
11.12060099999999
 30
0.0
 41
0.03937
 42
0.03937
 50
317.0326379999999
  0
LWPOLYLINE
  5
41A1
330
419E
100
AcDbEntity
  8
4
  6
LDM
 62
     1
100
AcDbPolyline
 90
        3
 70
     0
 43
0.0
 10
1.794118999999999
 20
11.12060099999999
 10
2.273952999999999
 20
10.67366
 10
2.398952999999999
 20
10.67366
  0
ENDBLK
  5
41A3
330
419E
100
AcDbEntity
  8
0
100
AcDbBlockEnd
  0
BLOCK
  5
41AB
330
41A4
100
AcDbEntity
  8
0
100
AcDbBlockBegin
  2
MEDFUNV_6
 70
     0
 10
0.0
 20
0.0
 30
0.0
  3
MEDFUNV_6
  1

  0
LWPOLYLINE
  5
41A5
330
41A4
100
AcDbEntity
  8
4
  6
LDM
 62
     1
100
AcDbPolyline
 90
        4
 70
     0
 43
0.0
 10
3.500002999999999
 20
0.583334
 10
0.0
 20
0.0
 10
3.500002999999999
 20
-0.583334
 10
3.500002999999999
 20
0.583334
  0
LWPOLYLINE
  5
41A6
330
41A4
100
AcDbEntity
  8
4
  6
LDM
 62
     1
100
AcDbPolyline
 90
        3
 70
     0
 43
0.0
 38
7.978631459979119E+99
 10
3.500002999999999
 20
0.486111
 10
0.583334
 20
0.0
 10
3.500002999999999
 20
-0.486111
  0
LWPOLYLINE
  5
41A7
330
41A4
100
AcDbEntity
  8
4
  6
LDM
 62
     1
100
AcDbPolyline
 90
        3
 70
     0
 43
0.0
 38
7.978631459979119E+99
 10
3.500002999999999
 20
0.388889
 10
1.166668
 20
0.0
 10
3.500002999999999
 20
-0.388889
  0
LWPOLYLINE
  5
41A8
330
41A4
100
AcDbEntity
  8
4
  6
LDM
 62
     1
100
AcDbPolyline
 90
        3
 70
     0
 43
0.0
 38
7.978631459979119E+99
 10
3.500002999999999
 20
0.291667
 10
1.750000999999999
 20
0.0
 10
3.500002999999999
 20
-0.291667
  0
LWPOLYLINE
  5
41A9
330
41A4
100
AcDbEntity
  8
4
  6
LDM
 62
     1
100
AcDbPolyline
 90
        3
 70
     0
 43
0.0
 38
7.978631459979119E+99
 10
3.500002999999999
 20
0.194445
 10
2.333334999999999
 20
0.0
 10
3.500002999999999
 20
-0.194445
  0
LWPOLYLINE
  5
41AA
330
41A4
100
AcDbEntity
  8
4
  6
LDM
 62
     1
100
AcDbPolyline
 90
        3
 70
     0
 43
0.0
 38
7.978631459979119E+99
 10
3.500002999999999
 20
0.097222
 10
2.916668999999999
 20
0.0
 10
3.500002999999999
 20
-0.097222
  0
ENDBLK
  5
41AC
330
41A4
100
AcDbEntity
  8
0
100
AcDbBlockEnd
  0
BLOCK
  5
41B1
330
41AD
100
AcDbEntity
  8
0
100
AcDbBlockBegin
  2
MEDCLUMP_NTE_655_
 70
     0
 10
0.0
 20
0.0
 30
0.0
  3
MEDCLUMP_NTE_655_
  1

  0
TEXT
  5
41AE
330
41AD
100
AcDbEntity
  8
4
 62
     1
100
AcDbText
 10
3.895414
 20
12.525
 30
0.0
 40
0.13
  1
PIN 1
 41
1.203999999999999
  7
TDM
 72
     5
 11
4.454413999999999
 21
12.525
 31
0.0
100
AcDbText
  0
INSERT
  5
41AF
330
41AD
100
AcDbEntity
  8
4
100
AcDbBlockReference
  2
MEDFUNV_6
 10
2.688340999999999
 20
12.035542
 30
0.0
 41
0.03937
 42
0.03937
 50
28.70065999999999
  0
LWPOLYLINE
  5
41B0
330
41AD
100
AcDbEntity
  8
4
  6
LDM
 62
     1
100
AcDbPolyline
 90
        3
 70
     0
 43
0.0
 10
2.688340999999999
 20
12.035542
 10
3.697272
 20
12.58793
 10
3.822272
 20
12.58793
  0
ENDBLK
  5
41B2
330
41AD
100
AcDbEntity
  8
0
100
AcDbBlockEnd
  0
BLOCK
  5
41B7
330
41B3
100
AcDbEntity
  8
0
100
AcDbBlockBegin
  2
MEDCLUMP_NTE_651_
 70
     0
 10
0.0
 20
0.0
 30
0.0
  3
MEDCLUMP_NTE_651_
  1

  0
TEXT
  5
41B4
330
41B3
100
AcDbEntity
  8
4
 62
     1
100
AcDbText
 10
0.9290229999999999
 20
12.13846
 30
0.0
 40
0.13
  1
PIN 44
 41
1.039999999999999
  7
TDM
 72
     5
 11
1.605022999999999
 21
12.13846
 31
0.0
100
AcDbText
  0
INSERT
  5
41B5
330
41B3
100
AcDbEntity
  8
4
100
AcDbBlockReference
  2
MEDFUNV_6
 10
1.719165999999999
 20
11.322834
 30
0.0
 41
0.03937
 42
0.03937
 50
83.58203399999998
  0
LWPOLYLINE
  5
41B6
330
41B3
100
AcDbEntity
  8
4
  6
LDM
 62
     1
100
AcDbPolyline
 90
        3
 70
     0
 43
0.0
 10
1.719165999999999
 20
11.322834
 10
1.818222999999999
 20
12.20346
 10
1.693222999999999
 20
12.20346
  0
ENDBLK
  5
41B8
330
41B3
100
AcDbEntity
  8
0
100
AcDbBlockEnd
  0
BLOCK
  5
41BD
330
41B9
100
AcDbEntity
  8
0
100
AcDbBlockBegin
  2
MEDCLUMP_NTE_647_
 70
     0
 10
0.0
 20
0.0
 30
0.0
  3
MEDCLUMP_NTE_647_
  1

  0
TEXT
  5
41BA
330
41B9
100
AcDbEntity
  8
4
 62
     1
100
AcDbText
 10
0.9371889999999998
 20
12.522241
 30
0.0
 40
0.13
  1
PIN 31
 41
1.149473684210526
  7
TDM
 72
     5
 11
1.613189
 21
12.522241
 31
0.0
100
AcDbText
  0
INSERT
  5
41BB
330
41B9
100
AcDbEntity
  8
4
100
AcDbBlockReference
  2
MEDFUNV_6
 10
2.546480999999999
 20
12.150149
 30
0.0
 41
0.03937
 42
0.03937
 50
148.7424679999999
  0
LWPOLYLINE
  5
41BC
330
41B9
100
AcDbEntity
  8
4
  6
LDM
 62
     1
100
AcDbPolyline
 90
        3
 70
     0
 43
0.0
 10
2.546480999999999
 20
12.150149
 10
1.826388999999999
 20
12.587241
 10
1.701388999999999
 20
12.587241
  0
ENDBLK
  5
41BE
330
41B9
100
AcDbEntity
  8
0
100
AcDbBlockEnd
  0
BLOCK
  5
45C4
330
452B
100
AcDbEntity
  8
0
100
AcDbBlockBegin
  2
ASSEMBLY_B
 70
     2
 10
0.0
 20
0.0
 30
0.0
  3
ASSEMBLY_B
  1

  0
LINE
  5
4961
330
452B
100
AcDbEntity
  8
BORDER
 62
    15
100
AcDbLine
 10
16.6
 20
0.3999656890232617
 30
0.0
 11
16.6
 21
10.63996597902324
 31
0.0
  0
LINE
  5
4962
330
452B
100
AcDbEntity
  8
BORDER
 62
    15
100
AcDbLine
 10
0.400011260000019
 20
0.3999656890232617
 30
0.0
 11
0.400011260000019
 21
10.63996597902324
 31
0.0
  0
LINE
  5
4963
330
452B
100
AcDbEntity
  8
BORDER
 62
    15
100
AcDbLine
 10
0.400011260000019
 20
0.3999656890232617
 30
0.0
 11
16.6
 21
0.3999656890232617
 31
0.0
  0
LINE
  5
4964
330
452B
100
AcDbEntity
  8
BORDER
 62
    15
100
AcDbLine
 10
0.0000022600000076
 20
5.519965834023253
 30
0.0
 11
0.400011260000019
 21
5.519965834023253
 31
0.0
  0
TEXT
  5
4965
330
452B
100
AcDbEntity
  8
Title Block
  6
Continuous
 62
     2
100
AcDbText
 10
12.30669482722675
 20
2.205546537751305
 30
0.0
 40
0.1010611419
  1
DO NOT SCALE
 50
0.09999996
  7
AE
100
AcDbText
  0
TEXT
  5
4966
330
452B
100
AcDbEntity
  8
Title Block
  6
Continuous
 62
     2
100
AcDbText
 10
12.30669482722675
 20
1.996163262564665
 30
0.0
 40
0.1010611419
  1
  DRAWING
 50
0.09999996
  7
AE
100
AcDbText
  0
ATTDEF
  5
4967
330
452B
100
AcDbEntity
  8
Title Block
  6
Continuous
 62
     2
100
AcDbText
 10
10.79999999999999
 20
0.6000000000000001
 30
0.0
 40
0.126326427375
  1

 41
0.8
100
AcDbAttributeDefinition
  3
Drawing Name
  2
GEN-TITLE-DES1{15.54}
 70
     0
1001
GENIUS_GENBLLY_14
1000
BOR5
  0
LINE
  5
4968
330
452B
100
AcDbEntity
  8
Title Block
  6
Continuous
 62
     2
100
AcDbLine
 10
7.849999999999999
 20
2.4
 30
0.0
 11
16.6
 21
2.4
 31
0.0
  0
LINE
  5
4969
330
452B
100
AcDbEntity
  8
Title Block
  6
Continuous
 62
     2
100
AcDbLine
 10
12.17518995515351
 20
1.7
 30
0.0
 11
16.6
 21
1.7
 31
0.0
  0
LINE
  5
496A
330
452B
100
AcDbEntity
  8
Title Block
  6
Continuous
 62
     2
100
AcDbLine
 10
12.17518995515351
 20
1.45
 30
0.0
 11
16.6
 21
1.45
 31
0.0
  0
LINE
  5
496B
330
452B
100
AcDbEntity
  8
Title Block
  6
Continuous
 62
     2
100
AcDbLine
 10
12.17518995515351
 20
1.199999999999999
 30
0.0
 11
16.6
 21
1.199999999999999
 31
0.0
  0
LINE
  5
496C
330
452B
100
AcDbEntity
  8
Title Block
  6
Continuous
 62
     2
100
AcDbLine
 10
10.69965639031853
 20
0.95
 30
0.0
 11
16.6
 21
0.95
 31
0.0
  0
ATTDEF
  5
496D
330
452B
100
AcDbEntity
  8
Title Block
  6
Continuous
 62
     2
100
AcDbText
 10
12.52499999999999
 20
1.024999999999999
 30
0.0
 40
0.1010611419
  1

100
AcDbAttributeDefinition
  3
Approved by
  2
GEN-TITLE-APPM{5}
 70
     0
1001
GENIUS_GENBLLY_14
1000
BOR2
1001
GENIUS_GENTRA_14
1002
{
1070
     3
1000
GENTRAPR,%s,(GENMSG gentitus 73)
1000
Approved by
1000
gb
1070
     0
1002
}
  0
ATTDEF
  5
496E
330
452B
100
AcDbEntity
  8
Title Block
  6
Continuous
 62
     2
100
AcDbText
 10
12.52499999999999
 20
1.274999999999999
 30
0.0
 40
0.1010611419
  1

100
AcDbAttributeDefinition
  3
Check by
  2
GEN-TITLE-CHKM{5}
 70
     0
1001
GENIUS_GENBLLY_14
1000
BOR2
  0
ATTDEF
  5
496F
330
452B
100
AcDbEntity
  8
Title Block
  6
Continuous
 62
     2
100
AcDbText
 10
12.52499999999999
 20
1.524999999999999
 30
0.0
 40
0.1010611419
  1

100
AcDbAttributeDefinition
  3
Drawn by
  2
GEN-TITLE-NAME{5}
 70
     0
1001
GENIUS_GENBLLY_14
1000
BOR2
  0
LINE
  5
4970
330
452B
100
AcDbEntity
  8
Title Block
  6
Continuous
 62
     2
100
AcDbLine
 10
7.849999999999999
 20
0.9
 30
0.0
 11
10.69965639031853
 21
0.9
 31
0.0
  0
LINE
  5
4971
330
452B
100
AcDbEntity
  8
Title Block
  6
Continuous
 62
     2
100
AcDbLine
 10
7.849999999999999
 20
1.149999999999999
 30
0.0
 11
10.69965639031853
 21
1.149999999999999
 31
0.0
  0
LINE
  5
4972
330
452B
100
AcDbEntity
  8
Title Block
  6
Continuous
 62
     2
100
AcDbLine
 10
7.849999999999999
 20
2.149999999999999
 30
0.0
 11
10.69965639031853
 21
2.149999999999999
 31
0.0
  0
LINE
  5
4973
330
452B
100
AcDbEntity
  8
Title Block
  6
Continuous
 62
     2
100
AcDbLine
 10
7.849999999999999
 20
1.9
 30
0.0
 11
10.69965639031853
 21
1.9
 31
0.0
  0
LINE
  5
4974
330
452B
100
AcDbEntity
  8
Title Block
  6
Continuous
 62
     2
100
AcDbLine
 10
7.849999999999999
 20
1.649999999999999
 30
0.0
 11
10.69965639031853
 21
1.649999999999999
 31
0.0
  0
LINE
  5
4975
330
452B
100
AcDbEntity
  8
Title Block
  6
Continuous
 62
     2
100
AcDbLine
 10
7.849999999999999
 20
1.399999999999999
 30
0.0
 11
10.69965639031853
 21
1.399999999999999
 31
0.0
  0
LINE
  5
4976
330
452B
100
AcDbEntity
  8
Title Block
  6
Continuous
 62
     2
100
AcDbLine
 10
7.849999999999999
 20
0.65
 30
0.0
 11
10.69965639031853
 21
0.65
 31
0.0
  0
TEXT
  5
4977
330
452B
100
AcDbEntity
  8
Title Block
  6
Continuous
 62
     2
100
AcDbText
 10
8.501374022347393
 20
0.7409580908741999
 30
0.0
 40
0.075937067150492
  1
DATE
 50
0.09999996
  7
AE
100
AcDbText
  0
LINE
  5
4978
330
452B
100
AcDbEntity
  8
BORDER
 62
    15
100
AcDbLine
 10
8.50000126000001
 20
0.2
 30
0.0
 11
8.50000126000001
 21
0.3999656890232617
 31
0.0
  0
TEXT
  5
4979
330
452B
100
AcDbEntity
  8
BORDER
  6
Continuous
 62
    15
100
AcDbText
 10
8.471503396695657
 20
0.0599741912456094
 30
0.0
 40
0.0799862356161777
  1
0
 50
0.09999996
  7
AE
100
AcDbText
  0
LINE
  5
497A
330
452B
100
AcDbEntity
  8
BORDER
  6
Continuous
 62
    15
100
AcDbLine
 10
8.57998715545812
 20
0.3399759973137096
 30
0.0
 11
8.57998715545812
 21
0.3999656890232617
 31
0.0
  0
LINE
  5
497B
330
452B
100
AcDbEntity
  8
BORDER
  6
Continuous
 62
    15
100
AcDbLine
 10
8.559991091469045
 20
0.2999828395124904
 30
0.0
 11
8.559991091469045
 21
0.3999656890232617
 31
0.0
  0
LINE
  5
497C
330
452B
100
AcDbEntity
  8
BORDER
  6
Continuous
 62
    15
100
AcDbLine
 10
8.539994027651742
 20
0.2999828395124904
 30
0.0
 11
8.539994027651742
 21
0.3999656890232617
 31
0.0
  0
LINE
  5
497D
330
452B
100
AcDbEntity
  8
BORDER
  6
Continuous
 62
    15
100
AcDbLine
 10
8.519997063817303
 20
0.3399759973137096
 30
0.0
 11
8.519997063817303
 21
0.3999656890232617
 31
0.0
  0
LINE
  5
497E
330
452B
100
AcDbEntity
  8
BORDER
  6
Continuous
 62
    15
100
AcDbLine
 10
8.599983219447194
 20
0.2599896917095521
 30
0.0
 11
8.599983219447194
 21
0.3999656890232617
 31
0.0
  0
LINE
  5
497F
330
452B
100
AcDbEntity
  8
Title Block
  6
Continuous
 62
     2
100
AcDbLine
 10
8.199999999999999
 20
0.65
 30
0.0
 11
8.199999999999999
 21
2.4
 31
0.0
  0
LINE
  5
4980
330
452B
100
AcDbEntity
  8
Title Block
  6
Continuous
 62
     2
100
AcDbLine
 10
7.849999999999999
 20
0.3999656890232617
 30
0.0
 11
7.849999999999999
 21
2.4
 31
0.0
  0
TEXT
  5
4981
330
452B
100
AcDbEntity
  8
Title Block
  6
Continuous
 62
     2
100
AcDbText
 10
7.938242132245035
 20
0.7403498140978244
 30
0.0
 40
0.0771520776612738
  1
NO.
 50
0.09999996
  7
AE
100
AcDbText
  0
LINE
  5
4982
330
452B
100
AcDbEntity
  8
BORDER
  6
Continuous
 62
    15
100
AcDbLine
 10
9.499828195159265
 20
0.2
 30
0.0
 11
9.499828195159265
 21
0.3999656890232617
 31
0.0
  0
TEXT
  5
4983
330
452B
100
AcDbEntity
  8
BORDER
  6
Continuous
 62
    15
100
AcDbText
 10
9.271369052290525
 20
0.1199638829551611
 30
0.0
 40
0.0799862356161777
  1
8
 50
0.09999996
  7
AE
100
AcDbText
  0
TEXT
  5
4984
330
452B
100
AcDbEntity
  8
BORDER
  6
Continuous
 62
    15
100
AcDbText
 10
10.0712336080743
 20
0.1199638829551611
 30
0.0
 40
0.0799862356161777
  1
6
 50
0.09999996
  7
AE
100
AcDbText
  0
TEXT
  5
4985
330
452B
100
AcDbEntity
  8
BORDER
  6
Continuous
 62
    15
100
AcDbText
 10
9.671301830096499
 20
0.1199638829551611
 30
0.0
 40
0.0799862356161777
  1
2
 50
0.09999996
  7
AE
100
AcDbText
  0
TEXT
  5
4986
330
452B
100
AcDbEntity
  8
BORDER
  6
Continuous
 62
    15
100
AcDbText
 10
9.471331591854921
 20
0.0599741912456094
 30
0.0
 40
0.0799862356161777
  1
1
 50
0.09999996
  7
AE
100
AcDbText
  0
TEXT
  5
4987
330
452B
100
AcDbEntity
  8
BORDER
  6
Continuous
 62
    15
100
AcDbText
 10
9.871267269162689
 20
0.1199638829551611
 30
0.0
 40
0.0799862356161777
  1
4
 50
0.09999996
  7
AE
100
AcDbText
  0
TEXT
  5
4988
330
452B
100
AcDbEntity
  8
BORDER
  6
Continuous
 62
    15
100
AcDbText
 10
10.27120004696869
 20
0.1199638829551611
 30
0.0
 40
0.0799862356161777
  1
8
 50
0.09999996
  7
AE
100
AcDbText
  0
LINE
  5
4989
330
452B
100
AcDbEntity
  8
BORDER
  6
Continuous
 62
    15
100
AcDbLine
 10
9.379852711070126
 20
0.3399759973137096
 30
0.0
 11
9.379852711070126
 21
0.3999656890232617
 31
0.0
  0
LINE
  5
498A
330
452B
100
AcDbEntity
  8
BORDER
  6
Continuous
 62
    15
100
AcDbLine
 10
9.359856647081052
 20
0.2999828395124904
 30
0.0
 11
9.359856647081052
 21
0.3999656890232617
 31
0.0
  0
LINE
  5
498B
330
452B
100
AcDbEntity
  8
BORDER
  6
Continuous
 62
    15
100
AcDbLine
 10
9.339859683246583
 20
0.2999828395124904
 30
0.0
 11
9.339859683246583
 21
0.3999656890232617
 31
0.0
  0
LINE
  5
498C
330
452B
100
AcDbEntity
  8
BORDER
  6
Continuous
 62
    15
100
AcDbLine
 10
9.319862619429308
 20
0.3399759973137096
 30
0.0
 11
9.319862619429308
 21
0.3999656890232617
 31
0.0
  0
LINE
  5
498D
330
452B
100
AcDbEntity
  8
BORDER
  6
Continuous
 62
    15
100
AcDbLine
 10
9.279869591605736
 20
0.3399759973137096
 30
0.0
 11
9.279869591605736
 21
0.3999656890232617
 31
0.0
  0
LINE
  5
498E
330
452B
100
AcDbEntity
  8
BORDER
  6
Continuous
 62
    15
100
AcDbLine
 10
9.459839866528247
 20
0.2999828395124904
 30
0.0
 11
9.459839866528247
 21
0.3999656890232617
 31
0.0
  0
LINE
  5
498F
330
452B
100
AcDbEntity
  8
BORDER
  6
Continuous
 62
    15
100
AcDbLine
 10
9.439842902693806
 20
0.2999828395124904
 30
0.0
 11
9.439842902693806
 21
0.3999656890232617
 31
0.0
  0
LINE
  5
4990
330
452B
100
AcDbEntity
  8
BORDER
  6
Continuous
 62
    15
100
AcDbLine
 10
9.419845838876504
 20
0.3399759973137096
 30
0.0
 11
9.419845838876504
 21
0.3999656890232617
 31
0.0
  0
LINE
  5
4991
330
452B
100
AcDbEntity
  8
BORDER
  6
Continuous
 62
    15
100
AcDbLine
 10
9.399848775059201
 20
0.2599896917095521
 30
0.0
 11
9.399848775059201
 21
0.3999656890232617
 31
0.0
  0
LINE
  5
4992
330
452B
100
AcDbEntity
  8
BORDER
  6
Continuous
 62
    15
100
AcDbLine
 10
9.29986565559481
 20
0.2599896917095521
 30
0.0
 11
9.29986565559481
 21
0.3999656890232617
 31
0.0
  0
LINE
  5
4993
330
452B
100
AcDbEntity
  8
BORDER
  6
Continuous
 62
    15
100
AcDbLine
 10
9.479835930517349
 20
0.3399759973137096
 30
0.0
 11
9.479835930517349
 21
0.3999656890232617
 31
0.0
  0
LINE
  5
4994
330
452B
100
AcDbEntity
  8
BORDER
  6
Continuous
 62
    15
100
AcDbLine
 10
9.699798433400815
 20
0.2599896917095521
 30
0.0
 11
9.699798433400815
 21
0.3999656890232617
 31
0.0
  0
LINE
  5
4995
330
452B
100
AcDbEntity
  8
BORDER
  6
Continuous
 62
    15
100
AcDbLine
 10
9.899763872467033
 20
0.2599896917095521
 30
0.0
 11
9.899763872467033
 21
0.3999656890232617
 31
0.0
  0
LINE
  5
4996
330
452B
100
AcDbEntity
  8
BORDER
  6
Continuous
 62
    15
100
AcDbLine
 10
10.09973031136145
 20
0.2599896917095521
 30
0.0
 11
10.09973031136145
 21
0.3999656890232617
 31
0.0
  0
LINE
  5
4997
330
452B
100
AcDbEntity
  8
BORDER
  6
Continuous
 62
    15
100
AcDbLine
 10
10.29969665027303
 20
0.2599896917095521
 30
0.0
 11
10.29969665027303
 21
0.3999656890232617
 31
0.0
  0
LINE
  5
4998
330
452B
100
AcDbEntity
  8
BORDER
  6
Continuous
 62
    15
100
AcDbLine
 10
10.49965928982029
 20
0.2
 30
0.0
 11
10.49965928982029
 21
0.3999656890232617
 31
0.0
  0
TEXT
  5
4999
330
452B
100
AcDbEntity
  8
BORDER
  6
Continuous
 62
    15
100
AcDbText
 10
10.47115978701421
 20
0.0599741912456095
 30
0.0
 40
0.0799862356161777
  1
2
 50
0.09999996
  7
AE
100
AcDbText
  0
TEXT
  5
499A
330
452B
100
AcDbEntity
  8
BORDER
  6
Continuous
 62
    15
100
AcDbText
 10
8.671469835590103
 20
0.1199638829551611
 30
0.0
 40
0.0799862356161777
  1
2
 50
0.09999996
  7
AE
100
AcDbText
  0
LINE
  5
499B
330
452B
100
AcDbEntity
  8
BORDER
  6
Continuous
 62
    15
100
AcDbLine
 10
8.679970374905344
 20
0.3399759973137096
 30
0.0
 11
8.679970374905344
 21
0.3999656890232617
 31
0.0
  0
LINE
  5
499C
330
452B
100
AcDbEntity
  8
BORDER
  6
Continuous
 62
    15
100
AcDbLine
 10
8.65997431091624
 20
0.2999828395124904
 30
0.0
 11
8.65997431091624
 21
0.3999656890232617
 31
0.0
  0
LINE
  5
499D
330
452B
100
AcDbEntity
  8
BORDER
  6
Continuous
 62
    15
100
AcDbLine
 10
8.639977247098967
 20
0.2999828395124904
 30
0.0
 11
8.639977247098967
 21
0.3999656890232617
 31
0.0
  0
LINE
  5
499E
330
452B
100
AcDbEntity
  8
BORDER
  6
Continuous
 62
    15
100
AcDbLine
 10
8.619980183281692
 20
0.3399759973137096
 30
0.0
 11
8.619980183281692
 21
0.3999656890232617
 31
0.0
  0
LINE
  5
499F
330
452B
100
AcDbEntity
  8
BORDER
  6
Continuous
 62
    15
100
AcDbLine
 10
8.699966438894419
 20
0.2599896917095521
 30
0.0
 11
8.699966438894419
 21
0.3999656890232617
 31
0.0
  0
TEXT
  5
49A0
330
452B
100
AcDbEntity
  8
BORDER
  6
Continuous
 62
    15
100
AcDbText
 10
9.071402613396108
 20
0.1199638829551611
 30
0.0
 40
0.0799862356161777
  1
6
 50
0.09999996
  7
AE
100
AcDbText
  0
TEXT
  5
49A1
330
452B
100
AcDbEntity
  8
BORDER
  6
Continuous
 62
    15
100
AcDbText
 10
8.87143617450166
 20
0.1199638829551611
 30
0.0
 40
0.0799862356161777
  1
4
 50
0.09999996
  7
AE
100
AcDbText
  0
LINE
  5
49A2
330
452B
100
AcDbEntity
  8
BORDER
  6
Continuous
 62
    15
100
AcDbLine
 10
8.779953494369733
 20
0.3399759973137096
 30
0.0
 11
8.779953494369733
 21
0.3999656890232617
 31
0.0
  0
LINE
  5
49A3
330
452B
100
AcDbEntity
  8
BORDER
  6
Continuous
 62
    15
100
AcDbLine
 10
8.75995743038063
 20
0.2999828395124904
 30
0.0
 11
8.75995743038063
 21
0.3999656890232617
 31
0.0
  0
LINE
  5
49A4
330
452B
100
AcDbEntity
  8
BORDER
  6
Continuous
 62
    15
100
AcDbLine
 10
8.73996046654619
 20
0.2999828395124904
 30
0.0
 11
8.73996046654619
 21
0.3999656890232617
 31
0.0
  0
LINE
  5
49A5
330
452B
100
AcDbEntity
  8
BORDER
  6
Continuous
 62
    15
100
AcDbLine
 10
8.719963402728886
 20
0.3399759973137096
 30
0.0
 11
8.719963402728886
 21
0.3999656890232617
 31
0.0
  0
LINE
  5
49A6
330
452B
100
AcDbEntity
  8
BORDER
  6
Continuous
 62
    15
100
AcDbLine
 10
9.119896280517695
 20
0.3399759973137096
 30
0.0
 11
9.119896280517695
 21
0.3999656890232617
 31
0.0
  0
LINE
  5
49A7
330
452B
100
AcDbEntity
  8
BORDER
  6
Continuous
 62
    15
100
AcDbLine
 10
9.079903152711347
 20
0.3399759973137096
 30
0.0
 11
9.079903152711347
 21
0.3999656890232617
 31
0.0
  0
LINE
  5
49A8
330
452B
100
AcDbEntity
  8
BORDER
  6
Continuous
 62
    15
100
AcDbLine
 10
9.059907088722244
 20
0.2999828395124904
 30
0.0
 11
9.059907088722244
 21
0.3999656890232617
 31
0.0
  0
LINE
  5
49A9
330
452B
100
AcDbEntity
  8
BORDER
  6
Continuous
 62
    15
100
AcDbLine
 10
9.039910024904969
 20
0.2999828395124904
 30
0.0
 11
9.039910024904969
 21
0.3999656890232617
 31
0.0
  0
LINE
  5
49AA
330
452B
100
AcDbEntity
  8
BORDER
  6
Continuous
 62
    15
100
AcDbLine
 10
9.0199130610705
 20
0.3399759973137096
 30
0.0
 11
9.0199130610705
 21
0.3999656890232617
 31
0.0
  0
LINE
  5
49AB
330
452B
100
AcDbEntity
  8
BORDER
  6
Continuous
 62
    15
100
AcDbLine
 10
8.979919933264122
 20
0.3399759973137096
 30
0.0
 11
8.979919933264122
 21
0.3999656890232617
 31
0.0
  0
LINE
  5
49AC
330
452B
100
AcDbEntity
  8
BORDER
  6
Continuous
 62
    15
100
AcDbLine
 10
8.959923869275048
 20
0.2999828395124904
 30
0.0
 11
8.959923869275048
 21
0.3999656890232617
 31
0.0
  0
LINE
  5
49AD
330
452B
100
AcDbEntity
  8
BORDER
  6
Continuous
 62
    15
100
AcDbLine
 10
8.93992690544058
 20
0.2999828395124904
 30
0.0
 11
8.93992690544058
 21
0.3999656890232617
 31
0.0
  0
LINE
  5
49AE
330
452B
100
AcDbEntity
  8
BORDER
  6
Continuous
 62
    15
100
AcDbLine
 10
8.919929841623305
 20
0.3399759973137096
 30
0.0
 11
8.919929841623305
 21
0.3999656890232617
 31
0.0
  0
LINE
  5
49AF
330
452B
100
AcDbEntity
  8
BORDER
  6
Continuous
 62
    15
100
AcDbLine
 10
8.879936713816928
 20
0.3399759973137096
 30
0.0
 11
8.879936713816928
 21
0.3999656890232617
 31
0.0
  0
LINE
  5
49B0
330
452B
100
AcDbEntity
  8
BORDER
  6
Continuous
 62
    15
100
AcDbLine
 10
8.859940649827825
 20
0.2999828395124904
 30
0.0
 11
8.859940649827825
 21
0.3999656890232617
 31
0.0
  0
LINE
  5
49B1
330
452B
100
AcDbEntity
  8
BORDER
  6
Continuous
 62
    15
100
AcDbLine
 10
8.839943685993384
 20
0.2999828395124904
 30
0.0
 11
8.839943685993384
 21
0.3999656890232617
 31
0.0
  0
LINE
  5
49B2
330
452B
100
AcDbEntity
  8
BORDER
  6
Continuous
 62
    15
100
AcDbLine
 10
8.819946622176082
 20
0.3399759973137096
 30
0.0
 11
8.819946622176082
 21
0.3999656890232617
 31
0.0
  0
LINE
  5
49B3
330
452B
100
AcDbEntity
  8
BORDER
  6
Continuous
 62
    15
100
AcDbLine
 10
9.099899216700421
 20
0.2599896917095521
 30
0.0
 11
9.099899216700421
 21
0.3999656890232617
 31
0.0
  0
LINE
  5
49B4
330
452B
100
AcDbEntity
  8
BORDER
  6
Continuous
 62
    15
100
AcDbLine
 10
8.999915997253197
 20
0.2599896917095521
 30
0.0
 11
8.999915997253197
 21
0.3999656890232617
 31
0.0
  0
LINE
  5
49B5
330
452B
100
AcDbEntity
  8
BORDER
  6
Continuous
 62
    15
100
AcDbLine
 10
8.899932777806002
 20
0.2599896917095521
 30
0.0
 11
8.899932777806002
 21
0.3999656890232617
 31
0.0
  0
LINE
  5
49B6
330
452B
100
AcDbEntity
  8
BORDER
  6
Continuous
 62
    15
100
AcDbLine
 10
8.799949658341613
 20
0.2599896917095521
 30
0.0
 11
8.799949658341613
 21
0.3999656890232617
 31
0.0
  0
LINE
  5
49B7
330
452B
100
AcDbEntity
  8
BORDER
  6
Continuous
 62
    15
100
AcDbLine
 10
9.259873527616662
 20
0.2999828395124904
 30
0.0
 11
9.259873527616662
 21
0.3999656890232617
 31
0.0
  0
LINE
  5
49B8
330
452B
100
AcDbEntity
  8
BORDER
  6
Continuous
 62
    15
100
AcDbLine
 10
9.239876463799388
 20
0.2999828395124904
 30
0.0
 11
9.239876463799388
 21
0.3999656890232617
 31
0.0
  0
LINE
  5
49B9
330
452B
100
AcDbEntity
  8
BORDER
  6
Continuous
 62
    15
100
AcDbLine
 10
9.219879399982085
 20
0.3399759973137096
 30
0.0
 11
9.219879399982085
 21
0.3999656890232617
 31
0.0
  0
LINE
  5
49BA
330
452B
100
AcDbEntity
  8
BORDER
  6
Continuous
 62
    15
100
AcDbLine
 10
9.179886372158541
 20
0.3399759973137096
 30
0.0
 11
9.179886372158541
 21
0.3999656890232617
 31
0.0
  0
LINE
  5
49BB
330
452B
100
AcDbEntity
  8
BORDER
  6
Continuous
 62
    15
100
AcDbLine
 10
9.159890308169439
 20
0.2999828395124904
 30
0.0
 11
9.159890308169439
 21
0.3999656890232617
 31
0.0
  0
LINE
  5
49BC
330
452B
100
AcDbEntity
  8
BORDER
  6
Continuous
 62
    15
100
AcDbLine
 10
9.139893244352192
 20
0.2999828395124904
 30
0.0
 11
9.139893244352192
 21
0.3999656890232617
 31
0.0
  0
LINE
  5
49BD
330
452B
100
AcDbEntity
  8
BORDER
  6
Continuous
 62
    15
100
AcDbLine
 10
9.199882436147616
 20
0.2599896917095521
 30
0.0
 11
9.199882436147616
 21
0.3999656890232617
 31
0.0
  0
TEXT
  5
49BE
330
452B
100
AcDbEntity
  8
BORDER
  6
Continuous
 62
    15
100
AcDbText
 10
8.702946126881657
 20
0.0329812595588271
 30
0.0
 40
0.0399931278063708
  1
FULL SIZE   50   02
 50
0.09999996
 41
0.7749084200000001
  7
AE
100
AcDbText
  0
TEXT
  5
49BF
330
452B
100
AcDbEntity
  8
Title Block
  6
Continuous
 62
     2
100
AcDbText
 10
8.973543078500011
 20
0.4900242034427523
 30
0.0
 40
0.075937067150492
  1
REVISION
 50
0.09999996
  7
AE
100
AcDbText
  0
LINE
  5
49C0
330
452B
100
AcDbEntity
  8
BORDER
  6
Continuous
 62
    15
100
AcDbLine
 10
10.69965639031853
 20
0.3999656890232617
 30
0.0
 11
10.69965639031853
 21
2.4
 31
0.0
  0
LINE
  5
49C1
330
452B
100
AcDbEntity
  8
Title Block
  6
Continuous
 62
     2
100
AcDbLine
 10
12.17518995515351
 20
1.0
 30
0.0
 11
12.17518995515351
 21
2.4
 31
0.0
  0
TEXT
  5
49C2
330
452B
100
AcDbEntity
  8
Title Block
  6
Continuous
 62
     2
100
AcDbText
 10
10.74999999999999
 20
0.8
 30
0.0
 40
0.075937067150492
  1
DRAWING NAME
 50
0.09999996
  7
AE
100
AcDbText
  0
TEXT
  5
49C3
330
452B
100
AcDbEntity
  8
Title Block
  6
Continuous
 62
     2
100
AcDbText
 10
12.19999999999999
 20
0.975
 30
0.0
 40
0.075937067150492
  1
BY
 50
0.09999996
  7
AE
100
AcDbText
  0
TEXT
  5
49C4
330
452B
100
AcDbEntity
  8
Title Block
  6
Continuous
 62
     2
100
AcDbText
 10
12.21
 20
1.1
 30
0.0
 40
0.075937067150492
  1
APPD
 50
0.09999996
  7
AE
100
AcDbText
  0
TEXT
  5
49C5
330
452B
100
AcDbEntity
  8
Title Block
  6
Continuous
 62
     2
100
AcDbText
 10
12.19999999999999
 20
1.349999999999999
 30
0.0
 40
0.075937067150492
  1
CHK
 50
0.09999996
  7
AE
100
AcDbText
  0
TEXT
  5
49C6
330
452B
100
AcDbEntity
  8
Title Block
  6
Continuous
 62
     2
100
AcDbText
 10
12.20620037256117
 20
1.224999999999999
 30
0.0
 40
0.075937067150492
  1
BY
 50
0.09999996
  7
AE
100
AcDbText
  0
TEXT
  5
49C7
330
452B
100
AcDbEntity
  8
Title Block
  6
Continuous
 62
     2
100
AcDbText
 10
12.19999999999999
 20
1.474999999999999
 30
0.0
 40
0.075937067150492
  1
BY
 50
0.09999996
  7
AE
100
AcDbText
  0
TEXT
  5
49C8
330
452B
100
AcDbEntity
  8
Title Block
  6
Continuous
 62
     2
100
AcDbText
 10
12.19999999999999
 20
1.599999999999999
 30
0.0
 40
0.075937067150492
  1
DR
 50
0.09999996
  7
AE
100
AcDbText
  0
LINE
  5
49C9
330
452B
100
AcDbEntity
  8
Title Block
  6
Continuous
 62
     2
100
AcDbLine
 10
9.0
 20
0.65
 30
0.0
 11
9.0
 21
2.4
 31
0.0
  0
ATTDEF
  5
49CA
330
452B
100
AcDbEntity
  8
Title Block
  6
Continuous
 62
     2
100
AcDbText
 10
14.0
 20
0.5
 30
0.0
 40
0.196816573850279
  1

 41
0.8
100
AcDbAttributeDefinition
  3
Drawing Number
  2
GEN-TITLE-NR{13.37}
 70
     0
1001
GENIUS_GENBLLY_14
1000
BOR5
  0
ATTDEF
  5
49CB
330
452B
100
AcDbEntity
  8
Title Block
  6
Continuous
 62
     2
100
AcDbText
 10
15.6
 20
1.024999999999999
 30
0.0
 40
0.11808994431015
  1

 41
0.8
100
AcDbAttributeDefinition
  3
Sheet
  2
GEN-TITLE-SHEET{2.62}
 70
     0
1001
GENIUS_GENBLLY_14
1000
BOR3
  0
ATTDEF
  5
49CC
330
452B
100
AcDbEntity
  8
Title Block
  6
Continuous
 62
     2
100
AcDbText
 10
15.525
 20
1.274999999999999
 30
0.0
 40
0.1010611419
  1

100
AcDbAttributeDefinition
  3
Date
  2
GEN-TITLE-PLOT{5}
 70
     0
1001
GENIUS_GENBLLY_14
1000
BOR2
  0
ATTDEF
  5
49CD
330
452B
100
AcDbEntity
  8
Title Block
  6
Continuous
 62
     2
100
AcDbText
 10
15.99999999999999
 20
1.024999999999999
 30
0.0
 40
0.11808994431015
  1

 41
0.8
100
AcDbAttributeDefinition
  3
Sheet of
  2
GEN-TITLE-SHEET-OF{2.62}
 70
     0
1001
GENIUS_GENBLLY_14
1000
BOR3
  0
LINE
  5
49CE
330
452B
100
AcDbEntity
  8
Title Block
  6
Continuous
 62
     2
100
AcDbLine
 10
15.12625718126357
 20
0.95
 30
0.0
 11
15.12625718126354
 21
1.45
 31
0.0
  0
LINE
  5
49CF
330
452B
100
AcDbEntity
  8
BORDER
  6
Continuous
 62
    15
100
AcDbLine
 10
13.64999999999999
 20
0.3999656890232617
 30
0.0
 11
13.64999999999999
 21
2.4
 31
0.0
  0
TEXT
  5
49D0
330
452B
100
AcDbEntity
  8
Title Block
  6
Continuous
 62
     2
100
AcDbText
 10
13.7
 20
0.8
 30
0.0
 40
0.075937067150492
  1
DRAWING NUMBER
 50
0.09999996
  7
AE
100
AcDbText
  0
TEXT
  5
49D1
330
452B
100
AcDbEntity
  8
Title Block
  6
Continuous
 62
     2
100
AcDbText
 10
13.7
 20
1.599999999999999
 30
0.0
 40
0.075937067150492
  1
REF
 50
0.09999996
  7
AE
100
AcDbText
  0
TEXT
  5
49D2
330
452B
100
AcDbEntity
  8
Title Block
  6
Continuous
 62
     2
100
AcDbText
 10
13.7
 20
1.349999999999999
 30
0.0
 40
0.075937067150492
  1
MACH
 50
0.09999996
  7
AE
100
AcDbText
  0
TEXT
  5
49D3
330
452B
100
AcDbEntity
  8
Title Block
  6
Continuous
 62
     2
100
AcDbText
 10
13.7
 20
1.1
 30
0.0
 40
0.075937067150492
  1
MATL
 50
0.09999996
  7
AE
100
AcDbText
  0
ATTDEF
  5
49D4
330
452B
100
AcDbEntity
  8
Title Block
  6
Continuous
 62
     2
100
AcDbText
 10
14.05
 20
1.524999999999999
 30
0.0
 40
0.1010611419
  1

100
AcDbAttributeDefinition
  3
Ref. No.
  2
GEN-TITLE-REF{5}
 70
     0
1001
GENIUS_GENBLLY_14
1000
BOR2
  0
ATTDEF
  5
49D5
330
452B
100
AcDbEntity
  8
Title Block
  6
Continuous
 62
     2
100
AcDbText
 10
14.05
 20
1.274999999999999
 30
0.0
 40
0.1010611419
  1

100
AcDbAttributeDefinition
  3
Machine
  2
GEN-TITLE-MACH{5}
 70
     0
1001
GENIUS_GENBLLY_14
1000
BOR2
  0
ATTDEF
  5
49D6
330
452B
100
AcDbEntity
  8
Title Block
  6
Continuous
 62
     2
100
AcDbText
 10
14.05
 20
1.024999999999999
 30
0.0
 40
0.1010611419
  1

 41
0.8
100
AcDbAttributeDefinition
  3
Material
  2
GEN-TITLE-MAT{11.15}
 70
     0
1001
GENIUS_GENBLLY_14
1000
BOR3
  0
TEXT
  5
49D7
330
452B
100
AcDbEntity
  8
Title Block
  6
Continuous
 62
     2
100
AcDbText
 10
15.175
 20
1.1
 30
0.0
 40
0.075937067150492
  1
SHEET   OF
 50
0.09999996
  7
AE
100
AcDbText
  0
TEXT
  5
49D8
330
452B
100
AcDbEntity
  8
Title Block
  6
Continuous
 62
     2
100
AcDbText
 10
15.175
 20
1.349999999999999
 30
0.0
 40
0.075937067150492
  1
DATE
 50
0.09999996
  7
AE
100
AcDbText
  0
LINE
  5
49D9
330
452B
100
AcDbEntity
  8
BORDER
 62
    15
100
AcDbLine
 10
16.6
 20
5.519965979023269
 30
0.0
 11
16.99999962000001
 21
5.519965979023269
 31
0.0
  0
LINE
  5
49DA
330
452B
100
AcDbEntity
  8
BORDER
 62
    15
100
AcDbLine
 10
0.400011260000019
 20
10.63996597902324
 30
0.0
 11
16.6
 21
10.63996597902324
 31
0.0
  0
LINE
  5
49DB
330
452B
100
AcDbEntity
  8
BORDER
 62
    15
100
AcDbLine
 10
8.50000126000001
 20
10.63996597902324
 30
0.0
 11
8.50000126000001
 21
11.01996597902326
 31
0.0
  0
MTEXT
  5
49DC
330
452B
100
AcDbEntity
  8
BORDER
  6
Continuous
100
AcDbMText
 10
15.10308979335871
 20
2.25
 30
0.0
 40
0.125
 41
2.663
 71
     2
 72
     5
  1
{\fArial|b0|i0|c0|p34;\C1;G & L Motion Control Inc.}
 73
     1
 44
1.0
  0
MTEXT
  5
49DD
330
452B
100
AcDbEntity
  8
BORDER
  6
Continuous
100
AcDbMText
 10
15.10412857763948
 20
1.928264837305509
 30
0.0
 40
0.07874
 41
2.862
 71
     5
 72
     1
  1
{\Fromans.shx;\C9;672 South Military Road\PFond du Lac, Wisconsin 54936 U.S.A.}
 73
     1
 44
1.0
  0
TEXT
  5
49DE
330
452B
100
AcDbEntity
  8
Title Block
  6
Continuous
 62
     2
100
AcDbText
 10
10.71881861560131
 20
2.036049281269597
 30
0.0
 40
0.0645465051491158
  1
of G&L Motion Control, is
 50
0.0999999600000013
 41
0.6799434399999999
  7
AE
100
AcDbText
  0
TEXT
  5
49DF
330
452B
100
AcDbEntity
  8
Title Block
  6
Continuous
 62
     2
100
AcDbText
 10
10.71741487412047
 20
2.144627598463487
 30
0.0
 40
0.0645465051491158
  1
contains proprietary information
 50
0.0999999600000013
 41
0.7005041199999999
  7
AE
100
AcDbText
  0
TEXT
  5
49E0
330
452B
100
AcDbEntity
  8
Title Block
  6
Continuous
 62
     2
100
AcDbText
 10
10.72248667991201
 20
1.924616885729644
 30
0.0
 40
0.0645465051491158
  1
submitted in confidence on
 50
0.0999999600000013
 41
0.6605569100000001
  7
AE
100
AcDbText
  0
TEXT
  5
49E1
330
452B
100
AcDbEntity
  8
Title Block
  6
Continuous
 62
     2
100
AcDbText
 10
10.71679449751522
 20
1.81708586876793
 30
0.0
 40
0.0645465051491158
  1
condition that it will not be
 50
0.0999999600000013
 41
0.72234601
  7
AE
100
AcDbText
  0
TEXT
  5
49E2
330
452B
100
AcDbEntity
  8
Title Block
  6
Continuous
 62
     2
100
AcDbText
 10
10.71416899531685
 20
1.597796107226088
 30
0.0
 40
0.0645465051491158
  1
will be used only for your
 50
0.0999999600000013
 41
0.6799434399999999
  7
AE
100
AcDbText
  0
TEXT
  5
49E3
330
452B
100
AcDbEntity
  8
Title Block
  6
Continuous
 62
     2
100
AcDbText
 10
10.71948721212293
 20
1.489000640399515
 30
0.0
 40
0.0645465051491158
  1
information, and will not be used
 50
0.0999999600000013
 41
0.6605569100000001
  7
AE
100
AcDbText
  0
TEXT
  5
49E4
330
452B
100
AcDbEntity
  8
Title Block
  6
Continuous
 62
     2
100
AcDbText
 10
10.71739723193344
 20
1.378476657741246
 30
0.0
 40
0.0645465051491158
  1
or disclosed to anyone except as
 50
0.0999999600000013
 41
0.6799434399999999
  7
AE
100
AcDbText
  0
TEXT
  5
49E5
330
452B
100
AcDbEntity
  8
Title Block
  6
Continuous
 62
     2
100
AcDbText
 10
10.71540499165808
 20
1.267047562975569
 30
0.0
 40
0.0645465051491158
  1
authorized by specific
 50
0.0999999600000013
 41
0.79688752
  7
AE
100
AcDbText
  0
TEXT
  5
49E6
330
452B
100
AcDbEntity
  8
Title Block
  6
Continuous
 62
     2
100
AcDbText
 10
10.71777124306261
 20
1.705466828073234
 30
0.0
 40
0.0645465051491158
  1
copied or otherwise reproduced,
 50
0.0999999600000013
 41
0.6799434399999999
  7
AE
100
AcDbText
  0
TEXT
  5
49E7
330
452B
100
AcDbEntity
  8
Title Block
  6
Continuous
 62
     2
100
AcDbText
 10
10.72050994356058
 20
2.252555955563673
 30
0.0
 40
0.0645465051491158
  1
NOTICE: This drawing or material
 50
0.0999999600000013
 41
0.7005041199999999
  7
AE
100
AcDbText
  0
TEXT
  5
49E8
330
452B
100
AcDbEntity
  8
Title Block
  6
Continuous
 62
     2
100
AcDbText
 10
10.72096632443385
 20
1.159697406318199
 30
0.0
 40
0.0645465051491158
  1
written consent of G&L Motion Control
 50
0.0999999600000013
 41
0.79688752
  7
AE
100
AcDbText
  0
TEXT
  5
49E9
330
452B
100
AcDbEntity
  8
Title Block
  6
Continuous
 62
     2
100
AcDbText
 10
10.71875
 20
1.046875
 30
0.0
 40
0.0645465051491158
  1
Automation, LLC
 50
0.0999999600000013
 41
0.79688752
  7
AE
100
AcDbText
  0
ENDBLK
  5
45C5
330
452B
100
AcDbEntity
  8
0
100
AcDbBlockEnd
  0
BLOCK
  5
45EB
330
45E9
100
AcDbEntity
  8
0
100
AcDbBlockBegin
  2
A$C6BD72E2A
 70
     0
 10
0.0
 20
0.0
 30
0.0
  3
A$C6BD72E2A
  1

  0
TEXT
  5
45EA
330
45E9
100
AcDbEntity
  8
0
 62
     2
100
AcDbText
 10
-8.35206561818045
 20
-7.689530854375729
 30
0.0
 40
0.10000005
  1
P1
  7
ROMANS
 72
     2
 11
-8.199684589609022
 21
-7.639530829375729
 31
0.0
100
AcDbText
 73
     2
  0
ENDBLK
  5
45EC
330
45E9
100
AcDbEntity
  8
0
100
AcDbBlockEnd
  0
BLOCK
  5
45F0
330
45EE
100
AcDbEntity
  8
0
100
AcDbBlockBegin
  2
A$C64DF1C68
 70
     0
 10
0.0
 20
0.0
 30
0.0
  3
A$C64DF1C68
  1

  0
TEXT
  5
45EF
330
45EE
100
AcDbEntity
  8
0
 62
     2
100
AcDbText
 10
-8.35206561818045
 20
-7.689530854375729
 30
0.0
 40
0.10000005
  1
P1
  7
ROMANS
 72
     2
 11
-8.199684589609022
 21
-7.639530829375729
 31
0.0
100
AcDbText
 73
     2
  0
ENDBLK
  5
45F1
330
45EE
100
AcDbEntity
  8
0
100
AcDbBlockEnd
  0
BLOCK
  5
46C5
330
46C3
100
AcDbEntity
  8
0
100
AcDbBlockBegin
  2
A$C4856593E
 70
     0
 10
0.0
 20
0.0
 30
0.0
  3
A$C4856593E
  1

  0
TEXT
  5
46C4
330
46C3
100
AcDbEntity
  8
0
100
AcDbText
 10
-8.356827496309385
 20
-7.689530864144758
 30
0.0
 40
0.125
  1
FACE VIEW
100
AcDbText
  0
ENDBLK
  5
46C6
330
46C3
100
AcDbEntity
  8
0
100
AcDbBlockEnd
  0
BLOCK
  5
475F
330
474F
100
AcDbEntity
  8
0
100
AcDbBlockBegin
  2
A$C274720C3
 70
     0
 10
0.0
 20
0.0
 30
0.0
  3
A$C274720C3
  1

  0
TEXT
  5
4750
330
474F
100
AcDbEntity
  8
0
100
AcDbText
 10
-0.7429938410886461
 20
-2.061129803614648
 30
0.0
 40
0.08
  1
IOCOM
  7
ROMANS
 11
-0.7429938410886461
 21
-2.021129803614648
 31
0.0
100
AcDbText
 73
     2
  0
TEXT
  5
4751
330
474F
100
AcDbEntity
  8
0
100
AcDbText
 10
-0.7429938410886461
 20
-3.461133003614647
 30
0.0
 40
0.08
  1
IOPWR
  7
ROMANS
 11
-0.7429938410886461
 21
-3.421133003614647
 31
0.0
100
AcDbText
 73
     2
  0
TEXT
  5
4752
330
474F
100
AcDbEntity
  8
0
100
AcDbText
 10
-0.7429938410886461
 20
-3.261133003614648
 30
0.0
 40
0.08
  1
IOCOM
  7
ROMANS
 11
-0.7429938410886461
 21
-3.221133003614648
 31
0.0
100
AcDbText
 73
     2
  0
TEXT
  5
4753
330
474F
100
AcDbEntity
  8
0
100
AcDbText
 10
-0.7429938410886461
 20
-2.461134603614676
 30
0.0
 40
0.08
  1
RESET
  7
ROMANS
 11
-0.7429938410886461
 21
-2.421134603614676
 31
0.0
100
AcDbText
 73
     2
  0
TEXT
  5
4754
330
474F
100
AcDbEntity
  8
0
100
AcDbText
 10
-0.742993841088655
 20
-2.66112980361465
 30
0.0
 40
0.08
  1
IOPWR
  7
ROMANS
 11
-0.742993841088655
 21
-2.62112980361465
 31
0.0
100
AcDbText
 73
     2
  0
TEXT
  5
4755
330
474F
100
AcDbEntity
  8
0
100
AcDbText
 10
-0.7429938410886461
 20
-2.261129803614651
 30
0.0
 40
0.08
  1
ENABLE
  7
ROMANS
 11
-0.7429938410886461
 21
-2.221129803614651
 31
0.0
100
AcDbText
 73
     2
  0
TEXT
  5
4756
330
474F
100
AcDbEntity
  8
0
100
AcDbText
 10
-0.7429938410886461
 20
-1.461131403614646
 30
0.0
 40
0.08
  1
COMMAND-
  7
ROMANS
 11
-0.7429938410886461
 21
-1.421131403614646
 31
0.0
100
AcDbText
 73
     2
  0
TEXT
  5
4757
330
474F
100
AcDbEntity
  8
0
100
AcDbText
 10
-0.7429938410886461
 20
-1.661131403614636
 30
0.0
 40
0.08
  1
READY
  7
ROMANS
 11
-0.7429938410886461
 21
-1.621131403614636
 31
0.0
100
AcDbText
 73
     2
  0
TEXT
  5
4758
330
474F
100
AcDbEntity
  8
0
100
AcDbText
 10
-0.7429938410886461
 20
-0.6611330036146575
 30
0.0
 40
0.08
  1
BMOUT-
  7
ROMANS
 11
-0.7429938410886461
 21
-0.6211330036146574
 31
0.0
100
AcDbText
 73
     2
  0
TEXT
  5
4759
330
474F
100
AcDbEntity
  8
0
100
AcDbText
 10
-0.7429938410886461
 20
-1.261133003614667
 30
0.0
 40
0.08
  1
COMMAND+
  7
ROMANS
 11
-0.7429938410886461
 21
-1.221133003614667
 31
0.0
100
AcDbText
 73
     2
  0
TEXT
  5
475A
330
474F
100
AcDbEntity
  8
0
100
AcDbText
 10
-0.7429938410886461
 20
-1.061133003614657
 30
0.0
 40
0.08
  1
IMOUT-
  7
ROMANS
 11
-0.7429938410886461
 21
-1.021133003614657
 31
0.0
100
AcDbText
 73
     2
  0
TEXT
  5
475B
330
474F
100
AcDbEntity
  8
0
100
AcDbText
 10
-0.7429938410886461
 20
-0.8611330036146567
 30
0.0
 40
0.08
  1
IMOUT+
  7
ROMANS
 11
-0.7429938410886461
 21
-0.8211330036146566
 31
0.0
100
AcDbText
 73
     2
  0
TEXT
  5
475C
330
474F
100
AcDbEntity
  8
0
100
AcDbText
 10
-0.7429938410886461
 20
-0.4611330036146581
 30
0.0
 40
0.08
  1
BMOUT+
  7
ROMANS
 11
-0.7429938410886461
 21
-0.4211330036146581
 31
0.0
100
AcDbText
 73
     2
  0
TEXT
  5
475D
330
474F
100
AcDbEntity
  8
0
100
AcDbText
 10
-0.7429938410886461
 20
-0.2611330036146677
 30
0.0
 40
0.08
  1
AMOUT-
  7
ROMANS
 11
-0.7429938410886461
 21
-0.2211330036146677
 31
0.0
100
AcDbText
 73
     2
  0
TEXT
  5
475E
330
474F
100
AcDbEntity
  8
0
100
AcDbText
 10
-0.7429938410886461
 20
-0.0611330036146578
 30
0.0
 40
0.08
  1
AMOUT+
  7
ROMANS
 11
-0.7429938410886461
 21
-0.0211330036146578
 31
0.0
100
AcDbText
 73
     2
  0
ENDBLK
  5
4760
330
474F
100
AcDbEntity
  8
0
100
AcDbBlockEnd
  0
BLOCK
  5
47D9
330
47D7
100
AcDbEntity
  8
0
100
AcDbBlockBegin
  2
GENAXEH
 70
     0
 10
0.0
 20
0.0
 30
0.0
  3
GENAXEH
  1

  0
LINE
  5
47D8
330
47D7
100
AcDbEntity
  8
0
100
AcDbLine
 10
-1.0
 20
0.0
 30
0.0
 11
1.0
 21
0.0
 31
0.0
  0
ENDBLK
  5
47DA
330
47D7
100
AcDbEntity
  8
0
100
AcDbBlockEnd
  0
BLOCK
  5
5179
330
50C4
100
AcDbEntity
  8
0
100
AcDbBlockBegin
  2
ASSEMBLY_C
 70
     2
 10
0.0
 20
0.0
 30
0.0
  3
ASSEMBLY_C
  1

  0
LINE
  5
50C5
330
50C4
100
AcDbEntity
  8
BORDER
  6
Continuous
100
AcDbLine
 10
0.0
 20
17.0
 30
0.0
 11
22.0
 21
17.0
 31
0.0
  0
LINE
  5
50C6
330
50C4
100
AcDbEntity
  8
BORDER
100
AcDbLine
 10
0.5
 20
0.75
 30
0.0
 11
21.49999999999999
 21
0.75
 31
0.0
  0
LINE
  5
50C7
330
50C4
100
AcDbEntity
  8
BORDER
100
AcDbLine
 10
0.5
 20
16.25
 30
0.0
 11
21.49999999999999
 21
16.25
 31
0.0
  0
ATTDEF
  5
50C8
330
50C4
100
AcDbEntity
  8
Title Block
  6
Continuous
100
AcDbText
 10
17.42499999999999
 20
1.875
 30
0.0
 40
0.1010611419
  1

100
AcDbAttributeDefinition
  3
Drawn by
  2
GEN-TITLE-NAME{5}
 70
     0
1001
GENIUS_GENBLLY_14
1000
BOR2
  0
ATTDEF
  5
50C9
330
50C4
100
AcDbEntity
  8
Title Block
  6
Continuous
100
AcDbText
 10
17.42499999999999
 20
1.625
 30
0.0
 40
0.1010611419
  1

100
AcDbAttributeDefinition
  3
Check by
  2
GEN-TITLE-CHKM{5}
 70
     0
1001
GENIUS_GENBLLY_14
1000
BOR2
  0
ATTDEF
  5
50CA
330
50C4
100
AcDbEntity
  8
Title Block
  6
Continuous
100
AcDbText
 10
17.42499999999999
 20
1.375
 30
0.0
 40
0.1010611419
  1

100
AcDbAttributeDefinition
  3
Approved by
  2
GEN-TITLE-APPM{5}
 70
     0
1001
GENIUS_GENBLLY_14
1000
BOR2
1001
GENIUS_GENTRA_14
1002
{
1070
     3
1000
GENTRAPR,%s,(GENMSG gentitus 73)
1000
Approved by
1000
gb
1070
     0
1002
}
  0
LINE
  5
50CB
330
50C4
100
AcDbEntity
  8
Title Block
  6
Continuous
100
AcDbLine
 10
15.59965639031853
 20
1.299999999999999
 30
0.0
 11
21.49999999999999
 21
1.299999999999999
 31
0.0
  0
LINE
  5
50CC
330
50C4
100
AcDbEntity
  8
Title Block
  6
Continuous
100
AcDbLine
 10
17.07518995515351
 20
1.549999999999999
 30
0.0
 11
21.49999999999999
 21
1.549999999999999
 31
0.0
  0
LINE
  5
50CD
330
50C4
100
AcDbEntity
  8
Title Block
  6
Continuous
100
AcDbLine
 10
17.07518995515351
 20
1.799999999999999
 30
0.0
 11
21.49999999999999
 21
1.799999999999999
 31
0.0
  0
LINE
  5
50CE
330
50C4
100
AcDbEntity
  8
Title Block
  6
Continuous
100
AcDbLine
 10
17.07518995515351
 20
2.049999999999999
 30
0.0
 11
21.49999999999999
 21
2.049999999999999
 31
0.0
  0
LINE
  5
50CF
330
50C4
100
AcDbEntity
  8
Title Block
  6
Continuous
100
AcDbLine
 10
12.75
 20
2.75
 30
0.0
 11
21.49999999999999
 21
2.75
 31
0.0
  0
TEXT
  5
50D0
330
50C4
100
AcDbEntity
  8
Title Block
  6
Continuous
100
AcDbText
 10
17.20669482722676
 20
2.346163262564664
 30
0.0
 40
0.1010611419
  1
  DRAWING
 50
0.09999996
  7
AE
100
AcDbText
  0
TEXT
  5
50D1
330
50C4
100
AcDbEntity
  8
Title Block
  6
Continuous
100
AcDbText
 10
17.20669482722676
 20
2.555546537751305
 30
0.0
 40
0.1010611419
  1
DO NOT SCALE
 50
0.09999996
  7
AE
100
AcDbText
  0
LINE
  5
50D2
330
50C4
100
AcDbEntity
  8
BORDER
  6
Continuous
100
AcDbLine
 10
0.0
 20
0.2456391960479891
 30
0.0
 11
0.0
 21
17.0
 31
0.0
  0
LINE
  5
50D3
330
50C4
100
AcDbEntity
  8
BORDER
100
AcDbLine
 10
0.5
 20
0.75
 30
0.0
 11
0.5
 21
16.25
 31
0.0
  0
TEXT
  5
50D4
330
50C4
100
AcDbEntity
  8
BORDER
100
AcDbText
 10
0.1785739999999976
 20
2.0249996
 30
0.0
 40
0.19999999
  1
A
  7
AE
100
AcDbText
  0
LINE
  5
50D5
330
50C4
100
AcDbEntity
  8
BORDER
100
AcDbLine
 10
0.1000060000000005
 20
8.4999991
 30
0.0
 11
0.3000030000000002
 21
8.4999991
 31
0.0
  0
LINE
  5
50D6
330
50C4
100
AcDbEntity
  8
BORDER
100
AcDbLine
 10
0.3000179999999979
 20
8.399978599999998
 30
0.0
 11
0.5000149999999977
 21
8.499977099999998
 31
0.0
  0
TEXT
  5
50D7
330
50C4
100
AcDbEntity
  8
BORDER
100
AcDbText
 10
0.1785739999999976
 20
6.2749996
 30
0.0
 40
0.19999999
  1
B
  7
AE
100
AcDbText
  0
LINE
  5
50D8
330
50C4
100
AcDbEntity
  8
BORDER
100
AcDbLine
 10
0.1000060000000005
 20
4.25
 30
0.0
 11
0.5
 21
4.25
 31
0.0
  0
LINE
  5
50D9
330
50C4
100
AcDbEntity
  8
BORDER
100
AcDbLine
 10
0.3000340000000001
 20
8.5999765
 30
0.0
 11
0.5000299999999989
 21
8.499978999999999
 31
0.0
  0
LINE
  5
50DA
330
50C4
100
AcDbEntity
  8
BORDER
100
AcDbLine
 10
0.3000179999999979
 20
8.3999929
 30
0.0
 11
0.3000179999999979
 21
8.5999899
 31
0.0
  0
TEXT
  5
50DB
330
50C4
100
AcDbEntity
  8
BORDER
100
AcDbText
 10
2.678573999999997
 20
0.27499998
 30
0.0
 40
0.19999999
  1
4
  7
AE
100
AcDbText
  0
LINE
  5
50DC
330
50C4
100
AcDbEntity
  8
BORDER
100
AcDbLine
 10
5.5
 20
0.34999996
 30
0.0
 11
5.5
 21
0.75
 31
0.0
  0
TEXT
  5
50DD
330
50C4
100
AcDbEntity
  8
BORDER
100
AcDbText
 10
8.178572
 20
0.27499998
 30
0.0
 40
0.19999999
  1
3
  7
AE
100
AcDbText
  0
TEXT
  5
50DE
330
50C4
100
AcDbEntity
  8
BORDER
100
AcDbText
 10
13.5829811
 20
0.3329525
 30
0.0
 40
0.04
  1
FULL SIZE   50   02
 50
0.0999999600000013
 41
0.7749084200000001
  7
AE
100
AcDbText
  0
TEXT
  5
50DF
330
50C4
100
AcDbEntity
  8
Title Block
  6
Continuous
100
AcDbText
 10
13.87354307850001
 20
0.8400242034427522
 30
0.0
 40
0.075937067150492
  1
REVISION
 50
0.09999996
  7
AE
100
AcDbText
  0
LINE
  5
50E0
330
50C4
100
AcDbEntity
  8
Title Block
  6
Continuous
100
AcDbLine
 10
12.75
 20
1.0
 30
0.0
 11
15.59965639031853
 21
1.0
 31
0.0
  0
LINE
  5
50E1
330
50C4
100
AcDbEntity
  8
Title Block
  6
Continuous
100
AcDbLine
 10
12.75
 20
1.75
 30
0.0
 11
15.59965639031853
 21
1.75
 31
0.0
  0
LINE
  5
50E2
330
50C4
100
AcDbEntity
  8
Title Block
  6
Continuous
100
AcDbLine
 10
12.75
 20
2.0
 30
0.0
 11
15.59965639031853
 21
2.0
 31
0.0
  0
LINE
  5
50E3
330
50C4
100
AcDbEntity
  8
Title Block
  6
Continuous
100
AcDbLine
 10
12.75
 20
2.25
 30
0.0
 11
15.59965639031853
 21
2.25
 31
0.0
  0
LINE
  5
50E4
330
50C4
100
AcDbEntity
  8
Title Block
  6
Continuous
100
AcDbLine
 10
12.75
 20
2.5
 30
0.0
 11
15.59965639031853
 21
2.5
 31
0.0
  0
LINE
  5
50E5
330
50C4
100
AcDbEntity
  8
Title Block
  6
Continuous
100
AcDbLine
 10
12.75
 20
1.5
 30
0.0
 11
15.59965639031853
 21
1.5
 31
0.0
  0
LINE
  5
50E6
330
50C4
100
AcDbEntity
  8
Title Block
  6
Continuous
100
AcDbLine
 10
12.75
 20
1.25
 30
0.0
 11
15.59965639031853
 21
1.25
 31
0.0
  0
LINE
  5
50E7
330
50C4
100
AcDbEntity
  8
BORDER
  6
LS
100
AcDbLine
 10
13.68000129999999
 20
0.55999994
 30
0.0
 11
13.68000129999999
 21
0.6999999900000001
 31
0.0
  0
LINE
  5
50E8
330
50C4
100
AcDbEntity
  8
BORDER
  6
LS
100
AcDbLine
 10
13.7800016
 20
0.55999994
 30
0.0
 11
13.7800016
 21
0.6999999900000001
 31
0.0
  0
LINE
  5
50E9
330
50C4
100
AcDbEntity
  8
BORDER
  6
LS
100
AcDbLine
 10
13.880002
 20
0.55999994
 30
0.0
 11
13.880002
 21
0.6999999900000001
 31
0.0
  0
LINE
  5
50EA
330
50C4
100
AcDbEntity
  8
BORDER
  6
LS
100
AcDbLine
 10
13.7000017
 20
0.63999999
 30
0.0
 11
13.7000017
 21
0.6999999900000001
 31
0.0
  0
LINE
  5
50EB
330
50C4
100
AcDbEntity
  8
BORDER
  6
LS
100
AcDbLine
 10
13.7200022
 20
0.59999996
 30
0.0
 11
13.7200022
 21
0.6999999900000001
 31
0.0
  0
LINE
  5
50EC
330
50C4
100
AcDbEntity
  8
BORDER
  6
LS
100
AcDbLine
 10
13.7400026
 20
0.59999996
 30
0.0
 11
13.7400026
 21
0.6999999900000001
 31
0.0
  0
LINE
  5
50ED
330
50C4
100
AcDbEntity
  8
BORDER
  6
LS
100
AcDbLine
 10
13.76000209999999
 20
0.63999999
 30
0.0
 11
13.76000209999999
 21
0.6999999900000001
 31
0.0
  0
LINE
  5
50EE
330
50C4
100
AcDbEntity
  8
BORDER
  6
LS
100
AcDbLine
 10
13.80000209999999
 20
0.63999999
 30
0.0
 11
13.80000209999999
 21
0.6999999900000001
 31
0.0
  0
LINE
  5
50EF
330
50C4
100
AcDbEntity
  8
BORDER
  6
LS
100
AcDbLine
 10
13.8200026
 20
0.59999996
 30
0.0
 11
13.8200026
 21
0.6999999900000001
 31
0.0
  0
LINE
  5
50F0
330
50C4
100
AcDbEntity
  8
BORDER
  6
LS
100
AcDbLine
 10
13.840003
 20
0.59999996
 30
0.0
 11
13.840003
 21
0.6999999900000001
 31
0.0
  0
LINE
  5
50F1
330
50C4
100
AcDbEntity
  8
BORDER
  6
LS
100
AcDbLine
 10
13.8600025
 20
0.63999999
 30
0.0
 11
13.8600025
 21
0.6999999900000001
 31
0.0
  0
LINE
  5
50F2
330
50C4
100
AcDbEntity
  8
BORDER
  6
LS
100
AcDbLine
 10
13.90000249999999
 20
0.63999999
 30
0.0
 11
13.90000249999999
 21
0.6999999900000001
 31
0.0
  0
LINE
  5
50F3
330
50C4
100
AcDbEntity
  8
BORDER
  6
LS
100
AcDbLine
 10
13.9200029
 20
0.59999996
 30
0.0
 11
13.9200029
 21
0.6999999900000001
 31
0.0
  0
LINE
  5
50F4
330
50C4
100
AcDbEntity
  8
BORDER
  6
LS
100
AcDbLine
 10
13.4800005
 20
0.55999994
 30
0.0
 11
13.4800005
 21
0.6999999900000001
 31
0.0
  0
LINE
  5
50F5
330
50C4
100
AcDbEntity
  8
BORDER
  6
LS
100
AcDbLine
 10
13.58000089999999
 20
0.55999994
 30
0.0
 11
13.58000089999999
 21
0.6999999900000001
 31
0.0
  0
LINE
  5
50F6
330
50C4
100
AcDbEntity
  8
BORDER
  6
LS
100
AcDbLine
 10
13.4000006
 20
0.63999999
 30
0.0
 11
13.4000006
 21
0.6999999900000001
 31
0.0
  0
LINE
  5
50F7
330
50C4
100
AcDbEntity
  8
BORDER
  6
LS
100
AcDbLine
 10
13.42000099999999
 20
0.59999996
 30
0.0
 11
13.42000099999999
 21
0.6999999900000001
 31
0.0
  0
LINE
  5
50F8
330
50C4
100
AcDbEntity
  8
BORDER
  6
LS
100
AcDbLine
 10
13.4400015
 20
0.59999996
 30
0.0
 11
13.4400015
 21
0.6999999900000001
 31
0.0
  0
LINE
  5
50F9
330
50C4
100
AcDbEntity
  8
BORDER
  6
LS
100
AcDbLine
 10
13.460001
 20
0.63999999
 30
0.0
 11
13.460001
 21
0.6999999900000001
 31
0.0
  0
LINE
  5
50FA
330
50C4
100
AcDbEntity
  8
BORDER
  6
LS
100
AcDbLine
 10
13.50000089999999
 20
0.63999999
 30
0.0
 11
13.50000089999999
 21
0.6999999900000001
 31
0.0
  0
LINE
  5
50FB
330
50C4
100
AcDbEntity
  8
BORDER
  6
LS
100
AcDbLine
 10
13.5200014
 20
0.59999996
 30
0.0
 11
13.5200014
 21
0.6999999900000001
 31
0.0
  0
LINE
  5
50FC
330
50C4
100
AcDbEntity
  8
BORDER
  6
LS
100
AcDbLine
 10
13.5400019
 20
0.59999996
 30
0.0
 11
13.5400019
 21
0.6999999900000001
 31
0.0
  0
LINE
  5
50FD
330
50C4
100
AcDbEntity
  8
BORDER
  6
LS
100
AcDbLine
 10
13.5600014
 20
0.63999999
 30
0.0
 11
13.5600014
 21
0.6999999900000001
 31
0.0
  0
LINE
  5
50FE
330
50C4
100
AcDbEntity
  8
BORDER
  6
LS
100
AcDbLine
 10
13.6000013
 20
0.63999999
 30
0.0
 11
13.6000013
 21
0.6999999900000001
 31
0.0
  0
LINE
  5
50FF
330
50C4
100
AcDbEntity
  8
BORDER
  6
LS
100
AcDbLine
 10
13.62000179999999
 20
0.59999996
 30
0.0
 11
13.62000179999999
 21
0.6999999900000001
 31
0.0
  0
LINE
  5
5100
330
50C4
100
AcDbEntity
  8
BORDER
  6
LS
100
AcDbLine
 10
13.6400022
 20
0.59999996
 30
0.0
 11
13.6400022
 21
0.6999999900000001
 31
0.0
  0
LINE
  5
5101
330
50C4
100
AcDbEntity
  8
BORDER
  6
LS
100
AcDbLine
 10
13.6600017
 20
0.63999999
 30
0.0
 11
13.6600017
 21
0.6999999900000001
 31
0.0
  0
TEXT
  5
5102
330
50C4
100
AcDbEntity
  8
BORDER
100
AcDbText
 10
13.7515001
 20
0.41995007
 30
0.0
 40
0.07999998
  1
4
 50
0.0999999600000013
  7
AE
100
AcDbText
  0
TEXT
  5
5103
330
50C4
100
AcDbEntity
  8
BORDER
100
AcDbText
 10
13.3514986
 20
0.35995007
 30
0.0
 40
0.07999998
  1
0
 50
0.0999999600000013
  7
AE
100
AcDbText
  0
TEXT
  5
5104
330
50C4
100
AcDbEntity
  8
BORDER
100
AcDbText
 10
13.5514994
 20
0.41995007
 30
0.0
 40
0.07999998
  1
2
 50
0.0999999600000013
  7
AE
100
AcDbText
  0
TEXT
  5
5105
330
50C4
100
AcDbEntity
  8
BORDER
100
AcDbText
 10
12.8087463
 20
0.27487546
 30
0.0
 40
0.19999999
  1
2
 50
0.0999999600000013
  7
AE
100
AcDbText
  0
LINE
  5
5106
330
50C4
100
AcDbEntity
  8
BORDER
  6
LS
100
AcDbLine
 10
13.3800001
 20
0.49999994
 30
0.0
 11
13.3800001
 21
0.6999999900000001
 31
0.0
  0
LINE
  5
5107
330
50C4
100
AcDbEntity
  8
BORDER
100
AcDbLine
 10
10.900002
 20
0.55000043
 30
0.0
 11
11.00000199999999
 21
0.75
 31
0.0
  0
LINE
  5
5108
330
50C4
100
AcDbEntity
  8
BORDER
100
AcDbLine
 10
11.000003
 20
0.7499994000000001
 30
0.0
 11
11.100003
 21
0.55000019
 31
0.0
  0
LINE
  5
5109
330
50C4
100
AcDbEntity
  8
BORDER
100
AcDbLine
 10
10.90000099999999
 20
0.5499999500000001
 30
0.0
 11
11.1
 21
0.5499999500000001
 31
0.0
  0
LINE
  5
510A
330
50C4
100
AcDbEntity
  8
BORDER
100
AcDbLine
 10
11.0
 20
0.3499999
 30
0.0
 11
11.0
 21
0.5499999500000001
 31
0.0
  0
LINE
  5
510B
330
50C4
100
AcDbEntity
  8
BORDER
100
AcDbLine
 10
11.0
 20
0.3499999
 30
0.0
 11
11.0
 21
0.5499999500000001
 31
0.0
  0
LINE
  5
510C
330
50C4
100
AcDbEntity
  8
Title Block
  6
Continuous
100
AcDbLine
 10
13.9
 20
1.0
 30
0.0
 11
13.9
 21
2.75
 31
0.0
  0
TEXT
  5
510D
330
50C4
100
AcDbEntity
  8
Title Block
  6
Continuous
100
AcDbText
 10
12.83824213224503
 20
1.090349814097824
 30
0.0
 40
0.0771520776612738
  1
NO.
 50
0.09999996
  7
AE
100
AcDbText
  0
LINE
  5
510E
330
50C4
100
AcDbEntity
  8
Title Block
  6
Continuous
100
AcDbLine
 10
12.75
 20
0.7499656890232619
 30
0.0
 11
12.75
 21
2.75
 31
0.0
  0
LINE
  5
510F
330
50C4
100
AcDbEntity
  8
Title Block
  6
Continuous
100
AcDbLine
 10
13.1
 20
1.0
 30
0.0
 11
13.1
 21
2.75
 31
0.0
  0
TEXT
  5
5110
330
50C4
100
AcDbEntity
  8
Title Block
  6
Continuous
100
AcDbText
 10
13.40137402234739
 20
1.090958090874199
 30
0.0
 40
0.075937067150492
  1
DATE
 50
0.09999996
  7
AE
100
AcDbText
  0
LINE
  5
5111
330
50C4
100
AcDbEntity
  8
BORDER
  6
LS
100
AcDbLine
 10
15.18000599999999
 20
0.55999994
 30
0.0
 11
15.18000599999999
 21
0.6999999900000001
 31
0.0
  0
LINE
  5
5112
330
50C4
100
AcDbEntity
  8
BORDER
  6
LS
100
AcDbLine
 10
14.9800053
 20
0.55999994
 30
0.0
 11
14.9800053
 21
0.6999999900000001
 31
0.0
  0
LINE
  5
5113
330
50C4
100
AcDbEntity
  8
BORDER
  6
LS
100
AcDbLine
 10
14.7800045
 20
0.55999994
 30
0.0
 11
14.7800045
 21
0.6999999900000001
 31
0.0
  0
LINE
  5
5114
330
50C4
100
AcDbEntity
  8
BORDER
  6
LS
100
AcDbLine
 10
14.58000469999999
 20
0.55999994
 30
0.0
 11
14.58000469999999
 21
0.6999999900000001
 31
0.0
  0
LINE
  5
5115
330
50C4
100
AcDbEntity
  8
BORDER
  6
LS
100
AcDbLine
 10
14.3600044
 20
0.63999999
 30
0.0
 11
14.3600044
 21
0.6999999900000001
 31
0.0
  0
LINE
  5
5116
330
50C4
100
AcDbEntity
  8
BORDER
  6
LS
100
AcDbLine
 10
14.08000279999999
 20
0.55999994
 30
0.0
 11
14.08000279999999
 21
0.6999999900000001
 31
0.0
  0
LINE
  5
5117
330
50C4
100
AcDbEntity
  8
BORDER
  6
LS
100
AcDbLine
 10
14.1800032
 20
0.55999994
 30
0.0
 11
14.1800032
 21
0.6999999900000001
 31
0.0
  0
LINE
  5
5118
330
50C4
100
AcDbEntity
  8
BORDER
  6
LS
100
AcDbLine
 10
14.2800035
 20
0.55999994
 30
0.0
 11
14.2800035
 21
0.6999999900000001
 31
0.0
  0
LINE
  5
5119
330
50C4
100
AcDbEntity
  8
BORDER
  6
LS
100
AcDbLine
 10
14.30000399999999
 20
0.63999999
 30
0.0
 11
14.30000399999999
 21
0.6999999900000001
 31
0.0
  0
LINE
  5
511A
330
50C4
100
AcDbEntity
  8
BORDER
  6
LS
100
AcDbLine
 10
14.3200045
 20
0.59999996
 30
0.0
 11
14.3200045
 21
0.6999999900000001
 31
0.0
  0
LINE
  5
511B
330
50C4
100
AcDbEntity
  8
BORDER
  6
LS
100
AcDbLine
 10
14.3400049
 20
0.59999996
 30
0.0
 11
14.3400049
 21
0.6999999900000001
 31
0.0
  0
LINE
  5
511C
330
50C4
100
AcDbEntity
  8
BORDER
  6
LS
100
AcDbLine
 10
14.02000329999999
 20
0.59999996
 30
0.0
 11
14.02000329999999
 21
0.6999999900000001
 31
0.0
  0
LINE
  5
511D
330
50C4
100
AcDbEntity
  8
BORDER
  6
LS
100
AcDbLine
 10
14.0400038
 20
0.59999996
 30
0.0
 11
14.0400038
 21
0.6999999900000001
 31
0.0
  0
LINE
  5
511E
330
50C4
100
AcDbEntity
  8
BORDER
  6
LS
100
AcDbLine
 10
14.0600033
 20
0.63999999
 30
0.0
 11
14.0600033
 21
0.6999999900000001
 31
0.0
  0
LINE
  5
511F
330
50C4
100
AcDbEntity
  8
BORDER
  6
LS
100
AcDbLine
 10
14.10000319999999
 20
0.63999999
 30
0.0
 11
14.10000319999999
 21
0.6999999900000001
 31
0.0
  0
LINE
  5
5120
330
50C4
100
AcDbEntity
  8
BORDER
  6
LS
100
AcDbLine
 10
14.1200037
 20
0.59999996
 30
0.0
 11
14.1200037
 21
0.6999999900000001
 31
0.0
  0
LINE
  5
5121
330
50C4
100
AcDbEntity
  8
BORDER
  6
LS
100
AcDbLine
 10
14.14000419999999
 20
0.59999996
 30
0.0
 11
14.14000419999999
 21
0.6999999900000001
 31
0.0
  0
LINE
  5
5122
330
50C4
100
AcDbEntity
  8
BORDER
  6
LS
100
AcDbLine
 10
14.1600037
 20
0.63999999
 30
0.0
 11
14.1600037
 21
0.6999999900000001
 31
0.0
  0
LINE
  5
5123
330
50C4
100
AcDbEntity
  8
BORDER
  6
LS
100
AcDbLine
 10
14.20000359999999
 20
0.63999999
 30
0.0
 11
14.20000359999999
 21
0.6999999900000001
 31
0.0
  0
LINE
  5
5124
330
50C4
100
AcDbEntity
  8
BORDER
  6
LS
100
AcDbLine
 10
14.2200041
 20
0.59999996
 30
0.0
 11
14.2200041
 21
0.6999999900000001
 31
0.0
  0
LINE
  5
5125
330
50C4
100
AcDbEntity
  8
BORDER
  6
LS
100
AcDbLine
 10
14.2400045
 20
0.59999996
 30
0.0
 11
14.2400045
 21
0.6999999900000001
 31
0.0
  0
LINE
  5
5126
330
50C4
100
AcDbEntity
  8
BORDER
  6
LS
100
AcDbLine
 10
14.26000399999999
 20
0.63999999
 30
0.0
 11
14.26000399999999
 21
0.6999999900000001
 31
0.0
  0
LINE
  5
5127
330
50C4
100
AcDbEntity
  8
BORDER
  6
LS
100
AcDbLine
 10
13.9800024
 20
0.55999994
 30
0.0
 11
13.9800024
 21
0.6999999900000001
 31
0.0
  0
LINE
  5
5128
330
50C4
100
AcDbEntity
  8
BORDER
  6
LS
100
AcDbLine
 10
13.9400034
 20
0.59999996
 30
0.0
 11
13.9400034
 21
0.6999999900000001
 31
0.0
  0
LINE
  5
5129
330
50C4
100
AcDbEntity
  8
BORDER
  6
LS
100
AcDbLine
 10
13.9600029
 20
0.63999999
 30
0.0
 11
13.9600029
 21
0.6999999900000001
 31
0.0
  0
LINE
  5
512A
330
50C4
100
AcDbEntity
  8
BORDER
  6
LS
100
AcDbLine
 10
14.0000029
 20
0.63999999
 30
0.0
 11
14.0000029
 21
0.6999999900000001
 31
0.0
  0
TEXT
  5
512B
330
50C4
100
AcDbEntity
  8
BORDER
100
AcDbText
 10
16.3514986
 20
0.35995007
 30
0.0
 40
0.07999998
  1
3
 50
0.0999999600000013
  7
AE
100
AcDbText
  0
TEXT
  5
512C
330
50C4
100
AcDbEntity
  8
BORDER
100
AcDbText
 10
15.35149859999999
 20
0.35995007
 30
0.0
 40
0.07999998
  1
2
 50
0.0999999600000013
  7
AE
100
AcDbText
  0
TEXT
  5
512D
330
50C4
100
AcDbEntity
  8
BORDER
100
AcDbText
 10
15.1515045
 20
0.41995007
 30
0.0
 40
0.07999998
  1
8
 50
0.0999999600000013
  7
AE
100
AcDbText
  0
TEXT
  5
512E
330
50C4
100
AcDbEntity
  8
BORDER
100
AcDbText
 10
14.751503
 20
0.41995007
 30
0.0
 40
0.07999998
  1
4
 50
0.0999999600000013
  7
AE
100
AcDbText
  0
TEXT
  5
512F
330
50C4
100
AcDbEntity
  8
BORDER
100
AcDbText
 10
14.3514986
 20
0.35995007
 30
0.0
 40
0.07999998
  1
1
 50
0.0999999600000013
  7
AE
100
AcDbText
  0
TEXT
  5
5130
330
50C4
100
AcDbEntity
  8
BORDER
100
AcDbText
 10
14.5515032
 20
0.41995007
 30
0.0
 40
0.07999998
  1
2
 50
0.0999999600000013
  7
AE
100
AcDbText
  0
TEXT
  5
5131
330
50C4
100
AcDbEntity
  8
BORDER
100
AcDbText
 10
14.9515037
 20
0.41995007
 30
0.0
 40
0.07999998
  1
6
 50
0.0999999600000013
  7
AE
100
AcDbText
  0
TEXT
  5
5132
330
50C4
100
AcDbEntity
  8
BORDER
100
AcDbText
 10
14.1515017
 20
0.41995007
 30
0.0
 40
0.07999998
  1
8
 50
0.0999999600000013
  7
AE
100
AcDbText
  0
TEXT
  5
5133
330
50C4
100
AcDbEntity
  8
BORDER
100
AcDbText
 10
13.9515009
 20
0.41995007
 30
0.0
 40
0.07999998
  1
6
 50
0.0999999600000013
  7
AE
100
AcDbText
  0
LINE
  5
5134
330
50C4
100
AcDbEntity
  8
BORDER
  6
LS
100
AcDbLine
 10
16.3800001
 20
0.49999994
 30
0.0
 11
16.3800001
 21
0.6999999900000001
 31
0.0
  0
LINE
  5
5135
330
50C4
100
AcDbEntity
  8
BORDER
  6
LS
100
AcDbLine
 10
14.3800001
 20
0.49999994
 30
0.0
 11
14.3800001
 21
0.6999999900000001
 31
0.0
  0
LINE
  5
5136
330
50C4
100
AcDbEntity
  8
BORDER
  6
LS
100
AcDbLine
 10
15.3800001
 20
0.49999994
 30
0.0
 11
15.3800001
 21
0.6999999900000001
 31
0.0
  0
TEXT
  5
5137
330
50C4
100
AcDbEntity
  8
Title Block
  6
Continuous
100
AcDbText
 10
17.1
 20
1.949999999999999
 30
0.0
 40
0.075937067150492
  1
DR
 50
0.09999996
  7
AE
100
AcDbText
  0
TEXT
  5
5138
330
50C4
100
AcDbEntity
  8
Title Block
  6
Continuous
100
AcDbText
 10
17.1
 20
1.824999999999999
 30
0.0
 40
0.075937067150492
  1
BY
 50
0.09999996
  7
AE
100
AcDbText
  0
TEXT
  5
5139
330
50C4
100
AcDbEntity
  8
Title Block
  6
Continuous
100
AcDbText
 10
17.10620037256117
 20
1.574999999999999
 30
0.0
 40
0.075937067150492
  1
BY
 50
0.09999996
  7
AE
100
AcDbText
  0
TEXT
  5
513A
330
50C4
100
AcDbEntity
  8
Title Block
  6
Continuous
100
AcDbText
 10
17.1
 20
1.699999999999999
 30
0.0
 40
0.075937067150492
  1
CHK
 50
0.09999996
  7
AE
100
AcDbText
  0
TEXT
  5
513B
330
50C4
100
AcDbEntity
  8
Title Block
  6
Continuous
100
AcDbText
 10
17.11
 20
1.45
 30
0.0
 40
0.075937067150492
  1
APPD
 50
0.09999996
  7
AE
100
AcDbText
  0
TEXT
  5
513C
330
50C4
100
AcDbEntity
  8
Title Block
  6
Continuous
100
AcDbText
 10
17.1
 20
1.325
 30
0.0
 40
0.075937067150492
  1
BY
 50
0.09999996
  7
AE
100
AcDbText
  0
TEXT
  5
513D
330
50C4
100
AcDbEntity
  8
Title Block
  6
Continuous
100
AcDbText
 10
15.65
 20
1.149999999999999
 30
0.0
 40
0.075937067150492
  1
DRAWING NAME
 50
0.09999996
  7
AE
100
AcDbText
  0
LINE
  5
513E
330
50C4
100
AcDbEntity
  8
Title Block
  6
Continuous
100
AcDbLine
 10
17.07518995515351
 20
1.35
 30
0.0
 11
17.07518995515351
 21
2.75
 31
0.0
  0
LINE
  5
513F
330
50C4
100
AcDbEntity
  8
Title Block
  6
Continuous
100
AcDbLine
 10
15.59965639031853
 20
0.7499656890232619
 30
0.0
 11
15.59965639031853
 21
2.75
 31
0.0
  0
ATTDEF
  5
5140
330
50C4
100
AcDbEntity
  8
Title Block
  6
Continuous
100
AcDbText
 10
15.72840859477629
 20
0.8861235259562903
 30
0.0
 40
0.14
  1

 41
0.8
100
AcDbAttributeDefinition
  3
Drawing Name
  2
GEN-TITLE-DES1{15.54}
 70
     0
1001
GENIUS_GENBLLY_14
1000
BOR5
  0
TEXT
  5
5141
330
50C4
100
AcDbEntity
  8
BORDER
100
AcDbText
 10
0.1785739999999976
 20
14.775
 30
0.0
 40
0.19999999
  1
D
  7
AE
100
AcDbText
  0
LINE
  5
5142
330
50C4
100
AcDbEntity
  8
BORDER
100
AcDbLine
 10
0.1000060000000005
 20
12.75
 30
0.0
 11
0.5
 21
12.75
 31
0.0
  0
TEXT
  5
5143
330
50C4
100
AcDbEntity
  8
BORDER
100
AcDbText
 10
0.1785739999999976
 20
10.52499999999999
 30
0.0
 40
0.19999999
  1
C
  7
AE
100
AcDbText
  0
TEXT
  5
5144
330
50C4
100
AcDbEntity
  8
BORDER
100
AcDbText
 10
2.678573999999997
 20
16.52499399999999
 30
0.0
 40
0.19999999
  1
4
  7
AE
100
AcDbText
  0
LINE
  5
5145
330
50C4
100
AcDbEntity
  8
BORDER
100
AcDbLine
 10
5.5
 20
16.25
 30
0.0
 11
5.5
 21
16.649994
 31
0.0
  0
TEXT
  5
5146
330
50C4
100
AcDbEntity
  8
BORDER
100
AcDbText
 10
8.178572
 20
16.52499399999999
 30
0.0
 40
0.19999999
  1
3
  7
AE
100
AcDbText
  0
TEXT
  5
5147
330
50C4
100
AcDbEntity
  8
BORDER
100
AcDbText
 10
13.6785717
 20
16.52499399999999
 30
0.0
 40
0.19999999
  1
2
  7
AE
100
AcDbText
  0
LINE
  5
5148
330
50C4
100
AcDbEntity
  8
BORDER
100
AcDbLine
 10
10.900011
 20
16.449982
 30
0.0
 11
11.000015
 21
16.249985
 31
0.0
  0
LINE
  5
5149
330
50C4
100
AcDbEntity
  8
BORDER
100
AcDbLine
 10
10.90000099999999
 20
16.449997
 30
0.0
 11
11.1
 21
16.449997
 31
0.0
  0
LINE
  5
514A
330
50C4
100
AcDbEntity
  8
BORDER
100
AcDbLine
 10
11.000011
 20
16.25
 30
0.0
 11
11.10001
 21
16.449997
 31
0.0
  0
LINE
  5
514B
330
50C4
100
AcDbEntity
  8
BORDER
100
AcDbLine
 10
10.90000099999999
 20
16.449997
 30
0.0
 11
11.1
 21
16.449997
 31
0.0
  0
LINE
  5
514C
330
50C4
100
AcDbEntity
  8
BORDER
100
AcDbLine
 10
11.0
 20
16.449997
 30
0.0
 11
11.0
 21
16.649994
 31
0.0
  0
LINE
  5
514D
330
50C4
100
AcDbEntity
  8
BORDER
100
AcDbLine
 10
16.5
 20
16.25
 30
0.0
 11
16.5
 21
16.649994
 31
0.0
  0
LINE
  5
514E
330
50C4
100
AcDbEntity
  8
BORDER
  6
Continuous
100
AcDbLine
 10
22.0
 20
0.2456391960479891
 30
0.0
 11
22.0
 21
17.0
 31
0.0
  0
LINE
  5
514F
330
50C4
100
AcDbEntity
  8
BORDER
100
AcDbLine
 10
21.49999999999999
 20
0.75
 30
0.0
 11
21.49999999999999
 21
16.25
 31
0.0
  0
ATTDEF
  5
5150
330
50C4
100
AcDbEntity
  8
Title Block
  6
Continuous
100
AcDbText
 10
20.89999999999999
 20
1.375
 30
0.0
 40
0.11808994431015
  1

 41
0.8
100
AcDbAttributeDefinition
  3
Sheet of
  2
GEN-TITLE-SHEET-OF{2.62}
 70
     0
1001
GENIUS_GENBLLY_14
1000
BOR3
  0
ATTDEF
  5
5151
330
50C4
100
AcDbEntity
  8
Title Block
  6
Continuous
100
AcDbText
 10
20.5
 20
1.375
 30
0.0
 40
0.11808994431015
  1

 41
0.8
100
AcDbAttributeDefinition
  3
Sheet
  2
GEN-TITLE-SHEET{2.62}
 70
     0
1001
GENIUS_GENBLLY_14
1000
BOR3
  0
TEXT
  5
5152
330
50C4
100
AcDbEntity
  8
BORDER
100
AcDbText
 10
21.67857146
 20
2.0249996
 30
0.0
 40
0.19999999
  1
A
  7
AE
100
AcDbText
  0
TEXT
  5
5153
330
50C4
100
AcDbEntity
  8
BORDER
100
AcDbText
 10
19.17857169999999
 20
0.27499998
 30
0.0
 40
0.19999999
  1
1
  7
AE
100
AcDbText
  0
TEXT
  5
5154
330
50C4
100
AcDbEntity
  8
Title Block
  6
Continuous
100
AcDbText
 10
20.07499999999999
 20
1.699999999999999
 30
0.0
 40
0.075937067150492
  1
DATE
 50
0.09999996
  7
AE
100
AcDbText
  0
TEXT
  5
5155
330
50C4
100
AcDbEntity
  8
Title Block
  6
Continuous
100
AcDbText
 10
20.07499999999999
 20
1.45
 30
0.0
 40
0.075937067150492
  1
SHEET   OF
 50
0.09999996
  7
AE
100
AcDbText
  0
ATTDEF
  5
5156
330
50C4
100
AcDbEntity
  8
Title Block
  6
Continuous
100
AcDbText
 10
18.94999999999999
 20
1.375
 30
0.0
 40
0.1010611419
  1

 41
0.8
100
AcDbAttributeDefinition
  3
Material
  2
GEN-TITLE-MAT{11.15}
 70
     0
1001
GENIUS_GENBLLY_14
1000
BOR3
  0
ATTDEF
  5
5157
330
50C4
100
AcDbEntity
  8
Title Block
  6
Continuous
100
AcDbText
 10
18.94999999999999
 20
1.625
 30
0.0
 40
0.1010611419
  1

100
AcDbAttributeDefinition
  3
Machine
  2
GEN-TITLE-MACH{5}
 70
     0
1001
GENIUS_GENBLLY_14
1000
BOR2
  0
ATTDEF
  5
5158
330
50C4
100
AcDbEntity
  8
Title Block
  6
Continuous
100
AcDbText
 10
18.94999999999999
 20
1.875
 30
0.0
 40
0.1010611419
  1

100
AcDbAttributeDefinition
  3
Ref. No.
  2
GEN-TITLE-REF{5}
 70
     0
1001
GENIUS_GENBLLY_14
1000
BOR2
  0
TEXT
  5
5159
330
50C4
100
AcDbEntity
  8
Title Block
  6
Continuous
100
AcDbText
 10
18.6
 20
1.45
 30
0.0
 40
0.075937067150492
  1
MATL
 50
0.09999996
  7
AE
100
AcDbText
  0
TEXT
  5
515A
330
50C4
100
AcDbEntity
  8
Title Block
  6
Continuous
100
AcDbText
 10
18.6
 20
1.699999999999999
 30
0.0
 40
0.075937067150492
  1
MACH
 50
0.09999996
  7
AE
100
AcDbText
  0
TEXT
  5
515B
330
50C4
100
AcDbEntity
  8
Title Block
  6
Continuous
100
AcDbText
 10
18.6
 20
1.949999999999999
 30
0.0
 40
0.075937067150492
  1
REF
 50
0.09999996
  7
AE
100
AcDbText
  0
TEXT
  5
515C
330
50C4
100
AcDbEntity
  8
Title Block
  6
Continuous
100
AcDbText
 10
18.6
 20
1.149999999999999
 30
0.0
 40
0.075937067150492
  1
DRAWING NUMBER
 50
0.09999996
  7
AE
100
AcDbText
  0
LINE
  5
515D
330
50C4
100
AcDbEntity
  8
Title Block
  6
Continuous
100
AcDbLine
 10
18.54999999999999
 20
0.7499656890232619
 30
0.0
 11
18.54999999999999
 21
2.75
 31
0.0
  0
LINE
  5
515E
330
50C4
100
AcDbEntity
  8
Title Block
  6
Continuous
100
AcDbLine
 10
20.02625718126358
 20
1.299999999999999
 30
0.0
 11
20.02625718126354
 21
1.799999999999999
 31
0.0
  0
ATTDEF
  5
515F
330
50C4
100
AcDbEntity
  8
Title Block
  6
Continuous
100
AcDbText
 10
20.42499999999999
 20
1.625
 30
0.0
 40
0.1010611419
  1

100
AcDbAttributeDefinition
  3
Date
  2
GEN-TITLE-PLOT{5}
 70
     0
1001
GENIUS_GENBLLY_14
1000
BOR2
  0
ATTDEF
  5
5160
330
50C4
100
AcDbEntity
  8
Title Block
  6
Continuous
100
AcDbText
 10
18.67273124178957
 20
0.8925842766853463
 30
0.0
 40
0.14
  1

 41
0.8
100
AcDbAttributeDefinition
  3
Drawing Number
  2
GEN-TITLE-NR{13.37}
 70
     0
1001
GENIUS_GENBLLY_14
1000
BOR5
  0
LINE
  5
5161
330
50C4
100
AcDbEntity
  8
BORDER
100
AcDbLine
 10
21.70000315
 20
8.5
 30
0.0
 11
21.90000009999999
 21
8.5
 31
0.0
  0
LINE
  5
5162
330
50C4
100
AcDbEntity
  8
BORDER
100
AcDbLine
 10
21.50001131999999
 20
8.499981899999999
 30
0.0
 11
21.70000713999999
 21
8.399983399999999
 31
0.0
  0
TEXT
  5
5163
330
50C4
100
AcDbEntity
  8
BORDER
100
AcDbText
 10
21.67857146
 20
6.2749996
 30
0.0
 40
0.19999999
  1
B
  7
AE
100
AcDbText
  0
LINE
  5
5164
330
50C4
100
AcDbEntity
  8
BORDER
100
AcDbLine
 10
21.49999951999999
 20
8.499982800000001
 30
0.0
 11
21.69999569999999
 21
8.599980399999999
 31
0.0
  0
LINE
  5
5165
330
50C4
100
AcDbEntity
  8
BORDER
100
AcDbLine
 10
21.70000315
 20
8.3999939
 30
0.0
 11
21.70000315
 21
8.5999908
 31
0.0
  0
TEXT
  5
5166
330
50C4
100
AcDbEntity
  8
BORDER
100
AcDbText
 10
21.67857146
 20
14.775
 30
0.0
 40
0.19999999
  1
D
  7
AE
100
AcDbText
  0
LINE
  5
5167
330
50C4
100
AcDbEntity
  8
BORDER
100
AcDbLine
 10
21.49999999999999
 20
12.75
 30
0.0
 11
21.90000003999999
 21
12.75
 31
0.0
  0
TEXT
  5
5168
330
50C4
100
AcDbEntity
  8
BORDER
100
AcDbText
 10
21.67857146
 20
10.52499999999999
 30
0.0
 40
0.19999999
  1
C
  7
AE
100
AcDbText
  0
TEXT
  5
5169
330
50C4
100
AcDbEntity
  8
BORDER
100
AcDbText
 10
19.17857169999999
 20
16.52499399999999
 30
0.0
 40
0.19999999
  1
1
  7
AE
100
AcDbText
  0
LINE
  5
516A
330
50C4
100
AcDbEntity
  8
BORDER
  6
Continuous
 62
    15
100
AcDbLine
 10
0.0
 20
0.2456391960479891
 30
0.0
 11
22.0
 21
0.2456391960479891
 31
0.0
  0
MTEXT
  5
516B
330
50C4
100
AcDbEntity
  8
BORDER
  6
Continuous
100
AcDbMText
 10
20.00308979335871
 20
2.6
 30
0.0
 40
0.125
 41
2.663
 71
     2
 72
     5
  1
{\fArial|b0|i0|c0|p34;\C1;G & L Motion Control Inc.}
 73
     1
 44
1.0
  0
MTEXT
  5
516C
330
50C4
100
AcDbEntity
  8
BORDER
  6
Continuous
100
AcDbMText
 10
20.00412857763948
 20
2.278264837305509
 30
0.0
 40
0.07874
 41
2.862
 71
     5
 72
     1
  1
{\Fromans.shx;\C9;672 South Military Road\PFond du Lac, Wisconsin 54936 U.S.A.}
 73
     1
 44
1.0
  0
TEXT
  5
516D
330
50C4
100
AcDbEntity
  8
Title Block
  6
Continuous
 62
     2
100
AcDbText
 10
15.61881861560131
 20
2.386049281269596
 30
0.0
 40
0.0645465051491158
  1
of G&L Motion Control, is
 50
0.0999999600000011
 41
0.6799434399999999
  7
AE
100
AcDbText
  0
TEXT
  5
516E
330
50C4
100
AcDbEntity
  8
Title Block
  6
Continuous
 62
     2
100
AcDbText
 10
15.61741487412047
 20
2.494627598463487
 30
0.0
 40
0.0645465051491158
  1
contains proprietary information
 50
0.0999999600000011
 41
0.7005041199999999
  7
AE
100
AcDbText
  0
TEXT
  5
516F
330
50C4
100
AcDbEntity
  8
Title Block
  6
Continuous
 62
     2
100
AcDbText
 10
15.62248667991201
 20
2.274616885729644
 30
0.0
 40
0.0645465051491158
  1
submitted in confidence on
 50
0.0999999600000011
 41
0.6605569100000001
  7
AE
100
AcDbText
  0
TEXT
  5
5170
330
50C4
100
AcDbEntity
  8
Title Block
  6
Continuous
 62
     2
100
AcDbText
 10
15.61679449751522
 20
2.16708586876793
 30
0.0
 40
0.0645465051491158
  1
condition that it will not be
 50
0.0999999600000011
 41
0.72234601
  7
AE
100
AcDbText
  0
TEXT
  5
5171
330
50C4
100
AcDbEntity
  8
Title Block
  6
Continuous
 62
     2
100
AcDbText
 10
15.61416899531685
 20
1.947796107226088
 30
0.0
 40
0.0645465051491158
  1
will be used only for your
 50
0.0999999600000011
 41
0.6799434399999999
  7
AE
100
AcDbText
  0
TEXT
  5
5172
330
50C4
100
AcDbEntity
  8
Title Block
  6
Continuous
 62
     2
100
AcDbText
 10
15.61948721212293
 20
1.839000640399515
 30
0.0
 40
0.0645465051491158
  1
information, and will not be used
 50
0.0999999600000011
 41
0.6605569100000001
  7
AE
100
AcDbText
  0
TEXT
  5
5173
330
50C4
100
AcDbEntity
  8
Title Block
  6
Continuous
 62
     2
100
AcDbText
 10
15.61739723193345
 20
1.728476657741246
 30
0.0
 40
0.0645465051491158
  1
or disclosed to anyone except as
 50
0.0999999600000011
 41
0.6799434399999999
  7
AE
100
AcDbText
  0
TEXT
  5
5174
330
50C4
100
AcDbEntity
  8
Title Block
  6
Continuous
 62
     2
100
AcDbText
 10
15.61540499165808
 20
1.617047562975569
 30
0.0
 40
0.0645465051491158
  1
authorized by specific
 50
0.0999999600000011
 41
0.79688752
  7
AE
100
AcDbText
  0
TEXT
  5
5175
330
50C4
100
AcDbEntity
  8
Title Block
  6
Continuous
 62
     2
100
AcDbText
 10
15.61777124306261
 20
2.055466828073234
 30
0.0
 40
0.0645465051491158
  1
copied or otherwise reproduced,
 50
0.0999999600000011
 41
0.6799434399999999
  7
AE
100
AcDbText
  0
TEXT
  5
5176
330
50C4
100
AcDbEntity
  8
Title Block
  6
Continuous
 62
     2
100
AcDbText
 10
15.62050994356058
 20
2.602555955563673
 30
0.0
 40
0.0645465051491158
  1
NOTICE: This drawing or material
 50
0.0999999600000011
 41
0.7005041199999999
  7
AE
100
AcDbText
  0
TEXT
  5
5177
330
50C4
100
AcDbEntity
  8
Title Block
  6
Continuous
 62
     2
100
AcDbText
 10
15.62096632443385
 20
1.509697406318199
 30
0.0
 40
0.0645465051491158
  1
written consent of G&L Motion Control
 50
0.0999999600000011
 41
0.79688752
  7
AE
100
AcDbText
  0
TEXT
  5
5178
330
50C4
100
AcDbEntity
  8
Title Block
  6
Continuous
 62
     2
100
AcDbText
 10
15.61875
 20
1.396874999999999
 30
0.0
 40
0.0645465051491158
  1
Automation, LLC
 50
0.0999999600000011
 41
0.79688752
  7
AE
100
AcDbText
  0
ENDBLK
  5
517A
330
50C4
100
AcDbEntity
  8
0
100
AcDbBlockEnd
  0
ENDSEC
  0
SECTION
  2
ENTITIES
  0
LINE
  5
3EF3
330
18
100
AcDbEntity
  8
0
 62
     2
100
AcDbLine
 10
15.47459526658356
 20
20.14203087462665
 30
0.0
 11
17.37459526658356
 21
20.14203087462665
 31
0.0
  0
LINE
  5
3EF4
330
18
100
AcDbEntity
  8
0
 62
     2
100
AcDbLine
 10
15.47459526658356
 20
19.78203087462665
 30
0.0
 11
17.37459526658356
 21
19.78203087462665
 31
0.0
  0
LINE
  5
3EF6
330
18
100
AcDbEntity
  8
0
  6
ByBlock
 62
     0
100
AcDbLine
 10
11.43584525890013
 20
21.93947278174013
 30
0.0
 11
16.64551799288779
 21
21.93947278174013
 31
0.0
  0
LINE
  5
3EF7
330
18
100
AcDbEntity
  8
0
  6
ByBlock
 62
     0
100
AcDbLine
 10
11.25584525890013
 20
20.30553086414475
 30
0.0
 11
11.25584525890013
 21
22.07691137091121
 31
0.0
  0
LINE
  5
3F27
330
18
100
AcDbEntity
  8
0
 62
     2
100
AcDbLine
 10
14.97459525890013
 20
19.79703086414476
 30
0.0
 11
15.47459526658356
 21
19.79703086414476
 31
0.0
  0
LINE
  5
3F28
330
18
100
AcDbEntity
  8
0
 62
     2
100
AcDbLine
 10
14.97459525890013
 20
20.12703086414475
 30
0.0
 11
15.47459526658356
 21
20.12703086414475
 31
0.0
  0
LINE
  5
3F41
330
18
100
AcDbEntity
  8
0
 62
     2
100
AcDbLine
 10
15.47459526658356
 20
19.78203087462665
 30
0.0
 11
15.47459526658356
 21
20.14203087462665
 31
0.0
  0
SOLID
  5
3F42
330
18
100
AcDbEntity
  8
0
  6
ByBlock
 62
     0
100
AcDbTrace
 10
11.43584525890013
 20
21.96947278174013
 30
0.0
 11
11.43584525890013
 21
21.90947278174013
 31
0.0
 12
11.25584525890013
 22
21.93947278174013
 32
0.0
 13
11.25584525890013
 23
21.93947278174013
 33
0.0
  0
LINE
  5
3F44
330
18
100
AcDbEntity
  8
0
 62
     2
100
AcDbLine
 10
20.64485335369907
 20
19.79703086414476
 30
0.0
 11
22.2897763326541
 21
19.79703086414476
 31
0.0
  0
LINE
  5
3F45
330
18
100
AcDbEntity
  8
0
 62
     2
100
AcDbLine
 10
20.64485335369907
 20
20.12703086414475
 30
0.0
 11
22.2897763326541
 21
20.12703086414475
 31
0.0
  0
LINE
  5
3F46
330
18
100
AcDbEntity
  8
0
  6
ByBlock
 62
     0
100
AcDbLine
 10
24.3910263326541
 20
21.93947278174013
 30
0.0
 11
20.67676799288779
 21
21.93947278174013
 31
0.0
  0
LINE
  5
3F49
330
18
100
AcDbEntity
  8
0
 62
     2
100
AcDbLine
 10
17.37459526658356
 20
19.79703086414476
 30
0.0
 11
20.47894071919203
 21
19.79703086414476
 31
0.0
  0
LINE
  5
3F4A
330
18
100
AcDbEntity
  8
0
 62
     2
100
AcDbLine
 10
17.37459526658356
 20
20.12703086414476
 30
0.0
 11
20.47894071919202
 21
20.12703086414475
 31
0.0
  0
LINE
  5
3F4B
330
18
100
AcDbEntity
  8
0
 62
     2
100
AcDbLine
 10
17.37459526658356
 20
19.78203087462665
 30
0.0
 11
17.37459526658356
 21
20.14203087462665
 31
0.0
  0
ELLIPSE
  5
3F4C
330
18
100
AcDbEntity
  8
0
 62
     2
100
AcDbEllipse
 10
20.64485335369907
 20
19.87953086414475
 30
0.0
 11
0.0
 21
0.0824999999999996
 31
0.0
210
0.0
220
0.0
230
1.0
 40
0.689531859510577
 41
0.0
 42
6.283185307179585
  0
ELLIPSE
  5
3F4D
330
18
100
AcDbEntity
  8
0
 62
     2
100
AcDbEllipse
 10
20.47894071919202
 20
19.87953086414475
 30
0.0
 11
0.0
 21
0.0824999999999996
 31
0.0
210
0.0
220
0.0
230
1.0
 40
0.689531859510577
 41
3.141592653589792
 42
6.283185307179585
  0
ELLIPSE
  5
3F4E
330
18
100
AcDbEntity
  8
0
 62
     2
100
AcDbEllipse
 10
20.47894071919202
 20
20.04453086414475
 30
0.0
 11
0.0
 21
0.0824999999999996
 31
0.0
210
0.0
220
0.0
230
1.0
 40
0.689531859510577
 41
0.0
 42
6.283185307179585
  0
ELLIPSE
  5
3F4F
330
18
100
AcDbEntity
  8
0
 62
     2
100
AcDbEllipse
 10
20.64485335369907
 20
20.04453086414475
 30
0.0
 11
0.0
 21
-0.0824999999999996
 31
0.0
210
0.0
220
0.0
230
1.0
 40
0.689531859510577
 41
3.141592653589792
 42
6.283185307179585
  0
LINE
  5
3F53
330
18
100
AcDbEntity
  8
0
  6
ByBlock
 62
     0
100
AcDbLine
 10
24.5710263326541
 20
20.36201586327149
 30
0.0
 11
24.5710263326541
 21
22.07691137091121
 31
0.0
  0
SOLID
  5
3F6F
330
18
100
AcDbEntity
  8
0
  6
ByBlock
 62
     0
100
AcDbTrace
 10
24.3910263326541
 20
21.96947278174013
 30
0.0
 11
24.3910263326541
 21
21.90947278174013
 31
0.0
 12
24.5710263326541
 22
21.93947278174013
 32
0.0
 13
24.5710263326541
 23
21.93947278174013
 33
0.0
  0
LEADER
  5
462E
330
18
100
AcDbEntity
  8
0
100
AcDbLeader
  3
STANDARD
 73
     0
 40
0.3333333333333333
 41
1.660714285714285
 76
     3
 10
21.80284826908493
 20
19.79714965323575
 30
0.0
 10
21.53987625318737
 20
19.13941137091121
 30
0.0
 10
21.22737625318737
 20
19.13941137091121
 30
0.0
340
462F
213
0.0
223
-0.0625
233
0.0
1001
ACAD
1000
DSTYLE
1002
{
1070
   147
1040
0.09
1070
    77
1070
     0
1070
    44
1040
0.125
1070
   140
1040
0.125
1002
}
  0
MTEXT
  5
462F
102
{ACAD_REACTORS
330
462E
102
}
330
18
100
AcDbEntity
  8
0
100
AcDbMText
 10
21.13737625318737
 20
19.20191137091121
 30
0.0
 40
0.125
 41
0.0
 71
     3
 72
     1
  1
CABLE, FEEDBACK\PSINE KA-56175
 73
     1
 44
1.0
  0
LINE
  5
4726
330
18
100
AcDbEntity
  8
0
100
AcDbLine
 10
14.97459525890013
 20
19.61853086414476
 30
0.0
 11
14.97459525890013
 21
19.01566119276803
 31
0.0
  0
LINE
  5
4727
330
18
100
AcDbEntity
  8
0
100
AcDbLine
 10
15.47459526658356
 20
19.71953087462665
 30
0.0
 11
15.47459526658356
 21
19.01566119276803
 31
0.0
  0
LINE
  5
4729
330
18
100
AcDbEntity
  8
0
100
AcDbLine
 10
15.65459526658356
 20
19.14066119276803
 30
0.0
 11
15.83459526658356
 21
19.14066119276803
 31
0.0
  0
SOLID
  5
472A
330
18
100
AcDbEntity
  8
0
100
AcDbTrace
 10
14.79459525890013
 20
19.17066119276803
 30
0.0
 11
14.79459525890013
 21
19.11066119276803
 31
0.0
 12
14.97459525890013
 22
19.14066119276803
 32
0.0
 13
14.97459525890013
 23
19.14066119276803
 33
0.0
  0
SOLID
  5
472B
330
18
100
AcDbEntity
  8
0
100
AcDbTrace
 10
15.65459526658356
 20
19.17066119276803
 30
0.0
 11
15.65459526658356
 21
19.11066119276803
 31
0.0
 12
15.47459526658356
 22
19.14066119276803
 32
0.0
 13
15.47459526658356
 23
19.14066119276803
 33
0.0
  0
MTEXT
  5
472C
330
18
100
AcDbEntity
  8
0
100
AcDbMText
 10
16.10614288563118
 20
19.14066119276803
 30
0.0
 40
0.125
 41
0.0
 71
     5
 72
     1
  1
12mm
 73
     1
 44
1.0
  0
INSERT
  5
517C
330
18
100
AcDbEntity
  8
0
100
AcDbBlockReference
 66
     1
  2
ASSEMBLY_C
 10
8.333017992887789
 20
7.689530864144758
 30
0.0
  0
ATTRIB
  5
517E
330
517C
100
AcDbEntity
  8
Title Block
  6
Continuous
100
AcDbText
 10
25.75801799288778
 20
9.564530864144758
 30
0.0
 40
0.1010611419
  1
G. MUMM
100
AcDbAttribute
  2
GEN-TITLE-NAME{5}
 70
     0
  0
ATTRIB
  5
517F
330
517C
100
AcDbEntity
  8
Title Block
  6
Continuous
100
AcDbText
 10
25.75801799288778
 20
9.314530864144758
 30
0.0
 40
0.1010611419
  1

100
AcDbAttribute
  2
GEN-TITLE-CHKM{5}
 70
     0
  0
ATTRIB
  5
5180
330
517C
100
AcDbEntity
  8
Title Block
  6
Continuous
100
AcDbText
 10
25.75801799288778
 20
9.064530864144758
 30
0.0
 40
0.1010611419
  1

100
AcDbAttribute
  2
GEN-TITLE-APPM{5}
 70
     0
  0
ATTRIB
  5
5181
330
517C
100
AcDbEntity
  8
Title Block
  6
Continuous
100
AcDbText
 10
24.06142658766408
 20
8.575654390101048
 30
0.0
 40
0.14
  1
CABLE, USER I/O, MMC-SD
 41
0.8
100
AcDbAttribute
  2
GEN-TITLE-DES1{15.54}
 70
     0
  0
ATTRIB
  5
5182
330
517C
100
AcDbEntity
  8
Title Block
  6
Continuous
100
AcDbText
 10
29.23301799288779
 20
9.064530864144758
 30
0.0
 40
0.11808994431015
  1
1
 41
0.8
100
AcDbAttribute
  2
GEN-TITLE-SHEET-OF{2.62}
 70
     0
  0
ATTRIB
  5
5183
330
517C
100
AcDbEntity
  8
Title Block
  6
Continuous
100
AcDbText
 10
28.83301799288778
 20
9.064530864144758
 30
0.0
 40
0.11808994431015
  1
1
 41
0.8
100
AcDbAttribute
  2
GEN-TITLE-SHEET{2.62}
 70
     0
  0
ATTRIB
  5
5184
330
517C
100
AcDbEntity
  8
Title Block
  6
Continuous
100
AcDbText
 10
27.28301799288779
 20
9.064530864144758
 30
0.0
 40
0.1010611419
  1

 41
0.8
100
AcDbAttribute
  2
GEN-TITLE-MAT{11.15}
 70
     0
  0
ATTRIB
  5
5185
330
517C
100
AcDbEntity
  8
Title Block
  6
Continuous
100
AcDbText
 10
27.28301799288779
 20
9.314530864144758
 30
0.0
 40
0.1010611419
  1

100
AcDbAttribute
  2
GEN-TITLE-MACH{5}
 70
     0
  0
ATTRIB
  5
5186
330
517C
100
AcDbEntity
  8
Title Block
  6
Continuous
100
AcDbText
 10
27.28301799288779
 20
9.564530864144758
 30
0.0
 40
0.1010611419
  1

100
AcDbAttribute
  2
GEN-TITLE-REF{5}
 70
     0
  0
ATTRIB
  5
5187
330
517C
100
AcDbEntity
  8
Title Block
  6
Continuous
100
AcDbText
 10
28.75801799288778
 20
9.314530864144758
 30
0.0
 40
0.1010611419
  1
16.06.03
100
AcDbAttribute
  2
GEN-TITLE-PLOT{5}
 70
     0
  0
ATTRIB
  5
5188
330
517C
100
AcDbEntity
  8
Title Block
  6
Continuous
100
AcDbText
 10
27.00574923467736
 20
8.582115140830104
 30
0.0
 40
0.14
  1
MD.1000.8498
 41
0.8
100
AcDbAttribute
  2
GEN-TITLE-NR{13.37}
 70
     0
  0
SEQEND
  5
517D
330
517C
100
AcDbEntity
  8
0
  0
LINE
  5
5245
330
18
100
AcDbEntity
  8
0
100
AcDbLine
 10
14.97459525890013
 20
20.12703086414475
 30
0.0
 11
14.97459525890013
 21
19.79703086414476
 31
0.0
  0
LINE
  5
5247
330
18
100
AcDbEntity
  8
0
100
AcDbLine
 10
14.95801799288779
 20
20.09578086414475
 30
0.0
 11
11.27051799288778
 21
20.59578086414475
 31
0.0
  0
LINE
  5
5248
330
18
100
AcDbEntity
  8
0
100
AcDbLine
 10
14.95801799288779
 20
20.06453086414475
 30
0.0
 11
11.27051799288778
 21
20.47078086414475
 31
0.0
  0
LINE
  5
5249
330
18
100
AcDbEntity
  8
0
100
AcDbLine
 10
14.95801799288779
 20
20.03328086414475
 30
0.0
 11
11.27051799288778
 21
20.25203086414475
 31
0.0
  0
LINE
  5
524A
330
18
100
AcDbEntity
  8
0
100
AcDbLine
 10
14.95801799288779
 20
20.00203086414475
 30
0.0
 11
11.30176799288779
 21
20.12703086414475
 31
0.0
  0
LINE
  5
524B
330
18
100
AcDbEntity
  8
0
100
AcDbLine
 10
14.95801799288779
 20
19.93953086414475
 30
0.0
 11
11.27051799288778
 21
20.00203086414475
 31
0.0
  0
LINE
  5
524C
330
18
100
AcDbEntity
  8
0
100
AcDbLine
 10
11.27051799288778
 20
20.00203086414475
 30
0.0
 11
14.95801799288779
 21
19.93953086414475
 31
0.0
  0
LINE
  5
524D
330
18
100
AcDbEntity
  8
0
100
AcDbLine
 10
14.95801799288779
 20
19.93953086414475
 30
0.0
 11
11.27051799288778
 21
19.84578086414475
 31
0.0
  0
LINE
  5
524E
330
18
100
AcDbEntity
  8
0
100
AcDbLine
 10
14.95801799288779
 20
19.90828086414475
 30
0.0
 11
11.27051799288778
 21
19.62703086414475
 31
0.0
  0
LINE
  5
524F
330
18
100
AcDbEntity
  8
0
100
AcDbLine
 10
14.95801799288779
 20
19.84578086414475
 30
0.0
 11
11.27051799288778
 21
19.43953086414475
 31
0.0
  0
LINE
  5
5253
330
18
100
AcDbEntity
  8
0
100
AcDbLine
 10
14.97459525890013
 20
20.18953086414475
 30
0.0
 11
14.97459525890013
 21
21.34578086414475
 31
0.0
  0
LINE
  5
5254
330
18
100
AcDbEntity
  8
0
100
AcDbLine
 10
11.25584525890013
 20
21.25372111752798
 30
0.0
 11
11.25584525890013
 21
21.34578086414475
 31
0.0
  0
LINE
  5
5255
330
18
100
AcDbEntity
  8
0
100
AcDbLine
 10
14.79459525890013
 20
21.22078086414475
 30
0.0
 11
13.69331549699536
 21
21.22078086414475
 31
0.0
  0
LINE
  5
5256
330
18
100
AcDbEntity
  8
0
100
AcDbLine
 10
11.43584525890013
 20
21.22078086414475
 30
0.0
 11
12.53712502080489
 21
21.22078086414475
 31
0.0
  0
SOLID
  5
5257
330
18
100
AcDbEntity
  8
0
100
AcDbTrace
 10
14.79459525890013
 20
21.25078086414475
 30
0.0
 11
14.79459525890013
 21
21.19078086414475
 31
0.0
 12
14.97459525890013
 22
21.22078086414475
 32
0.0
 13
14.97459525890013
 23
21.22078086414475
 33
0.0
  0
SOLID
  5
5258
330
18
100
AcDbEntity
  8
0
100
AcDbTrace
 10
11.43584525890013
 20
21.25078086414475
 30
0.0
 11
11.43584525890013
 21
21.19078086414475
 31
0.0
 12
11.25584525890013
 22
21.22078086414475
 32
0.0
 13
11.25584525890013
 23
21.22078086414475
 33
0.0
  0
MTEXT
  5
5259
330
18
100
AcDbEntity
  8
0
100
AcDbMText
 10
13.11522025890013
 20
21.22078086414475
 30
0.0
 40
0.125
 41
0.0
 71
     5
 72
     1
  1
\A1;0.5 METER
 73
     1
 44
1.0
  0
MTEXT
  5
525A
330
18
100
AcDbEntity
  8
0
100
AcDbMText
 10
11.92676799288779
 20
18.59578086414475
 30
0.0
 40
0.125
 41
3.9375
 71
     1
 72
     5
  1
TERMINATE ALL WIRES\PWITH FERRULES
 73
     1
 44
1.0
  0
LEADER
  5
525C
330
18
100
AcDbEntity
  8
0
100
AcDbLeader
  3
STANDARD
 76
     3
 10
11.27051799288778
 20
19.43953086414475
 30
0.0
 10
11.70801799288778
 20
18.53328086414475
 30
0.0
 10
11.86426799288778
 20
18.53328086414475
 30
0.0
1001
ACAD
1000
DSTYLE
1002
{
1070
   147
1040
0.09
1070
    77
1070
     0
1070
    44
1040
0.125
1070
   140
1040
0.125
1002
}
  0
LINE
  5
5374
330
18
100
AcDbEntity
  8
0
100
AcDbLine
 10
11.41551799288777
 20
14.58828747914484
 30
0.0
 11
16.45551799288778
 21
14.58828747914484
 31
0.0
  0
LINE
  5
5375
330
18
100
AcDbEntity
  8
0
100
AcDbLine
 10
11.41551799288778
 20
14.37828579914485
 30
0.0
 11
16.45551799288778
 21
14.37828579914485
 31
0.0
  0
LINE
  5
5376
330
18
100
AcDbEntity
  8
0
100
AcDbLine
 10
11.41551799288777
 20
11.43827235914468
 30
0.0
 11
16.45551799288777
 21
11.43827235914468
 31
0.0
  0
LINE
  5
5377
330
18
100
AcDbEntity
  8
0
100
AcDbLine
 10
11.41551799288776
 20
11.64827403914471
 30
0.0
 11
16.45551799288777
 21
11.64827403914471
 31
0.0
  0
LINE
  5
5378
330
18
100
AcDbEntity
  8
0
100
AcDbLine
 10
11.41551799288776
 20
11.22827235914468
 30
0.0
 11
16.45551799288777
 21
11.22827235914468
 31
0.0
  0
LINE
  5
5379
330
18
100
AcDbEntity
  8
0
100
AcDbLine
 10
11.41551799288777
 20
11.01827067914466
 30
0.0
 11
16.45551799288777
 21
11.01827067914466
 31
0.0
  0
LINE
  5
537A
330
18
100
AcDbEntity
  8
0
100
AcDbLine
 10
11.41551799288777
 20
11.85827403914471
 30
0.0
 11
16.45551799288777
 21
11.85827403914471
 31
0.0
  0
LINE
  5
537B
330
18
100
AcDbEntity
  8
0
100
AcDbLine
 10
11.41551799288776
 20
12.06827571914473
 30
0.0
 11
16.45551799288777
 21
12.06827571914473
 31
0.0
  0
LINE
  5
537C
330
18
100
AcDbEntity
  8
0
100
AcDbLine
 10
11.41551799288776
 20
12.48827739914475
 30
0.0
 11
16.45551799288777
 21
12.48827739914475
 31
0.0
  0
LINE
  5
537D
330
18
100
AcDbEntity
  8
0
100
AcDbLine
 10
11.41551799288777
 20
12.27827571914473
 30
0.0
 11
16.45551799288777
 21
12.27827571914473
 31
0.0
  0
LINE
  5
537E
330
18
100
AcDbEntity
  8
0
100
AcDbLine
 10
11.41551799288777
 20
13.7482841191448
 30
0.0
 11
16.45551799288778
 21
13.7482841191448
 31
0.0
  0
LINE
  5
537F
330
18
100
AcDbEntity
  8
0
100
AcDbLine
 10
11.41551799288778
 20
13.53828243914481
 30
0.0
 11
16.45551799288778
 21
13.53828243914481
 31
0.0
  0
LINE
  5
5380
330
18
100
AcDbEntity
  8
0
100
AcDbLine
 10
11.41551799288777
 20
15.84828747914479
 30
0.0
 11
16.45551799288778
 21
15.8482874791448
 31
0.0
  0
LINE
  5
5381
330
18
100
AcDbEntity
  8
0
100
AcDbLine
 10
11.41551799288776
 20
10.59828075914478
 30
0.0
 11
16.45551799288777
 21
10.5982807591448
 31
0.0
  0
LINE
  5
5382
330
18
100
AcDbEntity
  8
0
100
AcDbLine
 10
11.41551799288777
 20
15.4282874791448
 30
0.0
 11
16.45551799288778
 21
15.4282874791448
 31
0.0
  0
LINE
  5
5383
330
18
100
AcDbEntity
  8
0
100
AcDbLine
 10
11.41551799288777
 20
15.63828747914481
 30
0.0
 11
16.45551799288778
 21
15.63828747914481
 31
0.0
  0
LINE
  5
5384
330
18
100
AcDbEntity
  8
0
100
AcDbLine
 10
11.41551799288777
 20
14.16828579914482
 30
0.0
 11
16.45551799288778
 21
14.16828579914482
 31
0.0
  0
LINE
  5
5385
330
18
100
AcDbEntity
  8
0
100
AcDbLine
 10
11.41551799288777
 20
14.79828747914479
 30
0.0
 11
16.45551799288778
 21
14.7982874791448
 31
0.0
  0
LINE
  5
5386
330
18
100
AcDbEntity
  8
0
100
AcDbLine
 10
11.41551799288777
 20
15.00828747914481
 30
0.0
 11
16.45551799288778
 21
15.00828747914481
 31
0.0
  0
LINE
  5
5387
330
18
100
AcDbEntity
  8
0
100
AcDbLine
 10
11.41551799288777
 20
15.21828747914479
 30
0.0
 11
16.45551799288778
 21
15.2182874791448
 31
0.0
  0
LINE
  5
5388
330
18
100
AcDbEntity
  8
0
100
AcDbLine
 10
11.41551799288777
 20
12.69827739914475
 30
0.0
 11
16.45551799288777
 21
12.69827739914475
 31
0.0
  0
LINE
  5
5389
330
18
100
AcDbEntity
  8
0
  6
HIDDEN
100
AcDbLine
 10
11.41551799288778
 20
10.38827571914475
 30
0.0
 11
16.45551799288778
 21
10.38827571914475
 31
0.0
  0
LINE
  5
538A
330
18
100
AcDbEntity
  8
0
100
AcDbLine
 10
11.41551799288776
 20
12.90827907914477
 30
0.0
 11
16.45551799288777
 21
12.90827907914477
 31
0.0
  0
LINE
  5
538B
330
18
100
AcDbEntity
  8
0
100
AcDbLine
 10
11.41551799288776
 20
13.32828075914478
 30
0.0
 11
16.45551799288777
 21
13.32828075914479
 31
0.0
  0
LINE
  5
538C
330
18
100
AcDbEntity
  8
0
100
AcDbLine
 10
11.41551799288777
 20
13.11828075914478
 30
0.0
 11
16.45551799288777
 21
13.11828075914479
 31
0.0
  0
LINE
  5
538D
330
18
100
AcDbEntity
  8
0
100
AcDbLine
 10
11.41551799288777
 20
10.80827571914475
 30
0.0
 11
16.45551799288776
 21
10.80827571914475
 31
0.0
  0
LINE
  5
538E
330
18
100
AcDbEntity
  8
0
100
AcDbLine
 10
11.41551799288778
 20
13.95828411914483
 30
0.0
 11
16.45551799288778
 21
13.95828411914483
 31
0.0
  0
TEXT
  5
538F
330
18
100
AcDbEntity
  8
0
100
AcDbText
 10
13.49963167809302
 20
12.33152571914473
 30
0.0
 40
0.084
  1
WHITE/PINK
  7
ROMANS
 72
     4
 11
13.86363167809302
 21
12.36752571914473
 31
0.0
100
AcDbText
  0
TEXT
  5
5390
330
18
100
AcDbEntity
  8
0
100
AcDbText
 10
14.49708504724023
 20
12.31908942534939
 30
0.0
 40
0.084
  1
28AWG
  7
ROMANS
 72
     4
 11
14.70308504724023
 21
12.36108942534939
 31
0.0
100
AcDbText
  0
LINE
  5
5391
330
18
100
AcDbEntity
  8
0
100
AcDbLine
 10
12.96553949368216
 20
12.31929302414476
 30
0.0
 11
13.06799649209338
 21
12.44726177414476
 31
0.0
  0
LINE
  5
5392
330
18
100
AcDbEntity
  8
0
100
AcDbLine
 10
13.06799649209338
 20
12.31929302414476
 30
0.0
 11
12.96553949368217
 21
12.44726177414476
 31
0.0
  0
LINE
  5
5393
330
18
100
AcDbEntity
  8
0
  6
HIDDEN
100
AcDbLine
 10
12.70176799288778
 20
10.38827739914473
 30
0.0
 11
12.70176799288778
 21
15.8482874791448
 31
0.0
  0
LINE
  5
5394
330
18
100
AcDbEntity
  8
0
  6
HIDDEN
100
AcDbLine
 10
12.49176799288778
 20
10.38827739914473
 30
0.0
 11
12.49176799288779
 21
15.8482874791448
 31
0.0
  0
LINE
  5
5397
330
18
100
AcDbEntity
  8
0
  6
HIDDEN
100
AcDbLine
 10
12.75426799288778
 20
10.38827739914473
 30
0.0
 11
12.75426799288778
 21
15.8482874791448
 31
0.0
  0
LINE
  5
5398
330
18
100
AcDbEntity
  8
0
  6
HIDDEN
100
AcDbLine
 10
12.43926799288777
 20
10.38827739914473
 30
0.0
 11
12.43926799288778
 21
15.8482874791448
 31
0.0
  0
ARC
  5
539B
330
18
100
AcDbEntity
  8
0
  6
HIDDEN
100
AcDbCircle
 10
12.59676799288777
 20
10.38827571914475
 30
0.0
 40
0.1049999999999997
100
AcDbArc
 50
180.0
 51
0.0
  0
ARC
  5
539C
330
18
100
AcDbEntity
  8
0
  6
HIDDEN
100
AcDbCircle
 10
12.59676799288777
 20
10.38827571914475
 30
0.0
 40
0.1574999999999996
100
AcDbArc
 50
180.0
 51
0.0
  0
LWPOLYLINE
  5
539D
330
18
100
AcDbEntity
  8
0
100
AcDbPolyline
 90
        2
 70
     1
 43
0.021
 10
12.69126799288777
 20
10.38827571914475
 42
1.0
 10
12.71226799288777
 20
10.38827571914475
 42
1.0
  0
LWPOLYLINE
  5
539E
330
18
100
AcDbEntity
  8
0
100
AcDbPolyline
 90
        2
 70
     1
 43
0.021
 10
12.74376799288777
 20
10.38827571914475
 42
1.0
 10
12.76476799288777
 20
10.38827571914475
 42
1.0
  0
TEXT
  5
53A8
330
18
100
AcDbEntity
  8
0
100
AcDbText
 10
13.46610046749715
 20
9.782268881248198
 30
0.0
 40
0.084
  1
= TWISTED PAIR
  7
ROMANS
 72
     4
 11
13.98810046749715
 21
9.824268881248197
 31
0.0
100
AcDbText
  0
TEXT
  5
53A9
330
18
100
AcDbEntity
  8
0
 62
     2
100
AcDbText
 10
13.49314265266709
 20
9.359010820099447
 30
0.0
 40
0.1250000625
  1
%%UWIRING DIAGRAM
  7
ROMANS
 72
     4
 11
14.23629778614923
 21
9.409010845099446
 31
0.0
100
AcDbText
  0
ARC
  5
53AA
330
18
100
AcDbEntity
  8
0
100
AcDbCircle
 10
13.36051799288779
 20
9.709646576469797
 30
0.0
 40
0.065625
100
AcDbArc
 50
141.3178125465109
 51
38.68218745348999
  0
ARC
  5
53AB
330
18
100
AcDbEntity
  8
0
100
AcDbCircle
 10
13.36051799288779
 20
9.9196465764698
 30
0.0
 40
0.065625
100
AcDbArc
 50
321.3178125465101
 51
218.68218745349
  0
LINE
  5
53AC
330
18
100
AcDbEntity
  8
0
100
AcDbLine
 10
13.41174649209339
 20
9.750662201469797
 30
0.0
 11
13.30928949368217
 21
9.8786309514698
 31
0.0
  0
LINE
  5
53AD
330
18
100
AcDbEntity
  8
0
100
AcDbLine
 10
13.30928949368217
 20
9.750662201469797
 30
0.0
 11
13.41174649209339
 21
9.8786309514698
 31
0.0
  0
TEXT
  5
53AE
330
18
100
AcDbEntity
  8
0
100
AcDbText
 10
13.59763167809302
 20
11.07152067914466
 30
0.0
 40
0.084
  1
YEL/BLU
  7
ROMANS
 72
     4
 11
13.86363167809302
 21
11.10752067914466
 31
0.0
100
AcDbText
  0
TEXT
  5
53AF
330
18
100
AcDbEntity
  8
0
100
AcDbText
 10
13.58163167809302
 20
11.28152235914468
 30
0.0
 40
0.084
  1
GRY/BLU
  7
ROMANS
 72
     4
 11
13.86363167809302
 21
11.31752235914468
 31
0.0
100
AcDbText
  0
TEXT
  5
53B0
330
18
100
AcDbEntity
  8
0
100
AcDbText
 10
13.59363167809302
 20
11.49152235914469
 30
0.0
 40
0.084
  1
YEL/RED
  7
ROMANS
 72
     4
 11
13.86363167809302
 21
11.52752235914469
 31
0.0
100
AcDbText
  0
TEXT
  5
53B1
330
18
100
AcDbEntity
  8
0
100
AcDbText
 10
13.56963167809302
 20
11.70152403914471
 30
0.0
 40
0.084
  1
GRN/RED
  7
ROMANS
 72
     4
 11
13.86363167809302
 21
11.7375240391447
 31
0.0
100
AcDbText
  0
TEXT
  5
53B2
330
18
100
AcDbEntity
  8
0
100
AcDbText
 10
13.57363167809302
 20
11.91152403914471
 30
0.0
 40
0.084
  1
GRY/GRN
  7
ROMANS
 72
     4
 11
13.86363167809302
 21
11.94752403914471
 31
0.0
100
AcDbText
  0
TEXT
  5
53B3
330
18
100
AcDbEntity
  8
0
100
AcDbText
 10
13.58763167809302
 20
12.12152571914473
 30
0.0
 40
0.084
  1
BLK/YEL
  7
ROMANS
 72
     4
 11
13.86363167809302
 21
12.15752571914473
 31
0.0
100
AcDbText
  0
TEXT
  5
53B4
330
18
100
AcDbEntity
  8
0
100
AcDbText
 10
13.70363167809302
 20
10.85553075914479
 30
0.0
 40
0.084
  1
GRAY
  7
ROMANS
 72
     4
 11
13.86363167809302
 21
10.89753075914479
 31
0.0
100
AcDbText
  0
TEXT
  5
53B5
330
18
100
AcDbEntity
  8
0
100
AcDbText
 10
13.68671883224561
 20
10.42908606534937
 30
0.0
 40
0.084
  1
DRAIN
  7
ROMANS
 72
     4
 11
13.86671883224561
 21
10.47108606534937
 31
0.0
100
AcDbText
  0
TEXT
  5
53B6
330
18
100
AcDbEntity
  8
0
100
AcDbText
 10
13.48363167809302
 20
10.65153075914479
 30
0.0
 40
0.084
  1
WHITE/GRAY
  7
ROMANS
 72
     4
 11
13.86363167809302
 21
10.68753075914478
 31
0.0
100
AcDbText
  0
ARC
  5
53B7
330
18
100
AcDbEntity
  8
0
100
AcDbCircle
 10
13.01676799288778
 20
11.43827403914472
 30
0.0
 40
0.065625
100
AcDbArc
 50
141.3178125465109
 51
38.68218745348999
  0
LINE
  5
53B8
330
18
100
AcDbEntity
  8
0
100
AcDbLine
 10
13.06799649209338
 20
10.63928966414475
 30
0.0
 11
12.96553949368216
 21
10.76725841414475
 31
0.0
  0
LINE
  5
53B9
330
18
100
AcDbEntity
  8
0
100
AcDbLine
 10
12.96553949368216
 20
10.63928966414475
 30
0.0
 11
13.06799649209338
 21
10.76725841414475
 31
0.0
  0
ARC
  5
53BA
330
18
100
AcDbEntity
  8
0
100
AcDbCircle
 10
13.01676799288777
 20
10.59827403914475
 30
0.0
 40
0.065625
100
AcDbArc
 50
141.3178125465109
 51
38.68218745348999
  0
ARC
  5
53BB
330
18
100
AcDbEntity
  8
0
100
AcDbCircle
 10
13.01676799288777
 20
10.80827403914475
 30
0.0
 40
0.065625
100
AcDbArc
 50
321.3178125465101
 51
218.68218745349
  0
ARC
  5
53BC
330
18
100
AcDbEntity
  8
0
100
AcDbCircle
 10
13.01676799288778
 20
11.0182723591447
 30
0.0
 40
0.065625
100
AcDbArc
 50
141.3178125465109
 51
38.68218745348999
  0
LINE
  5
53BD
330
18
100
AcDbEntity
  8
0
100
AcDbLine
 10
12.96553949368216
 20
11.05928798414469
 30
0.0
 11
13.06799649209338
 21
11.18725673414469
 31
0.0
  0
LINE
  5
53BE
330
18
100
AcDbEntity
  8
0
100
AcDbLine
 10
13.06799649209338
 20
11.05928798414469
 30
0.0
 11
12.96553949368217
 21
11.18725673414469
 31
0.0
  0
ARC
  5
53BF
330
18
100
AcDbEntity
  8
0
100
AcDbCircle
 10
13.01676799288778
 20
11.22827235914469
 30
0.0
 40
0.065625
100
AcDbArc
 50
321.3178125465101
 51
218.68218745349
  0
ARC
  5
53C0
330
18
100
AcDbEntity
  8
0
100
AcDbCircle
 10
13.01676799288778
 20
11.85827571914474
 30
0.0
 40
0.065625
100
AcDbArc
 50
141.3178125465109
 51
38.68218745348999
  0
ARC
  5
53C1
330
18
100
AcDbEntity
  8
0
100
AcDbCircle
 10
13.01676799288778
 20
11.64827403914472
 30
0.0
 40
0.065625
100
AcDbArc
 50
321.3178125465101
 51
218.68218745349
  0
LINE
  5
53C2
330
18
100
AcDbEntity
  8
0
100
AcDbLine
 10
13.06799649209338
 20
11.47928966414472
 30
0.0
 11
12.96553949368217
 21
11.60725841414472
 31
0.0
  0
LINE
  5
53C3
330
18
100
AcDbEntity
  8
0
100
AcDbLine
 10
12.96553949368216
 20
11.47928966414472
 30
0.0
 11
13.06799649209338
 21
11.60725841414472
 31
0.0
  0
ARC
  5
53C4
330
18
100
AcDbEntity
  8
0
100
AcDbCircle
 10
13.01676799288778
 20
12.06827571914474
 30
0.0
 40
0.065625
100
AcDbArc
 50
321.3178125465101
 51
218.68218745349
  0
LINE
  5
53C5
330
18
100
AcDbEntity
  8
0
100
AcDbLine
 10
13.06799649209338
 20
11.89929134414474
 30
0.0
 11
12.96553949368217
 21
12.02726009414474
 31
0.0
  0
LINE
  5
53C6
330
18
100
AcDbEntity
  8
0
100
AcDbLine
 10
12.96553949368216
 20
11.89929134414474
 30
0.0
 11
13.06799649209338
 21
12.02726009414474
 31
0.0
  0
ARC
  5
53C7
330
18
100
AcDbEntity
  8
0
100
AcDbCircle
 10
13.01676799288778
 20
12.27827739914476
 30
0.0
 40
0.065625
100
AcDbArc
 50
141.3178125465109
 51
38.68218745348999
  0
TEXT
  5
53C8
330
18
100
AcDbEntity
  8
0
100
AcDbText
 10
14.49708504724023
 20
11.26908438534931
 30
0.0
 40
0.084
  1
28AWG
  7
ROMANS
 72
     4
 11
14.70308504724023
 21
11.31108438534931
 31
0.0
100
AcDbText
  0
TEXT
  5
53C9
330
18
100
AcDbEntity
  8
0
100
AcDbText
 10
14.49708504724023
 20
11.05908438534932
 30
0.0
 40
0.084
  1
28AWG
  7
ROMANS
 72
     4
 11
14.70308504724023
 21
11.10108438534932
 31
0.0
100
AcDbText
  0
TEXT
  5
53CA
330
18
100
AcDbEntity
  8
0
100
AcDbText
 10
14.50758504724022
 20
10.42908606534937
 30
0.0
 40
0.084
  1
28AWG
  7
ROMANS
 72
     4
 11
14.71358504724022
 21
10.47108606534937
 31
0.0
100
AcDbText
  0
TEXT
  5
53CB
330
18
100
AcDbEntity
  8
0
100
AcDbText
 10
14.49708504724022
 20
10.6390911053494
 30
0.0
 40
0.084
  1
20AWG
  7
ROMANS
 72
     4
 11
14.70308504724022
 21
10.6810911053494
 31
0.0
100
AcDbText
  0
TEXT
  5
53CC
330
18
100
AcDbEntity
  8
0
100
AcDbText
 10
14.49708504724022
 20
10.84908606534937
 30
0.0
 40
0.084
  1
20AWG
  7
ROMANS
 72
     4
 11
14.70308504724022
 21
10.89108606534937
 31
0.0
100
AcDbText
  0
TEXT
  5
53CD
330
18
100
AcDbEntity
  8
0
100
AcDbText
 10
14.49708504724023
 20
11.47908606534934
 30
0.0
 40
0.084
  1
28AWG
  7
ROMANS
 72
     4
 11
14.70308504724023
 21
11.52108606534934
 31
0.0
100
AcDbText
  0
TEXT
  5
53CE
330
18
100
AcDbEntity
  8
0
100
AcDbText
 10
14.49708504724023
 20
11.68908606534933
 30
0.0
 40
0.084
  1
28AWG
  7
ROMANS
 72
     4
 11
14.70308504724023
 21
11.73108606534933
 31
0.0
100
AcDbText
  0
TEXT
  5
53CF
330
18
100
AcDbEntity
  8
0
100
AcDbText
 10
14.49708504724023
 20
11.89908774534937
 30
0.0
 40
0.084
  1
28AWG
  7
ROMANS
 72
     4
 11
14.70308504724023
 21
11.94108774534937
 31
0.0
100
AcDbText
  0
TEXT
  5
53D0
330
18
100
AcDbEntity
  8
0
100
AcDbText
 10
14.49708504724023
 20
12.10908774534936
 30
0.0
 40
0.084
  1
28AWG
  7
ROMANS
 72
     4
 11
14.70308504724023
 21
12.15108774534936
 31
0.0
100
AcDbText
  0
ARC
  5
53E4
330
18
100
AcDbEntity
  8
0
  6
HIDDEN
100
AcDbCircle
 10
12.59676799288778
 20
15.8482874791448
 30
0.0
 40
0.1574999999999996
100
AcDbArc
 50
0.0
 51
180.0
  0
ARC
  5
53E5
330
18
100
AcDbEntity
  8
0
  6
HIDDEN
100
AcDbCircle
 10
12.59676799288778
 20
15.8482874791448
 30
0.0
 40
0.1049999999999997
100
AcDbArc
 50
0.0
 51
180.0
  0
TEXT
  5
53E6
330
18
100
AcDbEntity
  8
0
100
AcDbText
 10
13.70163167809303
 20
14.21553579914482
 30
0.0
 40
0.084
  1
BLUE
  7
ROMANS
 72
     4
 11
13.86363167809303
 21
14.25753579914482
 31
0.0
100
AcDbText
  0
TEXT
  5
53E7
330
18
100
AcDbEntity
  8
0
100
AcDbText
 10
14.49708504724024
 20
14.20909614534943
 30
0.0
 40
0.084
  1
28AWG
  7
ROMANS
 72
     4
 11
14.70308504724024
 21
14.25109614534943
 31
0.0
100
AcDbText
  0
TEXT
  5
53E8
330
18
100
AcDbEntity
  8
0
100
AcDbText
 10
13.71763167809302
 20
12.53552739914475
 30
0.0
 40
0.084
  1
PINK
  7
ROMANS
 72
     4
 11
13.86363167809302
 21
12.57752739914475
 31
0.0
100
AcDbText
  0
TEXT
  5
53E9
330
18
100
AcDbEntity
  8
0
100
AcDbText
 10
13.43963167809302
 20
12.75152739914475
 30
0.0
 40
0.084
  1
WHITE/VIOLET
  7
ROMANS
 72
     4
 11
13.86363167809302
 21
12.78752739914475
 31
0.0
100
AcDbText
  0
TEXT
  5
53EA
330
18
100
AcDbEntity
  8
0
100
AcDbText
 10
13.66363167809302
 20
12.95552907914477
 30
0.0
 40
0.084
  1
VIOLET
  7
ROMANS
 72
     4
 11
13.86363167809302
 21
12.99752907914477
 31
0.0
100
AcDbText
  0
TEXT
  5
53EB
330
18
100
AcDbEntity
  8
0
100
AcDbText
 10
13.42563167809302
 20
13.17153075914478
 30
0.0
 40
0.084
  1
WHITE/BROWN
  7
ROMANS
 72
     4
 11
13.86363167809302
 21
13.20753075914478
 31
0.0
100
AcDbText
  0
TEXT
  5
53EC
330
18
100
AcDbEntity
  8
0
100
AcDbText
 10
13.64363167809302
 20
13.37553075914479
 30
0.0
 40
0.084
  1
BROWN
  7
ROMANS
 72
     4
 11
13.86363167809302
 21
13.41753075914479
 31
0.0
100
AcDbText
  0
TEXT
  5
53ED
330
18
100
AcDbEntity
  8
0
100
AcDbText
 10
13.40763167809303
 20
13.5915341191448
 30
0.0
 40
0.084
  1
WHITE/YELLOW
  7
ROMANS
 72
     4
 11
13.86363167809303
 21
13.6275341191448
 31
0.0
100
AcDbText
  0
TEXT
  5
53EE
330
18
100
AcDbEntity
  8
0
100
AcDbText
 10
13.63163167809303
 20
13.7955341191448
 30
0.0
 40
0.084
  1
YELLOW
  7
ROMANS
 72
     4
 11
13.86363167809303
 21
13.8375341191448
 31
0.0
100
AcDbText
  0
TEXT
  5
53EF
330
18
100
AcDbEntity
  8
0
100
AcDbText
 10
13.48363167809303
 20
14.01153579914482
 30
0.0
 40
0.084
  1
WHITE/BLUE
  7
ROMANS
 72
     4
 11
13.86363167809303
 21
14.04753579914482
 31
0.0
100
AcDbText
  0
ARC
  5
53F0
330
18
100
AcDbEntity
  8
0
100
AcDbCircle
 10
13.01676799288778
 20
13.32828075914479
 30
0.0
 40
0.065625
100
AcDbArc
 50
321.3178125465101
 51
218.68218745349
  0
LINE
  5
53F1
330
18
100
AcDbEntity
  8
0
100
AcDbLine
 10
13.06799649209338
 20
12.73929470414478
 30
0.0
 11
12.96553949368217
 21
12.86726345414478
 31
0.0
  0
LINE
  5
53F2
330
18
100
AcDbEntity
  8
0
100
AcDbLine
 10
12.96553949368216
 20
12.73929470414478
 30
0.0
 11
13.06799649209338
 21
12.86726345414478
 31
0.0
  0
ARC
  5
53F3
330
18
100
AcDbEntity
  8
0
100
AcDbCircle
 10
13.01676799288778
 20
12.48827739914476
 30
0.0
 40
0.065625
100
AcDbArc
 50
321.3178125465101
 51
218.68218745349
  0
ARC
  5
53F4
330
18
100
AcDbEntity
  8
0
100
AcDbCircle
 10
13.01676799288778
 20
12.69827907914478
 30
0.0
 40
0.065625
100
AcDbArc
 50
141.3178125465109
 51
38.68218745348999
  0
LINE
  5
53F5
330
18
100
AcDbEntity
  8
0
100
AcDbLine
 10
13.06799649209338
 20
13.15929638414479
 30
0.0
 11
12.96553949368217
 21
13.28726513414479
 31
0.0
  0
LINE
  5
53F6
330
18
100
AcDbEntity
  8
0
100
AcDbLine
 10
12.96553949368216
 20
13.15929638414479
 30
0.0
 11
13.06799649209338
 21
13.28726513414479
 31
0.0
  0
ARC
  5
53F7
330
18
100
AcDbEntity
  8
0
100
AcDbCircle
 10
13.01676799288778
 20
12.90827907914478
 30
0.0
 40
0.065625
100
AcDbArc
 50
321.3178125465101
 51
218.68218745349
  0
ARC
  5
53F8
330
18
100
AcDbEntity
  8
0
100
AcDbCircle
 10
13.01676799288778
 20
13.11828075914479
 30
0.0
 40
0.065625
100
AcDbArc
 50
141.3178125465109
 51
38.68218745348999
  0
ARC
  5
53F9
330
18
100
AcDbEntity
  8
0
100
AcDbCircle
 10
13.01676799288779
 20
13.7482841191448
 30
0.0
 40
0.065625
100
AcDbArc
 50
321.3178125465101
 51
218.68218745349
  0
LINE
  5
53FA
330
18
100
AcDbEntity
  8
0
100
AcDbLine
 10
13.0679964920934
 20
13.57929974414479
 30
0.0
 11
12.96553949368218
 21
13.7072684941448
 31
0.0
  0
LINE
  5
53FB
330
18
100
AcDbEntity
  8
0
100
AcDbLine
 10
12.96553949368217
 20
13.57929974414479
 30
0.0
 11
13.0679964920934
 21
13.7072684941448
 31
0.0
  0
ARC
  5
53FC
330
18
100
AcDbEntity
  8
0
100
AcDbCircle
 10
13.01676799288779
 20
13.53828411914479
 30
0.0
 40
0.065625
100
AcDbArc
 50
141.3178125465109
 51
38.68218745348999
  0
ARC
  5
53FD
330
18
100
AcDbEntity
  8
0
100
AcDbCircle
 10
13.01676799288779
 20
14.16828579914482
 30
0.0
 40
0.065625
100
AcDbArc
 50
321.3178125465101
 51
218.68218745349
  0
LINE
  5
53FE
330
18
100
AcDbEntity
  8
0
100
AcDbLine
 10
13.0679964920934
 20
13.99930142414481
 30
0.0
 11
12.96553949368218
 21
14.12727017414482
 31
0.0
  0
LINE
  5
53FF
330
18
100
AcDbEntity
  8
0
100
AcDbLine
 10
12.96553949368217
 20
13.99930142414481
 30
0.0
 11
13.0679964920934
 21
14.12727017414482
 31
0.0
  0
ARC
  5
5400
330
18
100
AcDbEntity
  8
0
100
AcDbCircle
 10
13.01676799288779
 20
13.95828579914481
 30
0.0
 40
0.065625
100
AcDbArc
 50
141.3178125465109
 51
38.68218745348999
  0
TEXT
  5
5401
330
18
100
AcDbEntity
  8
0
100
AcDbText
 10
14.49708504724023
 20
12.52908942534938
 30
0.0
 40
0.084
  1
28AWG
  7
ROMANS
 72
     4
 11
14.70308504724023
 21
12.57108942534938
 31
0.0
100
AcDbText
  0
TEXT
  5
5402
330
18
100
AcDbEntity
  8
0
100
AcDbText
 10
14.49708504724023
 20
12.73909110534941
 30
0.0
 40
0.084
  1
28AWG
  7
ROMANS
 72
     4
 11
14.70308504724023
 21
12.78109110534941
 31
0.0
100
AcDbText
  0
TEXT
  5
5403
330
18
100
AcDbEntity
  8
0
100
AcDbText
 10
14.49708504724023
 20
13.15909110534941
 30
0.0
 40
0.084
  1
28AWG
  7
ROMANS
 72
     4
 11
14.70308504724023
 21
13.20109110534941
 31
0.0
100
AcDbText
  0
TEXT
  5
5404
330
18
100
AcDbEntity
  8
0
100
AcDbText
 10
14.49708504724023
 20
12.9490911053494
 30
0.0
 40
0.084
  1
28AWG
  7
ROMANS
 72
     4
 11
14.70308504724023
 21
12.9910911053494
 31
0.0
100
AcDbText
  0
TEXT
  5
5405
330
18
100
AcDbEntity
  8
0
100
AcDbText
 10
14.49708504724024
 20
13.78909446534941
 30
0.0
 40
0.084
  1
28AWG
  7
ROMANS
 72
     4
 11
14.70308504724024
 21
13.83109446534941
 31
0.0
100
AcDbText
  0
TEXT
  5
5406
330
18
100
AcDbEntity
  8
0
100
AcDbText
 10
14.49708504724024
 20
13.57909446534941
 30
0.0
 40
0.084
  1
28AWG
  7
ROMANS
 72
     4
 11
14.70308504724024
 21
13.62109446534941
 31
0.0
100
AcDbText
  0
TEXT
  5
5407
330
18
100
AcDbEntity
  8
0
100
AcDbText
 10
14.49708504724023
 20
13.3690911053494
 30
0.0
 40
0.084
  1
28AWG
  7
ROMANS
 72
     4
 11
14.70308504724023
 21
13.4110911053494
 31
0.0
100
AcDbText
  0
TEXT
  5
5408
330
18
100
AcDbEntity
  8
0
100
AcDbText
 10
14.49708504724024
 20
13.99909614534943
 30
0.0
 40
0.084
  1
28AWG
  7
ROMANS
 72
     4
 11
14.70308504724024
 21
14.04109614534943
 31
0.0
100
AcDbText
  0
TEXT
  5
5409
330
18
100
AcDbEntity
  8
0
100
AcDbText
 10
13.39563167809303
 20
14.43153747914484
 30
0.0
 40
0.084
  1
WHITE/ORANGE
  7
ROMANS
 72
     4
 11
13.86363167809303
 21
14.46753747914484
 31
0.0
100
AcDbText
  0
TEXT
  5
540A
330
18
100
AcDbEntity
  8
0
100
AcDbText
 10
13.61563167809303
 20
14.63553747914484
 30
0.0
 40
0.084
  1
ORANGE
  7
ROMANS
 72
     4
 11
13.86363167809303
 21
14.67753747914484
 31
0.0
100
AcDbText
  0
TEXT
  5
540B
330
18
100
AcDbEntity
  8
0
100
AcDbText
 10
13.66563167809303
 20
15.8955374791448
 30
0.0
 40
0.084
  1
BLACK
  7
ROMANS
 72
     4
 11
13.86363167809303
 21
15.9375374791448
 31
0.0
100
AcDbText
  0
TEXT
  5
540C
330
18
100
AcDbEntity
  8
0
100
AcDbText
 10
13.66163167809303
 20
15.0555374791448
 30
0.0
 40
0.084
  1
GREEN
  7
ROMANS
 72
     4
 11
13.86363167809303
 21
15.0975374791448
 31
0.0
100
AcDbText
  0
TEXT
  5
540D
330
18
100
AcDbEntity
  8
0
100
AcDbText
 10
13.44763167809303
 20
15.69153747914481
 30
0.0
 40
0.084
  1
WHITE/BLACK
  7
ROMANS
 72
     4
 11
13.86363167809303
 21
15.72753747914481
 31
0.0
100
AcDbText
  0
TEXT
  5
540E
330
18
100
AcDbEntity
  8
0
100
AcDbText
 10
13.52163167809303
 20
15.27153747914479
 30
0.0
 40
0.084
  1
WHITE/RED
  7
ROMANS
 72
     4
 11
13.86363167809303
 21
15.30753747914479
 31
0.0
100
AcDbText
  0
TEXT
  5
540F
330
18
100
AcDbEntity
  8
0
100
AcDbText
 10
13.44163167809303
 20
14.8515374791448
 30
0.0
 40
0.084
  1
WHITE/GREEN
  7
ROMANS
 72
     4
 11
13.86363167809303
 21
14.8875374791448
 31
0.0
100
AcDbText
  0
ARC
  5
5410
330
18
100
AcDbEntity
  8
0
100
AcDbCircle
 10
13.01676799288779
 20
15.2182874791448
 30
0.0
 40
0.065625
100
AcDbArc
 50
141.3178125465109
 51
38.68218745348999
  0
ARC
  5
5411
330
18
100
AcDbEntity
  8
0
100
AcDbCircle
 10
13.01676799288779
 20
14.7982874791448
 30
0.0
 40
0.065625
100
AcDbArc
 50
141.3178125465109
 51
38.68218745348999
  0
ARC
  5
5412
330
18
100
AcDbEntity
  8
0
100
AcDbCircle
 10
13.01676799288779
 20
14.37828747914483
 30
0.0
 40
0.065625
100
AcDbArc
 50
141.3178125465109
 51
38.68218745348999
  0
ARC
  5
5413
330
18
100
AcDbEntity
  8
0
100
AcDbCircle
 10
13.01676799288779
 20
14.58828747914484
 30
0.0
 40
0.065625
100
AcDbArc
 50
321.3178125465101
 51
218.68218745349
  0
LINE
  5
5414
330
18
100
AcDbEntity
  8
0
100
AcDbLine
 10
13.0679964920934
 20
14.41930310414483
 30
0.0
 11
12.96553949368218
 21
14.54727185414484
 31
0.0
  0
LINE
  5
5415
330
18
100
AcDbEntity
  8
0
100
AcDbLine
 10
12.96553949368217
 20
14.41930310414483
 30
0.0
 11
13.0679964920934
 21
14.54727185414484
 31
0.0
  0
LINE
  5
5416
330
18
100
AcDbEntity
  8
0
100
AcDbLine
 10
13.0679964920934
 20
14.8393031041448
 30
0.0
 11
12.96553949368218
 21
14.96727185414481
 31
0.0
  0
LINE
  5
5417
330
18
100
AcDbEntity
  8
0
100
AcDbLine
 10
12.96553949368217
 20
14.8393031041448
 30
0.0
 11
13.0679964920934
 21
14.96727185414481
 31
0.0
  0
ARC
  5
5418
330
18
100
AcDbEntity
  8
0
100
AcDbCircle
 10
13.01676799288779
 20
15.00828747914481
 30
0.0
 40
0.065625
100
AcDbArc
 50
321.3178125465101
 51
218.68218745349
  0
LINE
  5
5419
330
18
100
AcDbEntity
  8
0
100
AcDbLine
 10
13.06799649209338
 20
15.67930310414481
 30
0.0
 11
12.96553949368217
 21
15.8072718541448
 31
0.0
  0
LINE
  5
541A
330
18
100
AcDbEntity
  8
0
100
AcDbLine
 10
12.96553949368217
 20
15.67930310414481
 30
0.0
 11
13.06799649209338
 21
15.8072718541448
 31
0.0
  0
ARC
  5
541B
330
18
100
AcDbEntity
  8
0
100
AcDbCircle
 10
13.01676799288778
 20
15.63828747914481
 30
0.0
 40
0.065625
100
AcDbArc
 50
141.3178125465109
 51
38.68218745348999
  0
LINE
  5
541C
330
18
100
AcDbEntity
  8
0
100
AcDbLine
 10
12.96553949368217
 20
15.25930310414481
 30
0.0
 11
13.0679964920934
 21
15.3872718541448
 31
0.0
  0
LINE
  5
541D
330
18
100
AcDbEntity
  8
0
100
AcDbLine
 10
13.0679964920934
 20
15.25930310414481
 30
0.0
 11
12.96553949368218
 21
15.3872718541448
 31
0.0
  0
ARC
  5
541E
330
18
100
AcDbEntity
  8
0
100
AcDbCircle
 10
13.01676799288779
 20
15.4282874791448
 30
0.0
 40
0.065625
100
AcDbArc
 50
321.3178125465103
 51
218.68218745349
  0
ARC
  5
541F
330
18
100
AcDbEntity
  8
0
100
AcDbCircle
 10
13.01676799288778
 20
15.8482874791448
 30
0.0
 40
0.065625
100
AcDbArc
 50
321.3178125465103
 51
218.68218745349
  0
TEXT
  5
5420
330
18
100
AcDbEntity
  8
0
100
AcDbText
 10
13.73963167809303
 20
15.47553747914481
 30
0.0
 40
0.084
  1
RED
  7
ROMANS
 72
     4
 11
13.86363167809303
 21
15.51753747914481
 31
0.0
100
AcDbText
  0
TEXT
  5
5421
330
18
100
AcDbEntity
  8
0
100
AcDbText
 10
14.49708504724024
 20
14.62909782534945
 30
0.0
 40
0.084
  1
28AWG
  7
ROMANS
 72
     4
 11
14.70308504724024
 21
14.67109782534945
 31
0.0
100
AcDbText
  0
TEXT
  5
5422
330
18
100
AcDbEntity
  8
0
100
AcDbText
 10
14.49708504724024
 20
14.41909782534946
 30
0.0
 40
0.084
  1
28AWG
  7
ROMANS
 72
     4
 11
14.70308504724024
 21
14.46109782534946
 31
0.0
100
AcDbText
  0
TEXT
  5
5423
330
18
100
AcDbEntity
  8
0
100
AcDbText
 10
14.49708504724024
 20
14.83909782534942
 30
0.0
 40
0.084
  1
28AWG
  7
ROMANS
 72
     4
 11
14.70308504724024
 21
14.88109782534942
 31
0.0
100
AcDbText
  0
TEXT
  5
5424
330
18
100
AcDbEntity
  8
0
100
AcDbText
 10
14.49708504724024
 20
15.04909782534942
 30
0.0
 40
0.084
  1
28AWG
  7
ROMANS
 72
     4
 11
14.70308504724024
 21
15.09109782534942
 31
0.0
100
AcDbText
  0
TEXT
  5
5425
330
18
100
AcDbEntity
  8
0
100
AcDbText
 10
14.49708504724024
 20
15.88909782534942
 30
0.0
 40
0.084
  1
28AWG
  7
ROMANS
 72
     4
 11
14.70308504724024
 21
15.93109782534942
 31
0.0
100
AcDbText
  0
TEXT
  5
5426
330
18
100
AcDbEntity
  8
0
100
AcDbText
 10
14.49708504724024
 20
15.67909782534942
 30
0.0
 40
0.084
  1
28AWG
  7
ROMANS
 72
     4
 11
14.70308504724024
 21
15.72109782534942
 31
0.0
100
AcDbText
  0
TEXT
  5
5427
330
18
100
AcDbEntity
  8
0
100
AcDbText
 10
14.49708504724024
 20
15.25909782534941
 30
0.0
 40
0.084
  1
28AWG
  7
ROMANS
 72
     4
 11
14.70308504724024
 21
15.30109782534941
 31
0.0
100
AcDbText
  0
TEXT
  5
5428
330
18
100
AcDbEntity
  8
0
100
AcDbText
 10
14.49708504724024
 20
15.46909782534942
 30
0.0
 40
0.084
  1
28AWG
  7
ROMANS
 72
     4
 11
14.70308504724024
 21
15.51109782534942
 31
0.0
100
AcDbText
  0
TEXT
  5
5429
330
18
100
AcDbEntity
  8
0
100
AcDbText
 10
15.93162445974469
 20
12.3190927853494
 30
0.0
 40
0.084
  1
IN4
  7
ROMANS
 11
15.93162445974469
 21
12.3610927853494
 31
0.0
100
AcDbText
 73
     2
  0
LINE
  5
542A
330
18
100
AcDbEntity
  8
0
  6
HIDDEN
100
AcDbLine
 10
15.43176799288779
 20
10.38827739914474
 30
0.0
 11
15.43176799288779
 21
15.8482874791448
 31
0.0
  0
LINE
  5
542B
330
18
100
AcDbEntity
  8
0
  6
HIDDEN
100
AcDbLine
 10
15.64176799288778
 20
10.38827739914474
 30
0.0
 11
15.64176799288778
 21
15.8482874791448
 31
0.0
  0
LINE
  5
542C
330
18
100
AcDbEntity
  8
0
  6
HIDDEN
100
AcDbLine
 10
15.69426799288778
 20
10.38827739914474
 30
0.0
 11
15.69426799288778
 21
15.8482874791448
 31
0.0
  0
LINE
  5
542D
330
18
100
AcDbEntity
  8
0
  6
HIDDEN
100
AcDbLine
 10
15.37926799288778
 20
10.38827739914474
 30
0.0
 11
15.37926799288778
 21
15.8482874791448
 31
0.0
  0
LINE
  5
542E
330
18
100
AcDbEntity
  8
0
 62
     4
100
AcDbLine
 10
16.77051799288778
 20
10.28328086414475
 30
0.0
 11
16.77051799288778
 21
15.95328747914481
 31
0.0
  0
LINE
  5
542F
330
18
100
AcDbEntity
  8
0
 62
     4
100
AcDbLine
 10
16.45551799288778
 20
10.28328086414475
 30
0.0
 11
16.45551799288778
 21
15.95328747914481
 31
0.0
  0
ARC
  5
5430
330
18
100
AcDbEntity
  8
0
  6
HIDDEN
100
AcDbCircle
 10
15.53676799288777
 20
10.38827571914476
 30
0.0
 40
0.1574999999999996
100
AcDbArc
 50
180.0
 51
0.0
  0
ARC
  5
5431
330
18
100
AcDbEntity
  8
0
  6
HIDDEN
100
AcDbCircle
 10
15.53676799288777
 20
10.38827571914475
 30
0.0
 40
0.1049999999999997
100
AcDbArc
 50
180.0
 51
0.0
  0
LWPOLYLINE
  5
5432
330
18
100
AcDbEntity
  8
0
100
AcDbPolyline
 90
        2
 70
     1
 43
0.021
 10
15.68376799288777
 20
10.38827571914476
 42
1.0
 10
15.70476799288777
 20
10.38827571914476
 42
1.0
  0
LWPOLYLINE
  5
5433
330
18
100
AcDbEntity
  8
0
100
AcDbPolyline
 90
        2
 70
     1
 43
0.021
 10
15.63126799288777
 20
10.38827571914476
 42
1.0
 10
15.65226799288776
 20
10.38827571914476
 42
1.0
  0
LINE
  5
5434
330
18
100
AcDbEntity
  8
0
 62
     4
100
AcDbLine
 10
16.45551799288777
 20
10.28327918414477
 30
0.0
 11
16.77051799288777
 21
10.28327918414477
 31
0.0
  0
LWPOLYLINE
  5
5435
330
18
100
AcDbEntity
  8
0
100
AcDbPolyline
 90
        2
 70
     1
 43
0.021
 10
16.46601799288777
 20
10.38827571914476
 42
-1.0
 10
16.44501799288778
 20
10.38827571914476
 42
-1.0
  0
TEXT
  5
5436
330
18
100
AcDbEntity
  8
0
100
AcDbText
 10
15.93162445974467
 20
10.84909446534943
 30
0.0
 40
0.084
  1
+24V
  7
ROMANS
 11
15.93162445974467
 21
10.89109446534943
 31
0.0
100
AcDbText
 73
     2
  0
TEXT
  5
5437
330
18
100
AcDbEntity
  8
0
100
AcDbText
 10
15.93162445974468
 20
10.63909950534948
 30
0.0
 40
0.084
  1
24COM
  7
ROMANS
 11
15.93162445974468
 21
10.68109950534948
 31
0.0
100
AcDbText
 73
     2
  0
TEXT
  5
5438
330
18
100
AcDbEntity
  8
0
100
AcDbText
 10
15.93162445974469
 20
11.26908774534933
 30
0.0
 40
0.084
  1
OUT3
  7
ROMANS
 11
15.93162445974469
 21
11.31108774534933
 31
0.0
100
AcDbText
 73
     2
  0
TEXT
  5
5439
330
18
100
AcDbEntity
  8
0
100
AcDbText
 10
15.93162445974469
 20
11.05908774534933
 30
0.0
 40
0.084
  1
OUT4
  7
ROMANS
 11
15.93162445974469
 21
11.10108774534933
 31
0.0
100
AcDbText
 73
     2
  0
TEXT
  5
543A
330
18
100
AcDbEntity
  8
0
100
AcDbText
 10
15.93162445974469
 20
11.68908942534936
 30
0.0
 40
0.084
  1
OUT1
  7
ROMANS
 11
15.93162445974469
 21
11.73108942534936
 31
0.0
100
AcDbText
 73
     2
  0
TEXT
  5
543B
330
18
100
AcDbEntity
  8
0
100
AcDbText
 10
15.93162445974469
 20
11.47908942534935
 30
0.0
 40
0.084
  1
OUT2
  7
ROMANS
 11
15.93162445974469
 21
11.52108942534935
 31
0.0
100
AcDbText
 73
     2
  0
TEXT
  5
543C
330
18
100
AcDbEntity
  8
0
100
AcDbText
 10
15.93162445974469
 20
12.10909110534938
 30
0.0
 40
0.084
  1
IN5
  7
ROMANS
 11
15.93162445974469
 21
12.15109110534938
 31
0.0
100
AcDbText
 73
     2
  0
TEXT
  5
543D
330
18
100
AcDbEntity
  8
0
100
AcDbText
 10
15.93162445974469
 20
11.89909110534937
 30
0.0
 40
0.084
  1
IN6
  7
ROMANS
 11
15.93162445974469
 21
11.94109110534937
 31
0.0
100
AcDbText
 73
     2
  0
TEXT
  5
543E
330
18
100
AcDbEntity
  8
0
100
AcDbText
 10
16.50551793913777
 20
10.76760570760768
 30
0.0
 40
0.1050000525
  1
10
  7
ROMANS
 72
     1
 11
16.61301799288777
 21
10.82010573385768
 31
0.0
100
AcDbText
 73
     2
  0
TEXT
  5
543F
330
18
100
AcDbEntity
  8
0
100
AcDbText
 10
16.50551793913777
 20
10.55761074760773
 30
0.0
 40
0.1050000525
  1
16
  7
ROMANS
 72
     1
 11
16.61301799288777
 21
10.61011077385773
 31
0.0
100
AcDbText
 73
     2
  0
TEXT
  5
5440
330
18
100
AcDbEntity
  8
0
100
AcDbText
 10
16.51301794288777
 20
11.18759898760758
 30
0.0
 40
0.1050000525
  1
25
  7
ROMANS
 72
     1
 11
16.61301799288777
 21
11.24009901385758
 31
0.0
100
AcDbText
 73
     2
  0
TEXT
  5
5441
330
18
100
AcDbEntity
  8
0
100
AcDbText
 10
16.51301794288777
 20
10.97759898760757
 30
0.0
 40
0.1050000525
  1
26
  7
ROMANS
 72
     1
 11
16.61301799288777
 21
11.03009901385757
 31
0.0
100
AcDbText
 73
     2
  0
TEXT
  5
5442
330
18
100
AcDbEntity
  8
0
100
AcDbText
 10
16.51301794288777
 20
11.81760234760761
 30
0.0
 40
0.1050000525
  1
22
  7
ROMANS
 72
     1
 11
16.61301799288777
 21
11.87010237385761
 31
0.0
100
AcDbText
 73
     2
  0
TEXT
  5
5443
330
18
100
AcDbEntity
  8
0
100
AcDbText
 10
16.51301794288777
 20
11.6076006676076
 30
0.0
 40
0.1050000525
  1
23
  7
ROMANS
 72
     1
 11
16.61301799288777
 21
11.6601006938576
 31
0.0
100
AcDbText
 73
     2
  0
TEXT
  5
5444
330
18
100
AcDbEntity
  8
0
100
AcDbText
 10
16.51051794163777
 20
11.39760066760759
 30
0.0
 40
0.1050000525
  1
24
  7
ROMANS
 72
     1
 11
16.61301799288777
 21
11.45010069385759
 31
0.0
100
AcDbText
 73
     2
  0
TEXT
  5
5445
330
18
100
AcDbEntity
  8
0
100
AcDbText
 10
16.52801795038777
 20
12.02760234760762
 30
0.0
 40
0.1050000525
  1
21
  7
ROMANS
 72
     1
 11
16.61301799288777
 21
12.08010237385762
 31
0.0
100
AcDbText
 73
     2
  0
TEXT
  5
5446
330
18
100
AcDbEntity
  8
0
100
AcDbText
 10
16.51301794288777
 20
12.23760402760763
 30
0.0
 40
0.1050000525
  1
20
  7
ROMANS
 72
     1
 11
16.61301799288777
 21
12.29010405385763
 31
0.0
100
AcDbText
 73
     2
  0
MTEXT
  5
5447
330
18
100
AcDbEntity
  8
0
100
AcDbMText
 10
16.41923505264822
 20
16.48512774308034
 30
0.0
 40
0.125
 41
1.0602
 71
     1
 72
     5
  1
MMC-SD\PI/O
 73
     1
 44
1.0
  0
TEXT
  5
5448
330
18
100
AcDbEntity
  8
0
100
AcDbText
 10
15.9316244597447
 20
14.20909614534943
 30
0.0
 40
0.084
  1
FAST1+
  7
ROMANS
 11
15.9316244597447
 21
14.25109614534943
 31
0.0
100
AcDbText
 73
     2
  0
TEXT
  5
5449
330
18
100
AcDbEntity
  8
0
100
AcDbText
 10
15.9316244597447
 20
13.7890944653494
 30
0.0
 40
0.084
  1
FAST2+
  7
ROMANS
 11
15.9316244597447
 21
13.8310944653494
 31
0.0
100
AcDbText
 73
     2
  0
TEXT
  5
544A
330
18
100
AcDbEntity
  8
0
100
AcDbText
 10
15.9316244597447
 20
13.57909278534942
 30
0.0
 40
0.084
  1
FAST2-
  7
ROMANS
 11
15.9316244597447
 21
13.62109278534942
 31
0.0
100
AcDbText
 73
     2
  0
TEXT
  5
544B
330
18
100
AcDbEntity
  8
0
100
AcDbText
 10
15.9316244597447
 20
13.99909446534944
 30
0.0
 40
0.084
  1
FAST1-
  7
ROMANS
 11
15.9316244597447
 21
14.04109446534944
 31
0.0
100
AcDbText
 73
     2
  0
TEXT
  5
544C
330
18
100
AcDbEntity
  8
0
100
AcDbText
 10
15.93162445974469
 20
12.5290927853494
 30
0.0
 40
0.084
  1
IN3
  7
ROMANS
 11
15.93162445974469
 21
12.5710927853494
 31
0.0
100
AcDbText
 73
     2
  0
TEXT
  5
544D
330
18
100
AcDbEntity
  8
0
100
AcDbText
 10
15.93162445974469
 20
12.73909446534942
 30
0.0
 40
0.084
  1
IN2
  7
ROMANS
 11
15.93162445974469
 21
12.78109446534942
 31
0.0
100
AcDbText
 73
     2
  0
TEXT
  5
544E
330
18
100
AcDbEntity
  8
0
100
AcDbText
 10
15.93162445974469
 20
12.94909446534942
 30
0.0
 40
0.084
  1
IN1
  7
ROMANS
 11
15.93162445974469
 21
12.99109446534942
 31
0.0
100
AcDbText
 73
     2
  0
TEXT
  5
544F
330
18
100
AcDbEntity
  8
0
100
AcDbText
 10
15.93162445974469
 20
13.15909535784944
 30
0.0
 40
0.084
  1
CMD-
  7
ROMANS
 11
15.93162445974469
 21
13.20109535784944
 31
0.0
100
AcDbText
 73
     2
  0
TEXT
  5
5450
330
18
100
AcDbEntity
  8
0
100
AcDbText
 10
15.93162445974469
 20
13.36909278534943
 30
0.0
 40
0.084
  1
CMD+
  7
ROMANS
 11
15.93162445974469
 21
13.41109278534943
 31
0.0
100
AcDbText
 73
     2
  0
TEXT
  5
5451
330
18
100
AcDbEntity
  8
0
100
AcDbText
 10
16.50301793788777
 20
13.28760581260766
 30
0.0
 40
0.1050000525
  1
14
  7
ROMANS
 72
     1
 11
16.61301799288777
 21
13.34010583885766
 31
0.0
100
AcDbText
 73
     2
  0
TEXT
  5
5452
330
18
100
AcDbEntity
  8
0
100
AcDbText
 10
16.50801794038777
 20
12.44760402760765
 30
0.0
 40
0.1050000525
  1
19
  7
ROMANS
 72
     1
 11
16.61301799288777
 21
12.50010405385765
 31
0.0
100
AcDbText
 73
     2
  0
TEXT
  5
5453
330
18
100
AcDbEntity
  8
0
100
AcDbText
 10
16.50551793913777
 20
12.65760570760765
 30
0.0
 40
0.1050000525
  1
18
  7
ROMANS
 72
     1
 11
16.61301799288777
 21
12.71010573385765
 31
0.0
100
AcDbText
 73
     2
  0
TEXT
  5
5454
330
18
100
AcDbEntity
  8
0
100
AcDbText
 10
16.50551793913777
 20
12.86760570760767
 30
0.0
 40
0.1050000525
  1
17
  7
ROMANS
 72
     1
 11
16.61301799288777
 21
12.92010573385767
 31
0.0
100
AcDbText
 73
     2
  0
TEXT
  5
5455
330
18
100
AcDbEntity
  8
0
100
AcDbText
 10
16.50551793913777
 20
13.07760660010768
 30
0.0
 40
0.1050000525
  1
15
  7
ROMANS
 72
     1
 11
16.61301799288777
 21
13.13010662635768
 31
0.0
100
AcDbText
 73
     2
  0
TEXT
  5
5456
330
18
100
AcDbEntity
  8
0
100
AcDbText
 10
16.52051794663778
 20
13.70760917260766
 30
0.0
 40
0.1050000525
  1
11
  7
ROMANS
 72
     1
 11
16.61301799288778
 21
13.76010919885766
 31
0.0
100
AcDbText
 73
     2
  0
TEXT
  5
5457
330
18
100
AcDbEntity
  8
0
100
AcDbText
 10
16.50551793913778
 20
13.49760996010769
 30
0.0
 40
0.1050000525
  1
12
  7
ROMANS
 72
     1
 11
16.61301799288778
 21
13.55010998635769
 31
0.0
100
AcDbText
 73
     2
  0
TEXT
  5
5458
330
18
100
AcDbEntity
  8
0
100
AcDbText
 10
16.56551796913778
 20
13.91761074760769
 30
0.0
 40
0.1050000525
  1
9
  7
ROMANS
 72
     1
 11
16.61301799288778
 21
13.97011077385769
 31
0.0
100
AcDbText
 73
     2
  0
TEXT
  5
5459
330
18
100
AcDbEntity
  8
0
100
AcDbText
 10
16.56301796788778
 20
14.12761074760769
 30
0.0
 40
0.1050000525
  1
8
  7
ROMANS
 72
     1
 11
16.61301799288778
 21
14.18011077385769
 31
0.0
100
AcDbText
 73
     2
  0
TEXT
  5
545A
330
18
100
AcDbEntity
  8
0
100
AcDbText
 10
15.9316244597447
 20
15.25909782534943
 30
0.0
 40
0.084
  1
B/
  7
ROMANS
 11
15.9316244597447
 21
15.30109782534943
 31
0.0
100
AcDbText
 73
     2
  0
TEXT
  5
545B
330
18
100
AcDbEntity
  8
0
100
AcDbText
 10
15.9316244597447
 20
14.62909782534945
 30
0.0
 40
0.084
  1
SHIELD
  7
ROMANS
 11
15.9316244597447
 21
14.67109782534945
 31
0.0
100
AcDbText
 73
     2
  0
TEXT
  5
545C
330
18
100
AcDbEntity
  8
0
100
AcDbText
 10
15.9316244597447
 20
14.41909614534946
 30
0.0
 40
0.084
  1
SHIELD
  7
ROMANS
 11
15.9316244597447
 21
14.46109614534946
 31
0.0
100
AcDbText
 73
     2
  0
TEXT
  5
545D
330
18
100
AcDbEntity
  8
0
100
AcDbText
 10
15.9316244597447
 20
14.83909782534943
 30
0.0
 40
0.084
  1
I/
  7
ROMANS
 11
15.9316244597447
 21
14.88109782534943
 31
0.0
100
AcDbText
 73
     2
  0
TEXT
  5
545E
330
18
100
AcDbEntity
  8
0
100
AcDbText
 10
15.9316244597447
 20
15.04909782534942
 30
0.0
 40
0.084
  1
I
  7
ROMANS
 11
15.9316244597447
 21
15.09109782534942
 31
0.0
100
AcDbText
 73
     2
  0
ARC
  5
545F
330
18
100
AcDbEntity
  8
0
  6
HIDDEN
100
AcDbCircle
 10
15.53676799288778
 20
15.8482874791448
 30
0.0
 40
0.1574999999999996
100
AcDbArc
 50
0.0
 51
180.0
  0
ARC
  5
5460
330
18
100
AcDbEntity
  8
0
  6
HIDDEN
100
AcDbCircle
 10
15.53676799288778
 20
15.8482874791448
 30
0.0
 40
0.1049999999999997
100
AcDbArc
 50
0.0
 51
180.0
  0
TEXT
  5
5461
330
18
100
AcDbEntity
  8
0
100
AcDbText
 10
15.9316244597447
 20
15.67909782534941
 30
0.0
 40
0.084
  1
A/
  7
ROMANS
 11
15.9316244597447
 21
15.72109782534941
 31
0.0
100
AcDbText
 73
     2
  0
TEXT
  5
5462
330
18
100
AcDbEntity
  8
0
100
AcDbText
 10
15.9316244597447
 20
15.46909782534942
 30
0.0
 40
0.084
  1
B
  7
ROMANS
 11
15.9316244597447
 21
15.51109782534942
 31
0.0
100
AcDbText
 73
     2
  0
TEXT
  5
5463
330
18
100
AcDbEntity
  8
0
100
AcDbText
 10
15.9316244597447
 20
15.88909782534942
 30
0.0
 40
0.084
  1
A
  7
ROMANS
 11
15.9316244597447
 21
15.93109782534942
 31
0.0
100
AcDbText
 73
     2
  0
TEXT
  5
5464
330
18
100
AcDbEntity
  8
0
100
AcDbText
 10
16.56051796663778
 20
15.17761263760768
 30
0.0
 40
0.1050000525
  1
4
  7
ROMANS
 72
     1
 11
16.61301799288778
 21
15.23011266385768
 31
0.0
100
AcDbText
 73
     2
  0
TEXT
  5
5465
330
18
100
AcDbEntity
  8
0
100
AcDbText
 10
16.50551793913778
 20
14.33761332010774
 30
0.0
 40
0.1050000525
  1
13
  7
ROMANS
 72
     1
 11
16.61301799288778
 21
14.39011334635774
 31
0.0
100
AcDbText
 73
     2
  0
TEXT
  5
5466
330
18
100
AcDbEntity
  8
0
100
AcDbText
 10
16.56301796788778
 20
14.54761242760767
 30
0.0
 40
0.1050000525
  1
7
  7
ROMANS
 72
     1
 11
16.61301799288778
 21
14.60011245385767
 31
0.0
100
AcDbText
 73
     2
  0
TEXT
  5
5467
330
18
100
AcDbEntity
  8
0
100
AcDbText
 10
16.56051796663778
 20
14.75761242760767
 30
0.0
 40
0.1050000525
  1
6
  7
ROMANS
 72
     1
 11
16.61301799288778
 21
14.81011245385767
 31
0.0
100
AcDbText
 73
     2
  0
TEXT
  5
5468
330
18
100
AcDbEntity
  8
0
100
AcDbText
 10
16.56301796788778
 20
14.96761253260768
 30
0.0
 40
0.1050000525
  1
5
  7
ROMANS
 72
     1
 11
16.61301799288778
 21
15.02011255885768
 31
0.0
100
AcDbText
 73
     2
  0
TEXT
  5
5469
330
18
100
AcDbEntity
  8
0
100
AcDbText
 10
16.56301796788778
 20
15.59761295260768
 30
0.0
 40
0.1050000525
  1
2
  7
ROMANS
 72
     1
 11
16.61301799288778
 21
15.65011297885768
 31
0.0
100
AcDbText
 73
     2
  0
TEXT
  5
546A
330
18
100
AcDbEntity
  8
0
100
AcDbText
 10
16.56301796788778
 20
15.38761274260769
 30
0.0
 40
0.1050000525
  1
3
  7
ROMANS
 72
     1
 11
16.61301799288778
 21
15.44011276885769
 31
0.0
100
AcDbText
 73
     2
  0
LINE
  5
546B
330
18
100
AcDbEntity
  8
0
 62
     4
100
AcDbLine
 10
16.45551799288778
 20
15.95328747914481
 30
0.0
 11
16.77051799288778
 21
15.95328747914481
 31
0.0
  0
TEXT
  5
546C
330
18
100
AcDbEntity
  8
0
100
AcDbText
 10
16.57051797163778
 20
15.80761295260769
 30
0.0
 40
0.1050000525
  1
1
  7
ROMANS
 72
     1
 11
16.61301799288778
 21
15.86011297885769
 31
0.0
100
AcDbText
 73
     2
  0
LINE
  5
54F5
330
18
100
AcDbEntity
  8
1
 62
     4
100
AcDbLine
 10
18.1293319136635
 20
22.43272366628124
 30
0.0
 11
20.00533191366349
 21
22.43272366628124
 31
0.0
  0
LINE
  5
54F6
330
18
100
AcDbEntity
  8
1
 62
     4
100
AcDbLine
 10
20.00533191366349
 20
22.80772366628124
 30
0.0
 11
18.1293319136635
 21
22.80772366628124
 31
0.0
  0
LINE
  5
54F7
330
18
100
AcDbEntity
  8
1
 62
     4
100
AcDbLine
 10
18.1293319136635
 20
22.20772366628123
 30
0.0
 11
20.00533191366349
 21
22.20772366628124
 31
0.0
  0
TEXT
  5
54F8
330
18
100
AcDbEntity
  8
1
 62
     7
100
AcDbText
 10
18.21755512794921
 20
22.27679192858429
 30
0.0
 40
0.09375
  1
UP TO 2.99M = +4", -0"
 41
0.9
  7
SIMPLEX
 72
     4
 11
19.06733191366349
 21
22.3236669285843
 31
0.0
100
AcDbText
  0
TEXT
  5
54F9
330
18
100
AcDbEntity
  8
1
 62
     7
100
AcDbText
 10
18.21554619937778
 20
21.37679192858429
 30
0.0
 40
0.09375
  1
M30 AND OVER = +24", -0"
 41
0.8
  7
SIMPLEX
 72
     4
 11
19.06733191366349
 21
21.4236669285843
 31
0.0
100
AcDbText
  0
TEXT
  5
54FA
330
18
100
AcDbEntity
  8
1
 62
     7
100
AcDbText
 10
18.21733191366349
 20
21.60179192858429
 30
0.0
 40
0.09375
  1
M15 TO 29.99M = +18", -0"
 41
0.8
  7
SIMPLEX
 72
     4
 11
19.06733191366349
 21
21.64866692858429
 31
0.0
100
AcDbText
  0
TEXT
  5
54FB
330
18
100
AcDbEntity
  8
1
 62
     7
100
AcDbText
 10
18.20215334223492
 20
21.82679192858429
 30
0.0
 40
0.09375
  1
M9 TO 14.99M = +12", -0"
 41
0.85
  7
SIMPLEX
 72
     4
 11
19.06733191366349
 21
21.87366692858429
 31
0.0
100
AcDbText
  0
TEXT
  5
54FC
330
18
100
AcDbEntity
  8
1
 62
     7
100
AcDbText
 10
18.21554619937778
 20
22.05179192858429
 30
0.0
 40
0.09375
  1
3M TO 8.99M = +6", -0"
 41
0.9
  7
SIMPLEX
 72
     4
 11
19.06733191366349
 21
22.09866692858429
 31
0.0
100
AcDbText
  0
LINE
  5
54FD
330
18
100
AcDbEntity
  8
1
 62
     4
100
AcDbLine
 10
18.1293319136635
 20
21.30772366628124
 30
0.0
 11
20.00533191366349
 21
21.30772366628124
 31
0.0
  0
LINE
  5
54FE
330
18
100
AcDbEntity
  8
1
 62
     4
100
AcDbLine
 10
18.1293319136635
 20
21.53272366628124
 30
0.0
 11
20.00533191366349
 21
21.53272366628124
 31
0.0
  0
LINE
  5
54FF
330
18
100
AcDbEntity
  8
1
 62
     4
100
AcDbLine
 10
18.1293319136635
 20
21.75772366628124
 30
0.0
 11
20.00533191366349
 21
21.75772366628124
 31
0.0
  0
LINE
  5
5500
330
18
100
AcDbEntity
  8
1
 62
     4
100
AcDbLine
 10
18.1293319136635
 20
21.98272366628124
 30
0.0
 11
20.00533191366349
 21
21.98272366628124
 31
0.0
  0
LEADER
  5
5501
330
18
100
AcDbEntity
  8
0
100
AcDbLeader
  3
STANDARD
 73
     0
 40
0.1488095238095238
 41
1.839285714285713
 76
     3
 10
16.76735748854084
 20
20.14203087462665
 30
0.0
 10
17.07720944936105
 20
20.51008996327931
 30
0.0
 10
17.4903454336052
 20
20.51008996327931
 30
0.0
340
5502
213
0.0
223
-0.0625
233
0.0
1001
ACAD
1000
DSTYLE
1002
{
1070
   147
1040
0.09
1070
    77
1070
     0
1002
}
  0
MTEXT
  5
5502
102
{ACAD_REACTORS
330
5501
102
}
330
18
100
AcDbEntity
  8
0
100
AcDbMText
 10
17.5803454336052
 20
20.57258996327931
 30
0.0
 40
0.125
 41
0.0
 71
     1
 72
     1
  1
LABEL, SEE NOTE 1
 73
     1
 44
1.0
  0
TEXT
  5
5503
330
18
100
AcDbEntity
  8
1
 62
     2
100
AcDbText
 10
16.81356016947
 20
21.85275915284752
 30
0.0
 40
0.156
  1
L(meters)
  7
SIMPLEX
 72
     1
 11
17.36327445518429
 21
21.93075915284752
 31
0.0
100
AcDbText
 73
     2
  0
LINE
  5
5504
330
18
100
AcDbEntity
  8
1
 62
     4
100
AcDbLine
 10
18.1293319136635
 20
22.80772366628124
 30
0.0
 11
18.1293319136635
 21
21.30772366628124
 31
0.0
  0
TEXT
  5
5505
330
18
100
AcDbEntity
  8
1
 62
     2
100
AcDbText
 10
18.54649858033016
 20
22.52522366628124
 30
0.0
 40
0.125
  1
TOLERANCE
  7
SIMPLEX
 72
     1
 11
19.06733191366349
 21
22.58772366628124
 31
0.0
100
AcDbText
 73
     2
  0
LINE
  5
5506
330
18
100
AcDbEntity
  8
1
 62
     4
100
AcDbLine
 10
20.00533191366349
 20
21.30772366628124
 30
0.0
 11
20.00533191366349
 21
22.80772366628124
 31
0.0
  0
LINE
  5
5547
330
18
100
AcDbEntity
  8
0
 62
     4
100
AcDbLine
 10
29.59177621629917
 20
12.67749072695783
 30
0.0
 11
21.30899158204758
 21
12.67749072695783
 31
0.0
  0
LINE
  5
5548
330
18
100
AcDbEntity
  8
0
 62
     4
100
AcDbLine
 10
29.59177621629917
 20
11.42749072695785
 30
0.0
 11
21.30899158204758
 21
11.42749072695784
 31
0.0
  0
LINE
  5
5549
330
18
100
AcDbEntity
  8
0
 62
     4
100
AcDbLine
 10
29.59177621629917
 20
11.67749072695785
 30
0.0
 11
21.30899158204758
 21
11.67749072695784
 31
0.0
  0
LINE
  5
554A
330
18
100
AcDbEntity
  8
0
 62
     4
100
AcDbLine
 10
29.59177621629917
 20
11.92749072695784
 30
0.0
 11
21.30899158204758
 21
11.92749072695784
 31
0.0
  0
LINE
  5
554B
330
18
100
AcDbEntity
  8
0
 62
     4
100
AcDbLine
 10
29.59177621629917
 20
12.17749072695784
 30
0.0
 11
21.30899158204758
 21
12.17749072695784
 31
0.0
  0
LINE
  5
554C
330
18
100
AcDbEntity
  8
0
 62
     4
100
AcDbLine
 10
29.59177621629917
 20
11.17749072695785
 30
0.0
 11
21.30899158204758
 21
11.17749072695784
 31
0.0
  0
TEXT
  5
554D
330
18
100
AcDbEntity
  8
0
100
AcDbText
 10
21.71093697840785
 20
12.44442600601691
 30
0.0
 40
0.125
  1
REFERENCE
  7
ROMANS
 72
     1
 11
22.24962745459833
 21
12.44442600601691
 31
0.0
100
AcDbText
  0
TEXT
  5
554E
330
18
100
AcDbEntity
  8
0
100
AcDbText
 10
21.72388267124276
 20
11.98983158537095
 30
0.0
 40
0.125
  1
Pxxxxx-M1
  7
ROMANS
 72
     1
 11
22.23281124267133
 21
11.98983158537095
 31
0.0
100
AcDbText
  0
TEXT
  5
554F
330
18
100
AcDbEntity
  8
0
100
AcDbText
 10
21.70900171886181
 20
11.48983158537097
 30
0.0
 40
0.125
  1
Pxxxxx-M9
  7
ROMANS
 72
     1
 11
22.23281124267133
 21
11.48983158537097
 31
0.0
100
AcDbText
  0
TEXT
  5
5550
330
18
100
AcDbEntity
  8
0
100
AcDbText
 10
21.70602552838562
 20
11.73983158537096
 30
0.0
 40
0.125
  1
Pxxxxx-M3
  7
ROMANS
 72
     1
 11
22.23281124267133
 21
11.73983158537096
 31
0.0
100
AcDbText
  0
TEXT
  5
5551
330
18
100
AcDbEntity
  8
0
100
AcDbText
 10
21.57403221650309
 20
12.25190894399522
 30
0.0
 40
0.125
  1
PART NUMBER
  7
ROMANS
 72
     1
 11
22.24962745459833
 21
12.25190894399522
 31
0.0
100
AcDbText
  0
LINE
  5
5552
330
18
100
AcDbEntity
  8
0
 62
     4
100
AcDbLine
 10
21.30899158204758
 20
10.92749072695784
 30
0.0
 11
21.30899158204758
 21
12.67749072695783
 31
0.0
  0
TEXT
  5
5553
330
18
100
AcDbEntity
  8
0
100
AcDbText
 10
23.21970586776187
 20
12.25190894399522
 30
0.0
 40
0.125
  1
(IN METERS)
  7
ROMANS
 72
     1
 11
23.80899158204758
 21
12.25190894399522
 31
0.0
100
AcDbText
  0
LINE
  5
5554
330
18
100
AcDbEntity
  8
0
 62
     4
100
AcDbLine
 10
23.18399158204759
 20
10.92749072695784
 30
0.0
 11
23.18399158204758
 21
12.67749072695783
 31
0.0
  0
LINE
  5
5555
330
18
100
AcDbEntity
  8
0
 62
     4
100
AcDbLine
 10
24.43399158204758
 20
10.92749072695784
 30
0.0
 11
24.43399158204758
 21
12.67749072695783
 31
0.0
  0
TEXT
  5
5556
330
18
100
AcDbEntity
  8
0
100
AcDbText
 10
23.74946777252378
 20
11.73983158537096
 30
0.0
 40
0.125
  1
3
  7
ROMANS
 72
     1
 11
23.80899158204758
 21
11.73983158537096
 31
0.0
100
AcDbText
  0
TEXT
  5
5557
330
18
100
AcDbEntity
  8
0
100
AcDbText
 10
23.75244396299997
 20
11.48983158537096
 30
0.0
 40
0.125
  1
9
  7
ROMANS
 72
     1
 11
23.80899158204758
 21
11.48983158537096
 31
0.0
100
AcDbText
  0
TEXT
  5
5558
330
18
100
AcDbEntity
  8
0
100
AcDbText
 10
23.4607772963333
 20
12.44442600601691
 30
0.0
 40
0.125
  1
LENGTH
  7
ROMANS
 72
     1
 11
23.80899158204758
 21
12.44442600601691
 31
0.0
100
AcDbText
  0
TEXT
  5
5559
330
18
100
AcDbEntity
  8
0
100
AcDbText
 10
23.75839634395235
 20
11.98983158537095
 30
0.0
 40
0.125
  1
1
  7
ROMANS
 72
     1
 11
23.80899158204758
 21
11.98983158537095
 31
0.0
100
AcDbText
  0
TEXT
  5
555A
330
18
100
AcDbEntity
  8
0
100
AcDbText
 10
26.77030110585713
 20
12.44442600601691
 30
0.0
 40
0.125
  1
G&L Motion Control
  7
ROMANS
 72
     1
 11
27.8714915820476
 21
12.44442600601691
 31
0.0
100
AcDbText
  0
TEXT
  5
555B
330
18
100
AcDbEntity
  8
0
100
AcDbText
 10
26.8610832237623
 20
11.98983158537095
 30
0.0
 40
0.125
  1
USER I/O, MMC-SD 1M
 41
0.95
  7
ROMANS
 72
     1
 11
27.95527965233373
 21
11.98983158537095
 31
0.0
100
AcDbText
  0
TEXT
  5
555C
330
18
100
AcDbEntity
  8
0
100
AcDbText
 10
26.91911062966665
 20
12.25190894399522
 30
0.0
 40
0.125
  1
SHORT DESCRIPTION
  7
ROMANS
 72
     1
 11
27.8714915820476
 21
12.25190894399522
 31
0.0
100
AcDbText
  0
TEXT
  5
555D
330
18
100
AcDbEntity
  8
0
100
AcDbText
 10
26.8610832237623
 20
11.73983158537095
 30
0.0
 40
0.125
  1
USER I/O, MMC-SD 3M
 41
0.95
  7
ROMANS
 72
     1
 11
27.95527965233373
 21
11.73983158537095
 31
0.0
100
AcDbText
  0
TEXT
  5
555E
330
18
100
AcDbEntity
  8
0
100
AcDbText
 10
26.8610832237623
 20
11.48983158537093
 30
0.0
 40
0.125
  1
USER I/O, MMC-SD 9M
 41
0.95
  7
ROMANS
 72
     1
 11
27.95527965233373
 21
11.48983158537093
 31
0.0
100
AcDbText
  0
TEXT
  5
555F
330
18
100
AcDbEntity
  8
0
100
AcDbText
 10
24.95184872490473
 20
12.44442600601691
 30
0.0
 40
0.125
  1
G&L Motion Control
  7
ROMANS
 72
     1
 11
25.43399158204759
 21
12.44442600601691
 31
0.0
100
AcDbText
  0
TEXT
  5
5560
330
18
100
AcDbEntity
  8
0
100
AcDbText
 10
24.75839634395235
 20
12.25190894399522
 30
0.0
 40
0.125
  1
PART NUMBER
  7
ROMANS
 72
     1
 11
25.43399158204759
 21
12.25190894399522
 31
0.0
100
AcDbText
  0
TEXT
  5
5561
330
18
100
AcDbEntity
  8
0
100
AcDbText
 10
24.82387253442854
 20
11.98983158537095
 30
0.0
 40
0.125
  1
M.1302.7032
  7
ROMANS
 72
     1
 11
25.43399158204759
 21
11.98983158537095
 31
0.0
100
AcDbText
  0
TEXT
  5
5562
330
18
100
AcDbEntity
  8
0
100
AcDbText
 10
24.82089634395235
 20
11.73983158537096
 30
0.0
 40
0.125
  1
M.1302.7034
  7
ROMANS
 72
     1
 11
25.43399158204759
 21
11.73983158537096
 31
0.0
100
AcDbText
  0
TEXT
  5
5563
330
18
100
AcDbEntity
  8
0
100
AcDbText
 10
24.82387253442854
 20
11.48983158537096
 30
0.0
 40
0.125
  1
M.1302.7035
  7
ROMANS
 72
     1
 11
25.43399158204759
 21
11.48983158537096
 31
0.0
100
AcDbText
  0
LINE
  5
5564
330
18
100
AcDbEntity
  8
0
 62
     4
100
AcDbLine
 10
26.43399158204758
 20
10.92749072695784
 30
0.0
 11
26.43399158204759
 21
12.67749072695783
 31
0.0
  0
LINE
  5
5565
330
18
100
AcDbEntity
  8
0
 62
     4
100
AcDbLine
 10
29.59177621629917
 20
10.92749072695784
 30
0.0
 11
29.59177621629917
 21
12.67749072695783
 31
0.0
  0
MTEXT
  5
5566
330
18
100
AcDbEntity
  8
0
100
AcDbMText
 10
21.3046366928087
 20
15.29181602826456
 30
0.0
 40
0.1
 41
5.652499999999999
 71
     1
 72
     5
  3
SPECIFICATIONS:\P\P1. LABEL CABLE AND CONNECTORS AS SHOWN.\P\P2. INSPECT FOR SHORTS. CONNECTIVITY MUST CONFORM TO WIRING DIAGRAM.\P\P3. PACKAGE PER MD.1000.5034 PACKAGING SPECIFICATION.\P\P4. WIRING DIAGRAM SHOWING PIN ORIENTATION AND COLOR CODE MUST
  1
 BE INCLUDED IN BOX.\P\P5. CHANGES TO THESE SPECIFICATIONS MUST BE APPROVED, IN WRITING, BY THE G&L Motion Control ENGINEERING DEPARTMENT.
 73
     1
 44
1.0
  0
TEXT
  5
5586
330
18
100
AcDbEntity
  8
0
100
AcDbText
 10
21.64650171886181
 20
11.23983158537095
 30
0.0
 40
0.125
  1
Pxxxxx-M15
  7
ROMANS
 72
     1
 11
22.23281124267133
 21
11.23983158537095
 31
0.0
100
AcDbText
  0
TEXT
  5
5587
330
18
100
AcDbEntity
  8
0
100
AcDbText
 10
23.6810153915714
 20
11.23983158537095
 30
0.0
 40
0.125
  1
15
  7
ROMANS
 72
     1
 11
23.80899158204758
 21
11.23983158537095
 31
0.0
100
AcDbText
  0
TEXT
  5
5588
330
18
100
AcDbEntity
  8
0
100
AcDbText
 10
24.82387253442854
 20
11.23983158537095
 30
0.0
 40
0.125
  1
M.1302.7036
  7
ROMANS
 72
     1
 11
25.43399158204759
 21
11.23983158537095
 31
0.0
100
AcDbText
  0
TEXT
  5
5589
330
18
100
AcDbEntity
  8
0
100
AcDbText
 10
26.80453560471469
 20
11.23983158537095
 30
0.0
 40
0.125
  1
USER I/O, MMC-SD 15M
 41
0.95
  7
ROMANS
 72
     1
 11
27.95527965233373
 21
11.23983158537095
 31
0.0
100
AcDbText
  0
TEXT
  5
558D
330
18
100
AcDbEntity
  8
0
100
AcDbText
 10
21.64650171886181
 20
10.98983158537095
 30
0.0
 40
0.125
  1
Pxxxxx-M30
  7
ROMANS
 72
     1
 11
22.23281124267133
 21
10.98983158537095
 31
0.0
100
AcDbText
  0
TEXT
  5
558E
330
18
100
AcDbEntity
  8
0
100
AcDbText
 10
23.68994396299997
 20
10.98983158537095
 30
0.0
 40
0.125
  1
30
  7
ROMANS
 72
     1
 11
23.80899158204758
 21
10.98983158537095
 31
0.0
100
AcDbText
  0
TEXT
  5
558F
330
18
100
AcDbEntity
  8
0
100
AcDbText
 10
24.82387253442854
 20
10.98983158537095
 30
0.0
 40
0.125
  1
M.1302.7037
  7
ROMANS
 72
     1
 11
25.43399158204759
 21
10.98983158537095
 31
0.0
100
AcDbText
  0
TEXT
  5
5590
330
18
100
AcDbEntity
  8
0
100
AcDbText
 10
26.80453560471469
 20
10.98983158537095
 30
0.0
 40
0.125
  1
USER I/O, MMC-SD 30M
 41
0.95
  7
ROMANS
 72
     1
 11
27.95527965233373
 21
10.98983158537095
 31
0.0
100
AcDbText
  0
LINE
  5
5591
330
18
100
AcDbEntity
  8
0
 62
     4
100
AcDbLine
 10
29.59177621629917
 20
10.92749072695785
 30
0.0
 11
21.30899158204758
 21
10.92749072695784
 31
0.0
  0
LWPOLYLINE
  5
56D4
330
18
100
AcDbEntity
  8
500
  6
L10
 62
     2
100
AcDbPolyline
 90
        2
 70
     0
 43
0.0
 10
24.09413970073675
 20
19.71797730865812
 10
23.60648432760828
 20
19.23032272369903
  0
LWPOLYLINE
  5
56D5
330
18
100
AcDbEntity
  8
500
  6
L10
 62
     2
100
AcDbPolyline
 90
        2
 70
     0
 43
0.0
 10
23.69029726246332
 20
18.42830156033367
 10
23.21724326246332
 20
18.90135556033366
  0
LWPOLYLINE
  5
56D6
330
18
100
AcDbEntity
  8
500
  6
L10
 62
     2
100
AcDbPolyline
 90
        2
 70
     0
 43
0.0
 10
23.77833226246332
 20
18.73695456033367
 10
23.57998826246332
 20
18.53861056033366
  0
LWPOLYLINE
  5
56D7
330
18
100
AcDbEntity
  8
500
  6
L10
 62
     2
100
AcDbPolyline
 90
        2
 70
     0
 43
0.0
 10
23.73413726246332
 20
18.69276056033367
 10
23.39366626246332
 20
19.03323156033366
  0
LWPOLYLINE
  5
56D8
330
18
100
AcDbEntity
  8
500
  6
L10
 62
     2
100
AcDbPolyline
 90
        2
 70
     0
 43
0.0
 10
23.87164940035411
 20
18.87676979644474
 10
23.60648440035411
 20
19.14193479644475
  0
LWPOLYLINE
  5
56D9
330
18
100
AcDbEntity
  8
500
  6
L10
 62
     2
100
AcDbPolyline
 90
        2
 70
     0
 43
0.0
 10
23.35440079443874
 20
19.39401840236011
 10
23.93044370073674
 20
19.97006130865812
  0
LWPOLYLINE
  5
56DA
330
18
100
AcDbEntity
  8
500
  6
L10
 62
     2
100
AcDbPolyline
 90
        2
 70
     0
 43
0.0
 10
23.38692779443874
 20
19.36149140236011
 10
23.96297070073674
 20
19.93753430865812
  0
LWPOLYLINE
  5
56DB
330
18
100
AcDbEntity
  8
500
  6
L10
 62
     2
100
AcDbPolyline
 90
        2
 70
     0
 43
0.0
 10
23.42102327408749
 20
19.33053206818664
 10
23.99392970073674
 20
19.90343930865812
  0
LWPOLYLINE
  5
56DC
330
18
100
AcDbEntity
  8
500
  6
L10
 62
     2
100
AcDbPolyline
 90
        2
 70
     0
 43
0.0
 10
23.49617540035411
 20
19.34063179644475
 10
23.98383070073675
 20
19.82828630865812
  0
LWPOLYLINE
  5
56DD
330
18
100
AcDbEntity
  8
500
  6
L10
 62
     2
100
AcDbPolyline
 90
        2
 70
     0
 43
0.0
 10
23.19176629443874
 20
19.55665290236012
 10
23.76780970073674
 20
20.13269630865812
  0
LWPOLYLINE
  5
56DE
330
18
100
AcDbEntity
  8
500
  6
L10
 62
     2
100
AcDbPolyline
 90
        2
 70
     0
 43
0.0
 10
23.22429329443874
 20
19.52412590236011
 10
23.80033670073674
 20
20.10016930865812
  0
LWPOLYLINE
  5
56DF
330
18
100
AcDbEntity
  8
500
  6
L10
 62
     2
100
AcDbPolyline
 90
        2
 70
     0
 43
0.0
 10
23.16080739649646
 20
19.59074800441783
 10
23.73371470073675
 20
20.16365530865812
  0
LWPOLYLINE
  5
56E0
330
18
100
AcDbEntity
  8
500
  6
L10
 62
     2
100
AcDbPolyline
 90
        2
 70
     0
 43
0.0
 10
23.25682029443874
 20
19.49159890236011
 10
23.83286370073674
 20
20.06764230865812
  0
LWPOLYLINE
  5
56E1
330
18
100
AcDbEntity
  8
500
  6
L10
 62
     2
100
AcDbPolyline
 90
        2
 70
     0
 43
0.0
 10
23.32187420176275
 20
19.42654499503611
 10
23.89791670073674
 20
20.00258830865812
  0
LWPOLYLINE
  5
56E2
330
18
100
AcDbEntity
  8
500
  6
L10
 62
     2
100
AcDbPolyline
 90
        2
 70
     0
 43
0.0
 10
23.74694970073675
 20
20.15355530865812
 42
0.4142140000000001
 10
23.65856170073674
 20
20.15355530865812
  0
LEADER
  5
56E3
330
18
100
AcDbEntity
  8
0
100
AcDbLeader
  3
STANDARD
 73
     0
 40
0.125
 41
2.547619047619047
 76
     3
 10
23.39415521843649
 20
20.31203643877038
 30
0.0
 10
24.33165521843649
 20
21.31203643877038
 30
0.0
 10
24.61734089839784
 20
21.31017425392334
 30
0.0
340
56E4
213
0.0
223
-0.0625
233
0.0
1001
ACAD
1000
DSTYLE
1002
{
1070
   147
1040
0.09
1070
    77
1070
     0
1070
    44
1040
0.125
1070
   140
1040
0.125
1002
}
  0
MTEXT
  5
56E4
102
{ACAD_REACTORS
330
56E3
102
}
330
18
100
AcDbEntity
  8
0
100
AcDbMText
 10
24.70734089839784
 20
21.37267425392334
 30
0.0
 40
0.125
 41
0.0
 71
     1
 72
     1
  1
\A1;45%%D PVC BLACK OVERMOLD
 73
     1
 44
1.0
  0
LEADER
  5
56E5
330
18
100
AcDbEntity
  8
0
100
AcDbLeader
  3
STANDARD
 73
     0
 40
0.3333333333333333
 41
1.738095238095237
 76
     3
 10
23.84221210038515
 20
19.0911933468634
 30
0.0
 10
22.96721210038515
 20
18.3724433468634
 30
0.0
 10
22.68596210038515
 20
18.3724433468634
 30
0.0
340
56E6
213
0.0
223
-0.0625
233
0.0
1001
ACAD
1000
DSTYLE
1002
{
1070
   147
1040
0.09
1070
    77
1070
     0
1070
    44
1040
0.125
1070
   140
1040
0.125
1002
}
  0
MTEXT
  5
56E6
102
{ACAD_REACTORS
330
56E5
102
}
330
18
100
AcDbEntity
  8
0
100
AcDbMText
 10
22.59596210038515
 20
18.4349433468634
 30
0.0
 40
0.125
 41
0.0
 71
     3
 72
     1
  1
LABEL CONNECTOR\PAS SHOWN 
 73
     1
 44
1.0
  0
LINE
  5
56E7
330
18
100
AcDbEntity
  8
0
 62
     2
100
AcDbLine
 10
22.69567541212083
 20
20.3064613573783
 30
0.0
 11
23.71307082152023
 21
20.3064613573783
 31
0.0
  0
LWPOLYLINE
  5
56E8
330
18
100
AcDbEntity
  8
500
  6
L10
 62
     2
100
AcDbPolyline
 90
        2
 70
     0
 43
0.0
 10
23.44150377286471
 20
19.61122838078608
 10
23.70187170073675
 20
19.87159630865812
  0
LWPOLYLINE
  5
56E9
330
18
100
AcDbEntity
  8
500
  6
L10
 62
     2
100
AcDbPolyline
 90
        2
 70
     0
 43
0.0
 10
23.37634226246332
 20
19.10429556033366
 10
23.02278826246332
 20
19.45784956033367
  0
LWPOLYLINE
  5
56EA
330
18
100
AcDbEntity
  8
500
  6
L10
 62
     2
100
AcDbPolyline
 90
        2
 70
     0
 43
0.0
 10
23.36219926246332
 20
19.09015356033366
 10
23.00864626246332
 20
19.44370756033367
  0
LWPOLYLINE
  5
56EB
330
18
100
AcDbEntity
  8
500
  6
L10
 62
     2
100
AcDbPolyline
 90
        2
 70
     0
 43
0.0
 10
23.38694826246332
 20
19.11490256033366
 10
23.03339526246332
 20
19.46845556033366
  0
LWPOLYLINE
  5
56EC
330
18
100
AcDbEntity
  8
500
  6
L10
 62
     2
100
AcDbPolyline
 90
        2
 70
     0
 43
0.0
 10
23.45079026246332
 20
19.17874456033366
 10
23.0672709726108
 20
19.56226458053218
  0
LWPOLYLINE
  5
56ED
330
18
100
AcDbEntity
  8
500
  6
L10
 62
     2
100
AcDbPolyline
 90
        2
 70
     0
 43
0.0
 10
23.39755526246332
 20
19.12550856033367
 10
23.04400226246332
 20
19.47906256033367
  0
LWPOLYLINE
  5
56EE
330
18
100
AcDbEntity
  8
500
  6
L10
 62
     2
100
AcDbPolyline
 90
        2
 70
     0
 43
0.0
 10
23.41169726246332
 20
19.13965056033367
 10
23.05875026246333
 20
19.49259756033367
  0
LWPOLYLINE
  5
56EF
330
18
100
AcDbEntity
  8
500
  6
L10
 62
     2
100
AcDbPolyline
 90
        2
 70
     0
 43
0.0
 10
23.40462626246332
 20
19.13257956033367
 10
23.05107326246332
 20
19.48613356033367
  0
LWPOLYLINE
  5
56F0
330
18
100
AcDbEntity
  8
500
  6
L10
 62
     2
100
AcDbPolyline
 90
        2
 70
     0
 43
0.0
 10
23.41876826246332
 20
19.14672156033367
 10
23.07582126246332
 20
19.48966856033367
  0
LWPOLYLINE
  5
56F1
330
18
100
AcDbEntity
  8
500
  6
L10
 62
     2
100
AcDbPolyline
 90
        2
 70
     0
 43
0.0
 10
23.34805726246332
 20
19.07601156033367
 10
22.99450426246332
 20
19.42956456033367
  0
LWPOLYLINE
  5
56F2
330
18
100
AcDbEntity
  8
500
  6
L10
 62
     2
100
AcDbPolyline
 90
        2
 70
     0
 43
0.0
 10
23.33037926246332
 20
19.05833356033367
 10
22.97682626246332
 20
19.41188756033367
  0
LWPOLYLINE
  5
56F3
330
18
100
AcDbEntity
  8
500
  6
L10
 62
     2
100
AcDbPolyline
 90
        2
 70
     0
 43
0.0
 10
23.31270226246332
 20
19.04065656033367
 10
22.95914926246332
 20
19.39420956033367
  0
LWPOLYLINE
  5
56F4
330
18
100
AcDbEntity
  8
500
  6
L10
 62
     2
100
AcDbPolyline
 90
        2
 70
     0
 43
0.0
 10
23.29502426246332
 20
19.02297856033366
 10
22.94147126246332
 20
19.37653156033366
  0
LWPOLYLINE
  5
56F5
330
18
100
AcDbEntity
  8
500
  6
L10
 62
     2
100
AcDbPolyline
 90
        2
 70
     0
 43
0.0
 10
23.31270226246332
 20
19.04065656033367
 10
22.95914926246332
 20
19.39420956033367
  0
LWPOLYLINE
  5
56F6
330
18
100
AcDbEntity
  8
500
  6
L10
 62
     2
100
AcDbPolyline
 90
        2
 70
     0
 43
0.0
 10
23.24906226246332
 20
18.97701656033367
 10
22.89550926246332
 20
19.33056956033367
  0
LWPOLYLINE
  5
56F7
330
18
100
AcDbEntity
  8
500
  6
L10
 62
     2
100
AcDbPolyline
 90
        2
 70
     0
 43
0.0
 10
23.20663626246332
 20
18.93458956033367
 10
22.86369026246332
 20
19.27753656033367
  0
LWPOLYLINE
  5
56F8
330
18
100
AcDbEntity
  8
500
  6
L10
 62
     2
100
AcDbPolyline
 90
        2
 70
     0
 43
0.0
 10
23.23845626246332
 20
18.96640956033366
 10
22.88490326246332
 20
19.31996356033367
  0
LWPOLYLINE
  5
56F9
330
18
100
AcDbEntity
  8
500
  6
L10
 62
     2
100
AcDbPolyline
 90
        2
 70
     0
 43
0.0
 10
23.22784926246332
 20
18.95580256033366
 10
22.87429626246332
 20
19.30935656033367
  0
LWPOLYLINE
  5
56FA
330
18
100
AcDbEntity
  8
500
  6
L10
 62
     2
100
AcDbPolyline
 90
        2
 70
     0
 43
0.0
 10
23.22077826246332
 20
18.94873156033367
 10
22.86722526246332
 20
19.30228556033367
  0
LWPOLYLINE
  5
56FB
330
18
100
AcDbEntity
  8
500
  6
L10
 62
     2
100
AcDbPolyline
 90
        2
 70
     0
 43
0.0
 10
23.21370726246332
 20
18.94166056033366
 10
22.86076026246332
 20
19.29460756033367
  0
LWPOLYLINE
  5
56FC
330
18
100
AcDbEntity
  8
500
  6
L10
 62
     2
100
AcDbPolyline
 90
        2
 70
     0
 43
0.0
 10
23.27734626246332
 20
19.00530056033367
 10
22.92379326246333
 20
19.35885356033367
  0
LWPOLYLINE
  5
56FD
330
18
100
AcDbEntity
  8
500
  6
L10
 62
     2
100
AcDbPolyline
 90
        2
 70
     0
 43
0.0
 10
23.26320426246332
 20
18.99115856033366
 10
22.90965126246332
 20
19.34471156033367
  0
LWPOLYLINE
  5
56FE
330
18
100
AcDbEntity
  8
500
  6
L10
 62
     2
100
AcDbPolyline
 90
        2
 70
     0
 43
0.0
 10
23.60648440035411
 20
19.23032279644474
 42
0.4142149999999999
 10
23.60648440035411
 20
19.14193479644475
  0
LWPOLYLINE
  5
56FF
330
18
100
AcDbEntity
  8
500
  6
L10
 62
     2
100
AcDbPolyline
 90
        2
 70
     0
 43
0.0
 10
23.21724326246332
 20
18.94519656033367
 10
23.45088326246332
 20
19.17883656033367
  0
LWPOLYLINE
  5
5700
330
18
100
AcDbEntity
  8
500
  6
L10
 62
     2
100
AcDbPolyline
 90
        2
 70
     0
 43
0.0
 10
23.21724326246332
 20
18.94519656033367
 42
0.4142170000000001
 10
23.21724326246332
 20
18.90135556033366
  0
LWPOLYLINE
  5
5701
330
18
100
AcDbEntity
  8
500
  6
L10
 62
     2
100
AcDbPolyline
 90
        2
 70
     0
 43
0.0
 10
23.39366626246332
 20
19.12161956033367
 42
0.4142140000000001
 10
23.39366626246332
 20
19.03323156033366
  0
LWPOLYLINE
  5
5702
330
18
100
AcDbEntity
  8
500
  6
L10
 62
     2
100
AcDbPolyline
 90
        2
 70
     0
 43
0.0
 10
22.69567541212083
 20
19.8079023573783
 42
1.0
 10
22.61767541212083
 20
19.8079023573783
  0
LWPOLYLINE
  5
5703
330
18
100
AcDbEntity
  8
500
  6
L10
 62
     2
100
AcDbPolyline
 90
        2
 70
     0
 43
0.0
 10
22.69567541212083
 20
19.7159023573783
 10
22.61767541212083
 20
19.7159023573783
  0
LWPOLYLINE
  5
5704
330
18
100
AcDbEntity
  8
500
  6
L10
 62
     2
100
AcDbPolyline
 90
        2
 70
     0
 43
0.0
 10
22.61767541212083
 20
20.0738983573783
 42
1.0
 10
22.69567541212083
 20
20.0738983573783
  0
LWPOLYLINE
  5
5705
330
18
100
AcDbEntity
  8
500
  6
L10
 62
     2
100
AcDbPolyline
 90
        2
 70
     0
 43
0.0
 10
22.69567541212083
 20
20.1658983573783
 10
22.61767541212083
 20
20.1658983573783
  0
LWPOLYLINE
  5
5706
330
18
100
AcDbEntity
  8
500
  6
L10
 62
     2
100
AcDbPolyline
 90
        2
 70
     0
 43
0.0
 10
22.28967641212083
 20
19.6028473573783
 10
22.28967641212083
 20
20.2789543573783
  0
LWPOLYLINE
  5
5707
330
18
100
AcDbEntity
  8
500
  6
L10
 62
     2
100
AcDbPolyline
 90
        2
 70
     0
 43
0.0
 10
22.44567541212083
 20
19.5753393573783
 10
22.28967641212083
 20
19.6028473573783
  0
LWPOLYLINE
  5
5708
330
18
100
AcDbEntity
  8
500
  6
L10
 62
     2
100
AcDbPolyline
 90
        2
 70
     0
 43
0.0
 10
22.44567541212083
 20
19.5753393573783
 10
22.44567541212083
 20
19.8239033573783
  0
LWPOLYLINE
  5
5709
330
18
100
AcDbEntity
  8
500
  6
L10
 62
     2
100
AcDbPolyline
 90
        2
 70
     0
 43
0.0
 10
22.52367641212083
 20
19.5615863573783
 10
22.52367641212083
 20
19.8239033573783
  0
LWPOLYLINE
  5
570A
330
18
100
AcDbEntity
  8
500
  6
L10
 62
     2
100
AcDbPolyline
 90
        2
 70
     0
 43
0.0
 10
22.61767541212083
 20
19.56170363651035
 10
22.61767541212083
 20
19.8079023573783
  0
LINE
  5
570B
330
18
100
AcDbEntity
  8
0
100
AcDbLine
 10
22.52367641212083
 20
19.5615863573783
 30
0.0
 11
22.61767541212083
 21
19.56170363651035
 31
0.0
  0
LWPOLYLINE
  5
570C
330
18
100
AcDbEntity
  8
500
  6
L10
 62
     2
100
AcDbPolyline
 90
        2
 70
     0
 43
0.0
 10
22.52367641212083
 20
19.8239033573783
 42
1.0
 10
22.44567541212083
 20
19.8239033573783
  0
LWPOLYLINE
  5
570D
330
18
100
AcDbEntity
  8
500
  6
L10
 62
     2
100
AcDbPolyline
 90
        2
 70
     0
 43
0.0
 10
22.52367641212083
 20
19.7159023573783
 10
22.44567541212083
 20
19.7159023573783
  0
LWPOLYLINE
  5
570E
330
18
100
AcDbEntity
  8
500
  6
L10
 62
     2
100
AcDbPolyline
 90
        2
 70
     0
 43
0.0
 10
22.44567541212083
 20
20.3064613573783
 10
22.28967641212083
 20
20.2789543573783
  0
LWPOLYLINE
  5
570F
330
18
100
AcDbEntity
  8
500
  6
L10
 62
     2
100
AcDbPolyline
 90
        2
 70
     0
 43
0.0
 10
22.44567541212083
 20
20.3064613573783
 10
22.44567541212083
 20
20.0578983573783
  0
LWPOLYLINE
  5
5710
330
18
100
AcDbEntity
  8
500
  6
L10
 62
     2
100
AcDbPolyline
 90
        2
 70
     0
 43
0.0
 10
22.61767541212083
 20
20.3064613573783
 10
22.61767541212083
 20
20.0738983573783
  0
LWPOLYLINE
  5
5711
330
18
100
AcDbEntity
  8
500
  6
L10
 62
     2
100
AcDbPolyline
 90
        2
 70
     0
 43
0.0
 10
22.52367641212083
 20
20.3064613573783
 10
22.52367641212083
 20
20.0578983573783
  0
LWPOLYLINE
  5
5712
330
18
100
AcDbEntity
  8
500
  6
L10
 62
     2
100
AcDbPolyline
 90
        2
 70
     0
 43
0.0
 10
22.44567541212083
 20
20.0578983573783
 42
1.0
 10
22.52367641212083
 20
20.0578983573783
  0
LWPOLYLINE
  5
5713
330
18
100
AcDbEntity
  8
500
  6
L10
 62
     2
100
AcDbPolyline
 90
        2
 70
     0
 43
0.0
 10
22.52367641212083
 20
20.1658983573783
 10
22.44567541212083
 20
20.1658983573783
  0
LINE
  5
5714
330
18
100
AcDbEntity
  8
0
100
AcDbLine
 10
22.52367641212083
 20
20.3064613573783
 30
0.0
 11
22.61767541212083
 21
20.3064613573783
 31
0.0
  0
LWPOLYLINE
  5
5715
330
18
100
AcDbEntity
  8
500
  6
L10
 62
     2
100
AcDbPolyline
 90
        2
 70
     0
 43
0.0
 10
23.17090679443874
 20
19.66590040236011
 10
23.65856170073674
 20
20.15355530865812
  0
LWPOLYLINE
  5
5716
330
18
100
AcDbEntity
  8
500
  6
L10
 62
     2
100
AcDbPolyline
 90
        2
 70
     0
 43
0.0
 10
22.85367541212083
 20
20.2831553573783
 10
22.85367541212083
 20
19.5986453573783
  0
LWPOLYLINE
  5
5717
330
18
100
AcDbEntity
  8
500
  6
L10
 62
     2
100
AcDbPolyline
 90
        2
 70
     0
 43
0.0
 10
23.17090740035411
 20
19.66590079644475
 42
0.4142140000000001
 10
23.17090740035411
 20
19.57751179644475
  0
LWPOLYLINE
  5
5718
330
18
100
AcDbEntity
  8
500
  6
L10
 62
     2
100
AcDbPolyline
 90
        2
 70
     0
 43
0.0
 10
22.69567541212083
 20
19.56180095427224
 10
22.69567541212083
 20
19.8079023573783
  0
LWPOLYLINE
  5
5719
330
18
100
AcDbEntity
  8
500
  6
L10
 62
     2
100
AcDbPolyline
 90
        2
 70
     0
 43
0.0
 10
23.05460826246332
 20
19.48966856033367
 10
22.86369026246332
 20
19.29874956033367
  0
LINE
  5
571A
330
18
100
AcDbEntity
  8
0
 62
     2
100
AcDbLine
 10
22.69567541212083
 20
19.56180095427224
 30
0.0
 11
23.0672709726108
 21
19.56226458053218
 31
0.0
  0
LWPOLYLINE
  5
571B
330
18
100
AcDbEntity
  8
500
  6
L10
 62
     2
100
AcDbPolyline
 90
        2
 70
     0
 43
0.0
 10
22.86369026246332
 20
19.29874956033367
 42
0.41422
 10
22.86369026246332
 20
19.27753656033367
  0
LWPOLYLINE
  5
571C
330
18
100
AcDbEntity
  8
500
  6
L10
 62
     2
100
AcDbPolyline
 90
        2
 70
     0
 43
0.0
 10
23.07582126246332
 20
19.48966856033367
 42
0.4142140000000001
 10
23.05460826246332
 20
19.48966856033367
  0
CIRCLE
  5
571D
330
18
100
AcDbEntity
  8
500
  6
L10
 62
     2
100
AcDbCircle
 10
23.41999854016974
 20
19.58855488377447
 30
0.0
 40
0.03125
  0
LWPOLYLINE
  5
571E
330
18
100
AcDbEntity
  8
500
  6
L10
 62
     2
100
AcDbPolyline
 90
        2
 70
     0
 43
0.0
 10
23.40778740035411
 20
19.34063179644475
 42
0.414212
 10
23.49617540035411
 20
19.34063179644475
  0
LWPOLYLINE
  5
571F
330
18
100
AcDbEntity
  8
500
  6
L10
 62
     2
100
AcDbPolyline
 90
        2
 70
     0
 43
0.0
 10
23.40778740035411
 20
19.34063179644475
 10
23.17090740035411
 20
19.57751179644475
  0
LWPOLYLINE
  5
5720
330
18
100
AcDbEntity
  8
500
  6
L10
 62
     2
100
AcDbPolyline
 90
        2
 70
     0
 43
0.0
 10
23.28934729443874
 20
19.45907190236011
 10
23.39732504315813
 20
19.5670496510795
  0
LWPOLYLINE
  5
5721
330
18
100
AcDbEntity
  8
500
  6
L10
 62
     2
100
AcDbPolyline
 90
        2
 70
     0
 43
0.0
 10
22.69567541212083
 20
20.3064613573783
 10
22.69567541212083
 20
20.0738983573783
  0
LWPOLYLINE
  5
5722
330
18
100
AcDbEntity
  8
500
  6
L10
 62
     2
100
AcDbPolyline
 90
        2
 70
     0
 43
0.0
 10
24.44769270073674
 20
19.36442430865812
 10
23.9599415053567
 20
18.87667311327808
  0
LWPOLYLINE
  5
5723
330
18
100
AcDbEntity
  8
500
  6
L10
 62
     2
100
AcDbPolyline
 90
        2
 70
     0
 43
0.0
 10
23.6884246505544
 20
18.43017417224259
 10
24.89445228020347
 20
19.63620180189166
  0
LWPOLYLINE
  5
5724
330
18
100
AcDbEntity
  8
500
  6
L10
 62
     2
100
AcDbPolyline
 90
        2
 70
     0
 43
0.0
 10
24.08837216917754
 20
18.49440755287664
 10
24.83779399674826
 20
19.24382938044736
  0
TEXT
  5
5725
330
18
100
AcDbEntity
  8
0
100
AcDbText
 10
24.33922907287026
 20
19.54012223250386
 30
0.0
 40
0.125
  1
MMC-SD
 50
225.0000000000001
 72
     1
 11
24.09510887460348
 21
19.20761368658875
 31
0.0
100
AcDbText
 73
     2
  0
LINE
  5
5726
330
18
100
AcDbEntity
  8
0
100
AcDbLine
 10
24.69201935380095
 20
19.19458278095043
 30
0.0
 11
24.63686502486841
 21
19.24973710988299
 31
0.0
  0
LINE
  5
5727
330
18
100
AcDbEntity
  8
0
 62
     7
100
AcDbLine
 10
24.59161019087247
 20
19.20448227588705
 30
0.0
 11
24.63686502486841
 21
19.24973710988299
 31
0.0
  0
LWPOLYLINE
  5
5728
330
18
100
AcDbEntity
  8
500
  6
L10
 62
     2
100
AcDbPolyline
 90
        2
 70
     0
 43
0.0
 10
24.85001814852026
 20
17.45849275644163
 10
25.88073380833025
 20
18.48920841625162
  0
LWPOLYLINE
  5
5729
330
18
100
AcDbEntity
  8
500
  6
L10
 62
     2
100
AcDbPolyline
 90
        2
 70
     0
 43
0.0
 10
25.93850470073674
 20
18.45434730865812
 10
24.88485528870189
 20
17.40069789662326
  0
LWPOLYLINE
  5
572A
330
18
100
AcDbEntity
  8
500
  6
L10
 62
     2
100
AcDbPolyline
 90
        2
 70
     0
 43
0.0
 10
25.61910470073675
 20
18.83851930865812
 10
25.88073370073674
 20
18.57689030865812
  0
LWPOLYLINE
  5
572B
330
18
100
AcDbEntity
  8
500
  6
L10
 62
     2
100
AcDbPolyline
 90
        2
 70
     0
 43
0.0
 10
25.62921570073674
 20
18.89628930865812
 10
25.93850470073674
 20
18.58700130865812
  0
CIRCLE
  5
572C
330
18
100
AcDbEntity
  8
500
  6
L10
 62
     2
100
AcDbCircle
 10
25.66648070073674
 20
18.62426530865812
 30
0.0
 40
0.06
  0
LINE
  5
572D
330
18
100
AcDbEntity
  8
0
100
AcDbLine
 10
25.71703904838506
 20
18.05610496100979
 30
0.0
 11
25.46283370073674
 21
18.31031030865812
 31
0.0
  0
LWPOLYLINE
  5
572E
330
18
100
AcDbEntity
  8
500
  6
L10
 62
     2
100
AcDbPolyline
 90
        2
 70
     0
 43
0.0
 10
25.02539566480831
 20
17.74983566102317
 10
25.58929670073675
 20
18.31373730865811
  0
LWPOLYLINE
  5
572F
330
18
100
AcDbEntity
  8
500
  6
L10
 62
     2
100
AcDbPolyline
 90
        2
 70
     0
 43
0.0
 10
24.44304284646859
 20
17.84277020068431
 42
0.4142140000000001
 10
24.44304284646859
 20
17.71011620068431
  0
LWPOLYLINE
  5
5730
330
18
100
AcDbEntity
  8
500
  6
L10
 62
     2
100
AcDbPolyline
 90
        2
 70
     0
 43
0.0
 10
24.50081384646859
 20
17.80790920068431
 42
0.414212
 10
24.50081384646859
 20
17.72022820068431
  0
LWPOLYLINE
  5
5731
330
18
100
AcDbEntity
  8
500
  6
L10
 62
     2
100
AcDbPolyline
 90
        2
 70
     0
 43
0.0
 10
24.78479984646859
 20
17.82986920068431
 10
24.91289584646859
 20
17.74017520068432
  0
LWPOLYLINE
  5
5732
330
18
100
AcDbEntity
  8
500
  6
L10
 62
     2
100
AcDbPolyline
 90
        2
 70
     0
 43
0.0
 10
24.77275484646859
 20
17.81266720068431
 10
24.90085084646859
 20
17.72297320068431
  0
LINE
  5
5733
330
18
100
AcDbEntity
  8
0
100
AcDbLine
 10
25.24787219411692
 20
17.586937853036
 30
0.0
 11
24.99366684646859
 21
17.84114320068431
 31
0.0
  0
LINE
  5
5734
330
18
100
AcDbEntity
  8
0
 62
     2
100
AcDbLine
 10
25.60414570073675
 20
18.29888730865812
 30
0.0
 11
25.04044484646859
 21
17.73518720068431
 31
0.0
  0
LWPOLYLINE
  5
5735
330
18
100
AcDbEntity
  8
500
  6
L10
 62
     2
100
AcDbPolyline
 90
        2
 70
     0
 43
0.0
 10
24.50081384646859
 20
17.72022820068431
 10
24.76244284646859
 20
17.45859820068431
  0
LWPOLYLINE
  5
5736
330
18
100
AcDbEntity
  8
500
  6
L10
 62
     2
100
AcDbPolyline
 90
        2
 70
     0
 43
0.0
 10
24.44304284646859
 20
17.71011620068431
 10
24.75233184646859
 20
17.40082720068431
  0
LWPOLYLINE
  5
5737
330
18
100
AcDbEntity
  8
500
  6
L10
 62
     2
100
AcDbPolyline
 90
        2
 70
     0
 43
0.0
 10
24.75233184646859
 20
17.40082720068431
 42
0.414211
 10
24.88498484646859
 20
17.40082720068431
  0
LWPOLYLINE
  5
5738
330
18
100
AcDbEntity
  8
500
  6
L10
 62
     2
100
AcDbPolyline
 90
        2
 70
     0
 43
0.0
 10
24.90085084646859
 20
17.72297320068431
 42
0.363971
 10
25.04044484646859
 20
17.73518720068431
  0
CIRCLE
  5
5739
330
18
100
AcDbEntity
  8
500
  6
L10
 62
     2
100
AcDbCircle
 10
24.71506684646859
 20
17.67285220068431
 30
0.0
 40
0.06
  0
LWPOLYLINE
  5
573A
330
18
100
AcDbEntity
  8
500
  6
L10
 62
     2
100
AcDbPolyline
 90
        2
 70
     0
 43
0.0
 10
24.76244284646859
 20
17.45859820068431
 42
0.4142149999999999
 10
24.85012384646859
 20
17.45859820068431
  0
LWPOLYLINE
  5
573B
330
18
100
AcDbEntity
  8
500
  6
L10
 62
     2
100
AcDbPolyline
 90
        2
 70
     0
 43
0.0
 10
24.91289584646859
 20
17.74017520068432
 42
0.3639699999999999
 10
25.02559584646859
 20
17.75003520068431
  0
TEXT
  5
573C
330
18
100
AcDbEntity
  8
0
100
AcDbText
 10
25.20581392124703
 20
17.38699465886733
 30
0.0
 40
0.125
  1
19
 72
     4
 11
25.33081392124703
 21
17.44949465886733
 31
0.0
100
AcDbText
  0
LWPOLYLINE
  5
573D
330
18
100
AcDbEntity
  8
500
  6
L10
 62
     2
100
AcDbPolyline
 90
        2
 70
     0
 43
0.0
 10
25.49656270073675
 20
18.89628930865812
 10
24.44304282040974
 20
17.84277017462548
  0
LINE
  5
573E
330
18
100
AcDbEntity
  8
0
100
AcDbLine
 10
24.88335884646859
 20
17.95145120068431
 30
0.0
 11
24.62915309604519
 21
18.20565695110773
 31
0.0
  0
LINE
  5
573F
330
18
100
AcDbEntity
  8
0
 62
     2
100
AcDbLine
 10
25.53142270073674
 20
18.83851930865812
 30
0.0
 11
24.50081384646859
 21
17.80790920068431
 31
0.0
  0
LWPOLYLINE
  5
5740
330
18
100
AcDbEntity
  8
500
  6
L10
 62
     2
100
AcDbPolyline
 90
        2
 70
     0
 43
0.0
 10
23.84833526246332
 20
18.43501956033367
 10
23.77267526246332
 20
18.51067956033367
  0
LWPOLYLINE
  5
5741
330
18
100
AcDbEntity
  8
500
  6
L10
 62
     2
100
AcDbPolyline
 90
        2
 70
     0
 43
0.0
 10
23.91833926246332
 20
18.50502256033367
 10
23.91833926246332
 20
18.47956756033367
  0
LWPOLYLINE
  5
5742
330
18
100
AcDbEntity
  8
500
  6
L10
 62
     2
100
AcDbPolyline
 90
        2
 70
     0
 43
0.0
 10
23.88651926246332
 20
18.51138656033366
 10
23.84197126246332
 20
18.46683956033366
  0
LWPOLYLINE
  5
5743
330
18
100
AcDbEntity
  8
500
  6
L10
 62
     2
100
AcDbPolyline
 90
        2
 70
     0
 43
0.0
 10
23.91833926246332
 20
18.50502256033367
 10
23.84833526246332
 20
18.43501956033367
  0
LWPOLYLINE
  5
5744
330
18
100
AcDbEntity
  8
500
  6
L10
 62
     2
100
AcDbPolyline
 90
        2
 70
     0
 43
0.0
 10
23.91833926246332
 20
18.47956756033367
 10
23.87379126246332
 20
18.43501956033367
  0
LWPOLYLINE
  5
5745
330
18
100
AcDbEntity
  8
500
  6
L10
 62
     2
100
AcDbPolyline
 90
        2
 70
     0
 43
0.0
 10
23.84833526246332
 20
18.43501956033367
 10
23.87379126246332
 20
18.43501956033367
  0
TEXT
  5
5746
330
18
100
AcDbEntity
  8
0
100
AcDbText
 10
24.46730582927687
 20
18.20997279681594
 30
0.0
 40
0.125
  1
1
 72
     4
 11
24.51790106737211
 21
18.27247279681594
 31
0.0
100
AcDbText
  0
LINE
  5
5747
330
18
100
AcDbEntity
  8
0
100
AcDbLine
 10
24.17767755255393
 20
18.67736664464648
 30
0.0
 11
24.12252322362138
 21
18.73252097357902
 31
0.0
  0
LINE
  5
5748
330
18
100
AcDbEntity
  8
0
 62
     7
100
AcDbLine
 10
24.12252322362138
 20
18.73252097357902
 30
0.0
 11
24.16777805761732
 21
18.77777580757498
 31
0.0
  0
LWPOLYLINE
  5
5749
330
18
100
AcDbEntity
  8
500
  6
L10
 62
     2
100
AcDbPolyline
 90
        2
 70
     0
 43
0.0
 10
23.91833926246332
 20
18.50502256033367
 10
23.84267826246332
 20
18.58068356033366
  0
LWPOLYLINE
  5
574A
330
18
100
AcDbEntity
  8
500
  6
L10
 62
     2
100
AcDbPolyline
 90
        2
 70
     0
 43
0.0
 10
23.86742726246332
 20
18.53047856033366
 10
23.82288026246332
 20
18.48593056033367
  0
LWPOLYLINE
  5
574B
330
18
100
AcDbEntity
  8
500
  6
L10
 62
     2
100
AcDbPolyline
 90
        2
 70
     0
 43
0.0
 10
23.84833526246332
 20
18.54957056033367
 10
23.80378826246332
 20
18.50502256033367
  0
LWPOLYLINE
  5
574C
330
18
100
AcDbEntity
  8
500
  6
L10
 62
     2
100
AcDbPolyline
 90
        2
 70
     0
 43
0.0
 10
24.08837216917754
 20
18.49440755287664
 10
23.92154868983336
 20
18.66123204913952
  0
LWPOLYLINE
  5
574D
330
18
100
AcDbEntity
  8
500
  6
L10
 62
     2
100
AcDbPolyline
 90
        2
 70
     0
 43
0.0
 10
23.87164940035411
 20
18.87676979644474
 42
0.4142140000000001
 10
23.96003840035411
 20
18.87676979644474
  0
LINE
  5
574E
330
18
100
AcDbEntity
  8
0
100
AcDbLine
 10
24.31164720089765
 20
18.81435235932956
 30
0.0
 11
24.2564928719651
 21
18.86950668826212
 31
0.0
  0
LINE
  5
574F
330
18
100
AcDbEntity
  8
0
 62
     7
100
AcDbLine
 10
24.21123803796915
 20
18.82425185426617
 30
0.0
 11
24.2564928719651
 21
18.86950668826212
 31
0.0
  0
LINE
  5
5750
330
18
100
AcDbEntity
  8
0
100
AcDbLine
 10
24.22293238654987
 20
18.72262147864242
 30
0.0
 11
24.16777805761732
 21
18.77777580757498
 31
0.0
  0
LINE
  5
5751
330
18
100
AcDbEntity
  8
0
100
AcDbLine
 10
24.26639236690171
 20
18.76909752533362
 30
0.0
 11
24.21123803796915
 21
18.82425185426617
 31
0.0
  0
LINE
  5
5752
330
18
100
AcDbEntity
  8
0
100
AcDbLine
 10
24.40781372313901
 20
18.91051888157092
 30
0.0
 11
24.35265939420648
 21
18.96567321050349
 31
0.0
  0
LINE
  5
5753
330
18
100
AcDbEntity
  8
0
100
AcDbLine
 10
24.45872541138446
 20
18.96143056981637
 30
0.0
 11
24.40357108245191
 21
19.01658489874891
 31
0.0
  0
LINE
  5
5754
330
18
100
AcDbEntity
  8
0
 62
     7
100
AcDbLine
 10
24.40357108245191
 20
19.01658489874891
 30
0.0
 11
24.44882591644784
 21
19.06183973274486
 31
0.0
  0
LINE
  5
5755
330
18
100
AcDbEntity
  8
0
 62
     7
100
AcDbLine
 10
24.30740456021053
 20
18.92041837650755
 30
0.0
 11
24.35265939420648
 21
18.96567321050349
 31
0.0
  0
LINE
  5
5756
330
18
100
AcDbEntity
  8
0
100
AcDbLine
 10
24.36255888914307
 20
18.86526404757499
 30
0.0
 11
24.30740456021053
 21
18.92041837650755
 31
0.0
  0
LINE
  5
5757
330
18
100
AcDbEntity
  8
0
100
AcDbLine
 10
24.5039802453804
 20
19.00668540381231
 30
0.0
 11
24.44882591644784
 21
19.06183973274486
 31
0.0
  0
LINE
  5
5758
330
18
100
AcDbEntity
  8
0
100
AcDbLine
 10
24.59585283155958
 20
19.09841625870906
 30
0.0
 11
24.54069850262702
 21
19.15357058764162
 31
0.0
  0
LINE
  5
5759
330
18
100
AcDbEntity
  8
0
 62
     7
100
AcDbLine
 10
24.49544366863108
 20
19.10831575364568
 30
0.0
 11
24.54069850262702
 21
19.15357058764162
 31
0.0
  0
LINE
  5
575A
330
18
100
AcDbEntity
  8
0
100
AcDbLine
 10
24.55059799756364
 20
19.05316142471312
 30
0.0
 11
24.49544366863108
 21
19.10831575364568
 31
0.0
  0
LINE
  5
575B
330
18
100
AcDbEntity
  8
0
100
AcDbLine
 10
24.646764519805
 20
19.14932794695449
 30
0.0
 11
24.59161019087247
 21
19.20448227588705
 31
0.0
  0
LWPOLYLINE
  5
575C
330
18
100
AcDbEntity
  8
500
  6
L10
 62
     2
100
AcDbPolyline
 90
        2
 70
     0
 43
0.0
 10
24.75810424876947
 20
17.97893348381731
 10
25.36030370073675
 20
18.58113230865812
  0
CIRCLE
  5
575D
330
18
100
AcDbEntity
  8
500
  6
L10
 62
     2
100
AcDbCircle
 10
25.41616470073674
 20
18.48425830865812
 30
0.0
 40
0.02
  0
LWPOLYLINE
  5
575E
330
18
100
AcDbEntity
  8
500
  6
L10
 62
     2
100
AcDbPolyline
 90
        2
 70
     0
 43
0.0
 10
25.50946270073675
 20
18.55453230865811
 10
25.59915670073674
 20
18.42643630865811
  0
LWPOLYLINE
  5
575F
330
18
100
AcDbEntity
  8
500
  6
L10
 62
     2
100
AcDbPolyline
 90
        2
 70
     0
 43
0.0
 10
25.52666570073675
 20
18.56657730865811
 10
25.61635870073674
 20
18.43848230865812
  0
LINE
  5
5760
330
18
100
AcDbEntity
  8
0
 62
     2
100
AcDbLine
 10
25.37515270073674
 20
18.56628330865812
 30
0.0
 11
24.77304984646859
 21
17.96418020068431
 31
0.0
  0
CIRCLE
  5
5761
330
18
100
AcDbEntity
  8
500
  6
L10
 62
     2
100
AcDbCircle
 10
25.14463570073674
 20
17.99211230865812
 30
0.0
 40
0.02
  0
CIRCLE
  5
5762
330
18
100
AcDbEntity
  8
500
  6
L10
 62
     2
100
AcDbCircle
 10
25.16160570073674
 20
18.22970030865812
 30
0.0
 40
0.02
  0
CIRCLE
  5
5763
330
18
100
AcDbEntity
  8
500
  6
L10
 62
     2
100
AcDbCircle
 10
25.03432670073674
 20
18.10242030865811
 30
0.0
 40
0.02
  0
CIRCLE
  5
5764
330
18
100
AcDbEntity
  8
500
  6
L10
 62
     2
100
AcDbCircle
 10
24.88335884646859
 20
17.95145120068431
 30
0.0
 40
0.02
  0
CIRCLE
  5
5765
330
18
100
AcDbEntity
  8
500
  6
L10
 62
     2
100
AcDbCircle
 10
24.90669284646859
 20
17.86447720068432
 30
0.0
 40
0.02
  0
LWPOLYLINE
  5
5766
330
18
100
AcDbEntity
  8
500
  6
L10
 62
     2
100
AcDbPolyline
 90
        2
 70
     0
 43
0.0
 10
24.75819984646859
 20
17.97902920068431
 42
0.466307
 10
24.77275484646859
 20
17.81266720068431
  0
LWPOLYLINE
  5
5767
330
18
100
AcDbEntity
  8
500
  6
L10
 62
     2
100
AcDbPolyline
 90
        2
 70
     0
 43
0.0
 10
24.77304984646859
 20
17.96418020068431
 42
0.466307
 10
24.78479984646859
 20
17.82986920068431
  0
CIRCLE
  5
5768
330
18
100
AcDbEntity
  8
500
  6
L10
 62
     2
100
AcDbCircle
 10
24.99366684646859
 20
17.84114320068431
 30
0.0
 40
0.02
  0
CIRCLE
  5
5769
330
18
100
AcDbEntity
  8
500
  6
L10
 62
     2
100
AcDbCircle
 10
24.97033284646859
 20
17.92811720068431
 30
0.0
 40
0.02
  0
CIRCLE
  5
576A
330
18
100
AcDbEntity
  8
500
  6
L10
 62
     2
100
AcDbCircle
 10
25.05730684646859
 20
17.90478220068431
 30
0.0
 40
0.02
  0
CIRCLE
  5
576B
330
18
100
AcDbEntity
  8
500
  6
L10
 62
     2
100
AcDbCircle
 10
24.94699784646859
 20
18.01509120068431
 30
0.0
 40
0.02
  0
CIRCLE
  5
576C
330
18
100
AcDbEntity
  8
500
  6
L10
 62
     2
100
AcDbCircle
 10
25.05766170073674
 20
18.01544630865812
 30
0.0
 40
0.02
  0
CIRCLE
  5
576D
330
18
100
AcDbEntity
  8
500
  6
L10
 62
     2
100
AcDbCircle
 10
25.12130070073674
 20
18.07908630865812
 30
0.0
 40
0.02
  0
CIRCLE
  5
576E
330
18
100
AcDbEntity
  8
500
  6
L10
 62
     2
100
AcDbCircle
 10
25.09796670073674
 20
18.16606030865812
 30
0.0
 40
0.02
  0
CIRCLE
  5
576F
330
18
100
AcDbEntity
  8
500
  6
L10
 62
     2
100
AcDbCircle
 10
25.27191470073674
 20
18.11939130865812
 30
0.0
 40
0.02
  0
CIRCLE
  5
5770
330
18
100
AcDbEntity
  8
500
  6
L10
 62
     2
100
AcDbCircle
 10
25.20827470073674
 20
18.05575130865812
 30
0.0
 40
0.02
  0
CIRCLE
  5
5771
330
18
100
AcDbEntity
  8
500
  6
L10
 62
     2
100
AcDbCircle
 10
25.39919370073674
 20
18.24667030865812
 30
0.0
 40
0.02
  0
CIRCLE
  5
5772
330
18
100
AcDbEntity
  8
500
  6
L10
 62
     2
100
AcDbCircle
 10
25.31221970073674
 20
18.27000530865812
 30
0.0
 40
0.02
  0
CIRCLE
  5
5773
330
18
100
AcDbEntity
  8
500
  6
L10
 62
     2
100
AcDbCircle
 10
25.24858070073674
 20
18.20636530865812
 30
0.0
 40
0.02
  0
CIRCLE
  5
5774
330
18
100
AcDbEntity
  8
500
  6
L10
 62
     2
100
AcDbCircle
 10
25.18494070073674
 20
18.14272630865812
 30
0.0
 40
0.02
  0
CIRCLE
  5
5775
330
18
100
AcDbEntity
  8
500
  6
L10
 62
     2
100
AcDbCircle
 10
25.33555470073674
 20
18.18303130865811
 30
0.0
 40
0.02
  0
CIRCLE
  5
5776
330
18
100
AcDbEntity
  8
500
  6
L10
 62
     2
100
AcDbCircle
 10
25.22524570073674
 20
18.29333930865812
 30
0.0
 40
0.02
  0
CIRCLE
  5
5777
330
18
100
AcDbEntity
  8
500
  6
L10
 62
     2
100
AcDbCircle
 10
25.28888570073674
 20
18.35697930865812
 30
0.0
 40
0.02
  0
CIRCLE
  5
5778
330
18
100
AcDbEntity
  8
500
  6
L10
 62
     2
100
AcDbCircle
 10
25.37585970073674
 20
18.33364530865812
 30
0.0
 40
0.02
  0
CIRCLE
  5
5779
330
18
100
AcDbEntity
  8
500
  6
L10
 62
     2
100
AcDbCircle
 10
25.35252470073674
 20
18.42061930865812
 30
0.0
 40
0.02
  0
CIRCLE
  5
577A
330
18
100
AcDbEntity
  8
500
  6
L10
 62
     2
100
AcDbCircle
 10
25.43949970073674
 20
18.39728430865812
 30
0.0
 40
0.02
  0
LWPOLYLINE
  5
577B
330
18
100
AcDbEntity
  8
500
  6
L10
 62
     2
100
AcDbPolyline
 90
        2
 70
     0
 43
0.0
 10
25.60414570073675
 20
18.29888730865812
 42
0.363972
 10
25.61635870073674
 20
18.43848230865812
  0
CIRCLE
  5
577C
330
18
100
AcDbEntity
  8
500
  6
L10
 62
     2
100
AcDbCircle
 10
25.46283370073674
 20
18.31031030865812
 30
0.0
 40
0.02
  0
LWPOLYLINE
  5
577D
330
18
100
AcDbEntity
  8
500
  6
L10
 62
     2
100
AcDbPolyline
 90
        2
 70
     0
 43
0.0
 10
25.58929670073675
 20
18.31373730865811
 42
0.363969
 10
25.59915670073674
 20
18.42643630865811
  0
TEXT
  5
577E
330
18
100
AcDbEntity
  8
0
100
AcDbText
 10
24.98167718819184
 20
18.79355402797086
 30
0.0
 40
0.125
  1
9
 72
     4
 11
25.03822480723945
 21
18.85605402797086
 31
0.0
100
AcDbText
  0
LWPOLYLINE
  5
577F
330
18
100
AcDbEntity
  8
500
  6
L10
 62
     2
100
AcDbPolyline
 90
        2
 70
     0
 43
0.0
 10
25.61910470073675
 20
18.83851930865812
 42
0.414211
 10
25.53142270073674
 20
18.83851930865812
  0
LWPOLYLINE
  5
5780
330
18
100
AcDbEntity
  8
500
  6
L10
 62
     2
100
AcDbPolyline
 90
        2
 70
     0
 43
0.0
 10
25.50946270073675
 20
18.55453230865811
 42
0.4663090000000001
 10
25.37515270073674
 20
18.56628330865812
  0
LWPOLYLINE
  5
5781
330
18
100
AcDbEntity
  8
500
  6
L10
 62
     2
100
AcDbPolyline
 90
        2
 70
     0
 43
0.0
 10
25.52666570073675
 20
18.56657730865811
 42
0.466311
 10
25.36030370073675
 20
18.58113230865812
  0
LINE
  5
5782
330
18
100
AcDbEntity
  8
0
100
AcDbLine
 10
25.41616470073674
 20
18.48425830865812
 30
0.0
 11
25.16195976588145
 21
18.73846324351341
 31
0.0
  0
LWPOLYLINE
  5
5783
330
18
100
AcDbEntity
  8
500
  6
L10
 62
     2
100
AcDbPolyline
 90
        2
 70
     0
 43
0.0
 10
25.62921570073674
 20
18.89628930865812
 42
0.4142140000000001
 10
25.49656270073675
 20
18.89628930865812
  0
TEXT
  5
5784
330
18
100
AcDbEntity
  8
0
100
AcDbText
 10
25.64233701950382
 20
17.55704968262602
 30
0.0
 40
0.125
  1
FACE VIEW
100
AcDbText
  0
LWPOLYLINE
  5
5785
330
18
100
AcDbEntity
  8
500
  6
L10
 62
     2
100
AcDbPolyline
 90
        2
 70
     0
 43
0.0
 10
25.93850470073674
 20
18.45434730865812
 42
0.4142140000000001
 10
25.93850470073674
 20
18.58700130865812
  0
TEXT
  5
5786
330
18
100
AcDbEntity
  8
0
100
AcDbText
 10
25.72821095498239
 20
17.90351321724241
 30
0.0
 40
0.125
  1
26
 72
     4
 11
25.84725857403001
 21
17.96601321724241
 31
0.0
100
AcDbText
  0
LWPOLYLINE
  5
5787
330
18
100
AcDbEntity
  8
500
  6
L10
 62
     2
100
AcDbPolyline
 90
        2
 70
     0
 43
0.0
 10
25.88073370073674
 20
18.48920830865812
 42
0.4142149999999999
 10
25.88073370073674
 20
18.57689030865812
  0
MTEXT
  5
5788
102
{ACAD_REACTORS
330
578A
102
}
330
18
100
AcDbEntity
  8
0
100
AcDbMText
 10
25.24886020073674
 20
20.80414530865812
 30
0.0
 40
0.125
 41
0.0
 71
     1
 72
     1
  1
JACKSCREW 4-40
 73
     1
 44
1.0
  0
MTEXT
  5
5789
102
{ACAD_REACTORS
330
57B1
102
}
330
18
100
AcDbEntity
  8
0
100
AcDbMText
 10
25.51596200815033
 20
20.23206474368877
 30
0.0
 40
0.125
 41
0.0
 71
     1
 72
     1
  1
D-SUB CONNECTOR,\P26 PIN HD MALE
 73
     1
 44
1.0
  0
LEADER
  5
578A
330
18
100
AcDbEntity
  8
0
100
AcDbLeader
  3
STANDARD
 73
     0
 40
0.125
 41
1.684523809523809
 76
     3
 10
24.32594380076175
 20
20.19153885746026
 30
0.0
 10
24.84636020073674
 20
20.74164530865812
 30
0.0
 10
25.15886020073674
 20
20.74164530865812
 30
0.0
340
5788
213
0.0
223
-0.0625
233
0.0
1001
ACAD
1000
DSTYLE
1002
{
1070
   147
1040
0.09
1070
    77
1070
     0
1070
    44
1040
0.125
1070
   140
1040
0.125
1002
}
  0
LWPOLYLINE
  5
578B
330
18
100
AcDbEntity
  8
500
  6
L10
 62
     2
100
AcDbPolyline
 90
        2
 70
     0
 43
0.0
 10
24.58580028020348
 20
19.54816680189166
 10
24.78414328020347
 20
19.74651080189166
  0
LWPOLYLINE
  5
578C
330
18
100
AcDbEntity
  8
500
  6
L10
 62
     2
100
AcDbPolyline
 90
        2
 70
     0
 43
0.0
 10
24.89445228020347
 20
19.63620180189166
 10
24.42139828020348
 20
20.10925580189166
  0
LWPOLYLINE
  5
578D
330
18
100
AcDbEntity
  8
500
  6
L10
 62
     2
100
AcDbPolyline
 90
        2
 70
     0
 43
0.0
 10
23.98383070073675
 20
19.91667430865812
 10
23.74694970073675
 20
20.15355530865812
  0
LWPOLYLINE
  5
578E
330
18
100
AcDbEntity
  8
500
  6
L10
 62
     2
100
AcDbPolyline
 90
        2
 70
     0
 43
0.0
 10
24.14391728020348
 20
19.87561580189166
 10
23.71307082152023
 20
20.3064613573783
  0
LWPOLYLINE
  5
578F
330
18
100
AcDbEntity
  8
500
  6
L10
 62
     2
100
AcDbPolyline
 90
        2
 70
     0
 43
0.0
 10
23.74606570073674
 20
19.91579030865812
 10
23.86539070073675
 20
20.03511530865812
  0
LWPOLYLINE
  5
5790
330
18
100
AcDbEntity
  8
500
  6
L10
 62
     2
100
AcDbPolyline
 90
        2
 70
     0
 43
0.0
 10
24.37755728020348
 20
20.10925580189166
 10
24.14391728020348
 20
19.87561580189166
  0
LWPOLYLINE
  5
5791
330
18
100
AcDbEntity
  8
500
  6
L10
 62
     2
100
AcDbPolyline
 90
        2
 70
     0
 43
0.0
 10
24.20785128020348
 20
19.93954980189166
 10
23.85429828020347
 20
20.29310380189166
  0
LWPOLYLINE
  5
5792
330
18
100
AcDbEntity
  8
500
  6
L10
 62
     2
100
AcDbPolyline
 90
        2
 70
     0
 43
0.0
 10
24.19724528020347
 20
19.92894380189166
 10
23.84369128020348
 20
20.28249680189166
  0
LWPOLYLINE
  5
5793
330
18
100
AcDbEntity
  8
500
  6
L10
 62
     2
100
AcDbPolyline
 90
        2
 70
     0
 43
0.0
 10
24.17603228020348
 20
19.90773080189166
 10
23.83308528020348
 20
20.25067780189166
  0
LWPOLYLINE
  5
5794
330
18
100
AcDbEntity
  8
500
  6
L10
 62
     2
100
AcDbPolyline
 90
        2
 70
     0
 43
0.0
 10
24.19017428020348
 20
19.92187280189166
 10
23.83662028020347
 20
20.27542580189166
  0
LWPOLYLINE
  5
5795
330
18
100
AcDbEntity
  8
500
  6
L10
 62
     2
100
AcDbPolyline
 90
        2
 70
     0
 43
0.0
 10
24.18310328020348
 20
19.91480180189165
 10
23.83015628020348
 20
20.26774780189166
  0
LWPOLYLINE
  5
5796
330
18
100
AcDbEntity
  8
500
  6
L10
 62
     2
100
AcDbPolyline
 90
        2
 70
     0
 43
0.0
 10
24.28952228020348
 20
19.93283280189166
 42
0.414212
 10
24.20113428020348
 20
19.93283280189166
  0
LWPOLYLINE
  5
5797
330
18
100
AcDbEntity
  8
500
  6
L10
 62
     2
100
AcDbPolyline
 90
        2
 70
     0
 43
0.0
 10
24.18252770073674
 20
19.71797730865812
 42
0.4142140000000001
 10
24.09413970073675
 20
19.71797730865812
  0
TEXT
  5
5798
330
18
100
AcDbEntity
  8
0
100
AcDbText
 10
24.02325202305847
 20
19.5263486584357
 30
0.0
 40
0.125
  1
I/O
 50
225.0000000000001
 72
     1
 11
23.95590852008832
 21
19.37061680781724
 31
0.0
100
AcDbText
 73
     2
  0
CIRCLE
  5
5799
330
18
100
AcDbEntity
  8
500
  6
L10
 62
     2
100
AcDbCircle
 10
23.72396970073674
 20
19.89369330865812
 30
0.0
 40
0.03125
  0
LWPOLYLINE
  5
579A
330
18
100
AcDbEntity
  8
500
  6
L10
 62
     2
100
AcDbPolyline
 90
        2
 70
     0
 43
0.0
 10
23.98383070073675
 20
19.82828630865812
 42
0.4142140000000001
 10
23.98383070073675
 20
19.91667430865811
  0
LWPOLYLINE
  5
579B
330
18
100
AcDbEntity
  8
500
  6
L10
 62
     2
100
AcDbPolyline
 90
        2
 70
     0
 43
0.0
 10
24.44769270073674
 20
19.45281330865812
 10
24.18252770073674
 20
19.71797730865812
  0
LWPOLYLINE
  5
579C
330
18
100
AcDbEntity
  8
500
  6
L10
 62
     2
100
AcDbPolyline
 90
        2
 70
     0
 43
0.0
 10
24.44769270073674
 20
19.36442430865812
 42
0.4142140000000001
 10
24.44769270073674
 20
19.45281330865812
  0
LWPOLYLINE
  5
579D
330
18
100
AcDbEntity
  8
500
  6
L10
 62
     2
100
AcDbPolyline
 90
        2
 70
     0
 43
0.0
 10
24.62999428020347
 20
19.59236080189166
 10
24.28952228020348
 20
19.93283280189166
  0
LWPOLYLINE
  5
579E
330
18
100
AcDbEntity
  8
500
  6
L10
 62
     2
100
AcDbPolyline
 90
        2
 70
     0
 43
0.0
 10
24.38109228020348
 20
20.11279180189166
 10
24.02814628020347
 20
20.46573780189166
  0
LWPOLYLINE
  5
579F
330
18
100
AcDbEntity
  8
500
  6
L10
 62
     2
100
AcDbPolyline
 90
        2
 70
     0
 43
0.0
 10
24.38816328020347
 20
20.11986280189166
 10
24.04521728020347
 20
20.46280980189166
  0
LWPOLYLINE
  5
57A0
330
18
100
AcDbEntity
  8
500
  6
L10
 62
     2
100
AcDbPolyline
 90
        2
 70
     0
 43
0.0
 10
24.28209828020348
 20
20.01379680189166
 10
23.92854428020347
 20
20.36734980189166
  0
LWPOLYLINE
  5
57A1
330
18
100
AcDbEntity
  8
500
  6
L10
 62
     2
100
AcDbPolyline
 90
        2
 70
     0
 43
0.0
 10
24.28209828020348
 20
20.01379680189166
 10
23.92854428020347
 20
20.36734980189166
  0
LWPOLYLINE
  5
57A2
330
18
100
AcDbEntity
  8
500
  6
L10
 62
     2
100
AcDbPolyline
 90
        2
 70
     0
 43
0.0
 10
24.26442028020348
 20
19.99611880189166
 10
23.91086728020348
 20
20.34967180189166
  0
LWPOLYLINE
  5
57A3
330
18
100
AcDbEntity
  8
500
  6
L10
 62
     2
100
AcDbPolyline
 90
        2
 70
     0
 43
0.0
 10
24.24674228020347
 20
19.97844080189166
 10
23.89318928020347
 20
20.33199480189166
  0
LWPOLYLINE
  5
57A4
330
18
100
AcDbEntity
  8
500
  6
L10
 62
     2
100
AcDbPolyline
 90
        2
 70
     0
 43
0.0
 10
24.29977528020347
 20
20.03147480189166
 10
23.94622228020347
 20
20.38502780189166
  0
LWPOLYLINE
  5
57A5
330
18
100
AcDbEntity
  8
500
  6
L10
 62
     2
100
AcDbPolyline
 90
        2
 70
     0
 43
0.0
 10
24.33159528020347
 20
20.06329380189166
 10
23.97804228020347
 20
20.41684780189166
  0
LWPOLYLINE
  5
57A6
330
18
100
AcDbEntity
  8
500
  6
L10
 62
     2
100
AcDbPolyline
 90
        2
 70
     0
 43
0.0
 10
24.31745328020348
 20
20.04915180189166
 10
23.96390028020348
 20
20.40270480189166
  0
LWPOLYLINE
  5
57A7
330
18
100
AcDbEntity
  8
500
  6
L10
 62
     2
100
AcDbPolyline
 90
        2
 70
     0
 43
0.0
 10
24.36695028020348
 20
20.09864980189166
 10
24.01339728020348
 20
20.45220280189166
  0
LWPOLYLINE
  5
57A8
330
18
100
AcDbEntity
  8
500
  6
L10
 62
     2
100
AcDbPolyline
 90
        2
 70
     0
 43
0.0
 10
24.35634428020347
 20
20.08804280189167
 10
24.00279028020348
 20
20.44159680189166
  0
LWPOLYLINE
  5
57A9
330
18
100
AcDbEntity
  8
500
  6
L10
 62
     2
100
AcDbPolyline
 90
        2
 70
     0
 43
0.0
 10
24.34573728020347
 20
20.07743680189166
 10
23.99218428020347
 20
20.43098980189166
  0
LWPOLYLINE
  5
57AA
330
18
100
AcDbEntity
  8
500
  6
L10
 62
     2
100
AcDbPolyline
 90
        2
 70
     0
 43
0.0
 10
24.37402128020348
 20
20.10572080189166
 10
24.02046828020347
 20
20.45927380189167
  0
LWPOLYLINE
  5
57AB
330
18
100
AcDbEntity
  8
500
  6
L10
 62
     2
100
AcDbPolyline
 90
        2
 70
     0
 43
0.0
 10
24.21845828020348
 20
19.95015680189166
 10
23.86490528020347
 20
20.30371080189166
  0
LWPOLYLINE
  5
57AC
330
18
100
AcDbEntity
  8
500
  6
L10
 62
     2
100
AcDbPolyline
 90
        2
 70
     0
 43
0.0
 10
24.23260028020347
 20
19.96429880189166
 10
23.87904728020347
 20
20.31785280189166
  0
LWPOLYLINE
  5
57AD
330
18
100
AcDbEntity
  8
500
  6
L10
 62
     2
100
AcDbPolyline
 90
        2
 70
     0
 43
0.0
 10
23.83308528020348
 20
20.27189080189166
 10
24.02400328020347
 20
20.46280980189166
  0
LWPOLYLINE
  5
57AE
330
18
100
AcDbEntity
  8
500
  6
L10
 62
     2
100
AcDbPolyline
 90
        2
 70
     0
 43
0.0
 10
23.83308528020348
 20
20.27189080189166
 42
0.41422
 10
23.83308528020348
 20
20.25067780189166
  0
LWPOLYLINE
  5
57AF
330
18
100
AcDbEntity
  8
500
  6
L10
 62
     2
100
AcDbPolyline
 90
        2
 70
     0
 43
0.0
 10
24.04521728020347
 20
20.46280980189166
 42
0.4142140000000001
 10
24.02400328020347
 20
20.46280980189166
  0
LWPOLYLINE
  5
57B0
330
18
100
AcDbEntity
  8
500
  6
L10
 62
     2
100
AcDbPolyline
 90
        2
 70
     0
 43
0.0
 10
24.42139828020348
 20
20.10925580189166
 42
0.414209
 10
24.37755728020348
 20
20.10925580189166
  0
LEADER
  5
57B1
330
18
100
AcDbEntity
  8
0
100
AcDbLeader
  3
STANDARD
 73
     0
 40
0.3333333333333334
 41
1.898809523809523
 76
     3
 10
24.86346200815033
 20
19.26331474368877
 30
0.0
 10
25.23846200815032
 20
20.16956474368877
 30
0.0
 10
25.42596200815033
 20
20.16956474368877
 30
0.0
340
5789
213
0.0
223
-0.0625
233
0.0
1001
ACAD
1000
DSTYLE
1002
{
1070
   147
1040
0.09
1070
    77
1070
     0
1070
    44
1040
0.125
1070
   140
1040
0.125
1002
}
  0
LWPOLYLINE
  5
57B2
330
18
100
AcDbEntity
  8
500
  6
L10
 62
     2
100
AcDbPolyline
 90
        2
 70
     0
 43
0.0
 10
24.83779399674826
 20
19.24382938044736
 10
24.67374499674826
 20
19.40787738044735
  0
LWPOLYLINE
  5
57B3
330
18
100
AcDbEntity
  8
500
  6
L10
 62
     2
100
AcDbPolyline
 90
        2
 70
     0
 43
0.0
 10
24.81773128020348
 20
19.40815980189166
 10
24.74207128020347
 20
19.48381980189166
  0
LWPOLYLINE
  5
57B4
330
18
100
AcDbEntity
  8
500
  6
L10
 62
     2
100
AcDbPolyline
 90
        2
 70
     0
 43
0.0
 10
24.79227528020347
 20
19.45907180189166
 10
24.83682328020348
 20
19.50361880189166
  0
LWPOLYLINE
  5
57B5
330
18
100
AcDbEntity
  8
500
  6
L10
 62
     2
100
AcDbPolyline
 90
        2
 70
     0
 43
0.0
 10
24.77318328020348
 20
19.47816280189166
 10
24.81773128020348
 20
19.52271080189166
  0
LWPOLYLINE
  5
57B6
330
18
100
AcDbEntity
  8
500
  6
L10
 62
     2
100
AcDbPolyline
 90
        2
 70
     0
 43
0.0
 10
24.84318728020348
 20
19.40815980189166
 10
24.88773428020348
 20
19.45270680189166
  0
LWPOLYLINE
  5
57B7
330
18
100
AcDbEntity
  8
500
  6
L10
 62
     2
100
AcDbPolyline
 90
        2
 70
     0
 43
0.0
 10
24.81773128020348
 20
19.40815980189166
 10
24.88773428020348
 20
19.47816280189166
  0
LWPOLYLINE
  5
57B8
330
18
100
AcDbEntity
  8
500
  6
L10
 62
     2
100
AcDbPolyline
 90
        2
 70
     0
 43
0.0
 10
24.81773128020348
 20
19.40815980189166
 10
24.84318728020348
 20
19.40815980189166
  0
LWPOLYLINE
  5
57B9
330
18
100
AcDbEntity
  8
500
  6
L10
 62
     2
100
AcDbPolyline
 90
        2
 70
     0
 43
0.0
 10
24.81136728020347
 20
19.43997980189165
 10
24.85591528020348
 20
19.48452680189166
  0
LWPOLYLINE
  5
57BA
330
18
100
AcDbEntity
  8
500
  6
L10
 62
     2
100
AcDbPolyline
 90
        2
 70
     0
 43
0.0
 10
24.88773428020348
 20
19.47816280189166
 10
24.88773428020348
 20
19.45270680189166
  0
LWPOLYLINE
  5
57BB
330
18
100
AcDbEntity
  8
500
  6
L10
 62
     2
100
AcDbPolyline
 90
        2
 70
     0
 43
0.0
 10
24.88773428020348
 20
19.47816280189166
 10
24.81207428020347
 20
19.55382380189166
  0
ENDSEC
  0
SECTION
  2
OBJECTS
  0
DICTIONARY
  5
C
330
0
100
AcDbDictionary
281
     1
  3
ACAD_GROUP
350
D
  3
ACAD_LAYOUT
350
418A
  3
ACAD_MLINESTYLE
350
1B
  3
ACAD_PLOTSETTINGS
350
418B
  3
ACAD_PLOTSTYLENAME
350
4188
  3
AcadDim
350
4ED9
  3
ACDBHEADERROUNDTRIPXREC
350
57C0
  3
ACDBVARIABLEDICTIONARY
350
4CA
  3
AcmDictionary
350
47AC
  3
AMG
350
4791
  3
AMGSNAPSETTINGS
350
47DE
  3
ASE_INDEX_DICTIONARY
350
4945
  3
DWGPROPS
350
55E6
  0
DICTIONARY
  5
488B
330
18
100
AcDbDictionary
280
     1
281
     1
  3
ACAD_INDEX
360
4F53
  0
DICTIONARY
  5
D
102
{ACAD_REACTORS
330
C
102
}
330
C
100
AcDbDictionary
281
     1
  0
DICTIONARY
  5
418A
102
{ACAD_REACTORS
330
C
102
}
330
C
100
AcDbDictionary
281
     1
  3
Layout1
350
418D
  3
Model
350
418C
  0
DICTIONARY
  5
1B
102
{ACAD_REACTORS
330
C
102
}
330
C
100
AcDbDictionary
281
     1
  3
STANDARD
350
1C
  0
DICTIONARY
  5
418B
102
{ACAD_REACTORS
330
C
102
}
330
C
100
AcDbDictionary
281
     1
  0
ACDBDICTIONARYWDFLT
  5
4188
102
{ACAD_REACTORS
330
C
102
}
330
C
100
AcDbDictionary
281
     1
  3
Normal
350
4189
100
AcDbDictionaryWithDefault
340
4189
  0
XRECORD
  5
4ED9
102
{ACAD_REACTORS
330
C
102
}
330
C
100
AcDbXrecord
280
     1
 90
   990106
  3

 60
     0
 61
     0
 62
     1
 63
     3
 64
     0
 65
     0
 66
     0
 67
     3
 68
     1
 69
     0
 70
     0
 71
     0
 72
     0
 40
0.0
170
     0
  0
DICTIONARY
  5
57C0
102
{ACAD_REACTORS
330
C
102
}
330
C
100
AcDbDictionary
281
     1
  3
CEPSNTYPE
350
57CA
  3
FINGERPRINTGUID
350
57CB
  3
HYPERLINKBASE
350
57C3
  3
INSUNITS
350
57C9
  3
LAYOUTDICT
350
57C5
  3
LWETCUNION
350
57C8
  3
PLOTSETDICT
350
57C6
  3
PLOTSTYLNAMDICT
350
57C7
  3
PSVPSCALE
350
57CD
  3
PUCSBASE
350
57D0
  3
PUCSORGBACK
350
57D6
  3
PUCSORGBOTTOM
350
57D2
  3
PUCSORGFRONT
350
57D5
  3
PUCSORGLEFT
350
57D3
  3
PUCSORGRIGHT
350
57D4
  3
PUCSORGTOP
350
57D1
  3
PUCSORTHOREF
350
57CE
  3
PUCSORTHOVIEW
350
57CF
  3
STYLESHEET
350
57C4
  3
TSTACKALIGN
350
57C1
  3
TSTACKSIZE
350
57C2
  3
UCSBASE
350
57D9
  3
UCSORGBACK
350
57DF
  3
UCSORGBOTTOM
350
57DB
  3
UCSORGFRONT
350
57DE
  3
UCSORGLEFT
350
57DC
  3
UCSORGRIGHT
350
57DD
  3
UCSORGTOP
350
57DA
  3
UCSORTHOREF
350
57D7
  3
UCSORTHOVIEW
350
57D8
  3
VERSIONGUID
350
57CC
  0
DICTIONARY
  5
4CA
102
{ACAD_REACTORS
330
C
102
}
330
C
100
AcDbDictionary
281
     1
  3
DIMASSOC
350
546E
  3
INDEXCTL
350
479A
  3
SORTENTS
350
4CB
  0
DICTIONARY
  5
47AC
102
{ACAD_REACTORS
330
C
102
}
330
C
100
AcDbDictionary
281
     1
  3
AcmStdDictionary
350
47B2
  0
DICTIONARY
  5
4791
102
{ACAD_REACTORS
330
C
102
}
330
C
100
AcDbDictionary
281
     1
  3
AcMgSettings
350
4792
  0
DICTIONARY
  5
47DE
102
{ACAD_REACTORS
330
C
102
}
330
C
100
AcDbDictionary
281
     1
  3
DIMENSION
350
47E3
  3
FEA
350
47E2
  3
HATCH (1)
350
47DF
  3
HATCH (2)
350
47E0
  3
SIMPLE WELD
350
47E4
  3
SYMBOLS
350
47E1
  0
DICTIONARY
  5
4945
102
{ACAD_REACTORS
330
C
102
}
330
C
100
AcDbDictionary
281
     1
  3
ASEBlockHierarchyIndexRecord
350
4947
1001
DCO15
1040
1451630500.334
  0
XRECORD
  5
55E6
102
{ACAD_REACTORS
330
C
102
}
330
C
100
AcDbXrecord
280
     1
  1
DWGPROPS COOKIE
  2

  3

  4

  6

  7

  8

  9

300
AmdtFileType=84
301
=
302
=
303
=
304
=
305
=
306
=
307
=
308
=
309
=
 40
1.907569247685185
 41
2450708.349033448
 42
2452891.341078738
  1

 90
        1
  0
DICTIONARY
  5
4F53
102
{ACAD_REACTORS
330
488B
102
}
330
488B
100
AcDbDictionary
281
     1
  3
*A1
350
4F54
  0
LAYOUT
  5
418D
102
{ACAD_REACTORS
330
418A
102
}
330
418A
100
AcDbPlotSettings
  1

  2
HP LaserJet 4V
  4

  6

 40
0.0
 41
0.0
 42
0.0
 43
0.0
 44
0.0
 45
0.0
 46
0.0
 47
0.0
 48
0.0
 49
0.0
140
0.0
141
0.0
142
1.0
143
1.0
 70
   688
 72
     0
 73
     0
 74
     5
  7
monochrome.ctb
 75
    16
147
1.0
148
0.0
149
0.0
100
AcDbLayout
  1
Layout1
 70
     1
 71
     1
 10
0.0
 20
0.0
 11
12.0
 21
9.0
 12
0.0
 22
0.0
 32
0.0
 14
1.000000000000000E+20
 24
1.000000000000000E+20
 34
1.000000000000000E+20
 15
-1.000000000000000E+20
 25
-1.000000000000000E+20
 35
-1.000000000000000E+20
146
0.0
 13
0.0
 23
0.0
 33
0.0
 16
1.0
 26
0.0
 36
0.0
 17
0.0
 27
1.0
 37
0.0
 76
     0
330
15
  0
LAYOUT
  5
418C
102
{ACAD_REACTORS
330
418A
102
}
330
418A
100
AcDbPlotSettings
  1

  2
\\Fdlfs06\Engineering - HP LaserJet 5Si MX
  4
Letter
  6

 40
7.143749713897705
 41
6.974400997161865
 42
7.14373779296875
 43
6.297088623046875
 44
215.8999938964843
 45
279.3999938964843
 46
0.0
 47
0.762
 48
0.0
 49
0.0
140
0.0
141
0.0
142
1.0
143
2.110887687094935
 70
 11956
 72
     0
 73
     1
 74
     1
  7
monochrome.ctb
 75
     0
147
0.4737343469828227
148
-211.6537417766705
149
-201.5518877835152
100
AcDbLayout
  1
Model
 70
     1
 71
     0
 10
0.0
 20
0.0
 11
12.0
 21
9.0
 12
0.0
 22
0.0
 32
0.0
 14
0.0
 24
0.0
 34
0.0
 15
0.0
 25
0.0
 35
0.0
146
0.0
 13
0.0
 23
0.0
 33
0.0
 16
1.0
 26
0.0
 36
0.0
 17
0.0
 27
1.0
 37
0.0
 76
     0
330
18
  0
MLINESTYLE
  5
1C
102
{ACAD_REACTORS
330
1B
102
}
330
1B
100
AcDbMlineStyle
  2
STANDARD
 70
     0
  3

 62
   256
 51
90.0
 52
90.0
 71
     2
 49
0.5
 62
   256
  6
BYLAYER
 49
-0.5
 62
   256
  6
BYLAYER
  0
ACDBPLACEHOLDER
  5
4189
102
{ACAD_REACTORS
330
4188
102
}
330
4188
  0
XRECORD
  5
57CA
102
{ACAD_REACTORS
330
57C0
102
}
330
57C0
100
AcDbXrecord
280
     1
 90
        0
  0
XRECORD
  5
57CB
102
{ACAD_REACTORS
330
57C0
102
}
330
57C0
100
AcDbXrecord
280
     1
  1
{21BBB917-79A7-48EA-B0E7-997A5F90763C}
  0
XRECORD
  5
57C3
102
{ACAD_REACTORS
330
57C0
102
}
330
57C0
100
AcDbXrecord
280
     1
  1

  0
XRECORD
  5
57C9
102
{ACAD_REACTORS
330
57C0
102
}
330
57C0
100
AcDbXrecord
280
     1
 90
        0
  0
XRECORD
  5
57C5
102
{ACAD_REACTORS
330
57C0
102
}
330
57C0
100
AcDbXrecord
280
     1
340
418A
  0
XRECORD
  5
57C8
102
{ACAD_REACTORS
330
57C0
102
}
330
57C0
100
AcDbXrecord
280
     1
 90
    10781
  0
XRECORD
  5
57C6
102
{ACAD_REACTORS
330
57C0
102
}
330
57C0
100
AcDbXrecord
280
     1
340
418B
  0
XRECORD
  5
57C7
102
{ACAD_REACTORS
330
57C0
102
}
330
57C0
100
AcDbXrecord
280
     1
340
4188
  0
XRECORD
  5
57CD
102
{ACAD_REACTORS
330
57C0
102
}
330
57C0
100
AcDbXrecord
280
     1
 40
0.0
  0
XRECORD
  5
57D0
102
{ACAD_REACTORS
330
57C0
102
}
330
57C0
100
AcDbXrecord
280
     1
340
0
  0
XRECORD
  5
57D6
102
{ACAD_REACTORS
330
57C0
102
}
330
57C0
100
AcDbXrecord
280
     1
 10
0.0
 20
0.0
 30
0.0
  0
XRECORD
  5
57D2
102
{ACAD_REACTORS
330
57C0
102
}
330
57C0
100
AcDbXrecord
280
     1
 10
0.0
 20
0.0
 30
0.0
  0
XRECORD
  5
57D5
102
{ACAD_REACTORS
330
57C0
102
}
330
57C0
100
AcDbXrecord
280
     1
 10
0.0
 20
0.0
 30
0.0
  0
XRECORD
  5
57D3
102
{ACAD_REACTORS
330
57C0
102
}
330
57C0
100
AcDbXrecord
280
     1
 10
0.0
 20
0.0
 30
0.0
  0
XRECORD
  5
57D4
102
{ACAD_REACTORS
330
57C0
102
}
330
57C0
100
AcDbXrecord
280
     1
 10
0.0
 20
0.0
 30
0.0
  0
XRECORD
  5
57D1
102
{ACAD_REACTORS
330
57C0
102
}
330
57C0
100
AcDbXrecord
280
     1
 10
0.0
 20
0.0
 30
0.0
  0
XRECORD
  5
57CE
102
{ACAD_REACTORS
330
57C0
102
}
330
57C0
100
AcDbXrecord
280
     1
340
0
  0
XRECORD
  5
57CF
102
{ACAD_REACTORS
330
57C0
102
}
330
57C0
100
AcDbXrecord
280
     1
 70
     0
  0
XRECORD
  5
57C4
102
{ACAD_REACTORS
330
57C0
102
}
330
57C0
100
AcDbXrecord
280
     1
  1
monochrome.ctb
  0
XRECORD
  5
57C1
102
{ACAD_REACTORS
330
57C0
102
}
330
57C0
100
AcDbXrecord
280
     1
 90
        1
  0
XRECORD
  5
57C2
102
{ACAD_REACTORS
330
57C0
102
}
330
57C0
100
AcDbXrecord
280
     1
 90
       70
  0
XRECORD
  5
57D9
102
{ACAD_REACTORS
330
57C0
102
}
330
57C0
100
AcDbXrecord
280
     1
340
0
  0
XRECORD
  5
57DF
102
{ACAD_REACTORS
330
57C0
102
}
330
57C0
100
AcDbXrecord
280
     1
 10
0.0
 20
0.0
 30
0.0
  0
XRECORD
  5
57DB
102
{ACAD_REACTORS
330
57C0
102
}
330
57C0
100
AcDbXrecord
280
     1
 10
0.0
 20
0.0
 30
0.0
  0
XRECORD
  5
57DE
102
{ACAD_REACTORS
330
57C0
102
}
330
57C0
100
AcDbXrecord
280
     1
 10
0.0
 20
0.0
 30
0.0
  0
XRECORD
  5
57DC
102
{ACAD_REACTORS
330
57C0
102
}
330
57C0
100
AcDbXrecord
280
     1
 10
0.0
 20
0.0
 30
0.0
  0
XRECORD
  5
57DD
102
{ACAD_REACTORS
330
57C0
102
}
330
57C0
100
AcDbXrecord
280
     1
 10
0.0
 20
0.0
 30
0.0
  0
XRECORD
  5
57DA
102
{ACAD_REACTORS
330
57C0
102
}
330
57C0
100
AcDbXrecord
280
     1
 10
0.0
 20
0.0
 30
0.0
  0
XRECORD
  5
57D7
102
{ACAD_REACTORS
330
57C0
102
}
330
57C0
100
AcDbXrecord
280
     1
340
0
  0
XRECORD
  5
57D8
102
{ACAD_REACTORS
330
57C0
102
}
330
57C0
100
AcDbXrecord
280
     1
 70
     0
  0
XRECORD
  5
57CC
102
{ACAD_REACTORS
330
57C0
102
}
330
57C0
100
AcDbXrecord
280
     1
  1
{F69A5FBF-0396-4570-80BB-51531A719E0E}
  0
DICTIONARYVAR
  5
546E
102
{ACAD_REACTORS
330
4CA
102
}
330
4CA
100
DictionaryVariables
280
     0
  1
0
  0
DICTIONARYVAR
  5
479A
102
{ACAD_REACTORS
330
4CA
102
}
330
4CA
100
DictionaryVariables
280
     0
  1
1
  0
DICTIONARYVAR
  5
4CB
102
{ACAD_REACTORS
330
4CA
102
}
330
4CA
100
DictionaryVariables
280
     0
  1
96
  0
DICTIONARY
  5
47B2
102
{ACAD_REACTORS
330
47AC
102
}
330
47AC
100
AcDbDictionary
281
     1
  0
DICTIONARY
  5
4792
102
{ACAD_REACTORS
330
4791
102
}
330
4791
100
AcDbDictionary
281
     1
  3
DWGSETTINGS
350
4793
  3
TRANSSETTINGS
350
4794
  0
ACAMGFILTERDAT
  5
47E3
102
{ACAD_REACTORS
330
47DE
102
}
330
47DE
100
AcAmgFilterDat
 70
    15
  1
DIMENSION,AMDT_*_DIM
  2
*
  3
*
  4
*
  5
*
290
     1
  0
ACAMGFILTERDAT
  5
47E2
102
{ACAD_REACTORS
330
47DE
102
}
330
47DE
100
AcAmgFilterDat
 70
    15
  1
*
  2
AM_FEA-AM_*
  3
*
  4
*
  5
*
290
     1
  0
ACAMGFILTERDAT
  5
47DF
102
{ACAD_REACTORS
330
47DE
102
}
330
47DE
100
AcAmgFilterDat
 70
    15
  1
HATCH
  2
*
  3
*
  4
*
  5
*
290
     1
  0
ACAMGFILTERDAT
  5
47E0
102
{ACAD_REACTORS
330
47DE
102
}
330
47DE
100
AcAmgFilterDat
 70
    15
  1
LINE
  2
8,8N,*-8,*-8N,AM_8,AM_8N,*-AM_8,*-AM_8N
  3
*
  4
*
  5
INSERT,STDPART2D
290
     1
  0
ACAMGFILTERDAT
  5
47E4
102
{ACAD_REACTORS
330
47DE
102
}
330
47DE
100
AcAmgFilterDat
 70
    15
  1
ARC
  2
AM_5
  3
*
  4
2
  5
INSERT
290
     0
  0
ACAMGFILTERDAT
  5
47E1
102
{ACAD_REACTORS
330
47DE
102
}
330
47DE
100
AcAmgFilterDat
 70
    15
  1
ACMFCFRAME,ACMDATUMTARGET,ACMDATUMID,ACMWELDSYM,ACMSURFSYM,ACMFEATID,ACMPARTREF,ACMBALLOON,AMDTEDGESYM
  2
*
  3
*
  4
*
  5
*
290
     1
  0
XRECORD
  5
4947
102
{ACAD_REACTORS
330
4945
102
}
330
4945
100
AcDbXrecord
280
     1
330
0
330
41A0
330
41AF
330
41B5
330
41BB
  0
LAYER_INDEX
  5
4F54
102
{ACAD_REACTORS
330
4F53
102
}
330
4F53
100
AcDbIndex
 40
2452891.558314884
100
AcDbLayerIndex
  8
0
360
4F55
 90
      352
  8
DEFPOINTS
360
4F56
 90
        0
  8
500
360
4F57
 90
      188
  8
4
360
4F58
 90
        0
  8
BORDER
360
4F59
 90
        0
  8
Title Block
360
4F5A
 90
        0
  8
L0
360
4F5B
 90
        0
  8
1
360
5507
 90
       16
  0
IDBUFFER
  5
4F55
330
0
100
AcDbIdBuffer
330
3EF3
330
3EF4
330
3EF6
330
3EF7
330
3F27
330
3F28
330
3F41
330
3F42
330
3F44
330
3F45
330
3F46
330
3F49
330
3F4A
330
3F4B
330
3F4C
330
3F4D
330
3F4E
330
3F4F
330
3F53
330
3F6F
330
462E
330
462F
330
4726
330
4727
330
4729
330
472A
330
472B
330
472C
330
517C
330
5245
330
5247
330
5248
330
5249
330
524A
330
524B
330
524C
330
524D
330
524E
330
524F
330
5253
330
5254
330
5255
330
5256
330
5257
330
5258
330
5259
330
525A
330
525C
330
5374
330
5375
330
5376
330
5377
330
5378
330
5379
330
537A
330
537B
330
537C
330
537D
330
537E
330
537F
330
5380
330
5381
330
5382
330
5383
330
5384
330
5385
330
5386
330
5387
330
5388
330
5389
330
538A
330
538B
330
538C
330
538D
330
538E
330
538F
330
5390
330
5391
330
5392
330
5393
330
5394
330
5397
330
5398
330
539B
330
539C
330
539D
330
539E
330
53A8
330
53A9
330
53AA
330
53AB
330
53AC
330
53AD
330
53AE
330
53AF
330
53B0
330
53B1
330
53B2
330
53B3
330
53B4
330
53B5
330
53B6
330
53B7
330
53B8
330
53B9
330
53BA
330
53BB
330
53BC
330
53BD
330
53BE
330
53BF
330
53C0
330
53C1
330
53C2
330
53C3
330
53C4
330
53C5
330
53C6
330
53C7
330
53C8
330
53C9
330
53CA
330
53CB
330
53CC
330
53CD
330
53CE
330
53CF
330
53D0
330
53E4
330
53E5
330
53E6
330
53E7
330
53E8
330
53E9
330
53EA
330
53EB
330
53EC
330
53ED
330
53EE
330
53EF
330
53F0
330
53F1
330
53F2
330
53F3
330
53F4
330
53F5
330
53F6
330
53F7
330
53F8
330
53F9
330
53FA
330
53FB
330
53FC
330
53FD
330
53FE
330
53FF
330
5400
330
5401
330
5402
330
5403
330
5404
330
5405
330
5406
330
5407
330
5408
330
5409
330
540A
330
540B
330
540C
330
540D
330
540E
330
540F
330
5410
330
5411
330
5412
330
5413
330
5414
330
5415
330
5416
330
5417
330
5418
330
5419
330
541A
330
541B
330
541C
330
541D
330
541E
330
541F
330
5420
330
5421
330
5422
330
5423
330
5424
330
5425
330
5426
330
5427
330
5428
330
5429
330
542A
330
542B
330
542C
330
542D
330
542E
330
542F
330
5430
330
5431
330
5432
330
5433
330
5434
330
5435
330
5436
330
5437
330
5438
330
5439
330
543A
330
543B
330
543C
330
543D
330
543E
330
543F
330
5440
330
5441
330
5442
330
5443
330
5444
330
5445
330
5446
330
5447
330
5448
330
5449
330
544A
330
544B
330
544C
330
544D
330
544E
330
544F
330
5450
330
5451
330
5452
330
5453
330
5454
330
5455
330
5456
330
5457
330
5458
330
5459
330
545A
330
545B
330
545C
330
545D
330
545E
330
545F
330
5460
330
5461
330
5462
330
5463
330
5464
330
5465
330
5466
330
5467
330
5468
330
5469
330
546A
330
546B
330
546C
330
5501
330
5502
330
5547
330
5548
330
5549
330
554A
330
554B
330
554C
330
554D
330
554E
330
554F
330
5550
330
5551
330
5552
330
5553
330
5554
330
5555
330
5556
330
5557
330
5558
330
5559
330
555A
330
555B
330
555C
330
555D
330
555E
330
555F
330
5560
330
5561
330
5562
330
5563
330
5564
330
5565
330
5566
330
5586
330
5587
330
5588
330
5589
330
558D
330
558E
330
558F
330
5590
330
5591
330
56E3
330
56E4
330
56E5
330
56E6
330
56E7
330
570B
330
5714
330
571A
330
5725
330
5726
330
5727
330
572D
330
5733
330
5734
330
573C
330
573E
330
573F
330
5746
330
5747
330
5748
330
574E
330
574F
330
5750
330
5751
330
5752
330
5753
330
5754
330
5755
330
5756
330
5757
330
5758
330
5759
330
575A
330
575B
330
5760
330
577E
330
5782
330
5784
330
5786
330
5788
330
5789
330
578A
330
5798
330
57B1
  0
IDBUFFER
  5
4F56
330
0
100
AcDbIdBuffer
  0
IDBUFFER
  5
4F57
330
0
100
AcDbIdBuffer
330
56D4
330
56D5
330
56D6
330
56D7
330
56D8
330
56D9
330
56DA
330
56DB
330
56DC
330
56DD
330
56DE
330
56DF
330
56E0
330
56E1
330
56E2
330
56E8
330
56E9
330
56EA
330
56EB
330
56EC
330
56ED
330
56EE
330
56EF
330
56F0
330
56F1
330
56F2
330
56F3
330
56F4
330
56F5
330
56F6
330
56F7
330
56F8
330
56F9
330
56FA
330
56FB
330
56FC
330
56FD
330
56FE
330
56FF
330
5700
330
5701
330
5702
330
5703
330
5704
330
5705
330
5706
330
5707
330
5708
330
5709
330
570A
330
570C
330
570D
330
570E
330
570F
330
5710
330
5711
330
5712
330
5713
330
5715
330
5716
330
5717
330
5718
330
5719
330
571B
330
571C
330
571D
330
571E
330
571F
330
5720
330
5721
330
5722
330
5723
330
5724
330
5728
330
5729
330
572A
330
572B
330
572C
330
572E
330
572F
330
5730
330
5731
330
5732
330
5735
330
5736
330
5737
330
5738
330
5739
330
573A
330
573B
330
573D
330
5740
330
5741
330
5742
330
5743
330
5744
330
5745
330
5749
330
574A
330
574B
330
574C
330
574D
330
575C
330
575D
330
575E
330
575F
330
5761
330
5762
330
5763
330
5764
330
5765
330
5766
330
5767
330
5768
330
5769
330
576A
330
576B
330
576C
330
576D
330
576E
330
576F
330
5770
330
5771
330
5772
330
5773
330
5774
330
5775
330
5776
330
5777
330
5778
330
5779
330
577A
330
577B
330
577C
330
577D
330
577F
330
5780
330
5781
330
5783
330
5785
330
5787
330
578B
330
578C
330
578D
330
578E
330
578F
330
5790
330
5791
330
5792
330
5793
330
5794
330
5795
330
5796
330
5797
330
5799
330
579A
330
579B
330
579C
330
579D
330
579E
330
579F
330
57A0
330
57A1
330
57A2
330
57A3
330
57A4
330
57A5
330
57A6
330
57A7
330
57A8
330
57A9
330
57AA
330
57AB
330
57AC
330
57AD
330
57AE
330
57AF
330
57B0
330
57B2
330
57B3
330
57B4
330
57B5
330
57B6
330
57B7
330
57B8
330
57B9
330
57BA
330
57BB
  0
IDBUFFER
  5
4F58
330
0
100
AcDbIdBuffer
  0
IDBUFFER
  5
4F59
330
0
100
AcDbIdBuffer
  0
IDBUFFER
  5
4F5A
330
0
100
AcDbIdBuffer
  0
IDBUFFER
  5
4F5B
330
0
100
AcDbIdBuffer
  0
IDBUFFER
  5
5507
330
0
100
AcDbIdBuffer
330
54F5
330
54F6
330
54F7
330
54F8
330
54F9
330
54FA
330
54FB
330
54FC
330
54FD
330
54FE
330
54FF
330
5500
330
5503
330
5504
330
5505
330
5506
  0
ENDSEC
  0
EOF
