  0
SECTION
  2
HEADER
  9
$ACADVER
  1
AC1015
  9
$ACADMAINTVER
 70
    10
  9
$DWGCODEPAGE
  3
ANSI_1252
  9
$INSBASE
 10
0.0
 20
0.0
 30
0.0
  9
$EXTMIN
 10
0.0
 20
0.0
 30
0.0
  9
$EXTMAX
 10
44.0
 20
34.0
 30
0.0
  9
$LIMMIN
 10
0.0
 20
0.0
  9
$LIMMAX
 10
0.0
 20
0.0
  9
$ORTHOMODE
 70
     0
  9
$REGENMODE
 70
     1
  9
$FILLMODE
 70
     1
  9
$QTEXTMODE
 70
     0
  9
$MIRRTEXT
 70
     1
  9
$LTSCALE
 40
1.0
  9
$ATTMODE
 70
     1
  9
$TEXTSIZE
 40
0.0
  9
$TRACEWID
 40
0.05
  9
$TEXTSTYLE
  7
STANDARD
  9
$CLAYER
  8
0
  9
$CELTYPE
  6
CONTINUOUS
  9
$CECOLOR
 62
   256
  9
$CELTSCALE
 40
1.0
  9
$DISPSILH
 70
     0
  9
$DIMSCALE
 40
1.0
  9
$DIMASZ
 40
0.18
  9
$DIMEXO
 40
0.0393700787
  9
$DIMDLI
 40
0.38
  9
$DIMRND
 40
0.0
  9
$DIMDLE
 40
0.0393700787
  9
$DIMEXE
 40
0.18
  9
$DIMTP
 40
0.0
  9
$DIMTM
 40
0.0
  9
$DIMTXT
 40
0.18
  9
$DIMCEN
 40
0.09
  9
$DIMTSZ
 40
0.0
  9
$DIMTOL
 70
     0
  9
$DIMLIM
 70
     0
  9
$DIMTIH
 70
     1
  9
$DIMTOH
 70
     1
  9
$DIMSE1
 70
     0
  9
$DIMSE2
 70
     0
  9
$DIMTAD
 70
     1
  9
$DIMZIN
 70
     1
  9
$DIMBLK
  1

  9
$DIMASO
 70
     1
  9
$DIMSHO
 70
     1
  9
$DIMPOST
  1

  9
$DIMAPOST
  1

  9
$DIMALT
 70
     0
  9
$DIMALTD
 70
     2
  9
$DIMALTF
 40
25.4
  9
$DIMLFAC
 40
18.0
  9
$DIMTOFL
 70
     0
  9
$DIMTVP
 40
0.0
  9
$DIMTIX
 70
     0
  9
$DIMSOXD
 70
     0
  9
$DIMSAH
 70
     0
  9
$DIMBLK1
  1

  9
$DIMBLK2
  1

  9
$DIMSTYLE
  2
STANDARD
  9
$DIMCLRD
 70
     0
  9
$DIMCLRE
 70
     0
  9
$DIMCLRT
 70
     0
  9
$DIMTFAC
 40
1.0
  9
$DIMGAP
 40
0.0393700787
  9
$DIMJUST
 70
     0
  9
$DIMSD1
 70
     0
  9
$DIMSD2
 70
     0
  9
$DIMTOLJ
 70
     1
  9
$DIMTZIN
 70
     1
  9
$DIMALTZ
 70
     0
  9
$DIMALTTZ
 70
     0
  9
$DIMUPT
 70
     0
  9
$DIMDEC
 70
     4
  9
$DIMTDEC
 70
     4
  9
$DIMALTU
 70
     2
  9
$DIMALTTD
 70
     2
  9
$DIMTXSTY
  7
STANDARD
  9
$DIMAUNIT
 70
     0
  9
$DIMADEC
 70
     0
  9
$DIMALTRND
 40
0.0
  9
$DIMAZIN
 70
     0
  9
$DIMDSEP
 70
    46
  9
$DIMATFIT
 70
     3
  9
$DIMFRAC
 70
     0
  9
$DIMLDRBLK
  1

  9
$DIMLUNIT
 70
     2
  9
$DIMLWD
 70
    -2
  9
$DIMLWE
 70
    -2
  9
$DIMTMOVE
 70
     0
  9
$LUNITS
 70
     2
  9
$LUPREC
 70
     2
  9
$SKETCHINC
 40
0.1
  9
$FILLETRAD
 40
0.0
  9
$AUNITS
 70
     0
  9
$AUPREC
 70
     0
  9
$MENU
  1
acad
  9
$ELEVATION
 40
0.0
  9
$PELEVATION
 40
0.0
  9
$THICKNESS
 40
0.0
  9
$LIMCHECK
 70
     0
  9
$CHAMFERA
 40
0.0
  9
$CHAMFERB
 40
0.0
  9
$CHAMFERC
 40
0.0
  9
$CHAMFERD
 40
0.0
  9
$SKPOLY
 70
     0
  9
$TDCREATE
 40
2311942.262191400
  9
$TDUCREATE
 40
2311942.512191400
  9
$TDUPDATE
 40
2452655.298725370
  9
$TDUUPDATE
 40
2452655.548725370
  9
$TDINDWG
 40
0.0644826505
  9
$TDUSRTIMER
 40
0.0644708333
  9
$USRTIMER
 70
     1
  9
$ANGBASE
 50
0.0
  9
$ANGDIR
 70
     0
  9
$PDMODE
 70
     0
  9
$PDSIZE
 40
-1.0
  9
$PLINEWID
 40
0.0
  9
$SPLFRAME
 70
     0
  9
$SPLINETYPE
 70
     6
  9
$SPLINESEGS
 70
     8
  9
$HANDSEED
  5
7CC
  9
$SURFTAB1
 70
     6
  9
$SURFTAB2
 70
     6
  9
$SURFTYPE
 70
     6
  9
$SURFU
 70
     6
  9
$SURFV
 70
     6
  9
$UCSBASE
  2

  9
$UCSNAME
  2

  9
$UCSORG
 10
0.0
 20
0.0
 30
0.0
  9
$UCSXDIR
 10
1.0
 20
0.0
 30
0.0
  9
$UCSYDIR
 10
0.0
 20
1.0
 30
0.0
  9
$UCSORTHOREF
  2

  9
$UCSORTHOVIEW
 70
     0
  9
$UCSORGTOP
 10
0.0
 20
0.0
 30
0.0
  9
$UCSORGBOTTOM
 10
0.0
 20
0.0
 30
0.0
  9
$UCSORGLEFT
 10
0.0
 20
0.0
 30
0.0
  9
$UCSORGRIGHT
 10
0.0
 20
0.0
 30
0.0
  9
$UCSORGFRONT
 10
0.0
 20
0.0
 30
0.0
  9
$UCSORGBACK
 10
0.0
 20
0.0
 30
0.0
  9
$PUCSBASE
  2

  9
$PUCSNAME
  2

  9
$PUCSORG
 10
0.0
 20
0.0
 30
0.0
  9
$PUCSXDIR
 10
1.0
 20
0.0
 30
0.0
  9
$PUCSYDIR
 10
0.0
 20
1.0
 30
0.0
  9
$PUCSORTHOREF
  2

  9
$PUCSORTHOVIEW
 70
     0
  9
$PUCSORGTOP
 10
0.0
 20
0.0
 30
0.0
  9
$PUCSORGBOTTOM
 10
0.0
 20
0.0
 30
0.0
  9
$PUCSORGLEFT
 10
0.0
 20
0.0
 30
0.0
  9
$PUCSORGRIGHT
 10
0.0
 20
0.0
 30
0.0
  9
$PUCSORGFRONT
 10
0.0
 20
0.0
 30
0.0
  9
$PUCSORGBACK
 10
0.0
 20
0.0
 30
0.0
  9
$USERI1
 70
     0
  9
$USERI2
 70
     0
  9
$USERI3
 70
     0
  9
$USERI4
 70
     0
  9
$USERI5
 70
     0
  9
$USERR1
 40
0.0
  9
$USERR2
 40
0.0
  9
$USERR3
 40
0.0
  9
$USERR4
 40
0.0
  9
$USERR5
 40
0.0
  9
$WORLDVIEW
 70
     1
  9
$SHADEDGE
 70
     3
  9
$SHADEDIF
 70
    70
  9
$TILEMODE
 70
     1
  9
$MAXACTVP
 70
    16
  9
$PINSBASE
 10
0.0
 20
0.0
 30
0.0
  9
$PLIMCHECK
 70
     0
  9
$PEXTMIN
 10
1.000000000000000E+20
 20
1.000000000000000E+20
 30
1.000000000000000E+20
  9
$PEXTMAX
 10
-1.000000000000000E+20
 20
-1.000000000000000E+20
 30
-1.000000000000000E+20
  9
$PLIMMIN
 10
0.0
 20
0.0
  9
$PLIMMAX
 10
12.0
 20
9.0
  9
$UNITMODE
 70
     0
  9
$VISRETAIN
 70
     0
  9
$PLINEGEN
 70
     1
  9
$PSLTSCALE
 70
     1
  9
$TREEDEPTH
 70
  3020
  9
$CMLSTYLE
  2
STANDARD
  9
$CMLJUST
 70
     0
  9
$CMLSCALE
 40
1.0
  9
$PROXYGRAPHICS
 70
     1
  9
$MEASUREMENT
 70
     0
  9
$CELWEIGHT
370
    -1
  9
$ENDCAPS
280
     0
  9
$JOINSTYLE
280
     0
  9
$LWDISPLAY
290
     0
  9
$INSUNITS
 70
     0
  9
$HYPERLINKBASE
  1

  9
$STYLESHEET
  1
monochrome.ctb
  9
$XEDIT
290
     1
  9
$CEPSNTYPE
380
     0
  9
$PSTYLEMODE
290
     1
  9
$FINGERPRINTGUID
  2
{6E01F3F2-53BB-4035-A5C2-5DBF3D71B391}
  9
$VERSIONGUID
  2
{61739FC4-08E1-4F96-83FB-0D469D81A750}
  9
$EXTNAMES
290
     1
  9
$PSVPSCALE
 40
0.0
  9
$OLESTARTUP
290
     0
  0
ENDSEC
  0
SECTION
  2
CLASSES
  0
CLASS
  1
LWPOLYLINE
  2
AcDbPolyline
  3
AutoCAD 2000
 90
    32768
280
     0
281
     1
  0
CLASS
  1
IMAGE
  2
AcDbRasterImage
  3
ISM
 90
    32895
280
     0
281
     1
  0
CLASS
  1
OLE2FRAME
  2
AcDbOle2Frame
  3
AutoCAD 2000
 90
    32768
280
     0
281
     1
  0
CLASS
  1
HATCH
  2
AcDbHatch
  3
AutoCAD 2000
 90
    32768
280
     0
281
     1
  0
CLASS
  1
DICTIONARYVAR
  2
AcDbDictionaryVar
  3
AutoCAD 2000
 90
        0
280
     0
281
     0
  0
CLASS
  1
RASTERVARIABLES
  2
AcDbRasterVariables
  3
ISM
 90
    32768
280
     0
281
     0
  0
CLASS
  1
IMAGEDEF
  2
AcDbRasterImageDef
  3
ISM
 90
    32768
280
     0
281
     0
  0
CLASS
  1
IMAGEDEF_REACTOR
  2
AcDbRasterImageDefReactor
  3
ISM
 90
    32769
280
     0
281
     0
  0
CLASS
  1
IDBUFFER
  2
AcDbIdBuffer
  3
AutoCAD 2000
 90
        0
280
     0
281
     0
  0
CLASS
  1
SPATIAL_FILTER
  2
AcDbSpatialFilter
  3
AutoCAD 2000
 90
    32768
280
     0
281
     0
  0
CLASS
  1
XRECORD
  2
AcDbXrecord
  3
AutoCAD 2000
 90
    32768
280
     0
281
     0
  0
CLASS
  1
SORTENTSTABLE
  2
AcDbSortentsTable
  3
AutoCAD 2000
 90
    32768
280
     0
281
     0
  0
CLASS
  1
LAYER_INDEX
  2
AcDbLayerIndex
  3
AutoCAD 2000
 90
        0
280
     0
281
     0
  0
CLASS
  1
SPATIAL_INDEX
  2
AcDbSpatialIndex
  3
AutoCAD 2000
 90
    32768
280
     0
281
     0
  0
CLASS
  1
OBJECT_PTR
  2
CAseDLPNTableRecord
  3
ASE-LPNTableRecord
 90
    32769
280
     0
281
     0
  0
CLASS
  1
LAYOUT
  2
AcDbLayout
  3
AutoCAD 2000
 90
        0
280
     0
281
     0
  0
CLASS
  1
PLOTSETTINGS
  2
AcDbPlotSettings
  3
AutoCAD 2000
 90
    32768
280
     0
281
     0
  0
CLASS
  1
ACDBDICTIONARYWDFLT
  2
AcDbDictionaryWithDefault
  3
AutoCAD 2000
 90
        0
280
     0
281
     0
  0
CLASS
  1
ACDBPLACEHOLDER
  2
AcDbPlaceHolder
  3
AutoCAD 2000
 90
        0
280
     0
281
     0
  0
CLASS
  1
VBA_PROJECT
  2
AcDbVbaProject
  3
acadvba
 90
    32768
280
     0
281
     0
  0
CLASS
  1
WIPEOUT
  2
AcDbWipeout
  3
WipeOut|AutoCAD Express Tool|expresstools@autodesk.com
 90
    32768
280
     0
281
     1
  0
CLASS
  1
WIPEOUTVARIABLES
  2
AcDbWipeoutVariables
  3
WipeOut|AutoCAD Express Tool|expresstools@autodesk.com
 90
    32768
280
     0
281
     0
  0
CLASS
  1
RTEXT
  2
RText
  3
RText|AutoCAD Express Tool|expresstools@autodesk.com
 90
    32768
280
     0
281
     1
  0
CLASS
  1
ARCALIGNEDTEXT
  2
AcDbArcAlignedText
  3
ATEXT|AutoCAD Express Tool|expresstools@autodesk.com
 90
    32768
280
     0
281
     1
  0
CLASS
  1
AMGSETTINGSOBJ
  2
AmgSettingsObj
  3
"AcadM|Product Description: AutoCAD Mechanical 2000|Company: Autodesk"
 90
        0
280
     0
281
     0
  0
CLASS
  1
ACME_DOCUMENT
  2
AcMeDbDoc
  3
AcMeServices
 90
        0
280
     0
281
     0
  0
CLASS
  1
ACMESCOPE
  2
AcMeScope
  3
AcMeServices
 90
        0
280
     0
281
     0
  0
CLASS
  1
ACMECOMMANDHISTORY
  2
AcMeCommandHistory
  3
AcMeServices
 90
        0
280
     0
281
     0
  0
CLASS
  1
ACIMSYSVARMAN
  2
AcImSysVarManager
  3
AcMeServices
 90
        0
280
     0
281
     0
  0
CLASS
  1
ACIMREALSYSVAR
  2
AcImRealSysVar
  3
AcMeServices
 90
        0
280
     0
281
     0
  0
CLASS
  1
ACIMINTSYSVAR
  2
AcImIntSysVar
  3
AcMeServices
 90
        0
280
     0
281
     0
  0
CLASS
  1
ACMEDRAWINGMAN
  2
AcMeDrawingMan
  3
AcMeServices
 90
        0
280
     0
281
     0
  0
CLASS
  1
ACMEVIEW
  2
AcMeView
  3
AcMeServices
 90
        0
280
     0
281
     0
  0
CLASS
  1
ACDBENTITYCACHE
  2
AcMeEntityCache
  3
AcMeServices
 90
        0
280
     0
281
     0
  0
CLASS
  1
GSMANAGER
  2
AcMeGSManager
  3
AcMeServices
 90
        0
280
     0
281
     0
  0
CLASS
  1
AmdtInternalReactor
  2
AmdtInternalReactor
  3
AcMeServices
 90
        0
280
     0
281
     0
  0
CLASS
  1
ACMESTATEMGR
  2
AcMeStateMgr
  3
AcMeServices
 90
        0
280
     0
281
     0
  0
CLASS
  1
ACGREFMASTER
  2
AcGrefMaster
  3
AcAttribServices
 90
        0
280
     0
281
     0
  0
CLASS
  1
ACME_DATABASE
  2
AcMeDbDatabase
  3
AcMeServices
 90
        0
280
     0
281
     0
  0
CLASS
  1
ACRFINSADJUSTERMGR
  2
AcRfInsAdjusterMgr
  3
AcMeServices
 90
        0
280
     0
281
     0
  0
CLASS
  1
ACGREFMASTER
  2
AcGrefacadMaster
  3
AcGrefServices
 90
        0
280
     0
281
     0
  0
CLASS
  1
AMIMASTER
  2
AmiMaster
  3
AmiServices
 90
        0
280
     0
281
     0
  0
CLASS
  1
ACMDATADICTIONARY
  2
AcmDataDictionary
  3
"AcmSymBB|Product Description: AutoCAD Mechanical 2000|Company: Autodesk"
 90
        0
280
     0
281
     0
  0
CLASS
  1
ACMDATAENTRYBLOCK
  2
AcmDataEntryBlock
  3
"AcmSymBB|Product Description: AutoCAD Mechanical 2000|Company: Autodesk"
 90
        0
280
     0
281
     0
  0
CLASS
  1
ACIMSTRSYSVAR
  2
AcImStrSysVar
  3
AcMeServices
 90
        0
280
     0
281
     0
  0
CLASS
  1
ACMSTANDARDANSI
  2
AcmStandardANSI
  3
"Amdt_StdImp|Product Description: AutoCAD Mechanical 2000|Company: Autodesk"
 90
        0
280
     0
281
     0
  0
CLASS
  1
AMGOBJPROPCFG
  2
AmgObjPropCfg
  3
"AmgLay|Product Description: AutoCAD Mechanical 2000|Company: Autodesk"
 90
        1
280
     0
281
     0
  0
CLASS
  1
ACMSURFSTANDARDANSI
  2
AcmSurfTextStdANSI
  3
"Amdt_StdImp|Product Description: AutoCAD Mechanical 2000|Company: Autodesk"
 90
        0
280
     0
281
     0
  0
CLASS
  1
ACMFCFSTANDARDANSI
  2
AcmFCFStdANSI
  3
"Amdt_StdImp|Product Description: AutoCAD Mechanical 2000|Company: Autodesk"
 90
        0
280
     0
281
     0
  0
CLASS
  1
ACMWELDSTANDARDANSI
  2
AcmWeldingStdANSI
  3
"Amdt_StdImp|Product Description: AutoCAD Mechanical 2000|Company: Autodesk"
 90
        0
280
     0
281
     0
  0
CLASS
  1
ACMIDSTANDARDANSI
  2
AcmIdStdANSI
  3
"Amdt_StdImp|Product Description: AutoCAD Mechanical 2000|Company: Autodesk"
 90
        0
280
     0
281
     0
  0
CLASS
  1
ACMDATUMSTANDARDANSI
  2
AcmDatumStdANSI
  3
"Amdt_StdImp|Product Description: AutoCAD Mechanical 2000|Company: Autodesk"
 90
        0
280
     0
281
     0
  0
CLASS
  1
ACMBOMSTANDARDANSI
  2
AcmBOMStdANSI
  3
"Amdt_StdImp|Product Description: AutoCAD Mechanical 2000|Company: Autodesk"
 90
        0
280
     0
281
     0
  0
CLASS
  1
ACMDETAILSTANDARDANSI
  2
AmdtDetailSymStdANSI
  3
"Amdt_StdImp|Product Description: AutoCAD Mechanical 2000|Company: Autodesk"
 90
        0
280
     0
281
     0
  0
CLASS
  1
ACMSECTIONSTANDARDANSI
  2
AmdtSectionSymStdANSI
  3
"Amdt_StdImp|Product Description: AutoCAD Mechanical 2000|Company: Autodesk"
 90
        0
280
     0
281
     0
  0
CLASS
  1
ACMCENTERLINESTANDARDANSI
  2
AmdtCenterLineStdANSI
  3
"Amdt_StdImp|Product Description: AutoCAD Mechanical 2000|Company: Autodesk"
 90
        0
280
     0
281
     0
  0
CLASS
  1
ACMThreadLineSTANDARDANSI
  2
AmdtThreadLineStdANSI
  3
"Amdt_StdImp|Product Description: AutoCAD Mechanical 2000|Company: Autodesk"
 90
        0
280
     0
281
     0
  0
CLASS
  1
"AcAmgLayStd"
  2
AcAmgLayStd
  3
"AcAmgLayStd|Product Description: AutoCAD Mechanical 2000|Company: Autodesk"
 90
        0
280
     0
281
     0
  0
CLASS
  1
"AcAmgDimStd"
  2
AcAmgDimStd
  3
"AcAmgDimStd|Product Description: AutoCAD Mechanical 2000|Company: Autodesk"
 90
        0
280
     0
281
     0
  0
CLASS
  1
AcAmgTitleStd
  2
AcAmgTitleStd
  3
"TITLEAPP"
 90
        0
280
     0
281
     0
  0
CLASS
  1
ACAMGFILTERDAT
  2
AcAmgFilterDat
  3
"AcadM|Product Description: AutoCAD Mechanical 2000|Company: Autodesk"
 90
        0
280
     0
281
     0
  0
CLASS
  1
AMDTFORMULAUPDATEDISPATCHER
  2
AmdtFormulaUpdateDispatcher
  3
AcMeServices
 90
        0
280
     0
281
     0
  0
ENDSEC
  0
SECTION
  2
TABLES
  0
TABLE
  2
VPORT
  5
7
330
0
100
AcDbSymbolTable
 70
     3
  0
VPORT
  5
7CB
330
7
100
AcDbSymbolTableRecord
100
AcDbViewportTableRecord
  2
*Active
 70
     0
 10
0.0
 20
0.0
 11
1.0
 21
1.0
 12
21.99955027031636
 22
17.00002655576966
 13
0.0
 23
0.0
 14
1.0
 24
1.0
 15
0.0
 25
0.0
 16
0.0
 26
0.0
 36
1.0
 17
0.0
 27
0.0
 37
0.0
 40
34.37493751202963
 41
1.666666666666666
 42
50.0
 43
0.0
 44
0.0
 50
0.0
 51
0.0
 71
     0
 72
  2000
 73
     1
 74
     1
 75
     0
 76
     0
 77
     0
 78
     0
281
     0
 65
     1
110
0.0
120
0.0
130
0.0
111
1.0
121
0.0
131
0.0
112
0.0
122
1.0
132
0.0
 79
     0
146
0.0
  0
ENDTAB
  0
TABLE
  2
LTYPE
  5
4
330
0
100
AcDbSymbolTable
 70
    23
  0
LTYPE
  5
11
330
4
100
AcDbSymbolTableRecord
100
AcDbLinetypeTableRecord
  2
BYBLOCK
 70
     0
  3

 72
    65
 73
     0
 40
0.0
  0
LTYPE
  5
12
330
4
100
AcDbSymbolTableRecord
100
AcDbLinetypeTableRecord
  2
BYLAYER
 70
     0
  3

 72
    65
 73
     0
 40
0.0
  0
LTYPE
  5
13
330
4
100
AcDbSymbolTableRecord
100
AcDbLinetypeTableRecord
  2
CONTINUOUS
 70
     0
  3
Solid line
 72
    65
 73
     0
 40
0.0
  0
LTYPE
  5
1E
330
4
100
AcDbSymbolTableRecord
100
AcDbLinetypeTableRecord
  2
HIDDEN
 70
     0
  3
Hidden __ __ __ __ __ __ __ __ __ __ __ __ __ __
 72
    65
 73
     2
 40
0.075
 49
0.05
 74
     0
 49
-0.025
 74
     0
  0
LTYPE
  5
1F
330
4
100
AcDbSymbolTableRecord
100
AcDbLinetypeTableRecord
  2
PHANTOM
 70
     0
  3
Phantom ______  __  __  ______  __  __  ______
 72
    65
 73
     6
 40
0.5
 49
0.25
 74
     0
 49
-0.05
 74
     0
 49
0.05
 74
     0
 49
-0.05
 74
     0
 49
0.05
 74
     0
 49
-0.05
 74
     0
  0
LTYPE
  5
20
330
4
100
AcDbSymbolTableRecord
100
AcDbLinetypeTableRecord
  2
CENTER
 70
     0
  3
Center ____ _ ____ _ ____ _ ____ _ ____ _ ____
 72
    65
 73
     4
 40
0.4
 49
0.25
 74
     0
 49
-0.05
 74
     0
 49
0.05
 74
     0
 49
-0.05
 74
     0
  0
LTYPE
  5
21
330
4
100
AcDbSymbolTableRecord
100
AcDbLinetypeTableRecord
  2
CENTERX2
 70
     0
  3
Center (2x) ________  __  ________  __  _____
 72
    65
 73
     4
 40
0.8
 49
0.5
 74
     0
 49
-0.1
 74
     0
 49
0.1
 74
     0
 49
-0.1
 74
     0
  0
LTYPE
  5
22
330
4
100
AcDbSymbolTableRecord
100
AcDbLinetypeTableRecord
  2
DOT2
 70
     0
  3
Dot (.5x) ........................................
 72
    65
 73
     2
 40
0.025
 49
0.0
 74
     0
 49
-0.025
 74
     0
  0
LTYPE
  5
3A1
330
4
100
AcDbSymbolTableRecord
100
AcDbLinetypeTableRecord
  2
AM_ISO02W050
 70
     0
  3
__ __ __ __ __ __ __ __ __ __ __ __ __ __ __
 72
    65
 73
     2
 40
7.5
 49
6.0
 74
     0
 49
-1.5
 74
     0
  0
LTYPE
  5
3A2
330
4
100
AcDbSymbolTableRecord
100
AcDbLinetypeTableRecord
  2
AM_ISO08W050
 70
     0
  3
____ . ____ . ____ . ____ . ____ . ____ . ____
 72
    65
 73
     4
 40
18.0
 49
12.0
 74
     0
 49
-1.5
 74
     0
 49
3.0
 74
     0
 49
-1.5
 74
     0
  0
LTYPE
  5
3A3
330
4
100
AcDbSymbolTableRecord
100
AcDbLinetypeTableRecord
  2
AM_ISO09W050
 70
     0
  3
_____ . . _____ . . _____ . . ____ .. ____
 72
    65
 73
     6
 40
22.5
 49
12.0
 74
     0
 49
-1.5
 74
     0
 49
3.0
 74
     0
 49
-1.5
 74
     0
 49
3.0
 74
     0
 49
-1.5
 74
     0
  0
LTYPE
  5
3A4
330
4
100
AcDbSymbolTableRecord
100
AcDbLinetypeTableRecord
  2
Amconstr
 70
     0
  3
_______________________
 72
    65
 73
     2
 40
9999.0
 49
9999.0
 74
     0
 49
0.0
 74
     0
  0
LTYPE
  5
3A5
330
4
100
AcDbSymbolTableRecord
100
AcDbLinetypeTableRecord
  2
AM_ISO08W050x2
 70
     0
  3
__ . __ . __ . __ . __ . __
 72
    65
 73
     4
 40
9.0
 49
6.0
 74
     0
 49
-0.75
 74
     0
 49
1.5
 74
     0
 49
-0.75
 74
     0
  0
LTYPE
  5
3A6
330
4
100
AcDbSymbolTableRecord
100
AcDbLinetypeTableRecord
  2
AM_ISO02W050x2
 70
     0
  3
 _ _ _ _ _ _ _ _ _ _ _ _
 72
    65
 73
     2
 40
3.75
 49
3.0
 74
     0
 49
-0.75
 74
     0
  0
LTYPE
  5
3A9
330
4
100
AcDbSymbolTableRecord
100
AcDbLinetypeTableRecord
  2
Amzigzag
 70
     0
  3
/\/-/\/-/\/-/\/-/\/-/\/
 72
    65
 73
     2
 40
11.00009999999999
 49
0.0001
 74
     4
 75
   135
340
3A8
 46
0.04
 50
0.0
 44
0.0
 45
0.0
 49
-11.0
 74
     0
  0
LTYPE
  5
3AA
330
4
100
AcDbSymbolTableRecord
100
AcDbLinetypeTableRecord
  2
PHANTOM2
 70
     0
  3
Phantom (.5x) ___ _ _ ___ _ _ ___ _ _ ___ _ _
 72
    65
 73
     6
 40
1.25
 49
0.625
 74
     0
 49
-0.125
 74
     0
 49
0.125
 74
     0
 49
-0.125
 74
     0
 49
0.125
 74
     0
 49
-0.125
 74
     0
  0
LTYPE
  5
3AB
330
4
100
AcDbSymbolTableRecord
100
AcDbLinetypeTableRecord
  2
CENTER2
 70
     0
  3
Center (.5x) ___ _ ___ _ ___ _ ___ _ ___ _ ___
 72
    65
 73
     4
 40
1.125
 49
0.75
 74
     0
 49
-0.125
 74
     0
 49
0.125
 74
     0
 49
-0.125
 74
     0
  0
LTYPE
  5
3AC
330
4
100
AcDbSymbolTableRecord
100
AcDbLinetypeTableRecord
  2
HIDDEN2
 70
     0
  3
Hidden (.5x) _ _ _ _ _ _ _ _ _ _ _ _ _ _ _ _ _
 72
    65
 73
     2
 40
0.1875
 49
0.125
 74
     0
 49
-0.0625
 74
     0
  0
LTYPE
  5
3AD
330
4
100
AcDbSymbolTableRecord
100
AcDbLinetypeTableRecord
  2
Amzigzag2
 70
     0
  3
/\/-/\/-/\/-/\/-/\/-/\/
 72
    65
 73
     2
 40
0.4401
 49
0.0001
 74
     4
 75
   135
340
3A8
 46
0.0016
 50
0.0
 44
0.0
 45
0.0
 49
-0.4400000000000001
 74
     0
  0
LTYPE
  5
3BA
330
4
100
AcDbSymbolTableRecord
100
AcDbLinetypeTableRecord
  2
ACANSTGB
 70
     0
  3
__ . . __ . .
 72
    65
 73
     6
 40
0.35433070866
 49
0.15748031496
 74
     0
 49
-0.03937007874
 74
     0
 49
0.03937007874
 74
     0
 49
-0.03937007874
 74
     0
 49
0.03937007874
 74
     0
 49
-0.03937007874
 74
     0
  0
LTYPE
  5
3BB
330
4
100
AcDbSymbolTableRecord
100
AcDbLinetypeTableRecord
  2
ACANSTGL
 70
     0
  3
_ _ _ _ _
 72
    65
 73
     2
 40
0.11811023622
 49
0.07874015748
 74
     0
 49
-0.03937007874
 74
     0
  0
LTYPE
  5
5B3
330
4
100
AcDbSymbolTableRecord
100
AcDbLinetypeTableRecord
  2
MS
 70
     0
  3
MEDIUM_SOLID
 72
    65
 73
     0
 40
0.0
  0
LTYPE
  5
5B4
330
4
100
AcDbSymbolTableRecord
100
AcDbLinetypeTableRecord
  2
LS
 70
     0
  3
LIGHT_SOLID
 72
    65
 73
     0
 40
0.0
  0
LTYPE
  5
5B5
330
4
100
AcDbSymbolTableRecord
100
AcDbLinetypeTableRecord
  2
LP
 70
     0
  3
LIGHT_PHANTOM
 72
    65
 73
     6
 40
1.5
 49
0.75
 74
     0
 49
-0.14999998
 74
     0
 49
0.14999998
 74
     0
 49
-0.14999998
 74
     0
 49
0.14999998
 74
     0
 49
-0.14999998
 74
     0
  0
LTYPE
  5
5B6
330
4
100
AcDbSymbolTableRecord
100
AcDbLinetypeTableRecord
  2
NC
 70
     0
  3
NUMERIC_CONTROL
 72
    65
 73
     0
 40
0.0
  0
ENDTAB
  0
TABLE
  2
LAYER
  5
2
330
0
100
AcDbSymbolTable
 70
    11
  0
LAYER
  5
14
330
2
100
AcDbSymbolTableRecord
100
AcDbLayerTableRecord
  2
0
 70
     0
 62
     7
  6
CONTINUOUS
370
    -3
390
375
  0
LAYER
  5
26
330
2
100
AcDbSymbolTableRecord
100
AcDbLayerTableRecord
  2
DEFPOINTS
 70
     0
 62
     7
  6
CONTINUOUS
290
     0
370
    -3
390
375
  0
LAYER
  5
29
330
2
100
AcDbSymbolTableRecord
100
AcDbLayerTableRecord
  2
1
 70
     0
 62
     7
  6
CONTINUOUS
370
    -3
390
375
  0
LAYER
  5
2A
330
2
100
AcDbSymbolTableRecord
100
AcDbLayerTableRecord
  2
5
 70
     0
 62
     7
  6
CONTINUOUS
370
    -3
390
375
  0
LAYER
  5
2B
330
2
100
AcDbSymbolTableRecord
100
AcDbLayerTableRecord
  2
6
 70
     0
 62
     7
  6
CONTINUOUS
370
    -3
390
375
  0
LAYER
  5
2C
330
2
100
AcDbSymbolTableRecord
100
AcDbLayerTableRecord
  2
11
 70
     0
 62
     7
  6
CONTINUOUS
370
    -3
390
375
  0
LAYER
  5
2D
330
2
100
AcDbSymbolTableRecord
100
AcDbLayerTableRecord
  2
2
 70
     0
 62
     7
  6
CONTINUOUS
370
    -3
390
375
  0
LAYER
  5
2E
330
2
100
AcDbSymbolTableRecord
100
AcDbLayerTableRecord
  2
4
 70
     0
 62
     7
  6
CONTINUOUS
370
    -3
390
375
  0
LAYER
  5
2F
330
2
100
AcDbSymbolTableRecord
100
AcDbLayerTableRecord
  2
90
 70
     0
 62
     7
  6
CONTINUOUS
370
    -3
390
375
  0
LAYER
  5
5B7
330
2
100
AcDbSymbolTableRecord
100
AcDbLayerTableRecord
  2
BORDER
 70
     0
 62
    15
  6
CONTINUOUS
370
    -3
390
375
  0
LAYER
  5
5B8
330
2
100
AcDbSymbolTableRecord
100
AcDbLayerTableRecord
  2
TITLE BLOCK
 70
     0
 62
     2
  6
CONTINUOUS
370
    -3
390
375
  0
ENDTAB
  0
TABLE
  2
STYLE
  5
3
330
0
100
AcDbSymbolTable
 70
     7
  0
STYLE
  5
17
330
3
100
AcDbSymbolTableRecord
100
AcDbTextStyleTableRecord
  2
STANDARD
 70
     0
 40
0.0
 41
1.0
 50
0.0
 71
     0
 42
0.0
  3
txt
  4

  0
STYLE
  5
326
330
3
100
AcDbSymbolTableRecord
100
AcDbTextStyleTableRecord
  2
SLDTEXTSTYLE0
 70
     0
 40
0.0
 41
0.675
 50
0.0
 71
     0
 42
0.0
  3
txt
  4

  0
STYLE
  5
3A8
330
3
100
AcDbSymbolTableRecord
100
AcDbTextStyleTableRecord
  2

 70
     1
 40
0.0
 41
1.0
 50
0.0
 71
     0
 42
0.1377952756
  3
ltypeshp.shx
  4

  0
STYLE
  5
3AE
330
3
100
AcDbSymbolTableRecord
100
AcDbTextStyleTableRecord
  2
ACANSTS
 70
     0
 40
1.0
 41
1.0
 50
0.0
 71
     0
 42
0.1377952756
  3
romans.shx
  4

  0
STYLE
  5
3B9
330
3
100
AcDbSymbolTableRecord
100
AcDbTextStyleTableRecord
  2
ACANSGDT
 70
     0
 40
0.0
 41
1.0
 50
0.0
 71
     0
 42
0.1377952756
  3
amgdtans.shx
  4

  0
STYLE
  5
5B9
330
3
100
AcDbSymbolTableRecord
100
AcDbTextStyleTableRecord
  2
AE
 70
     0
 40
0.0
 41
1.0
 50
0.0
 71
     0
 42
0.16408998
  3
MIGRATOR
  4

  0
STYLE
  5
5BA
330
3
100
AcDbSymbolTableRecord
100
AcDbTextStyleTableRecord
  2

 70
     1
 40
0.0
 41
1.0
 50
0.0
 71
     0
 42
1.0
  3
symtb128
  4

  0
ENDTAB
  0
TABLE
  2
VIEW
  5
5
330
0
100
AcDbSymbolTable
 70
     0
  0
ENDTAB
  0
TABLE
  2
UCS
  5
6
330
0
100
AcDbSymbolTable
 70
     0
  0
ENDTAB
  0
TABLE
  2
APPID
  5
8
330
0
100
AcDbSymbolTable
 70
     7
  0
APPID
  5
16
330
8
100
AcDbSymbolTableRecord
100
AcDbRegAppTableRecord
  2
ACAD
 70
     0
  0
APPID
  5
381
330
8
100
AcDbSymbolTableRecord
100
AcDbRegAppTableRecord
  2
MCAD_NO_VIS
 70
     0
  0
APPID
  5
382
330
8
100
AcDbSymbolTableRecord
100
AcDbRegAppTableRecord
  2
ACAD_TEMP_GRAPHIC
 70
     0
  0
APPID
  5
395
330
8
100
AcDbSymbolTableRecord
100
AcDbRegAppTableRecord
  2
ACATTRIBSERVICES
 70
     0
  0
APPID
  5
4B8
330
8
100
AcDbSymbolTableRecord
100
AcDbRegAppTableRecord
  2
DCO15
 70
     0
  0
APPID
  5
5BC
330
8
100
AcDbSymbolTableRecord
100
AcDbRegAppTableRecord
  2
GENIUS_GENBLLY_14
 70
     0
  0
APPID
  5
5BD
330
8
100
AcDbSymbolTableRecord
100
AcDbRegAppTableRecord
  2
GENIUS_GENTRA_14
 70
     0
  0
ENDTAB
  0
TABLE
  2
DIMSTYLE
  5
9
330
0
100
AcDbSymbolTable
 70
     8
100
AcDbDimStyleTable
 71
     0
  0
DIMSTYLE
105
18
330
9
100
AcDbSymbolTableRecord
100
AcDbDimStyleTableRecord
  2
STANDARD
 70
     0
340
17
  0
DIMSTYLE
105
3BF
330
9
100
AcDbSymbolTableRecord
100
AcDbDimStyleTableRecord
  2
AM_ANSI
 70
     0
  4
mm
 41
0.1
 42
0.05
 43
0.5
 44
0.1
 47
0.1
 48
0.1
 78
     7
 79
     2
140
0.12
141
0.0
146
0.71
147
0.06
176
   256
177
   256
178
     2
274
     4
284
     7
340
17
371
    -1
372
    -1
  0
DIMSTYLE
105
3C0
330
9
100
AcDbSymbolTableRecord
100
AcDbDimStyleTableRecord
  2
AM_ANSI$3
 70
     0
  4
mm
 41
0.1
 42
0.05
 43
0.5
 44
0.1
 47
0.1
 48
0.1
 78
     7
 79
     2
140
0.12
141
0.0
146
0.71
147
0.06
176
   256
177
   256
178
     2
274
     4
284
     7
288
     1
289
     0
340
17
371
    -1
372
    -1
  0
DIMSTYLE
105
3C1
330
9
100
AcDbSymbolTableRecord
100
AcDbDimStyleTableRecord
  2
AM_ANSI$4
 70
     0
  4
mm
 41
0.1
 42
0.05
 43
0.5
 44
0.1
 47
0.1
 48
0.1
 78
     7
 79
     2
140
0.12
141
0.0
146
0.71
147
0.06
176
   256
177
   256
178
     2
274
     4
284
     7
288
     1
289
     0
340
17
371
    -1
372
    -1
  0
DIMSTYLE
105
3C2
330
9
100
AcDbSymbolTableRecord
100
AcDbDimStyleTableRecord
  2
AM_ANSI$7
 70
     0
  4
mm
 41
0.1
 42
0.05
 43
0.5
 44
0.1
 47
0.1
 48
0.1
 78
     7
 79
     2
140
0.24
141
0.0
146
0.71
147
0.06
176
   256
177
   256
178
     2
274
     4
284
     7
340
17
371
    -1
372
    -1
  0
DIMSTYLE
105
3C3
330
9
100
AcDbSymbolTableRecord
100
AcDbDimStyleTableRecord
  2
AM_ANSI$SF
 70
     0
  4
mm
 41
0.1
 42
0.05
 43
0.5
 44
0.1
 47
0.1
 48
0.1
 75
     1
 76
     1
 78
     7
 79
     2
140
0.12
141
0.0
146
0.71
147
0.06
176
   256
177
   256
178
     2
274
     4
284
     7
340
17
371
    -1
372
    -1
  0
DIMSTYLE
105
3C8
330
9
100
AcDbSymbolTableRecord
100
AcDbDimStyleTableRecord
  2
AM_ANSI$SH
 70
     0
  4
mm
 41
0.1
 42
0.05
 43
0.5
 44
0.1
 47
0.1
 48
0.1
 75
     1
 76
     1
 78
     7
 79
     2
140
0.12
141
0.0
146
0.71
147
0.06
173
     1
176
   256
177
   256
178
     2
274
     4
284
     7
340
17
343
3C4
371
    -1
372
    -1
  0
DIMSTYLE
105
5BB
330
9
100
AcDbSymbolTableRecord
100
AcDbDimStyleTableRecord
  2
GEN-ANSI
 70
     0
  3
<>
  4
mm
 41
0.14
 42
0.125
 43
0.5
 44
0.125
 47
0.1
 48
0.1
 73
     0
 74
     0
 77
     1
 78
     7
140
0.12
141
0.0
146
0.71
147
0.06
176
   256
177
   256
178
     2
274
     4
340
17
  0
ENDTAB
  0
TABLE
  2
BLOCK_RECORD
  5
1
330
0
100
AcDbSymbolTable
 70
     3
  0
BLOCK_RECORD
  5
A
102
{ACAD_XDICTIONARY
360
4BA
102
}
330
1
100
AcDbSymbolTableRecord
100
AcDbBlockTableRecord
  2
*MODEL_SPACE
340
378
  0
BLOCK_RECORD
  5
B
330
1
100
AcDbSymbolTableRecord
100
AcDbBlockTableRecord
  2
*PAPER_SPACE
340
379
  0
BLOCK_RECORD
  5
3C4
330
1
100
AcDbSymbolTableRecord
100
AcDbBlockTableRecord
  2
GENAXEH
340
0
  0
BLOCK_RECORD
  5
5AF
330
1
100
AcDbSymbolTableRecord
100
AcDbBlockTableRecord
  2
A$C215E2678
340
0
  0
BLOCK_RECORD
  5
5BE
330
1
100
AcDbSymbolTableRecord
100
AcDbBlockTableRecord
  2
BM_E
340
0
102
{BLKREFS
331
791
102
}
  0
ENDTAB
  0
ENDSEC
  0
SECTION
  2
BLOCKS
  0
BLOCK
  5
D
330
A
100
AcDbEntity
  8
0
100
AcDbBlockBegin
  2
*MODEL_SPACE
 70
     0
 10
0.0
 20
0.0
 30
0.0
  3
*MODEL_SPACE
  1

  0
ENDBLK
  5
E
330
A
100
AcDbEntity
  8
0
100
AcDbBlockEnd
  0
BLOCK
  5
F
330
B
100
AcDbEntity
 67
     1
  8
0
100
AcDbBlockBegin
  2
*PAPER_SPACE
 70
     0
 10
0.0
 20
0.0
 30
0.0
  3
*PAPER_SPACE
  1

  0
ENDBLK
  5
10
330
B
100
AcDbEntity
 67
     1
  8
0
100
AcDbBlockEnd
  0
BLOCK
  5
3C6
330
3C4
100
AcDbEntity
  8
0
100
AcDbBlockBegin
  2
GENAXEH
 70
     0
 10
0.0
 20
0.0
 30
0.0
  3
GENAXEH
  1

  0
LINE
  5
3C5
330
3C4
100
AcDbEntity
  8
0
100
AcDbLine
 10
-1.0
 20
0.0
 30
0.0
 11
1.0
 21
0.0
 31
0.0
  0
ENDBLK
  5
3C7
330
3C4
100
AcDbEntity
  8
0
100
AcDbBlockEnd
  0
BLOCK
  5
5B1
330
5AF
100
AcDbEntity
  8
0
100
AcDbBlockBegin
  2
A$C215E2678
 70
     0
 10
0.0
 20
0.0
 30
0.0
  3
A$C215E2678
  1

  0
TEXT
  5
5B0
330
5AF
100
AcDbEntity
  8
BORDER
100
AcDbText
 10
-0.375
 20
-2.3125
 30
0.0
 40
0.375
  1
2
 72
     1
 11
-0.25
 21
-2.125
 31
0.0
100
AcDbText
 73
     2
  0
ENDBLK
  5
5B2
330
5AF
100
AcDbEntity
  8
0
100
AcDbBlockEnd
  0
BLOCK
  5
693
330
5BE
100
AcDbEntity
  8
0
100
AcDbBlockBegin
  2
BM_E
 70
     2
 10
0.0
 20
0.0
 30
0.0
  3
BM_E
  1

  0
LINE
  5
6BC
330
5BE
100
AcDbEntity
  8
BORDER
100
AcDbLine
 10
0.3000030000000038
 20
17.099998
 30
0.0
 11
0.5
 21
17.0
 31
0.0
  0
LINE
  5
6BD
330
5BE
100
AcDbEntity
  8
BORDER
100
AcDbLine
 10
0.299987999999999
 20
16.90000299999999
 30
0.0
 11
0.4999849999999953
 21
17.00000099999999
 31
0.0
  0
LINE
  5
6BE
330
5BE
100
AcDbEntity
  8
BORDER
100
AcDbLine
 10
0.1000060000000005
 20
17.00002899999999
 30
0.0
 11
0.3000030000000038
 21
17.00002899999999
 31
0.0
  0
LINE
  5
6BF
330
5BE
100
AcDbEntity
  8
BORDER
100
AcDbLine
 10
0.3000030000000038
 20
16.90002299999999
 30
0.0
 11
0.3000030000000038
 21
17.10002
 31
0.0
  0
ATTDEF
  5
6C0
330
5BE
100
AcDbEntity
  8
TITLE BLOCK
  6
Continuous
100
AcDbText
 10
35.34999999999999
 20
3.250068621953476
 30
0.0
 40
0.2021222838
  1

100
AcDbAttributeDefinition
  3
Drawn by
  2
GEN-TITLE-NAME{5}
 70
     0
1001
GENIUS_GENBLLY_14
1000
BOR2
  0
ATTDEF
  5
6C1
330
5BE
100
AcDbEntity
  8
TITLE BLOCK
  6
Continuous
100
AcDbText
 10
35.34999999999999
 20
2.750068621953476
 30
0.0
 40
0.2021222838
  1

100
AcDbAttributeDefinition
  3
Check by
  2
GEN-TITLE-CHKM{5}
 70
     0
1001
GENIUS_GENBLLY_14
1000
BOR2
  0
ATTDEF
  5
6C2
330
5BE
100
AcDbEntity
  8
TITLE BLOCK
  6
Continuous
100
AcDbText
 10
35.34999999999999
 20
2.250068621953476
 30
0.0
 40
0.2021222838
  1

100
AcDbAttributeDefinition
  3
Approved by
  2
GEN-TITLE-APPM{5}
 70
     0
1001
GENIUS_GENBLLY_14
1000
BOR2
1001
GENIUS_GENTRA_14
1002
{
1070
     3
1000
GENTRAPR,%s,(GENMSG gentitus 73)
1000
Approved by
1000
gb
1070
     0
1002
}
  0
TEXT
  5
6C3
330
5BE
100
AcDbEntity
  8
TITLE BLOCK
  6
Continuous
100
AcDbText
 10
34.91338965445351
 20
4.192395147082805
 30
0.0
 40
0.2021222838
  1
  DRAWING
 50
0.09999996
  7
AE
100
AcDbText
  0
TEXT
  5
6C4
330
5BE
100
AcDbEntity
  8
TITLE BLOCK
  6
Continuous
100
AcDbText
 10
34.91338965445351
 20
4.611161697456088
 30
0.0
 40
0.2021222838
  1
DO NOT SCALE
 50
0.09999996
  7
AE
100
AcDbText
  0
LINE
  5
6C5
330
5BE
100
AcDbEntity
  8
TITLE BLOCK
  6
Continuous
100
AcDbLine
 10
31.69931278063705
 20
2.100068621953476
 30
0.0
 11
43.5
 21
2.100068621953476
 31
0.0
  0
LINE
  5
6C6
330
5BE
100
AcDbEntity
  8
TITLE BLOCK
  6
Continuous
100
AcDbLine
 10
34.65037991030702
 20
2.600068621953476
 30
0.0
 11
43.5
 21
2.600068621953476
 31
0.0
  0
LINE
  5
6C7
330
5BE
100
AcDbEntity
  8
TITLE BLOCK
  6
Continuous
100
AcDbLine
 10
34.65037991030702
 20
3.100068621953475
 30
0.0
 11
43.5
 21
3.100068621953475
 31
0.0
  0
LINE
  5
6C8
330
5BE
100
AcDbEntity
  8
TITLE BLOCK
  6
Continuous
100
AcDbLine
 10
34.65037991030702
 20
3.600068621953475
 30
0.0
 11
43.5
 21
3.600068621953475
 31
0.0
  0
LINE
  5
6C9
330
5BE
100
AcDbEntity
  8
TITLE BLOCK
  6
Continuous
100
AcDbLine
 10
26.0
 20
5.000068621953477
 30
0.0
 11
43.5
 21
5.000068621953477
 31
0.0
  0
LINE
  5
6CA
330
5BE
100
AcDbEntity
  8
BORDER
100
AcDbLine
 10
22.0
 20
0.9999985699999999
 30
0.0
 11
22.099991
 21
0.79999936
 31
0.0
  0
LINE
  5
6CB
330
5BE
100
AcDbEntity
  8
BORDER
100
AcDbLine
 10
21.899994
 20
0.80000037
 30
0.0
 11
22.0
 21
1.0
 31
0.0
  0
LINE
  5
6CC
330
5BE
100
AcDbEntity
  8
BORDER
100
AcDbLine
 10
21.899994
 20
0.7999999500000001
 30
0.0
 11
22.099991
 21
0.7999999500000001
 31
0.0
  0
LINE
  5
6CD
330
5BE
100
AcDbEntity
  8
BORDER
100
AcDbLine
 10
21.999985
 20
0.5999999000000001
 30
0.0
 11
21.999985
 21
0.7999999500000001
 31
0.0
  0
LINE
  5
6CE
330
5BE
100
AcDbEntity
  8
BORDER
100
AcDbLine
 10
21.999985
 20
0.5999999000000001
 30
0.0
 11
21.999985
 21
0.7999999500000001
 31
0.0
  0
TEXT
  5
6CF
330
5BE
100
AcDbEntity
  8
TITLE BLOCK
  6
Continuous
100
AcDbText
 10
28.24708615700002
 20
1.180117028838981
 30
0.0
 40
0.1518741343009839
  1
REVISION
 50
0.09999996
  7
AE
100
AcDbText
  0
LINE
  5
6D0
330
5BE
100
AcDbEntity
  8
TITLE BLOCK
  6
Continuous
100
AcDbLine
 10
26.0
 20
1.500068621953476
 30
0.0
 11
31.69931278063705
 21
1.500068621953476
 31
0.0
  0
LINE
  5
6D1
330
5BE
100
AcDbEntity
  8
TITLE BLOCK
  6
Continuous
100
AcDbLine
 10
26.0
 20
3.000068621953476
 30
0.0
 11
31.69931278063705
 21
3.000068621953476
 31
0.0
  0
LINE
  5
6D2
330
5BE
100
AcDbEntity
  8
TITLE BLOCK
  6
Continuous
100
AcDbLine
 10
26.0
 20
3.500068621953476
 30
0.0
 11
31.69931278063705
 21
3.500068621953476
 31
0.0
  0
LINE
  5
6D3
330
5BE
100
AcDbEntity
  8
TITLE BLOCK
  6
Continuous
100
AcDbLine
 10
26.0
 20
4.000068621953476
 30
0.0
 11
31.69931278063705
 21
4.000068621953476
 31
0.0
  0
LINE
  5
6D4
330
5BE
100
AcDbEntity
  8
TITLE BLOCK
  6
Continuous
100
AcDbLine
 10
26.0
 20
4.500068621953476
 30
0.0
 11
31.69931278063705
 21
4.500068621953476
 31
0.0
  0
LINE
  5
6D5
330
5BE
100
AcDbEntity
  8
TITLE BLOCK
  6
Continuous
100
AcDbLine
 10
26.0
 20
2.500068621953476
 30
0.0
 11
31.69931278063705
 21
2.500068621953476
 31
0.0
  0
LINE
  5
6D6
330
5BE
100
AcDbEntity
  8
TITLE BLOCK
  6
Continuous
100
AcDbLine
 10
26.0
 20
2.000068621953476
 30
0.0
 11
31.69931278063705
 21
2.000068621953476
 31
0.0
  0
TEXT
  5
6D7
330
5BE
100
AcDbEntity
  8
BORDER
100
AcDbText
 10
36.702981
 20
0.5829867509767382
 30
0.0
 40
0.04
  1
FULL SIZE   50   02
 50
0.0999999600000001
 41
0.7749084200000001
  7
AE
100
AcDbText
  0
LINE
  5
6D8
330
5BE
100
AcDbEntity
  8
TITLE BLOCK
  6
Continuous
100
AcDbLine
 10
28.3
 20
1.500068621953476
 30
0.0
 11
28.3
 21
5.000068621953477
 31
0.0
  0
TEXT
  5
6D9
330
5BE
100
AcDbEntity
  8
TITLE BLOCK
  6
Continuous
100
AcDbText
 10
27.30274804469479
 20
1.681984803701876
 30
0.0
 40
0.1518741343009839
  1
DATE
 50
0.09999996
  7
AE
100
AcDbText
  0
TEXT
  5
6DA
330
5BE
100
AcDbEntity
  8
TITLE BLOCK
  6
Continuous
100
AcDbText
 10
26.17648426449007
 20
1.680768250149125
 30
0.0
 40
0.1543041553225475
  1
NO.
 50
0.09999996
  7
AE
100
AcDbText
  0
LINE
  5
6DB
330
5BE
100
AcDbEntity
  8
TITLE BLOCK
  6
Continuous
100
AcDbLine
 10
26.0
 20
1.0
 30
0.0
 11
26.0
 21
5.000068621953477
 31
0.0
  0
LINE
  5
6DC
330
5BE
100
AcDbEntity
  8
TITLE BLOCK
  6
Continuous
100
AcDbLine
 10
26.7
 20
1.500068621953476
 30
0.0
 11
26.7
 21
5.000068621953477
 31
0.0
  0
LINE
  5
6DD
330
5BE
100
AcDbEntity
  8
BORDER
  6
LS
100
AcDbLine
 10
36.9000015
 20
0.8100341909767383
 30
0.0
 11
36.9000015
 21
0.950034240976738
 31
0.0
  0
LINE
  5
6DE
330
5BE
100
AcDbEntity
  8
BORDER
  6
LS
100
AcDbLine
 10
37.0000019
 20
0.8100341909767383
 30
0.0
 11
37.0000019
 21
0.950034240976738
 31
0.0
  0
LINE
  5
6DF
330
5BE
100
AcDbEntity
  8
BORDER
  6
LS
100
AcDbLine
 10
36.880002
 20
0.8900342409767381
 30
0.0
 11
36.880002
 21
0.950034240976738
 31
0.0
  0
LINE
  5
6E0
330
5BE
100
AcDbEntity
  8
BORDER
  6
LS
100
AcDbLine
 10
36.920002
 20
0.8900342409767381
 30
0.0
 11
36.920002
 21
0.950034240976738
 31
0.0
  0
LINE
  5
6E1
330
5BE
100
AcDbEntity
  8
BORDER
  6
LS
100
AcDbLine
 10
36.9400025
 20
0.8500342109767382
 30
0.0
 11
36.9400025
 21
0.950034240976738
 31
0.0
  0
LINE
  5
6E2
330
5BE
100
AcDbEntity
  8
BORDER
  6
LS
100
AcDbLine
 10
36.9600029
 20
0.8500342109767382
 30
0.0
 11
36.9600029
 21
0.950034240976738
 31
0.0
  0
LINE
  5
6E3
330
5BE
100
AcDbEntity
  8
BORDER
  6
LS
100
AcDbLine
 10
36.9800024
 20
0.8900342409767381
 30
0.0
 11
36.9800024
 21
0.950034240976738
 31
0.0
  0
LINE
  5
6E4
330
5BE
100
AcDbEntity
  8
BORDER
  6
LS
100
AcDbLine
 10
36.7000008
 20
0.8100341909767383
 30
0.0
 11
36.7000008
 21
0.950034240976738
 31
0.0
  0
LINE
  5
6E5
330
5BE
100
AcDbEntity
  8
BORDER
  6
LS
100
AcDbLine
 10
36.8000012
 20
0.8100341909767383
 30
0.0
 11
36.8000012
 21
0.950034240976738
 31
0.0
  0
LINE
  5
6E6
330
5BE
100
AcDbEntity
  8
BORDER
  6
LS
100
AcDbLine
 10
36.7200012
 20
0.8900342409767381
 30
0.0
 11
36.7200012
 21
0.950034240976738
 31
0.0
  0
LINE
  5
6E7
330
5BE
100
AcDbEntity
  8
BORDER
  6
LS
100
AcDbLine
 10
36.74000170000001
 20
0.8500342109767382
 30
0.0
 11
36.74000170000001
 21
0.950034240976738
 31
0.0
  0
LINE
  5
6E8
330
5BE
100
AcDbEntity
  8
BORDER
  6
LS
100
AcDbLine
 10
36.7600021
 20
0.8500342109767382
 30
0.0
 11
36.7600021
 21
0.950034240976738
 31
0.0
  0
LINE
  5
6E9
330
5BE
100
AcDbEntity
  8
BORDER
  6
LS
100
AcDbLine
 10
36.7800016
 20
0.8900342409767381
 30
0.0
 11
36.7800016
 21
0.950034240976738
 31
0.0
  0
LINE
  5
6EA
330
5BE
100
AcDbEntity
  8
BORDER
  6
LS
100
AcDbLine
 10
36.8200016
 20
0.8900342409767381
 30
0.0
 11
36.8200016
 21
0.950034240976738
 31
0.0
  0
LINE
  5
6EB
330
5BE
100
AcDbEntity
  8
BORDER
  6
LS
100
AcDbLine
 10
36.8400021
 20
0.8500342109767382
 30
0.0
 11
36.8400021
 21
0.950034240976738
 31
0.0
  0
LINE
  5
6EC
330
5BE
100
AcDbEntity
  8
BORDER
  6
LS
100
AcDbLine
 10
36.86000250000001
 20
0.8500342109767382
 30
0.0
 11
36.86000250000001
 21
0.950034240976738
 31
0.0
  0
LINE
  5
6ED
330
5BE
100
AcDbEntity
  8
BORDER
  6
LS
100
AcDbLine
 10
37.0200024
 20
0.8900342409767381
 30
0.0
 11
37.0200024
 21
0.950034240976738
 31
0.0
  0
LINE
  5
6EE
330
5BE
100
AcDbEntity
  8
BORDER
  6
LS
100
AcDbLine
 10
36.5
 20
0.7500341909767383
 30
0.0
 11
36.5
 21
0.950034240976738
 31
0.0
  0
LINE
  5
6EF
330
5BE
100
AcDbEntity
  8
BORDER
  6
LS
100
AcDbLine
 10
36.5200005
 20
0.8900342409767381
 30
0.0
 11
36.5200005
 21
0.950034240976738
 31
0.0
  0
LINE
  5
6F0
330
5BE
100
AcDbEntity
  8
BORDER
  6
LS
100
AcDbLine
 10
36.5400009
 20
0.8500342109767382
 30
0.0
 11
36.5400009
 21
0.950034240976738
 31
0.0
  0
LINE
  5
6F1
330
5BE
100
AcDbEntity
  8
BORDER
  6
LS
100
AcDbLine
 10
36.6000004
 20
0.8100341909767383
 30
0.0
 11
36.6000004
 21
0.950034240976738
 31
0.0
  0
LINE
  5
6F2
330
5BE
100
AcDbEntity
  8
BORDER
  6
LS
100
AcDbLine
 10
36.5600014
 20
0.8500342109767382
 30
0.0
 11
36.5600014
 21
0.950034240976738
 31
0.0
  0
LINE
  5
6F3
330
5BE
100
AcDbEntity
  8
BORDER
  6
LS
100
AcDbLine
 10
36.5800009
 20
0.8900342409767381
 30
0.0
 11
36.5800009
 21
0.950034240976738
 31
0.0
  0
LINE
  5
6F4
330
5BE
100
AcDbEntity
  8
BORDER
  6
LS
100
AcDbLine
 10
36.6200008
 20
0.8900342409767381
 30
0.0
 11
36.6200008
 21
0.950034240976738
 31
0.0
  0
LINE
  5
6F5
330
5BE
100
AcDbEntity
  8
BORDER
  6
LS
100
AcDbLine
 10
36.64000130000001
 20
0.8500342109767382
 30
0.0
 11
36.64000130000001
 21
0.950034240976738
 31
0.0
  0
LINE
  5
6F6
330
5BE
100
AcDbEntity
  8
BORDER
  6
LS
100
AcDbLine
 10
36.6600018
 20
0.8500342109767382
 30
0.0
 11
36.6600018
 21
0.950034240976738
 31
0.0
  0
LINE
  5
6F7
330
5BE
100
AcDbEntity
  8
BORDER
  6
LS
100
AcDbLine
 10
36.6800013
 20
0.8900342409767381
 30
0.0
 11
36.6800013
 21
0.950034240976738
 31
0.0
  0
TEXT
  5
6F8
330
5BE
100
AcDbEntity
  8
BORDER
100
AcDbText
 10
36.4714985
 20
0.6099843209767384
 30
0.0
 40
0.07999998
  1
0
 50
0.0999999600000001
  7
AE
100
AcDbText
  0
TEXT
  5
6F9
330
5BE
100
AcDbEntity
  8
BORDER
100
AcDbText
 10
36.8715
 20
0.669984320976738
 30
0.0
 40
0.07999998
  1
4
 50
0.0999999600000001
  7
AE
100
AcDbText
  0
TEXT
  5
6FA
330
5BE
100
AcDbEntity
  8
BORDER
100
AcDbText
 10
36.6714993
 20
0.669984320976738
 30
0.0
 40
0.07999998
  1
2
 50
0.0999999600000001
  7
AE
100
AcDbText
  0
TEXT
  5
6FB
330
5BE
100
AcDbEntity
  8
TITLE BLOCK
  6
Continuous
100
AcDbText
 10
31.79999999999999
 20
1.800068621953476
 30
0.0
 40
0.1518741343009839
  1
DRAWING NAME
 50
0.09999996
  7
AE
100
AcDbText
  0
TEXT
  5
6FC
330
5BE
100
AcDbEntity
  8
TITLE BLOCK
  6
Continuous
100
AcDbText
 10
31.73
 20
4.700068621953477
 30
0.0
 40
0.1290930102982315
  1
NOTICE: This drawing or material
 50
0.09999996
 41
0.7005041199999999
  7
AE
100
AcDbText
  0
LINE
  5
6FD
330
5BE
100
AcDbEntity
  8
TITLE BLOCK
  6
Continuous
100
AcDbLine
 10
34.65037991030702
 20
2.200068621953476
 30
0.0
 11
34.65037991030702
 21
5.000068621953477
 31
0.0
  0
LINE
  5
6FE
330
5BE
100
AcDbEntity
  8
TITLE BLOCK
  6
Continuous
100
AcDbLine
 10
31.69931278063705
 20
1.0
 30
0.0
 11
31.69931278063705
 21
5.000068621953477
 31
0.0
  0
TEXT
  5
6FF
330
5BE
100
AcDbEntity
  8
TITLE BLOCK
  6
Continuous
100
AcDbText
 10
31.74259510702569
 20
3.41256624687789
 30
0.0
 40
0.1290930102982315
  1
reproduced, will be used only for
 50
0.09999996
 41
0.6799434399999999
  7
AE
100
AcDbText
  0
TEXT
  5
700
330
5BE
100
AcDbEntity
  8
TITLE BLOCK
  6
Continuous
100
AcDbText
 10
31.77028788782436
 20
2.390146850986036
 30
0.0
 40
0.1290930102982315
  1
consent of G & L Motion Control Inc..
 50
0.09999996
 41
0.79688752
  7
AE
100
AcDbText
  0
TEXT
  5
701
330
5BE
100
AcDbEntity
  8
TITLE BLOCK
  6
Continuous
100
AcDbText
 10
31.73775362006189
 20
2.670168072300595
 30
0.0
 40
0.1290930102982315
  1
as authorized by specific written
 50
0.09999996
 41
0.6799434399999999
  7
AE
100
AcDbText
  0
TEXT
  5
702
330
5BE
100
AcDbEntity
  8
TITLE BLOCK
  6
Continuous
100
AcDbText
 10
31.73784003041041
 20
2.913869365335577
 30
0.0
 40
0.1290930102982315
  1
used or disclosed to anyone except
 50
0.09999996
 41
0.6605569100000001
  7
AE
100
AcDbText
  0
TEXT
  5
703
330
5BE
100
AcDbEntity
  8
TITLE BLOCK
  6
Continuous
100
AcDbText
 10
31.73129714682869
 20
3.170479940112326
 30
0.0
 40
0.1290930102982315
  1
your information, and will not be
 50
0.09999996
 41
0.6799434399999999
  7
AE
100
AcDbText
  0
TEXT
  5
704
330
5BE
100
AcDbEntity
  8
TITLE BLOCK
  6
Continuous
100
AcDbText
 10
31.74064161593091
 20
3.674823969390883
 30
0.0
 40
0.1290930102982315
  1
will not be copied or otherwise
 50
0.09999996
 41
0.72234601
  7
AE
100
AcDbText
  0
TEXT
  5
705
330
5BE
100
AcDbEntity
  8
TITLE BLOCK
  6
Continuous
100
AcDbText
 10
31.72896291013545
 20
3.937088828472806
 30
0.0
 40
0.1290930102982315
  1
in confidence on condition that it
 50
0.09999996
 41
0.6605569100000001
  7
AE
100
AcDbText
  0
TEXT
  5
706
330
5BE
100
AcDbEntity
  8
TITLE BLOCK
  6
Continuous
100
AcDbText
 10
31.72550842499454
 20
4.455149536187693
 30
0.0
 40
0.1290930102982315
  1
contains proprietary information
 50
0.09999996
 41
0.7005041199999999
  7
AE
100
AcDbText
  0
TEXT
  5
707
330
5BE
100
AcDbEntity
  8
TITLE BLOCK
  6
Continuous
100
AcDbText
 10
31.736946030487
 20
4.192082488177751
 30
0.0
 40
0.1290930102982315
  1
of G & L Motion Control Inc., is submitted
 50
0.09999996
 41
0.6799434399999999
  7
AE
100
AcDbText
  0
TEXT
  5
708
330
5BE
100
AcDbEntity
  8
TITLE BLOCK
  6
Continuous
100
AcDbText
 10
34.7
 20
3.400068621953476
 30
0.0
 40
0.1518741343009839
  1
DR
 50
0.09999996
  7
AE
100
AcDbText
  0
TEXT
  5
709
330
5BE
100
AcDbEntity
  8
TITLE BLOCK
  6
Continuous
100
AcDbText
 10
34.7
 20
3.150068621953476
 30
0.0
 40
0.1518741343009839
  1
BY
 50
0.09999996
  7
AE
100
AcDbText
  0
TEXT
  5
70A
330
5BE
100
AcDbEntity
  8
TITLE BLOCK
  6
Continuous
100
AcDbText
 10
34.71240074512235
 20
2.650068621953475
 30
0.0
 40
0.1518741343009839
  1
BY
 50
0.09999996
  7
AE
100
AcDbText
  0
TEXT
  5
70B
330
5BE
100
AcDbEntity
  8
TITLE BLOCK
  6
Continuous
100
AcDbText
 10
34.7
 20
2.900068621953476
 30
0.0
 40
0.1518741343009839
  1
CHK
 50
0.09999996
  7
AE
100
AcDbText
  0
TEXT
  5
70C
330
5BE
100
AcDbEntity
  8
TITLE BLOCK
  6
Continuous
100
AcDbText
 10
34.71999999999999
 20
2.400068621953476
 30
0.0
 40
0.1518741343009839
  1
APPD
 50
0.09999996
  7
AE
100
AcDbText
  0
TEXT
  5
70D
330
5BE
100
AcDbEntity
  8
TITLE BLOCK
  6
Continuous
100
AcDbText
 10
34.7
 20
2.150068621953476
 30
0.0
 40
0.1518741343009839
  1
BY
 50
0.09999996
  7
AE
100
AcDbText
  0
ATTDEF
  5
70E
330
5BE
100
AcDbEntity
  8
TITLE BLOCK
  6
Continuous
100
AcDbText
 10
32.0
 20
1.25
 30
0.0
 40
0.3
  1

 41
0.8
100
AcDbAttributeDefinition
  3
Drawing Name
  2
GEN-TITLE-DES1{15.54}
 70
     0
1001
GENIUS_GENBLLY_14
1000
BOR5
  0
LINE
  5
70F
330
5BE
100
AcDbEntity
  8
BORDER
  6
LS
100
AcDbLine
 10
39.5
 20
0.7500341909767383
 30
0.0
 11
39.5
 21
0.950034240976738
 31
0.0
  0
TEXT
  5
710
330
5BE
100
AcDbEntity
  8
BORDER
100
AcDbText
 10
39.4714985
 20
0.6099843209767384
 30
0.0
 40
0.07999998
  1
3
 50
0.0999999600000001
  7
AE
100
AcDbText
  0
LINE
  5
711
330
5BE
100
AcDbEntity
  8
BORDER
  6
LS
100
AcDbLine
 10
38.5
 20
0.7500341909767383
 30
0.0
 11
38.5
 21
0.950034240976738
 31
0.0
  0
LINE
  5
712
330
5BE
100
AcDbEntity
  8
BORDER
  6
LS
100
AcDbLine
 10
38.3000059
 20
0.8100341909767383
 30
0.0
 11
38.3000059
 21
0.950034240976738
 31
0.0
  0
LINE
  5
713
330
5BE
100
AcDbEntity
  8
BORDER
  6
LS
100
AcDbLine
 10
38.1000052
 20
0.8100341909767383
 30
0.0
 11
38.1000052
 21
0.950034240976738
 31
0.0
  0
TEXT
  5
714
330
5BE
100
AcDbEntity
  8
BORDER
100
AcDbText
 10
38.4714985
 20
0.6099843209767384
 30
0.0
 40
0.07999998
  1
2
 50
0.0999999600000001
  7
AE
100
AcDbText
  0
TEXT
  5
715
330
5BE
100
AcDbEntity
  8
BORDER
100
AcDbText
 10
38.2715044
 20
0.669984320976738
 30
0.0
 40
0.07999998
  1
8
 50
0.0999999600000001
  7
AE
100
AcDbText
  0
TEXT
  5
716
330
5BE
100
AcDbEntity
  8
BORDER
100
AcDbText
 10
38.07150359999999
 20
0.669984320976738
 30
0.0
 40
0.07999998
  1
6
 50
0.0999999600000001
  7
AE
100
AcDbText
  0
LINE
  5
717
330
5BE
100
AcDbEntity
  8
BORDER
  6
LS
100
AcDbLine
 10
37.9000044
 20
0.8100341909767383
 30
0.0
 11
37.9000044
 21
0.950034240976738
 31
0.0
  0
LINE
  5
718
330
5BE
100
AcDbEntity
  8
BORDER
  6
LS
100
AcDbLine
 10
37.7000046
 20
0.8100341909767383
 30
0.0
 11
37.7000046
 21
0.950034240976738
 31
0.0
  0
LINE
  5
719
330
5BE
100
AcDbEntity
  8
BORDER
  6
LS
100
AcDbLine
 10
37.4000034
 20
0.8100341909767383
 30
0.0
 11
37.4000034
 21
0.950034240976738
 31
0.0
  0
LINE
  5
71A
330
5BE
100
AcDbEntity
  8
BORDER
  6
LS
100
AcDbLine
 10
37.4200039
 20
0.8900342409767381
 30
0.0
 11
37.4200039
 21
0.950034240976738
 31
0.0
  0
LINE
  5
71B
330
5BE
100
AcDbEntity
  8
BORDER
  6
LS
100
AcDbLine
 10
37.4400044
 20
0.8500342109767382
 30
0.0
 11
37.4400044
 21
0.950034240976738
 31
0.0
  0
LINE
  5
71C
330
5BE
100
AcDbEntity
  8
BORDER
  6
LS
100
AcDbLine
 10
37.32000349999999
 20
0.8900342409767381
 30
0.0
 11
37.32000349999999
 21
0.950034240976738
 31
0.0
  0
LINE
  5
71D
330
5BE
100
AcDbEntity
  8
BORDER
  6
LS
100
AcDbLine
 10
37.34000400000001
 20
0.8500342109767382
 30
0.0
 11
37.34000400000001
 21
0.950034240976738
 31
0.0
  0
LINE
  5
71E
330
5BE
100
AcDbEntity
  8
BORDER
  6
LS
100
AcDbLine
 10
37.3600044
 20
0.8500342109767382
 30
0.0
 11
37.3600044
 21
0.950034240976738
 31
0.0
  0
LINE
  5
71F
330
5BE
100
AcDbEntity
  8
BORDER
  6
LS
100
AcDbLine
 10
37.3800039
 20
0.8900342409767381
 30
0.0
 11
37.3800039
 21
0.950034240976738
 31
0.0
  0
LINE
  5
720
330
5BE
100
AcDbEntity
  8
BORDER
  6
LS
100
AcDbLine
 10
37.2000027
 20
0.8100341909767383
 30
0.0
 11
37.2000027
 21
0.950034240976738
 31
0.0
  0
LINE
  5
721
330
5BE
100
AcDbEntity
  8
BORDER
  6
LS
100
AcDbLine
 10
37.3000031
 20
0.8100341909767383
 30
0.0
 11
37.3000031
 21
0.950034240976738
 31
0.0
  0
LINE
  5
722
330
5BE
100
AcDbEntity
  8
BORDER
  6
LS
100
AcDbLine
 10
37.1600037
 20
0.8500342109767382
 30
0.0
 11
37.1600037
 21
0.950034240976738
 31
0.0
  0
LINE
  5
723
330
5BE
100
AcDbEntity
  8
BORDER
  6
LS
100
AcDbLine
 10
37.1800032
 20
0.8900342409767381
 30
0.0
 11
37.1800032
 21
0.950034240976738
 31
0.0
  0
LINE
  5
724
330
5BE
100
AcDbEntity
  8
BORDER
  6
LS
100
AcDbLine
 10
37.2200031
 20
0.8900342409767381
 30
0.0
 11
37.2200031
 21
0.950034240976738
 31
0.0
  0
LINE
  5
725
330
5BE
100
AcDbEntity
  8
BORDER
  6
LS
100
AcDbLine
 10
37.2400036
 20
0.8500342109767382
 30
0.0
 11
37.2400036
 21
0.950034240976738
 31
0.0
  0
LINE
  5
726
330
5BE
100
AcDbEntity
  8
BORDER
  6
LS
100
AcDbLine
 10
37.2600041
 20
0.8500342109767382
 30
0.0
 11
37.2600041
 21
0.950034240976738
 31
0.0
  0
LINE
  5
727
330
5BE
100
AcDbEntity
  8
BORDER
  6
LS
100
AcDbLine
 10
37.2800036
 20
0.8900342409767381
 30
0.0
 11
37.2800036
 21
0.950034240976738
 31
0.0
  0
LINE
  5
728
330
5BE
100
AcDbEntity
  8
BORDER
  6
LS
100
AcDbLine
 10
37.5
 20
0.7500341909767383
 30
0.0
 11
37.5
 21
0.950034240976738
 31
0.0
  0
LINE
  5
729
330
5BE
100
AcDbEntity
  8
BORDER
  6
LS
100
AcDbLine
 10
37.46000480000001
 20
0.8500342109767382
 30
0.0
 11
37.46000480000001
 21
0.950034240976738
 31
0.0
  0
LINE
  5
72A
330
5BE
100
AcDbEntity
  8
BORDER
  6
LS
100
AcDbLine
 10
37.4800043
 20
0.8900342409767381
 30
0.0
 11
37.4800043
 21
0.950034240976738
 31
0.0
  0
TEXT
  5
72B
330
5BE
100
AcDbEntity
  8
BORDER
100
AcDbText
 10
37.4714985
 20
0.6099843209767384
 30
0.0
 40
0.07999998
  1
1
 50
0.0999999600000001
  7
AE
100
AcDbText
  0
TEXT
  5
72C
330
5BE
100
AcDbEntity
  8
BORDER
100
AcDbText
 10
37.2715016
 20
0.669984320976738
 30
0.0
 40
0.07999998
  1
8
 50
0.0999999600000001
  7
AE
100
AcDbText
  0
TEXT
  5
72D
330
5BE
100
AcDbEntity
  8
BORDER
100
AcDbText
 10
37.8715029
 20
0.669984320976738
 30
0.0
 40
0.07999998
  1
4
 50
0.0999999600000001
  7
AE
100
AcDbText
  0
TEXT
  5
72E
330
5BE
100
AcDbEntity
  8
BORDER
100
AcDbText
 10
37.6715031
 20
0.669984320976738
 30
0.0
 40
0.07999998
  1
2
 50
0.0999999600000001
  7
AE
100
AcDbText
  0
LINE
  5
72F
330
5BE
100
AcDbEntity
  8
BORDER
  6
LS
100
AcDbLine
 10
37.1000023
 20
0.8100341909767383
 30
0.0
 11
37.1000023
 21
0.950034240976738
 31
0.0
  0
LINE
  5
730
330
5BE
100
AcDbEntity
  8
BORDER
  6
LS
100
AcDbLine
 10
37.0400028
 20
0.8500342109767382
 30
0.0
 11
37.0400028
 21
0.950034240976738
 31
0.0
  0
LINE
  5
731
330
5BE
100
AcDbEntity
  8
BORDER
  6
LS
100
AcDbLine
 10
37.0600033
 20
0.8500342109767382
 30
0.0
 11
37.0600033
 21
0.950034240976738
 31
0.0
  0
LINE
  5
732
330
5BE
100
AcDbEntity
  8
BORDER
  6
LS
100
AcDbLine
 10
37.0800028
 20
0.8900342409767381
 30
0.0
 11
37.0800028
 21
0.950034240976738
 31
0.0
  0
LINE
  5
733
330
5BE
100
AcDbEntity
  8
BORDER
  6
LS
100
AcDbLine
 10
37.1200028
 20
0.8900342409767381
 30
0.0
 11
37.1200028
 21
0.950034240976738
 31
0.0
  0
LINE
  5
734
330
5BE
100
AcDbEntity
  8
BORDER
  6
LS
100
AcDbLine
 10
37.1400032
 20
0.8500342109767382
 30
0.0
 11
37.1400032
 21
0.950034240976738
 31
0.0
  0
TEXT
  5
735
330
5BE
100
AcDbEntity
  8
BORDER
100
AcDbText
 10
37.0715008
 20
0.669984320976738
 30
0.0
 40
0.07999998
  1
6
 50
0.0999999600000001
  7
AE
100
AcDbText
  0
ATTDEF
  5
736
330
5BE
100
AcDbEntity
  8
TITLE BLOCK
  6
Continuous
100
AcDbText
 10
42.29999999999999
 20
2.250068621953476
 30
0.0
 40
0.2361798886203
  1

 41
0.8
100
AcDbAttributeDefinition
  3
Sheet of
  2
GEN-TITLE-SHEET-OF{2.62}
 70
     0
1001
GENIUS_GENBLLY_14
1000
BOR3
  0
ATTDEF
  5
737
330
5BE
100
AcDbEntity
  8
TITLE BLOCK
  6
Continuous
100
AcDbText
 10
41.5
 20
2.250068621953476
 30
0.0
 40
0.2361798886203
  1

 41
0.8
100
AcDbAttributeDefinition
  3
Sheet
  2
GEN-TITLE-SHEET{2.62}
 70
     0
1001
GENIUS_GENBLLY_14
1000
BOR3
  0
TEXT
  5
738
330
5BE
100
AcDbEntity
  8
TITLE BLOCK
  6
Continuous
100
AcDbText
 10
40.65
 20
2.900068621953476
 30
0.0
 40
0.1518741343009839
  1
DATE
 50
0.09999996
  7
AE
100
AcDbText
  0
TEXT
  5
739
330
5BE
100
AcDbEntity
  8
TITLE BLOCK
  6
Continuous
100
AcDbText
 10
40.65
 20
2.400068621953476
 30
0.0
 40
0.1518741343009839
  1
SHEET   OF
 50
0.09999996
  7
AE
100
AcDbText
  0
ATTDEF
  5
73A
330
5BE
100
AcDbEntity
  8
TITLE BLOCK
  6
Continuous
100
AcDbText
 10
38.4
 20
2.250068621953476
 30
0.0
 40
0.2021222838
  1

 41
0.8
100
AcDbAttributeDefinition
  3
Material
  2
GEN-TITLE-MAT{11.15}
 70
     0
1001
GENIUS_GENBLLY_14
1000
BOR3
  0
ATTDEF
  5
73B
330
5BE
100
AcDbEntity
  8
TITLE BLOCK
  6
Continuous
100
AcDbText
 10
38.4
 20
2.750068621953476
 30
0.0
 40
0.2021222838
  1

100
AcDbAttributeDefinition
  3
Machine
  2
GEN-TITLE-MACH{5}
 70
     0
1001
GENIUS_GENBLLY_14
1000
BOR2
  0
ATTDEF
  5
73C
330
5BE
100
AcDbEntity
  8
TITLE BLOCK
  6
Continuous
100
AcDbText
 10
38.4
 20
3.250068621953476
 30
0.0
 40
0.2021222838
  1

100
AcDbAttributeDefinition
  3
Ref. No.
  2
GEN-TITLE-REF{5}
 70
     0
1001
GENIUS_GENBLLY_14
1000
BOR2
  0
TEXT
  5
73D
330
5BE
100
AcDbEntity
  8
TITLE BLOCK
  6
Continuous
100
AcDbText
 10
37.7
 20
2.400068621953476
 30
0.0
 40
0.1518741343009839
  1
MATL
 50
0.09999996
  7
AE
100
AcDbText
  0
TEXT
  5
73E
330
5BE
100
AcDbEntity
  8
TITLE BLOCK
  6
Continuous
100
AcDbText
 10
37.7
 20
2.900068621953476
 30
0.0
 40
0.1518741343009839
  1
MACH
 50
0.09999996
  7
AE
100
AcDbText
  0
TEXT
  5
73F
330
5BE
100
AcDbEntity
  8
TITLE BLOCK
  6
Continuous
100
AcDbText
 10
37.7
 20
3.400068621953476
 30
0.0
 40
0.1518741343009839
  1
REF
 50
0.09999996
  7
AE
100
AcDbText
  0
TEXT
  5
740
330
5BE
100
AcDbEntity
  8
TITLE BLOCK
  6
Continuous
100
AcDbText
 10
37.7
 20
1.800068621953476
 30
0.0
 40
0.1518741343009839
  1
DRAWING NUMBER
 50
0.09999996
  7
AE
100
AcDbText
  0
LINE
  5
741
330
5BE
100
AcDbEntity
  8
TITLE BLOCK
  6
Continuous
100
AcDbLine
 10
37.59999999999999
 20
1.0
 30
0.0
 11
37.59999999999999
 21
5.000068621953477
 31
0.0
  0
LINE
  5
742
330
5BE
100
AcDbEntity
  8
TITLE BLOCK
  6
Continuous
100
AcDbLine
 10
40.55251436252715
 20
2.100068621953476
 30
0.0
 11
40.55251436252707
 21
3.100068621953475
 31
0.0
  0
ATTDEF
  5
743
330
5BE
100
AcDbEntity
  8
TITLE BLOCK
  6
Continuous
100
AcDbText
 10
41.35
 20
2.750068621953476
 30
0.0
 40
0.2021222838
  1

100
AcDbAttributeDefinition
  3
Date
  2
GEN-TITLE-PLOT{5}
 70
     0
1001
GENIUS_GENBLLY_14
1000
BOR2
  0
ATTDEF
  5
744
330
5BE
100
AcDbEntity
  8
TITLE BLOCK
  6
Continuous
100
AcDbText
 10
38.0
 20
1.25
 30
0.0
 40
0.3
  1

 41
0.8
100
AcDbAttributeDefinition
  3
Drawing Number
  2
GEN-TITLE-NR{13.37}
 70
     0
1001
GENIUS_GENBLLY_14
1000
BOR5
  0
LINE
  5
745
330
5BE
100
AcDbEntity
  8
BORDER
100
AcDbLine
 10
21.999954
 20
33.19999699999999
 30
0.0
 11
21.999954
 21
33.39999399999999
 31
0.0
  0
LINE
  5
746
330
5BE
100
AcDbEntity
  8
BORDER
100
AcDbLine
 10
21.899963
 20
33.19999699999999
 30
0.0
 11
22.09996
 21
33.19999699999999
 31
0.0
  0
LINE
  5
747
330
5BE
100
AcDbEntity
  8
BORDER
100
AcDbLine
 10
21.899994
 20
33.19999699999999
 30
0.0
 11
22.0
 21
33.0
 31
0.0
  0
LINE
  5
748
330
5BE
100
AcDbEntity
  8
BORDER
100
AcDbLine
 10
21.999984
 20
33.000015
 30
0.0
 11
22.099991
 21
33.200012
 31
0.0
  0
LINE
  5
749
330
5BE
100
AcDbEntity
  8
BORDER
100
AcDbLine
 10
43.70000414999999
 20
17.00001799999999
 30
0.0
 11
43.90000109999999
 21
17.00001799999999
 31
0.0
  0
LINE
  5
74A
330
5BE
100
AcDbEntity
  8
BORDER
100
AcDbLine
 10
43.5
 20
17.0
 30
0.0
 11
43.69999579999999
 21
17.099997
 31
0.0
  0
LINE
  5
74B
330
5BE
100
AcDbEntity
  8
BORDER
100
AcDbLine
 10
43.70000414999999
 20
16.90001199999999
 30
0.0
 11
43.70000414999999
 21
17.100009
 31
0.0
  0
LINE
  5
74C
330
5BE
100
AcDbEntity
  8
BORDER
100
AcDbLine
 10
43.50001304
 20
16.99999799999999
 30
0.0
 11
43.70000885999999
 21
16.90000099999999
 31
0.0
  0
LINE
  5
74D
330
5BE
100
AcDbEntity
  8
BORDER
  6
Continuous
100
AcDbLine
 10
44.0
 20
22.0
 30
0.0
 11
44.0
 21
0.0
 31
0.0
  0
LINE
  5
74E
330
5BE
100
AcDbEntity
  8
BORDER
  6
Continuous
100
AcDbLine
 10
44.0
 20
0.0
 30
0.0
 11
0.0
 21
0.0
 31
0.0
  0
LINE
  5
74F
330
5BE
100
AcDbEntity
  8
BORDER
100
AcDbLine
 10
10.0
 20
0.0
 30
0.0
 11
10.0
 21
0.0
 31
0.0
  0
MTEXT
  5
750
330
5BE
100
AcDbEntity
  8
BORDER
  6
Continuous
100
AcDbMText
 10
40.50617958671742
 20
4.700068621953477
 30
0.0
 40
0.25
 41
5.326
 71
     2
 72
     5
  1
{\fArial|b0|i0|c0|p34;\C1;G & L Motion Control Inc.}
 73
     1
 44
1.0
  0
MTEXT
  5
751
330
5BE
100
AcDbEntity
  8
BORDER
  6
Continuous
100
AcDbMText
 10
40.50825715527895
 20
4.056598296564496
 30
0.0
 40
0.15748
 41
5.724
 71
     5
 72
     1
  1
{\Fromans.shx;\C9;672 South Military Road\PFond du Lac, Wisconsin 54936 U.S.A.}
 73
     1
 44
1.0
  0
LINE
  5
752
330
5BE
100
AcDbEntity
  8
BORDER
100
AcDbLine
 10
44.0
 20
34.0
 30
0.0
 11
44.0
 21
0.0
 31
0.0
  0
LINE
  5
753
330
5BE
100
AcDbEntity
  8
BORDER
100
AcDbLine
 10
44.0
 20
34.0
 30
0.0
 11
0.0
 21
34.0
 31
0.0
  0
LINE
  5
754
330
5BE
100
AcDbEntity
  8
BORDER
100
AcDbLine
 10
0.0
 20
34.0
 30
0.0
 11
0.0
 21
0.0
 31
0.0
  0
LINE
  5
755
330
5BE
100
AcDbEntity
  8
BORDER
100
AcDbLine
 10
0.5
 20
1.0
 30
0.0
 11
0.5
 21
33.0
 31
0.0
  0
LINE
  5
756
330
5BE
100
AcDbEntity
  8
BORDER
100
AcDbLine
 10
43.5
 20
1.0
 30
0.0
 11
43.5
 21
33.0
 31
0.0
  0
LINE
  5
757
330
5BE
100
AcDbEntity
  8
BORDER
100
AcDbLine
 10
0.5
 20
33.0
 30
0.0
 11
43.5
 21
33.0
 31
0.0
  0
LINE
  5
758
330
5BE
100
AcDbEntity
  8
BORDER
100
AcDbLine
 10
0.5
 20
1.0
 30
0.0
 11
43.5
 21
1.0
 31
0.0
  0
LINE
  5
759
330
5BE
100
AcDbEntity
  8
BORDER
100
AcDbLine
 10
38.5
 20
33.5
 30
0.0
 11
38.5
 21
33.0
 31
0.0
  0
LINE
  5
75A
330
5BE
100
AcDbEntity
  8
BORDER
100
AcDbLine
 10
33.0
 20
33.5
 30
0.0
 11
33.0
 21
33.0
 31
0.0
  0
LINE
  5
75B
330
5BE
100
AcDbEntity
  8
BORDER
100
AcDbLine
 10
27.5
 20
33.5
 30
0.0
 11
27.5
 21
33.0
 31
0.0
  0
LINE
  5
75C
330
5BE
100
AcDbEntity
  8
BORDER
100
AcDbLine
 10
16.5
 20
33.5
 30
0.0
 11
16.5
 21
33.0
 31
0.0
  0
LINE
  5
75D
330
5BE
100
AcDbEntity
  8
BORDER
100
AcDbLine
 10
11.0
 20
33.5
 30
0.0
 11
11.0
 21
33.0
 31
0.0
  0
LINE
  5
75E
330
5BE
100
AcDbEntity
  8
BORDER
100
AcDbLine
 10
5.5
 20
33.5
 30
0.0
 11
5.5
 21
33.0
 31
0.0
  0
LINE
  5
75F
330
5BE
100
AcDbEntity
  8
BORDER
100
AcDbLine
 10
44.0
 20
29.75
 30
0.0
 11
43.5
 21
29.75
 31
0.0
  0
LINE
  5
760
330
5BE
100
AcDbEntity
  8
BORDER
100
AcDbLine
 10
44.0
 20
25.5
 30
0.0
 11
43.5
 21
25.5
 31
0.0
  0
LINE
  5
761
330
5BE
100
AcDbEntity
  8
BORDER
100
AcDbLine
 10
44.0
 20
21.25
 30
0.0
 11
43.5
 21
21.25
 31
0.0
  0
LINE
  5
762
330
5BE
100
AcDbEntity
  8
BORDER
100
AcDbLine
 10
44.0
 20
12.75
 30
0.0
 11
43.5
 21
12.75
 31
0.0
  0
LINE
  5
763
330
5BE
100
AcDbEntity
  8
BORDER
100
AcDbLine
 10
44.0
 20
8.5
 30
0.0
 11
43.5
 21
8.5
 31
0.0
  0
LINE
  5
764
330
5BE
100
AcDbEntity
  8
BORDER
100
AcDbLine
 10
44.0
 20
4.25
 30
0.0
 11
43.5
 21
4.25
 31
0.0
  0
LINE
  5
765
330
5BE
100
AcDbEntity
  8
BORDER
100
AcDbLine
 10
0.5
 20
29.75
 30
0.0
 11
0.0
 21
29.75
 31
0.0
  0
LINE
  5
766
330
5BE
100
AcDbEntity
  8
BORDER
100
AcDbLine
 10
0.5
 20
25.5
 30
0.0
 11
0.0
 21
25.5
 31
0.0
  0
LINE
  5
767
330
5BE
100
AcDbEntity
  8
BORDER
100
AcDbLine
 10
0.5
 20
21.25
 30
0.0
 11
0.0
 21
21.25
 31
0.0
  0
LINE
  5
768
330
5BE
100
AcDbEntity
  8
BORDER
100
AcDbLine
 10
0.5
 20
12.75
 30
0.0
 11
0.0
 21
12.75
 31
0.0
  0
LINE
  5
769
330
5BE
100
AcDbEntity
  8
BORDER
100
AcDbLine
 10
0.5
 20
8.5
 30
0.0
 11
0.0
 21
8.5
 31
0.0
  0
LINE
  5
76A
330
5BE
100
AcDbEntity
  8
BORDER
100
AcDbLine
 10
0.5
 20
4.25
 30
0.0
 11
0.0
 21
4.25
 31
0.0
  0
LINE
  5
76B
330
5BE
100
AcDbEntity
  8
BORDER
100
AcDbLine
 10
5.5
 20
1.0
 30
0.0
 11
5.5
 21
0.5
 31
0.0
  0
LINE
  5
76C
330
5BE
100
AcDbEntity
  8
BORDER
100
AcDbLine
 10
11.0
 20
1.0
 30
0.0
 11
11.0
 21
0.5
 31
0.0
  0
LINE
  5
76D
330
5BE
100
AcDbEntity
  8
BORDER
100
AcDbLine
 10
16.5
 20
1.0
 30
0.0
 11
16.5
 21
0.5
 31
0.0
  0
LINE
  5
76E
330
5BE
100
AcDbEntity
  8
BORDER
100
AcDbLine
 10
27.5
 20
1.0
 30
0.0
 11
27.5
 21
0.5
 31
0.0
  0
LINE
  5
76F
330
5BE
100
AcDbEntity
  8
BORDER
100
AcDbLine
 10
33.0
 20
1.0
 30
0.0
 11
33.0
 21
0.5
 31
0.0
  0
TEXT
  5
770
330
5BE
100
AcDbEntity
  8
BORDER
100
AcDbText
 10
35.625
 20
33.3125
 30
0.0
 40
0.375
  1
2
 72
     1
 11
35.75
 21
33.5
 31
0.0
100
AcDbText
 73
     2
  0
TEXT
  5
771
330
5BE
100
AcDbEntity
  8
BORDER
100
AcDbText
 10
41.1875
 20
33.3125
 30
0.0
 40
0.375
  1
1
 72
     1
 11
41.25
 21
33.5
 31
0.0
100
AcDbText
 73
     2
  0
TEXT
  5
772
330
5BE
100
AcDbEntity
  8
BORDER
100
AcDbText
 10
30.125
 20
33.3125
 30
0.0
 40
0.375
  1
3
 72
     1
 11
30.25
 21
33.5
 31
0.0
100
AcDbText
 73
     2
  0
TEXT
  5
773
330
5BE
100
AcDbEntity
  8
BORDER
100
AcDbText
 10
8.125
 20
33.3125
 30
0.0
 40
0.375
  1
7
 72
     1
 11
8.25
 21
33.5
 31
0.0
100
AcDbText
 73
     2
  0
TEXT
  5
774
330
5BE
100
AcDbEntity
  8
BORDER
100
AcDbText
 10
13.625
 20
33.3125
 30
0.0
 40
0.375
  1
6
 72
     1
 11
13.75
 21
33.5
 31
0.0
100
AcDbText
 73
     2
  0
TEXT
  5
775
330
5BE
100
AcDbEntity
  8
BORDER
100
AcDbText
 10
19.125
 20
33.3125
 30
0.0
 40
0.375
  1
5
 72
     1
 11
19.25
 21
33.5
 31
0.0
100
AcDbText
 73
     2
  0
TEXT
  5
776
330
5BE
100
AcDbEntity
  8
BORDER
100
AcDbText
 10
2.625
 20
33.3125
 30
0.0
 40
0.375
  1
8
 72
     1
 11
2.75
 21
33.5
 31
0.0
100
AcDbText
 73
     2
  0
TEXT
  5
777
330
5BE
100
AcDbEntity
  8
BORDER
100
AcDbText
 10
24.625
 20
33.3125
 30
0.0
 40
0.375
  1
4
 72
     1
 11
24.75
 21
33.5
 31
0.0
100
AcDbText
 73
     2
  0
TEXT
  5
778
330
5BE
100
AcDbEntity
  8
BORDER
100
AcDbText
 10
43.62499999999999
 20
27.4375
 30
0.0
 40
0.375
  1
G
 72
     1
 11
43.75
 21
27.625
 31
0.0
100
AcDbText
 73
     2
  0
TEXT
  5
779
330
5BE
100
AcDbEntity
  8
BORDER
100
AcDbText
 10
43.62499999999999
 20
31.6875
 30
0.0
 40
0.375
  1
H
 72
     1
 11
43.75
 21
31.875
 31
0.0
100
AcDbText
 73
     2
  0
TEXT
  5
77A
330
5BE
100
AcDbEntity
  8
BORDER
100
AcDbText
 10
43.62499999999999
 20
23.1875
 30
0.0
 40
0.375
  1
F
 72
     1
 11
43.75
 21
23.37499999999999
 31
0.0
100
AcDbText
 73
     2
  0
TEXT
  5
77B
330
5BE
100
AcDbEntity
  8
BORDER
100
AcDbText
 10
43.62499999999999
 20
14.6875
 30
0.0
 40
0.375
  1
D
 72
     1
 11
43.75
 21
14.875
 31
0.0
100
AcDbText
 73
     2
  0
TEXT
  5
77C
330
5BE
100
AcDbEntity
  8
BORDER
100
AcDbText
 10
43.62499999999999
 20
1.9375
 30
0.0
 40
0.375
  1
A
 72
     1
 11
43.75
 21
2.125
 31
0.0
100
AcDbText
 73
     2
  0
TEXT
  5
77D
330
5BE
100
AcDbEntity
  8
BORDER
100
AcDbText
 10
43.62499999999999
 20
6.1875
 30
0.0
 40
0.375
  1
B
 72
     1
 11
43.75
 21
6.375
 31
0.0
100
AcDbText
 73
     2
  0
TEXT
  5
77E
330
5BE
100
AcDbEntity
  8
BORDER
100
AcDbText
 10
43.62499999999999
 20
10.43749999999999
 30
0.0
 40
0.375
  1
C
 72
     1
 11
43.75
 21
10.625
 31
0.0
100
AcDbText
 73
     2
  0
TEXT
  5
77F
330
5BE
100
AcDbEntity
  8
BORDER
100
AcDbText
 10
43.62499999999999
 20
18.9375
 30
0.0
 40
0.375
  1
E
 72
     1
 11
43.75
 21
19.125
 31
0.0
100
AcDbText
 73
     2
  0
TEXT
  5
780
330
5BE
100
AcDbEntity
  8
BORDER
100
AcDbText
 10
0.125
 20
1.9375
 30
0.0
 40
0.375
  1
A
 72
     1
 11
0.25
 21
2.125
 31
0.0
100
AcDbText
 73
     2
  0
TEXT
  5
781
330
5BE
100
AcDbEntity
  8
BORDER
100
AcDbText
 10
0.125
 20
6.1875
 30
0.0
 40
0.375
  1
B
 72
     1
 11
0.25
 21
6.375
 31
0.0
100
AcDbText
 73
     2
  0
TEXT
  5
782
330
5BE
100
AcDbEntity
  8
BORDER
100
AcDbText
 10
0.125
 20
10.43749999999999
 30
0.0
 40
0.375
  1
C
 72
     1
 11
0.25
 21
10.625
 31
0.0
100
AcDbText
 73
     2
  0
TEXT
  5
783
330
5BE
100
AcDbEntity
  8
BORDER
100
AcDbText
 10
0.125
 20
14.6875
 30
0.0
 40
0.375
  1
D
 72
     1
 11
0.25
 21
14.875
 31
0.0
100
AcDbText
 73
     2
  0
TEXT
  5
784
330
5BE
100
AcDbEntity
  8
BORDER
100
AcDbText
 10
0.125
 20
18.9375
 30
0.0
 40
0.375
  1
E
 72
     1
 11
0.25
 21
19.125
 31
0.0
100
AcDbText
 73
     2
  0
TEXT
  5
785
330
5BE
100
AcDbEntity
  8
BORDER
100
AcDbText
 10
0.125
 20
23.1875
 30
0.0
 40
0.375
  1
F
 72
     1
 11
0.25
 21
23.37499999999999
 31
0.0
100
AcDbText
 73
     2
  0
TEXT
  5
786
330
5BE
100
AcDbEntity
  8
BORDER
100
AcDbText
 10
0.125
 20
27.4375
 30
0.0
 40
0.375
  1
G
 72
     1
 11
0.25
 21
27.625
 31
0.0
100
AcDbText
 73
     2
  0
TEXT
  5
787
330
5BE
100
AcDbEntity
  8
BORDER
100
AcDbText
 10
0.125
 20
31.6875
 30
0.0
 40
0.375
  1
H
 72
     1
 11
0.25
 21
31.875
 31
0.0
100
AcDbText
 73
     2
  0
TEXT
  5
788
330
5BE
100
AcDbEntity
  8
BORDER
100
AcDbText
 10
41.1875
 20
0.3125
 30
0.0
 40
0.375
  1
1
 72
     1
 11
41.25
 21
0.5
 31
0.0
100
AcDbText
 73
     2
  0
TEXT
  5
789
330
5BE
100
AcDbEntity
  8
BORDER
100
AcDbText
 10
35.625
 20
0.3125
 30
0.0
 40
0.375
  1
2
 72
     1
 11
35.75
 21
0.5
 31
0.0
100
AcDbText
 73
     2
  0
TEXT
  5
78A
330
5BE
100
AcDbEntity
  8
BORDER
100
AcDbText
 10
30.125
 20
0.3125
 30
0.0
 40
0.375
  1
3
 72
     1
 11
30.25
 21
0.5
 31
0.0
100
AcDbText
 73
     2
  0
TEXT
  5
78B
330
5BE
100
AcDbEntity
  8
BORDER
100
AcDbText
 10
24.625
 20
0.3125
 30
0.0
 40
0.375
  1
4
 72
     1
 11
24.75
 21
0.5
 31
0.0
100
AcDbText
 73
     2
  0
TEXT
  5
78C
330
5BE
100
AcDbEntity
  8
BORDER
100
AcDbText
 10
19.125
 20
0.3125
 30
0.0
 40
0.375
  1
5
 72
     1
 11
19.25
 21
0.5
 31
0.0
100
AcDbText
 73
     2
  0
TEXT
  5
78D
330
5BE
100
AcDbEntity
  8
BORDER
100
AcDbText
 10
13.625
 20
0.3125
 30
0.0
 40
0.375
  1
6
 72
     1
 11
13.75
 21
0.5
 31
0.0
100
AcDbText
 73
     2
  0
TEXT
  5
78E
330
5BE
100
AcDbEntity
  8
BORDER
100
AcDbText
 10
8.125
 20
0.3125
 30
0.0
 40
0.375
  1
7
 72
     1
 11
8.25
 21
0.5
 31
0.0
100
AcDbText
 73
     2
  0
TEXT
  5
78F
330
5BE
100
AcDbEntity
  8
BORDER
100
AcDbText
 10
2.625
 20
0.3125
 30
0.0
 40
0.375
  1
8
 72
     1
 11
2.75
 21
0.5
 31
0.0
100
AcDbText
 73
     2
  0
ENDBLK
  5
694
330
5BE
100
AcDbEntity
  8
0
100
AcDbBlockEnd
  0
ENDSEC
  0
SECTION
  2
ENTITIES
  0
LINE
  5
30
330
A
100
AcDbEntity
  8
1
  6
Continuous
 62
    92
100
AcDbLine
 10
8.9738828872
 20
8.0
 30
0.0
 11
8.9738828872
 21
5.7777775658
 31
0.0
  0
LINE
  5
32
330
A
100
AcDbEntity
  8
1
  6
Continuous
 62
    92
100
AcDbLine
 10
15.4623048571
 20
8.0
 30
0.0
 11
15.4623048571
 21
5.777777777699999
 31
0.0
  0
LINE
  5
33
330
A
100
AcDbEntity
  8
1
  6
Continuous
 62
    92
100
AcDbLine
 10
18.25330352789999
 20
8.0
 30
0.0
 11
18.25330352789999
 21
5.777777777699999
 31
0.0
  0
LINE
  5
34
330
A
100
AcDbEntity
  8
1
  6
Continuous
 62
    92
100
AcDbLine
 10
21.04430219869999
 20
8.0
 30
0.0
 11
21.04430219869999
 21
5.777777777699999
 31
0.0
  0
LINE
  5
35
330
A
100
AcDbEntity
  8
1
  6
Continuous
 62
    92
100
AcDbLine
 10
23.8353042603
 20
8.0
 30
0.0
 11
23.8353042603
 21
5.777777777699999
 31
0.0
  0
LINE
  5
36
330
A
100
AcDbEntity
  8
1
  6
Continuous
 62
    92
100
AcDbLine
 10
8.9738828872
 20
8.0
 30
0.0
 11
23.8353042603
 21
8.0
 31
0.0
  0
LINE
  5
37
330
A
100
AcDbEntity
  8
1
  6
Continuous
 62
    92
100
AcDbLine
 10
8.9738828872
 20
7.259277767599999
 30
0.0
 11
23.8353042603
 21
7.259277767599999
 31
0.0
  0
LINE
  5
38
330
A
100
AcDbEntity
  8
1
  6
Continuous
 62
    92
100
AcDbLine
 10
8.9738828872
 20
6.518500010099998
 30
0.0
 11
23.8353042603
 21
6.518500010099999
 31
0.0
  0
LINE
  5
39
330
A
100
AcDbEntity
  8
1
  6
Continuous
 62
    92
100
AcDbLine
 10
8.9738828872
 20
5.777777614759905
 30
0.0
 11
23.8353042603
 21
5.777777777699999
 31
0.0
  0
LINE
  5
3A
330
A
100
AcDbEntity
  8
1
  6
Continuous
 62
    92
100
AcDbLine
 10
31.5025541517
 20
25.8984103732
 30
0.0
 11
23.9387741089
 21
25.8984103732
 31
0.0
  0
LINE
  5
3B
330
A
100
AcDbEntity
  8
1
  6
Continuous
 62
    92
100
AcDbLine
 10
23.9387741089
 20
25.8984103732
 30
0.0
 11
22.63627370199999
 21
20.55385504819999
 31
0.0
  0
LINE
  5
3C
330
A
100
AcDbEntity
  8
11
  6
Continuous
 62
    92
100
AcDbLine
 10
3.115387810599997
 20
23.8375854492
 30
0.0
 11
8.601251390299999
 21
23.8375854492
 31
0.0
  0
LINE
  5
3D
330
A
100
AcDbEntity
  8
11
  6
Continuous
 62
    92
100
AcDbLine
 10
8.601251390299999
 20
23.8375854492
 30
0.0
 11
8.601251390299999
 21
21.4653201633
 31
0.0
  0
LINE
  5
3E
330
A
100
AcDbEntity
  8
11
  6
Continuous
 62
    92
100
AcDbLine
 10
8.601251390299999
 20
21.4653201633
 30
0.0
 11
3.115387810599997
 21
21.4653201633
 31
0.0
  0
LINE
  5
3F
330
A
100
AcDbEntity
  8
11
  6
Continuous
 62
    92
100
AcDbLine
 10
3.115387810599997
 20
21.4653201633
 30
0.0
 11
3.115387810599997
 21
23.8375854492
 31
0.0
  0
LINE
  5
40
330
A
100
AcDbEntity
  8
11
  6
Continuous
 62
    92
100
AcDbLine
 10
3.115387810599997
 20
22.65145365389999
 30
0.0
 11
8.601251390299999
 21
22.65145365389999
 31
0.0
  0
LINE
  5
41
330
A
100
AcDbEntity
  8
11
  6
Continuous
 62
    92
100
AcDbLine
 10
6.673784891700002
 20
23.8375854492
 30
0.0
 11
6.673784891700002
 21
21.4653201633
 31
0.0
  0
LINE
  5
42
330
A
100
AcDbEntity
  8
11
  6
CENTERX2
 62
    92
100
AcDbLine
 10
37.6743511624
 20
7.406402164
 30
0.0
 11
39.6144010756
 21
7.406402164
 31
0.0
  0
LINE
  5
43
330
A
100
AcDbEntity
  8
11
  6
CENTERX2
 62
    92
100
AcDbLine
 10
39.1644126045
 20
7.8726726108
 30
0.0
 11
39.1644126045
 21
6.940626780099999
 31
0.0
  0
LINE
  5
44
330
A
100
AcDbEntity
  8
11
  6
Continuous
 62
    92
100
AcDbLine
 10
38.5528132121
 20
7.406402164
 30
0.0
 11
38.5528132121
 21
7.8141356574
 31
0.0
  0
LINE
  5
45
330
A
100
AcDbEntity
  8
11
  6
Continuous
 62
    92
100
AcDbLine
 10
38.5528132121
 20
7.8141356574
 30
0.0
 11
37.7373224894
 21
7.6102689106
 31
0.0
  0
LINE
  5
46
330
A
100
AcDbEntity
  8
11
  6
Continuous
 62
    92
100
AcDbLine
 10
37.7373224894
 20
7.6102689106
 30
0.0
 11
37.7373224894
 21
7.406402164
 31
0.0
  0
LINE
  5
47
330
A
100
AcDbEntity
  8
11
  6
Continuous
 62
    92
100
AcDbLine
 10
38.5528132121
 20
7.406402164
 30
0.0
 11
38.5528132121
 21
6.9986686706
 31
0.0
  0
LINE
  5
48
330
A
100
AcDbEntity
  8
11
  6
Continuous
 62
    92
100
AcDbLine
 10
38.5528132121
 20
6.9986686706
 30
0.0
 11
37.7373224894
 21
7.2025354173
 31
0.0
  0
LINE
  5
49
330
A
100
AcDbEntity
  8
11
  6
Continuous
 62
    92
100
AcDbLine
 10
37.7373224894
 20
7.2025354173
 30
0.0
 11
37.7373224894
 21
7.406402164
 31
0.0
  0
LINE
  5
4A
330
A
100
AcDbEntity
  8
4
  6
Continuous
 62
    92
100
AcDbLine
 10
35.788520813
 20
12.907248603
 30
0.0
 11
34.7031326294
 21
12.907248603
 31
0.0
  0
LINE
  5
4B
330
A
100
AcDbEntity
  8
4
 62
    92
100
AcDbLine
 10
34.7031326294
 20
12.907248603
 30
0.0
 11
34.83646596269999
 21
12.8628041585
 31
0.0
  0
LINE
  5
4C
330
A
100
AcDbEntity
  8
4
 62
    92
100
AcDbLine
 10
34.83646596269999
 20
12.8628041585
 30
0.0
 11
34.83646596269999
 21
12.9516930474
 31
0.0
  0
LINE
  5
4D
330
A
100
AcDbEntity
  8
4
 62
    92
100
AcDbLine
 10
34.83646596269999
 20
12.9516930474
 30
0.0
 11
34.7031326294
 21
12.907248603
 31
0.0
  0
LINE
  5
4E
330
A
100
AcDbEntity
  8
4
  6
Continuous
 62
    92
100
AcDbLine
 10
34.7031326294
 20
12.907248603
 30
0.0
 11
34.31440650089999
 21
12.907248603
 31
0.0
  0
LINE
  5
4F
330
A
100
AcDbEntity
  8
4
 62
    92
100
AcDbLine
 10
34.31440650089999
 20
12.907248603
 30
0.0
 11
34.1810731676
 21
12.9516930474
 31
0.0
  0
LINE
  5
50
330
A
100
AcDbEntity
  8
4
 62
    92
100
AcDbLine
 10
34.1810731676
 20
12.9516930474
 30
0.0
 11
34.1810731676
 21
12.8628041585
 31
0.0
  0
LINE
  5
51
330
A
100
AcDbEntity
  8
4
 62
    92
100
AcDbLine
 10
34.1810731676
 20
12.8628041585
 30
0.0
 11
34.31440650089999
 21
12.907248603
 31
0.0
  0
LINE
  5
52
330
A
100
AcDbEntity
  8
4
  6
Continuous
 62
    92
100
AcDbLine
 10
34.31440650089999
 20
12.907248603
 30
0.0
 11
33.925517612
 21
12.907248603
 31
0.0
  0
LINE
  5
53
330
A
100
AcDbEntity
  8
4
  6
Continuous
 62
    92
100
AcDbLine
 10
34.7031326294
 20
14.5961642795
 30
0.0
 11
34.7031326294
 21
12.907248603
 31
0.0
  0
LINE
  5
54
330
A
100
AcDbEntity
  8
4
  6
Continuous
 62
    92
100
AcDbLine
 10
34.31440650089999
 20
14.5957260132
 30
0.0
 11
34.31440650089999
 21
12.907248603
 31
0.0
  0
LINE
  5
55
330
A
100
AcDbEntity
  8
11
  6
Continuous
 62
    92
100
AcDbLine
 10
30.3271391127
 20
19.06964789499999
 30
0.0
 11
31.0144695706
 21
19.2922024197
 31
0.0
  0
LINE
  5
56
330
A
100
AcDbEntity
  8
11
  6
Continuous
 62
    92
100
AcDbLine
 10
31.0144695706
 20
19.2922024197
 30
0.0
 11
34.0748062134
 21
19.2922024197
 31
0.0
  0
LINE
  5
57
330
A
100
AcDbEntity
  8
11
  6
Continuous
 62
    92
100
AcDbLine
 10
34.0748062134
 20
19.2922024197
 30
0.0
 11
34.7621366713
 21
19.06964789499999
 31
0.0
  0
LINE
  5
58
330
A
100
AcDbEntity
  8
11
  6
Continuous
 62
    92
100
AcDbLine
 10
35.0484729343
 20
18.7833150227
 30
0.0
 11
35.27102745909999
 21
18.095981174
 31
0.0
  0
LINE
  5
59
330
A
100
AcDbEntity
  8
11
  6
Continuous
 62
    92
100
AcDbLine
 10
35.27102745909999
 20
18.095981174
 30
0.0
 11
35.27102745909999
 21
15.035647922
 31
0.0
  0
LINE
  5
5A
330
A
100
AcDbEntity
  8
11
  6
Continuous
 62
    92
100
AcDbLine
 10
35.27102745909999
 20
15.035647922
 30
0.0
 11
35.0484729343
 21
14.34831407329999
 31
0.0
  0
LINE
  5
5B
330
A
100
AcDbEntity
  8
11
  6
Continuous
 62
    92
100
AcDbLine
 10
34.7621366713
 20
14.0618693034
 30
0.0
 11
34.0748062134
 21
13.8393147786
 31
0.0
  0
LINE
  5
5C
330
A
100
AcDbEntity
  8
11
  6
Continuous
 62
    92
100
AcDbLine
 10
34.0748062134
 20
13.8393147786
 30
0.0
 11
31.0144695706
 21
13.8393147786
 31
0.0
  0
LINE
  5
5D
330
A
100
AcDbEntity
  8
11
  6
Continuous
 62
    92
100
AcDbLine
 10
31.0144695706
 20
13.8393147786
 30
0.0
 11
30.3271391127
 21
14.0618693034
 31
0.0
  0
LINE
  5
5E
330
A
100
AcDbEntity
  8
11
  6
Continuous
 62
    92
100
AcDbLine
 10
30.0406943427
 20
14.34831407329999
 30
0.0
 11
29.818139818
 21
15.035647922
 31
0.0
  0
LINE
  5
5F
330
A
100
AcDbEntity
  8
11
  6
Continuous
 62
    92
100
AcDbLine
 10
29.818139818
 20
15.035647922
 30
0.0
 11
29.818139818
 21
18.095981174
 31
0.0
  0
LINE
  5
60
330
A
100
AcDbEntity
  8
11
  6
Continuous
 62
    92
100
AcDbLine
 10
29.818139818
 20
18.095981174
 30
0.0
 11
30.0406943427
 21
18.7833150227
 31
0.0
  0
LINE
  5
61
330
A
100
AcDbEntity
  8
11
  6
Continuous
 62
    92
100
AcDbLine
 10
22.6838946872
 20
19.2922041151
 30
0.0
 11
21.2950057983
 21
19.2922041151
 31
0.0
  0
LINE
  5
62
330
A
100
AcDbEntity
  8
11
  6
Continuous
 62
    92
100
AcDbLine
 10
21.2950057983
 20
19.2922041151
 30
0.0
 11
21.2950057983
 21
19.4255371093
 31
0.0
  0
LINE
  5
63
330
A
100
AcDbEntity
  8
11
  6
Continuous
 62
    92
100
AcDbLine
 10
21.2950057983
 20
19.4255371093
 30
0.0
 11
22.6838946872
 21
19.4255371093
 31
0.0
  0
LINE
  5
64
330
A
100
AcDbEntity
  8
11
  6
Continuous
 62
    92
100
AcDbLine
 10
22.6838946872
 20
19.4255371093
 30
0.0
 11
22.6838946872
 21
19.2922041151
 31
0.0
  0
LINE
  5
65
330
A
100
AcDbEntity
  8
11
  6
Continuous
 62
    92
100
AcDbLine
 10
21.3783391317
 20
19.4255371093
 30
0.0
 11
21.3783391317
 21
21.0699818929
 31
0.0
  0
LINE
  5
66
330
A
100
AcDbEntity
  8
11
  6
Continuous
 62
    92
100
AcDbLine
 10
21.3783391317
 20
21.0699818929
 30
0.0
 11
22.60056135389999
 21
21.0699818929
 31
0.0
  0
LINE
  5
67
330
A
100
AcDbEntity
  8
11
  6
Continuous
 62
    92
100
AcDbLine
 10
22.60056135389999
 20
21.0699818929
 30
0.0
 11
23.3783374362
 21
21.0699818929
 31
0.0
  0
LINE
  5
68
330
A
100
AcDbEntity
  8
11
  6
Continuous
 62
    92
100
AcDbLine
 10
22.60056135389999
 20
19.681093004
 30
0.0
 11
23.3783374362
 21
19.681093004
 31
0.0
  0
LINE
  5
69
330
A
100
AcDbEntity
  8
11
  6
Continuous
 62
    92
100
AcDbLine
 10
21.3783391317
 20
21.0699818929
 30
0.0
 11
21.43422698979999
 21
21.0047607422
 31
0.0
  0
LINE
  5
6A
330
A
100
AcDbEntity
  8
11
  6
Continuous
 62
    92
100
AcDbLine
 10
21.43422698979999
 20
21.0047607422
 30
0.0
 11
21.5172793231
 21
20.8974163909
 31
0.0
  0
LINE
  5
6B
330
A
100
AcDbEntity
  8
11
  6
Continuous
 62
    92
100
AcDbLine
 10
21.5172793231
 20
20.8974163909
 30
0.0
 11
21.5881623903
 21
20.7758226444
 31
0.0
  0
LINE
  5
6C
330
A
100
AcDbEntity
  8
11
  6
Continuous
 62
    92
100
AcDbLine
 10
21.5881623903
 20
20.7758226444
 30
0.0
 11
21.643788059
 21
20.6419313207
 31
0.0
  0
LINE
  5
6D
330
A
100
AcDbEntity
  8
11
  6
Continuous
 62
    92
100
AcDbLine
 10
21.643788059
 20
20.6419313207
 30
0.0
 11
21.6815692853
 21
20.49858820429999
 31
0.0
  0
LINE
  5
6E
330
A
100
AcDbEntity
  8
11
  6
Continuous
 62
    92
100
AcDbLine
 10
21.6815692853
 20
20.49858820429999
 30
0.0
 11
21.6997169984
 21
20.3493733665
 31
0.0
  0
LINE
  5
6F
330
A
100
AcDbEntity
  8
11
  6
Continuous
 62
    92
100
AcDbLine
 10
21.6997169984
 20
20.3493733665
 30
0.0
 11
21.69745967269999
 21
20.198322571
 31
0.0
  0
LINE
  5
70
330
A
100
AcDbEntity
  8
11
  6
Continuous
 62
    92
100
AcDbLine
 10
21.69745967269999
 20
20.198322571
 30
0.0
 11
21.6751363914
 21
20.0495715094
 31
0.0
  0
LINE
  5
71
330
A
100
AcDbEntity
  8
11
  6
Continuous
 62
    92
100
AcDbLine
 10
21.6751363914
 20
20.0495715094
 30
0.0
 11
21.63414214129999
 21
19.906986741
 31
0.0
  0
LINE
  5
72
330
A
100
AcDbEntity
  8
11
  6
Continuous
 62
    92
100
AcDbLine
 10
21.63414214129999
 20
19.906986741
 30
0.0
 11
21.5767396696
 21
19.77385041359999
 31
0.0
  0
LINE
  5
73
330
A
100
AcDbEntity
  8
11
  6
Continuous
 62
    92
100
AcDbLine
 10
21.5767396696
 20
19.77385041359999
 30
0.0
 11
21.5057822334
 21
19.65264892579999
 31
0.0
  0
LINE
  5
74
330
A
100
AcDbEntity
  8
11
  6
Continuous
 62
    92
100
AcDbLine
 10
21.5057822334
 20
19.65264892579999
 30
0.0
 11
21.3783391317
 21
19.4673156738
 31
0.0
  0
LINE
  5
75
330
A
100
AcDbEntity
  8
11
  6
Continuous
 62
    92
100
AcDbLine
 10
22.60056135389999
 20
19.4255371093
 30
0.0
 11
22.60056135389999
 21
19.681093004
 31
0.0
  0
LINE
  5
76
330
A
100
AcDbEntity
  8
11
  6
Continuous
 62
    92
100
AcDbLine
 10
21.3783391317
 20
19.4255371093
 30
0.0
 11
21.9894502428
 21
20.37553744839999
 31
0.0
  0
LINE
  5
77
330
A
100
AcDbEntity
  8
11
  6
Continuous
 62
    92
100
AcDbLine
 10
21.9894502428
 20
20.37553744839999
 30
0.0
 11
23.3783374362
 21
20.37553744839999
 31
0.0
  0
LINE
  5
78
330
A
100
AcDbEntity
  8
11
  6
Continuous
 62
    92
100
AcDbLine
 10
24.2394485473
 20
20.9727596707
 30
0.0
 11
24.2394485473
 21
19.7783152262
 31
0.0
  0
LINE
  5
79
330
A
100
AcDbEntity
  8
11
  6
Continuous
 62
    92
100
AcDbLine
 10
24.2394485473
 20
19.7783152262
 30
0.0
 11
24.18389299179999
 21
19.7366485596
 31
0.0
  0
LINE
  5
7A
330
A
100
AcDbEntity
  8
11
  6
Continuous
 62
    92
100
AcDbLine
 10
24.18389299179999
 20
19.7366485596
 30
0.0
 11
23.79500410289999
 21
19.7366485596
 31
0.0
  0
LINE
  5
7B
330
A
100
AcDbEntity
  8
11
  6
Continuous
 62
    92
100
AcDbLine
 10
23.79500410289999
 20
19.7366485596
 30
0.0
 11
23.73944854739999
 21
19.7783152262
 31
0.0
  0
LINE
  5
7C
330
A
100
AcDbEntity
  8
11
  6
Continuous
 62
    92
100
AcDbLine
 10
23.73944854739999
 20
19.7783152262
 30
0.0
 11
23.73944854739999
 21
20.9727596707
 31
0.0
  0
LINE
  5
7D
330
A
100
AcDbEntity
  8
11
  6
Continuous
 62
    92
100
AcDbLine
 10
23.73944854739999
 20
20.9727596707
 30
0.0
 11
23.79500410289999
 21
21.0144263373
 31
0.0
  0
LINE
  5
7E
330
A
100
AcDbEntity
  8
11
  6
Continuous
 62
    92
100
AcDbLine
 10
23.79500410289999
 20
21.0144263373
 30
0.0
 11
24.18389299179999
 21
21.0144263373
 31
0.0
  0
LINE
  5
7F
330
A
100
AcDbEntity
  8
11
  6
Continuous
 62
    92
100
AcDbLine
 10
24.18389299179999
 20
21.0144263373
 30
0.0
 11
24.2394485473
 21
20.9727596707
 31
0.0
  0
LINE
  5
80
330
A
100
AcDbEntity
  8
11
  6
Continuous
 62
    92
100
AcDbLine
 10
23.73944854739999
 20
20.9727596707
 30
0.0
 11
24.2394485473
 21
20.9727596707
 31
0.0
  0
LINE
  5
81
330
A
100
AcDbEntity
  8
11
  6
Continuous
 62
    92
100
AcDbLine
 10
23.73944854739999
 20
19.7783152262
 30
0.0
 11
24.2394485473
 21
19.7783152262
 31
0.0
  0
LINE
  5
82
330
A
100
AcDbEntity
  8
11
  6
Continuous
 62
    92
100
AcDbLine
 10
23.60055965849999
 20
20.9588707817
 30
0.0
 11
23.60055965849999
 21
19.7922041151
 31
0.0
  0
LINE
  5
83
330
A
100
AcDbEntity
  8
11
  6
Continuous
 62
    92
100
AcDbLine
 10
23.60055965849999
 20
19.7922041151
 30
0.0
 11
23.4894485474
 21
19.7922041151
 31
0.0
  0
LINE
  5
84
330
A
100
AcDbEntity
  8
11
  6
Continuous
 62
    92
100
AcDbLine
 10
23.4894485474
 20
19.7922041151
 30
0.0
 11
23.4894485474
 21
20.9588707817
 31
0.0
  0
LINE
  5
85
330
A
100
AcDbEntity
  8
11
  6
Continuous
 62
    92
100
AcDbLine
 10
23.4894485474
 20
20.9588707817
 30
0.0
 11
23.60055965849999
 21
20.9588707817
 31
0.0
  0
LINE
  5
86
330
A
100
AcDbEntity
  8
11
  6
Continuous
 62
    92
100
AcDbLine
 10
23.60055965849999
 20
20.9588707817
 30
0.0
 11
23.60055965849999
 21
21.0144263373
 31
0.0
  0
LINE
  5
87
330
A
100
AcDbEntity
  8
11
  6
Continuous
 62
    92
100
AcDbLine
 10
23.60055965849999
 20
21.0144263373
 30
0.0
 11
23.62833743629999
 21
21.0144263373
 31
0.0
  0
LINE
  5
88
330
A
100
AcDbEntity
  8
11
  6
Continuous
 62
    92
100
AcDbLine
 10
23.62833743629999
 20
21.0144263373
 30
0.0
 11
23.7005623712
 21
20.9727596707
 31
0.0
  0
LINE
  5
89
330
A
100
AcDbEntity
  8
11
  6
Continuous
 62
    92
100
AcDbLine
 10
23.7005623712
 20
20.9727596707
 30
0.0
 11
23.73944854739999
 21
20.9727596707
 31
0.0
  0
LINE
  5
8A
330
A
100
AcDbEntity
  8
11
  6
Continuous
 62
    92
100
AcDbLine
 10
23.62833743629999
 20
19.7366485596
 30
0.0
 11
23.62833743629999
 21
21.0144263373
 31
0.0
  0
LINE
  5
8B
330
A
100
AcDbEntity
  8
11
  6
Continuous
 62
    92
100
AcDbLine
 10
24.18389299179999
 20
19.7366485596
 30
0.0
 11
24.18389299179999
 21
21.0144263373
 31
0.0
  0
LINE
  5
8C
330
A
100
AcDbEntity
  8
11
  6
Continuous
 62
    92
100
AcDbLine
 10
23.79500410289999
 20
19.7366485596
 30
0.0
 11
23.79500410289999
 21
21.0144263373
 31
0.0
  0
LINE
  5
8D
330
A
100
AcDbEntity
  8
11
  6
Continuous
 62
    92
100
AcDbLine
 10
23.60055965849999
 20
19.7922041151
 30
0.0
 11
23.60055965849999
 21
19.7366485596
 31
0.0
  0
LINE
  5
8E
330
A
100
AcDbEntity
  8
11
  6
Continuous
 62
    92
100
AcDbLine
 10
23.60055965849999
 20
19.7366485596
 30
0.0
 11
23.62833743629999
 21
19.7366485596
 31
0.0
  0
LINE
  5
8F
330
A
100
AcDbEntity
  8
11
  6
Continuous
 62
    92
100
AcDbLine
 10
23.62833743629999
 20
19.7366485596
 30
0.0
 11
23.7005623712
 21
19.7783152262
 31
0.0
  0
LINE
  5
90
330
A
100
AcDbEntity
  8
11
  6
Continuous
 62
    92
100
AcDbLine
 10
23.7005623712
 20
19.7783152262
 30
0.0
 11
23.73944854739999
 21
19.7783152262
 31
0.0
  0
LINE
  5
91
330
A
100
AcDbEntity
  8
11
  6
Continuous
 62
    92
100
AcDbLine
 10
23.4894485474
 20
21.0144263373
 30
0.0
 11
23.4894485474
 21
19.7366485596
 31
0.0
  0
LINE
  5
92
330
A
100
AcDbEntity
  8
11
  6
Continuous
 62
    92
100
AcDbLine
 10
23.4894485474
 20
19.7366485596
 30
0.0
 11
23.43389299179999
 21
19.7366485596
 31
0.0
  0
LINE
  5
93
330
A
100
AcDbEntity
  8
11
  6
Continuous
 62
    92
100
AcDbLine
 10
23.43389299179999
 20
19.7366485596
 30
0.0
 11
23.43389299179999
 21
21.0144263373
 31
0.0
  0
LINE
  5
94
330
A
100
AcDbEntity
  8
11
  6
Continuous
 62
    92
100
AcDbLine
 10
23.43389299179999
 20
21.0144263373
 30
0.0
 11
23.4894485474
 21
21.0144263373
 31
0.0
  0
LINE
  5
95
330
A
100
AcDbEntity
  8
11
  6
Continuous
 62
    92
100
AcDbLine
 10
23.43389299179999
 20
20.9588707817
 30
0.0
 11
23.43389299179999
 21
19.7922041151
 31
0.0
  0
LINE
  5
96
330
A
100
AcDbEntity
  8
11
  6
Continuous
 62
    92
100
AcDbLine
 10
23.43389299179999
 20
19.7922041151
 30
0.0
 11
23.3783374362
 21
19.7922041151
 31
0.0
  0
LINE
  5
97
330
A
100
AcDbEntity
  8
11
  6
Continuous
 62
    92
100
AcDbLine
 10
23.3783374362
 20
19.7922041151
 30
0.0
 11
23.3783374362
 21
20.9588707817
 31
0.0
  0
LINE
  5
98
330
A
100
AcDbEntity
  8
11
  6
Continuous
 62
    92
100
AcDbLine
 10
23.3783374362
 20
20.9588707817
 30
0.0
 11
23.43389299179999
 21
20.9588707817
 31
0.0
  0
LINE
  5
99
330
A
100
AcDbEntity
  8
11
  6
Continuous
 62
    92
100
AcDbLine
 10
23.3783374362
 20
19.681093004
 30
0.0
 11
23.3783374362
 21
21.0699818929
 31
0.0
  0
LINE
  5
9A
330
A
100
AcDbEntity
  8
11
  6
Continuous
 62
    92
100
AcDbLine
 10
21.9894502428
 20
20.37553744839999
 30
0.0
 11
22.60056135389999
 21
19.681093004
 31
0.0
  0
LINE
  5
9B
330
A
100
AcDbEntity
  8
11
  6
CENTERX2
 62
    92
100
AcDbLine
 10
21.9894502428
 20
18.9796481662
 30
0.0
 11
21.9894502428
 21
21.4728715684
 31
0.0
  0
LINE
  5
9C
330
A
100
AcDbEntity
  8
11
  6
Continuous
 62
    92
100
AcDbLine
 10
24.4376703898
 20
18.574315389
 30
0.0
 11
24.70478396949999
 21
18.574315389
 31
0.0
  0
LINE
  5
9D
330
A
100
AcDbEntity
  8
11
  6
Continuous
 62
    92
100
AcDbLine
 10
24.70478396949999
 20
18.574315389
 30
0.0
 11
24.70478396949999
 21
18.96376037599999
 31
0.0
  0
LINE
  5
9E
330
A
100
AcDbEntity
  8
11
  6
Continuous
 62
    92
100
AcDbLine
 10
24.70478396949999
 20
18.96376037599999
 30
0.0
 11
24.4376703898
 21
18.96376037599999
 31
0.0
  0
LINE
  5
9F
330
A
100
AcDbEntity
  8
11
  6
Continuous
 62
    92
100
AcDbLine
 10
24.4822260539
 20
18.96376037599999
 30
0.0
 11
24.4822260539
 21
18.574315389
 31
0.0
  0
LINE
  5
A0
330
A
100
AcDbEntity
  8
11
  6
Continuous
 62
    92
100
AcDbLine
 10
24.4376703898
 20
14.1676491631
 30
0.0
 11
24.70478396949999
 21
14.1676491631
 31
0.0
  0
LINE
  5
A1
330
A
100
AcDbEntity
  8
11
  6
Continuous
 62
    92
100
AcDbLine
 10
24.70478396949999
 20
14.1676491631
 30
0.0
 11
24.70478396949999
 21
14.55720435239999
 31
0.0
  0
LINE
  5
A2
330
A
100
AcDbEntity
  8
11
  6
Continuous
 62
    92
100
AcDbLine
 10
24.70478396949999
 20
14.55720435239999
 30
0.0
 11
24.4376703898
 21
14.55720435239999
 31
0.0
  0
LINE
  5
A3
330
A
100
AcDbEntity
  8
11
  6
Continuous
 62
    92
100
AcDbLine
 10
24.4822260539
 20
14.55720435239999
 30
0.0
 11
24.4822260539
 21
14.1676491631
 31
0.0
  0
LINE
  5
A4
330
A
100
AcDbEntity
  8
11
  6
CENTERX2
 62
    92
100
AcDbLine
 10
24.4376703898
 20
14.36242675779999
 30
0.0
 11
24.9628948636
 21
14.36242675779999
 31
0.0
  0
LINE
  5
A5
330
A
100
AcDbEntity
  8
11
  6
CENTERX2
 62
    92
100
AcDbLine
 10
24.4376703898
 20
18.76898193359999
 30
0.0
 11
24.94155968559999
 21
18.76898193359999
 31
0.0
  0
LINE
  5
A6
330
A
100
AcDbEntity
  8
11
  6
Continuous
 62
    92
100
AcDbLine
 10
24.2707833184
 20
13.8393156263
 30
0.0
 11
24.4376703898
 21
13.8393156263
 31
0.0
  0
LINE
  5
A7
330
A
100
AcDbEntity
  8
11
  6
Continuous
 62
    92
100
AcDbLine
 10
24.4376703898
 20
13.8393156263
 30
0.0
 11
24.4376703898
 21
19.2922041151
 31
0.0
  0
LINE
  5
A8
330
A
100
AcDbEntity
  8
11
  6
Continuous
 62
    92
100
AcDbLine
 10
24.4376703898
 20
19.2922041151
 30
0.0
 11
24.2707833184
 21
19.2922041151
 31
0.0
  0
LINE
  5
A9
330
A
100
AcDbEntity
  8
11
  6
Continuous
 62
    92
100
AcDbLine
 10
24.2707833184
 20
19.06964959029999
 30
0.0
 11
24.4376703898
 21
19.06964959029999
 31
0.0
  0
LINE
  5
AA
330
A
100
AcDbEntity
  8
11
  6
Continuous
 62
    92
100
AcDbLine
 10
24.2707833184
 20
18.78320482039999
 30
0.0
 11
24.4376703898
 21
18.78320482039999
 31
0.0
  0
LINE
  5
AB
330
A
100
AcDbEntity
  8
11
  6
Continuous
 62
    92
100
AcDbLine
 10
24.2707833184
 20
18.0958709717
 30
0.0
 11
24.4376703898
 21
18.0958709717
 31
0.0
  0
LINE
  5
AC
330
A
100
AcDbEntity
  8
11
  6
Continuous
 62
    92
100
AcDbLine
 10
24.2707833184
 20
15.0356487698
 30
0.0
 11
24.4376703898
 21
15.0356487698
 31
0.0
  0
LINE
  5
AD
330
A
100
AcDbEntity
  8
11
  6
Continuous
 62
    92
100
AcDbLine
 10
24.2707833184
 20
14.3483157688
 30
0.0
 11
24.4376703898
 21
14.3483157688
 31
0.0
  0
LINE
  5
AE
330
A
100
AcDbEntity
  8
11
  6
Continuous
 62
    92
100
AcDbLine
 10
24.2707833184
 20
14.0618709988
 30
0.0
 11
24.4376703898
 21
14.0618709988
 31
0.0
  0
LINE
  5
AF
330
A
100
AcDbEntity
  8
11
  6
Continuous
 62
    92
100
AcDbLine
 10
24.4376703898
 20
19.2922041151
 30
0.0
 11
24.7158957587
 21
19.013982137
 31
0.0
  0
LINE
  5
B0
330
A
100
AcDbEntity
  8
11
  6
Continuous
 62
    92
100
AcDbLine
 10
24.7158957587
 20
19.013982137
 30
0.0
 11
24.7158957587
 21
14.1174265544
 31
0.0
  0
LINE
  5
B1
330
A
100
AcDbEntity
  8
11
  6
Continuous
 62
    92
100
AcDbLine
 10
24.7158957587
 20
14.1174265544
 30
0.0
 11
24.4376703898
 21
13.8393156263
 31
0.0
  0
LINE
  5
B2
330
A
100
AcDbEntity
  8
11
  6
Continuous
 62
    92
100
AcDbLine
 10
24.4376703898
 20
18.3104265
 30
0.0
 11
24.7158957587
 21
18.032204522
 31
0.0
  0
LINE
  5
B3
330
A
100
AcDbEntity
  8
11
  6
Continuous
 62
    92
100
AcDbLine
 10
24.4376703898
 20
14.8210932413
 30
0.0
 11
24.7158957587
 21
15.0993160671
 31
0.0
  0
LINE
  5
B4
330
A
100
AcDbEntity
  8
11
  6
Continuous
 62
    92
100
AcDbLine
 10
21.0992270576
 20
14.0618709988
 30
0.0
 11
21.0992270576
 21
13.8393156263
 31
0.0
  0
LINE
  5
B5
330
A
100
AcDbEntity
  8
11
  6
Continuous
 62
    92
100
AcDbLine
 10
21.0992270576
 20
13.8393156263
 30
0.0
 11
24.2707833184
 21
13.8393156263
 31
0.0
  0
LINE
  5
B6
330
A
100
AcDbEntity
  8
11
  6
Continuous
 62
    92
100
AcDbLine
 10
24.2707833184
 20
13.8393156263
 30
0.0
 11
24.2707833184
 21
19.2922041151
 31
0.0
  0
LINE
  5
B7
330
A
100
AcDbEntity
  8
11
  6
Continuous
 62
    92
100
AcDbLine
 10
24.2707833184
 20
19.2922041151
 30
0.0
 11
21.0992270576
 21
19.2922041151
 31
0.0
  0
LINE
  5
B8
330
A
100
AcDbEntity
  8
11
  6
Continuous
 62
    92
100
AcDbLine
 10
21.0992270576
 20
19.2922041151
 30
0.0
 11
21.0992270576
 21
19.06964959029999
 31
0.0
  0
LINE
  5
B9
330
A
100
AcDbEntity
  8
11
  6
Continuous
 62
    92
100
AcDbLine
 10
21.0992270576
 20
19.06964959029999
 30
0.0
 11
24.2707833184
 21
19.06964959029999
 31
0.0
  0
LINE
  5
BA
330
A
100
AcDbEntity
  8
11
  6
Continuous
 62
    92
100
AcDbLine
 10
21.0992270576
 20
18.78320482039999
 30
0.0
 11
24.2707833184
 21
18.78320482039999
 31
0.0
  0
LINE
  5
BB
330
A
100
AcDbEntity
  8
11
  6
Continuous
 62
    92
100
AcDbLine
 10
21.0992270576
 20
18.0958709717
 30
0.0
 11
24.2707833184
 21
18.0958709717
 31
0.0
  0
LINE
  5
BC
330
A
100
AcDbEntity
  8
11
  6
Continuous
 62
    92
100
AcDbLine
 10
21.0992270576
 20
15.0356487698
 30
0.0
 11
24.2707833184
 21
15.0356487698
 31
0.0
  0
LINE
  5
BD
330
A
100
AcDbEntity
  8
4
 62
    92
100
AcDbLine
 10
20.15478091769999
 20
21.6213022867
 30
0.0
 11
20.0214475844
 21
21.66574673119999
 31
0.0
  0
LINE
  5
BE
330
A
100
AcDbEntity
  8
4
 62
    92
100
AcDbLine
 10
20.0214475844
 20
21.66574673119999
 30
0.0
 11
20.0214475844
 21
21.5768578423
 31
0.0
  0
LINE
  5
BF
330
A
100
AcDbEntity
  8
4
 62
    92
100
AcDbLine
 10
20.0214475844
 20
21.5768578423
 30
0.0
 11
20.15478091769999
 21
21.6213022867
 31
0.0
  0
LINE
  5
C0
330
A
100
AcDbEntity
  8
4
  6
Continuous
 62
    92
100
AcDbLine
 10
20.15478091769999
 20
21.6213022867
 30
0.0
 11
10.90484364829999
 21
21.6213022867
 31
0.0
  0
LINE
  5
C1
330
A
100
AcDbEntity
  8
4
 62
    92
100
AcDbLine
 10
10.90484364829999
 20
21.6213022867
 30
0.0
 11
11.0381769816
 21
21.5768578423
 31
0.0
  0
LINE
  5
C2
330
A
100
AcDbEntity
  8
4
 62
    92
100
AcDbLine
 10
11.0381769816
 20
21.5768578423
 30
0.0
 11
11.0381769816
 21
21.66574673119999
 31
0.0
  0
LINE
  5
C3
330
A
100
AcDbEntity
  8
4
 62
    92
100
AcDbLine
 10
11.0381769816
 20
21.66574673119999
 30
0.0
 11
10.90484364829999
 21
21.6213022867
 31
0.0
  0
LINE
  5
C4
330
A
100
AcDbEntity
  8
4
  6
Continuous
 62
    92
100
AcDbLine
 10
20.15478091769999
 20
20.8428632948
 30
0.0
 11
20.15478091769999
 21
21.6213022867
 31
0.0
  0
LINE
  5
C5
330
A
100
AcDbEntity
  8
4
  6
Continuous
 62
    92
100
AcDbLine
 10
10.90484364829999
 20
16.8990970188
 30
0.0
 11
10.90484364829999
 21
21.6213022867
 31
0.0
  0
LINE
  5
C6
330
A
100
AcDbEntity
  8
4
 62
    92
100
AcDbLine
 10
10.90484364829999
 20
22.3990665012
 30
0.0
 11
11.0381769816
 21
22.35462205679999
 31
0.0
  0
LINE
  5
C7
330
A
100
AcDbEntity
  8
4
 62
    92
100
AcDbLine
 10
11.0381769816
 20
22.35462205679999
 30
0.0
 11
11.0381769816
 21
22.4435109456
 31
0.0
  0
LINE
  5
C8
330
A
100
AcDbEntity
  8
4
 62
    92
100
AcDbLine
 10
11.0381769816
 20
22.4435109456
 30
0.0
 11
10.90484364829999
 21
22.3990665012
 31
0.0
  0
LINE
  5
C9
330
A
100
AcDbEntity
  8
4
  6
Continuous
 62
    92
100
AcDbLine
 10
10.90484364829999
 20
22.3990665012
 30
0.0
 11
21.9894502428
 21
22.3990665012
 31
0.0
  0
LINE
  5
CA
330
A
100
AcDbEntity
  8
4
 62
    92
100
AcDbLine
 10
21.9894502428
 20
22.3990665012
 30
0.0
 11
21.8561169094
 21
22.4435109456
 31
0.0
  0
LINE
  5
CB
330
A
100
AcDbEntity
  8
4
 62
    92
100
AcDbLine
 10
21.8561169094
 20
22.4435109456
 30
0.0
 11
21.8561169094
 21
22.35462205679999
 31
0.0
  0
LINE
  5
CC
330
A
100
AcDbEntity
  8
4
 62
    92
100
AcDbLine
 10
21.8561169094
 20
22.35462205679999
 30
0.0
 11
21.9894502428
 21
22.3990665012
 31
0.0
  0
LINE
  5
CD
330
A
100
AcDbEntity
  8
4
  6
Continuous
 62
    92
100
AcDbLine
 10
10.90484364829999
 20
21.6213022867
 30
0.0
 11
10.90484364829999
 21
22.3990665012
 31
0.0
  0
LINE
  5
CE
330
A
100
AcDbEntity
  8
4
  6
Continuous
 62
    92
100
AcDbLine
 10
21.9894502428
 20
20.9778662788
 30
0.0
 11
21.9894502428
 21
22.3990665012
 31
0.0
  0
LINE
  5
CF
330
A
100
AcDbEntity
  8
4
 62
    92
100
AcDbLine
 10
10.90484364829999
 20
23.17683410639999
 30
0.0
 11
11.0381769816
 21
23.13238966199999
 31
0.0
  0
LINE
  5
D0
330
A
100
AcDbEntity
  8
4
 62
    92
100
AcDbLine
 10
11.0381769816
 20
23.13238966199999
 30
0.0
 11
11.0381769816
 21
23.2212785509
 31
0.0
  0
LINE
  5
D1
330
A
100
AcDbEntity
  8
4
 62
    92
100
AcDbLine
 10
11.0381769816
 20
23.2212785509
 30
0.0
 11
10.90484364829999
 21
23.17683410639999
 31
0.0
  0
LINE
  5
D2
330
A
100
AcDbEntity
  8
4
  6
Continuous
 62
    92
100
AcDbLine
 10
10.90484364829999
 20
23.17683410639999
 30
0.0
 11
24.7158957587
 21
23.17683410639999
 31
0.0
  0
LINE
  5
D3
330
A
100
AcDbEntity
  8
4
 62
    92
100
AcDbLine
 10
24.7158957587
 20
23.17683410639999
 30
0.0
 11
24.5825624254
 21
23.2212785509
 31
0.0
  0
LINE
  5
D4
330
A
100
AcDbEntity
  8
4
 62
    92
100
AcDbLine
 10
24.5825624254
 20
23.2212785509
 30
0.0
 11
24.5825624254
 21
23.13238966199999
 31
0.0
  0
LINE
  5
D5
330
A
100
AcDbEntity
  8
4
 62
    92
100
AcDbLine
 10
24.5825624254
 20
23.13238966199999
 30
0.0
 11
24.7158957587
 21
23.17683410639999
 31
0.0
  0
LINE
  5
D6
330
A
100
AcDbEntity
  8
4
  6
Continuous
 62
    92
100
AcDbLine
 10
10.90484364829999
 20
22.3990665012
 30
0.0
 11
10.90484364829999
 21
23.17683410639999
 31
0.0
  0
LINE
  5
D7
330
A
100
AcDbEntity
  8
4
  6
Continuous
 62
    92
100
AcDbLine
 10
24.7158957587
 20
18.4666392008
 30
0.0
 11
24.7158957587
 21
23.17683410639999
 31
0.0
  0
LINE
  5
D8
330
A
100
AcDbEntity
  8
11
  6
Continuous
 62
    92
100
AcDbLine
 10
32.822259691
 20
20.8428649902
 30
0.0
 11
32.822259691
 21
20.8202752007
 31
0.0
  0
LINE
  5
D9
330
A
100
AcDbEntity
  8
11
  6
Continuous
 62
    92
100
AcDbLine
 10
32.266907586
 20
20.8202752007
 30
0.0
 11
32.266907586
 21
20.8428649902
 31
0.0
  0
LINE
  5
DA
330
A
100
AcDbEntity
  8
11
  6
Continuous
 62
    92
100
AcDbLine
 10
32.266907586
 20
20.8428649902
 30
0.0
 11
32.822259691
 21
20.8428649902
 31
0.0
  0
LINE
  5
DB
330
A
100
AcDbEntity
  8
11
  6
Continuous
 62
    92
100
AcDbLine
 10
33.2109993829
 20
19.4254896376
 30
0.0
 11
33.2109993829
 21
19.9542948405
 31
0.0
  0
LINE
  5
DC
330
A
100
AcDbEntity
  8
11
  6
Continuous
 62
    92
100
AcDbLine
 10
31.8781645033
 20
19.2922024197
 30
0.0
 11
31.8781645033
 21
19.9543151855
 31
0.0
  0
LINE
  5
DD
330
A
100
AcDbEntity
  8
11
  6
CENTERX2
 62
    92
100
AcDbLine
 10
32.54458024769999
 20
20.9320034451
 30
0.0
 11
32.54458024769999
 21
18.9888949924
 31
0.0
  0
LINE
  5
DE
330
A
100
AcDbEntity
  8
11
  6
CENTERX2
 62
    92
100
AcDbLine
 10
31.7948616876
 20
20.1486816406
 30
0.0
 11
33.2943021987
 21
20.1486816406
 31
0.0
  0
LINE
  5
DF
330
A
100
AcDbEntity
  8
11
  6
Continuous
 62
    92
100
AcDbLine
 10
33.48867543539999
 20
21.0693088107
 30
0.0
 11
33.48867543539999
 21
21.04671902119999
 31
0.0
  0
LINE
  5
E0
330
A
100
AcDbEntity
  8
11
  6
Continuous
 62
    92
100
AcDbLine
 10
32.9333267212
 20
21.04671902119999
 30
0.0
 11
32.9333267212
 21
21.0693088107
 31
0.0
  0
LINE
  5
E1
330
A
100
AcDbEntity
  8
11
  6
Continuous
 62
    92
100
AcDbLine
 10
32.9333267212
 20
21.0693088107
 30
0.0
 11
33.48867543539999
 21
21.0693088107
 31
0.0
  0
LINE
  5
E2
330
A
100
AcDbEntity
  8
11
  6
Continuous
 62
    92
100
AcDbLine
 10
33.87741512729999
 20
19.4254896376
 30
0.0
 11
33.87741512729999
 21
20.18073866099999
 31
0.0
  0
LINE
  5
E3
330
A
100
AcDbEntity
  8
11
  6
CENTERX2
 62
    92
100
AcDbLine
 10
33.2109993829
 20
21.1584472656
 30
0.0
 11
33.2109993829
 21
19.2153388129
 31
0.0
  0
LINE
  5
E4
330
A
100
AcDbEntity
  8
11
  6
CENTERX2
 62
    92
100
AcDbLine
 10
32.4612808228
 20
20.37512546119999
 30
0.0
 11
33.96072133389999
 21
20.37512546119999
 31
0.0
  0
LINE
  5
E5
330
A
100
AcDbEntity
  8
11
  6
Continuous
 62
    92
100
AcDbLine
 10
33.2109993829
 20
19.2922024197
 30
0.0
 11
33.9051861234
 21
19.2922024197
 31
0.0
  0
LINE
  5
E6
330
A
100
AcDbEntity
  8
11
  6
Continuous
 62
    92
100
AcDbLine
 10
33.9051861234
 20
19.2922024197
 30
0.0
 11
33.9051861234
 21
19.4254896376
 31
0.0
  0
LINE
  5
E7
330
A
100
AcDbEntity
  8
11
  6
Continuous
 62
    92
100
AcDbLine
 10
33.9051861234
 20
19.4254896376
 30
0.0
 11
33.2109993829
 21
19.4254896376
 31
0.0
  0
LINE
  5
E8
330
A
100
AcDbEntity
  8
11
  6
Continuous
 62
    92
100
AcDbLine
 10
33.2109993829
 20
19.4254896376
 30
0.0
 11
33.2109993829
 21
19.2922024197
 31
0.0
  0
LINE
  5
E9
330
A
100
AcDbEntity
  8
11
  6
Continuous
 62
    92
100
AcDbLine
 10
19.4605941772
 20
19.0657602946
 30
0.0
 11
20.8489625719
 21
19.0657602946
 31
0.0
  0
LINE
  5
EA
330
A
100
AcDbEntity
  8
11
  6
Continuous
 62
    92
100
AcDbLine
 10
20.8489625719
 20
19.0657602946
 30
0.0
 11
20.8489625719
 21
19.1990407308
 31
0.0
  0
LINE
  5
EB
330
A
100
AcDbEntity
  8
11
  6
Continuous
 62
    92
100
AcDbLine
 10
20.8489625719
 20
19.1990407308
 30
0.0
 11
19.4605941772
 21
19.1990407308
 31
0.0
  0
LINE
  5
EC
330
A
100
AcDbEntity
  8
11
  6
Continuous
 62
    92
100
AcDbLine
 10
19.4605941772
 20
19.1990407308
 30
0.0
 11
19.4605941772
 21
19.0657602946
 31
0.0
  0
LINE
  5
ED
330
A
100
AcDbEntity
  8
11
  6
Continuous
 62
    92
100
AcDbLine
 10
20.76565975619999
 20
19.1990407308
 30
0.0
 11
20.76565975619999
 21
20.8428632948
 31
0.0
  0
LINE
  5
EE
330
A
100
AcDbEntity
  8
11
  6
Continuous
 62
    92
100
AcDbLine
 10
20.76565975619999
 20
20.8428632948
 30
0.0
 11
19.5439020793
 21
20.8428632948
 31
0.0
  0
LINE
  5
EF
330
A
100
AcDbEntity
  8
11
  6
Continuous
 62
    92
100
AcDbLine
 10
19.5439020793
 20
20.8428632948
 30
0.0
 11
18.76641930479999
 21
20.8428632948
 31
0.0
  0
LINE
  5
F0
330
A
100
AcDbEntity
  8
11
  6
Continuous
 62
    92
100
AcDbLine
 10
19.5439020793
 20
19.4544999864
 30
0.0
 11
18.76641930479999
 21
19.4544999864
 31
0.0
  0
LINE
  5
F1
330
A
100
AcDbEntity
  8
11
  6
Continuous
 62
    92
100
AcDbLine
 10
20.76565975619999
 20
20.8428632948
 30
0.0
 11
20.70984819199999
 21
20.7776743571
 31
0.0
  0
LINE
  5
F2
330
A
100
AcDbEntity
  8
11
  6
Continuous
 62
    92
100
AcDbLine
 10
20.70984819199999
 20
20.7776743571
 30
0.0
 11
20.6268137224
 21
20.6703836193
 31
0.0
  0
LINE
  5
F3
330
A
100
AcDbEntity
  8
11
  6
Continuous
 62
    92
100
AcDbLine
 10
20.6268137224
 20
20.6703836193
 30
0.0
 11
20.5559455755
 21
20.5488467977
 31
0.0
  0
LINE
  5
F4
330
A
100
AcDbEntity
  8
11
  6
Continuous
 62
    92
100
AcDbLine
 10
20.5559455755
 20
20.5488467977
 30
0.0
 11
20.5003311972
 21
20.41501447609999
 31
0.0
  0
LINE
  5
F5
330
A
100
AcDbEntity
  8
11
  6
Continuous
 62
    92
100
AcDbLine
 10
20.5003311972
 20
20.41501447609999
 30
0.0
 11
20.46255706979999
 21
20.27173095479999
 31
0.0
  0
LINE
  5
F6
330
A
100
AcDbEntity
  8
11
  6
Continuous
 62
    92
100
AcDbLine
 10
20.46255706979999
 20
20.27173095479999
 30
0.0
 11
20.4444118927
 21
20.1225746778
 31
0.0
  0
LINE
  5
F7
330
A
100
AcDbEntity
  8
11
  6
Continuous
 62
    92
100
AcDbLine
 10
20.4444118927
 20
20.1225746778
 30
0.0
 11
20.4466670589
 21
19.971579779
 31
0.0
  0
LINE
  5
F8
330
A
100
AcDbEntity
  8
11
  6
Continuous
 62
    92
100
AcDbLine
 10
20.4466670589
 20
19.971579779
 30
0.0
 11
20.46898360759999
 21
19.82288046489999
 31
0.0
  0
LINE
  5
F9
330
A
100
AcDbEntity
  8
11
  6
Continuous
 62
    92
100
AcDbLine
 10
20.46898360759999
 20
19.82288046489999
 30
0.0
 11
20.5099669139
 21
19.68034208349999
 31
0.0
  0
LINE
  5
FA
330
A
100
AcDbEntity
  8
11
  6
Continuous
 62
    92
100
AcDbLine
 10
20.5099669139
 20
19.68034208349999
 30
0.0
 11
20.5673547847
 21
19.54724593119999
 31
0.0
  0
LINE
  5
FB
330
A
100
AcDbEntity
  8
11
  6
Continuous
 62
    92
100
AcDbLine
 10
20.5673547847
 20
19.54724593119999
 30
0.0
 11
20.6382946438
 21
19.42607794859999
 31
0.0
  0
LINE
  5
FC
330
A
100
AcDbEntity
  8
11
  6
Continuous
 62
    92
100
AcDbLine
 10
20.6382946438
 20
19.42607794859999
 30
0.0
 11
20.76565975619999
 21
19.2408159043
 31
0.0
  0
LINE
  5
FD
330
A
100
AcDbEntity
  8
11
  6
Continuous
 62
    92
100
AcDbLine
 10
19.5439020793
 20
19.1990407308
 30
0.0
 11
19.5439020793
 21
19.4544999864
 31
0.0
  0
LINE
  5
FE
330
A
100
AcDbEntity
  8
11
  6
Continuous
 62
    92
100
AcDbLine
 10
20.76565975619999
 20
19.1990407308
 30
0.0
 11
20.1547792223
 21
20.14867994509999
 31
0.0
  0
LINE
  5
FF
330
A
100
AcDbEntity
  8
11
  6
Continuous
 62
    92
100
AcDbLine
 10
20.1547792223
 20
20.14867994509999
 30
0.0
 11
18.76641930479999
 21
20.14867994509999
 31
0.0
  0
LINE
  5
100
330
A
100
AcDbEntity
  8
11
  6
Continuous
 62
    92
100
AcDbLine
 10
17.9056320191
 20
20.7456783718
 30
0.0
 11
17.9056320191
 21
19.5516815185
 31
0.0
  0
LINE
  5
101
330
A
100
AcDbEntity
  8
11
  6
Continuous
 62
    92
100
AcDbLine
 10
17.9056320191
 20
19.5516815185
 30
0.0
 11
17.9611655341
 21
19.510031806
 31
0.0
  0
LINE
  5
102
330
A
100
AcDbEntity
  8
11
  6
Continuous
 62
    92
100
AcDbLine
 10
17.9611655341
 20
19.510031806
 30
0.0
 11
18.3499069214
 21
19.510031806
 31
0.0
  0
LINE
  5
103
330
A
100
AcDbEntity
  8
11
  6
Continuous
 62
    92
100
AcDbLine
 10
18.3499069214
 20
19.510031806
 30
0.0
 11
18.4054455228
 21
19.5516815185
 31
0.0
  0
LINE
  5
104
330
A
100
AcDbEntity
  8
11
  6
Continuous
 62
    92
100
AcDbLine
 10
18.4054455228
 20
19.5516815185
 30
0.0
 11
18.4054455228
 21
20.7456783718
 31
0.0
  0
LINE
  5
105
330
A
100
AcDbEntity
  8
11
  6
Continuous
 62
    92
100
AcDbLine
 10
18.4054455228
 20
20.7456783718
 30
0.0
 11
18.3499069214
 21
20.7873280842
 31
0.0
  0
LINE
  5
106
330
A
100
AcDbEntity
  8
11
  6
Continuous
 62
    92
100
AcDbLine
 10
18.3499069214
 20
20.7873280842
 30
0.0
 11
17.9611655341
 21
20.7873280842
 31
0.0
  0
LINE
  5
107
330
A
100
AcDbEntity
  8
11
  6
Continuous
 62
    92
100
AcDbLine
 10
17.9611655341
 20
20.7873280842
 30
0.0
 11
17.9056320191
 21
20.7456783718
 31
0.0
  0
LINE
  5
108
330
A
100
AcDbEntity
  8
11
  6
Continuous
 62
    92
100
AcDbLine
 10
18.4054455228
 20
20.7456783718
 30
0.0
 11
17.9056320191
 21
20.7456783718
 31
0.0
  0
LINE
  5
109
330
A
100
AcDbEntity
  8
11
  6
Continuous
 62
    92
100
AcDbLine
 10
18.4054455228
 20
19.5516815185
 30
0.0
 11
17.9056320191
 21
19.5516815185
 31
0.0
  0
LINE
  5
10A
330
A
100
AcDbEntity
  8
11
  6
Continuous
 62
    92
100
AcDbLine
 10
18.5442767674
 20
20.73179287369999
 30
0.0
 11
18.5442767674
 21
19.5655670165
 31
0.0
  0
LINE
  5
10B
330
A
100
AcDbEntity
  8
11
  6
Continuous
 62
    92
100
AcDbLine
 10
18.5442767674
 20
19.5655670165
 30
0.0
 11
18.6553488838
 21
19.5655670165
 31
0.0
  0
LINE
  5
10C
330
A
100
AcDbEntity
  8
11
  6
Continuous
 62
    92
100
AcDbLine
 10
18.6553488838
 20
19.5655670165
 30
0.0
 11
18.6553488838
 21
20.73179287369999
 31
0.0
  0
LINE
  5
10D
330
A
100
AcDbEntity
  8
11
  6
Continuous
 62
    92
100
AcDbLine
 10
18.6553488838
 20
20.73179287369999
 30
0.0
 11
18.5442767674
 21
20.73179287369999
 31
0.0
  0
LINE
  5
10E
330
A
100
AcDbEntity
  8
11
  6
Continuous
 62
    92
100
AcDbLine
 10
18.5442767674
 20
20.73179287369999
 30
0.0
 11
18.5442767674
 21
20.7873280842
 31
0.0
  0
LINE
  5
10F
330
A
100
AcDbEntity
  8
11
  6
Continuous
 62
    92
100
AcDbLine
 10
18.5442767674
 20
20.7873280842
 30
0.0
 11
18.5165125529
 21
20.7873280842
 31
0.0
  0
LINE
  5
110
330
A
100
AcDbEntity
  8
11
  6
Continuous
 62
    92
100
AcDbLine
 10
18.5165125529
 20
20.7873280842
 30
0.0
 11
18.4443723891
 21
20.7456783718
 31
0.0
  0
LINE
  5
111
330
A
100
AcDbEntity
  8
11
  6
Continuous
 62
    92
100
AcDbLine
 10
18.4443723891
 20
20.7456783718
 30
0.0
 11
18.4054455228
 21
20.7456783718
 31
0.0
  0
LINE
  5
112
330
A
100
AcDbEntity
  8
11
  6
Continuous
 62
    92
100
AcDbLine
 10
18.5165125529
 20
19.510031806
 30
0.0
 11
18.5165125529
 21
20.7873280842
 31
0.0
  0
LINE
  5
113
330
A
100
AcDbEntity
  8
11
  6
Continuous
 62
    92
100
AcDbLine
 10
17.9611655341
 20
19.510031806
 30
0.0
 11
17.9611655341
 21
20.7873280842
 31
0.0
  0
LINE
  5
114
330
A
100
AcDbEntity
  8
11
  6
Continuous
 62
    92
100
AcDbLine
 10
18.3499069214
 20
19.510031806
 30
0.0
 11
18.3499069214
 21
20.7873280842
 31
0.0
  0
LINE
  5
115
330
A
100
AcDbEntity
  8
11
  6
Continuous
 62
    92
100
AcDbLine
 10
18.5442767674
 20
19.5655670165
 30
0.0
 11
18.5442767674
 21
19.510031806
 31
0.0
  0
LINE
  5
116
330
A
100
AcDbEntity
  8
11
  6
Continuous
 62
    92
100
AcDbLine
 10
18.5442767674
 20
19.510031806
 30
0.0
 11
18.5165125529
 21
19.510031806
 31
0.0
  0
LINE
  5
117
330
A
100
AcDbEntity
  8
11
  6
Continuous
 62
    92
100
AcDbLine
 10
18.5165125529
 20
19.510031806
 30
0.0
 11
18.4443723891
 21
19.5516815185
 31
0.0
  0
LINE
  5
118
330
A
100
AcDbEntity
  8
11
  6
Continuous
 62
    92
100
AcDbLine
 10
18.4443723891
 20
19.5516815185
 30
0.0
 11
18.4054455228
 21
19.5516815185
 31
0.0
  0
LINE
  5
119
330
A
100
AcDbEntity
  8
11
  6
Continuous
 62
    92
100
AcDbLine
 10
18.6553488838
 20
20.7873280842
 30
0.0
 11
18.6553488838
 21
19.510031806
 31
0.0
  0
LINE
  5
11A
330
A
100
AcDbEntity
  8
11
  6
Continuous
 62
    92
100
AcDbLine
 10
18.6553488838
 20
19.510031806
 30
0.0
 11
18.7108807034
 21
19.510031806
 31
0.0
  0
LINE
  5
11B
330
A
100
AcDbEntity
  8
11
  6
Continuous
 62
    92
100
AcDbLine
 10
18.7108807034
 20
19.510031806
 30
0.0
 11
18.7108807034
 21
20.7873280842
 31
0.0
  0
LINE
  5
11C
330
A
100
AcDbEntity
  8
11
  6
Continuous
 62
    92
100
AcDbLine
 10
18.7108807034
 20
20.7873280842
 30
0.0
 11
18.6553488838
 21
20.7873280842
 31
0.0
  0
LINE
  5
11D
330
A
100
AcDbEntity
  8
11
  6
Continuous
 62
    92
100
AcDbLine
 10
18.7108807034
 20
20.73179287369999
 30
0.0
 11
18.7108807034
 21
19.5655670165
 31
0.0
  0
LINE
  5
11E
330
A
100
AcDbEntity
  8
11
  6
Continuous
 62
    92
100
AcDbLine
 10
18.7108807034
 20
19.5655670165
 30
0.0
 11
18.76641930479999
 21
19.5655670165
 31
0.0
  0
LINE
  5
11F
330
A
100
AcDbEntity
  8
11
  6
Continuous
 62
    92
100
AcDbLine
 10
18.76641930479999
 20
19.5655670165
 30
0.0
 11
18.76641930479999
 21
20.73179287369999
 31
0.0
  0
LINE
  5
120
330
A
100
AcDbEntity
  8
11
  6
Continuous
 62
    92
100
AcDbLine
 10
18.76641930479999
 20
20.73179287369999
 30
0.0
 11
18.7108807034
 21
20.73179287369999
 31
0.0
  0
LINE
  5
121
330
A
100
AcDbEntity
  8
11
  6
Continuous
 62
    92
100
AcDbLine
 10
18.76641930479999
 20
19.4544999864
 30
0.0
 11
18.76641930479999
 21
20.8428632948
 31
0.0
  0
LINE
  5
122
330
A
100
AcDbEntity
  8
11
  6
Continuous
 62
    92
100
AcDbLine
 10
20.1547792223
 20
20.14867994509999
 30
0.0
 11
19.5439020793
 21
19.4544999864
 31
0.0
  0
LINE
  5
123
330
A
100
AcDbEntity
  8
4
 62
    92
100
AcDbLine
 10
29.818139818
 20
23.17683410639999
 30
0.0
 11
29.9514731514
 21
23.13238966199999
 31
0.0
  0
LINE
  5
124
330
A
100
AcDbEntity
  8
4
 62
    92
100
AcDbLine
 10
29.9514731514
 20
23.13238966199999
 30
0.0
 11
29.9514731514
 21
23.2212785509
 31
0.0
  0
LINE
  5
125
330
A
100
AcDbEntity
  8
4
 62
    92
100
AcDbLine
 10
29.9514731514
 20
23.2212785509
 30
0.0
 11
29.818139818
 21
23.17683410639999
 31
0.0
  0
LINE
  5
126
330
A
100
AcDbEntity
  8
4
  6
Continuous
 62
    92
100
AcDbLine
 10
29.818139818
 20
23.17683410639999
 30
0.0
 11
35.27102745909999
 21
23.17683410639999
 31
0.0
  0
LINE
  5
127
330
A
100
AcDbEntity
  8
4
 62
    92
100
AcDbLine
 10
35.27102745909999
 20
23.17683410639999
 30
0.0
 11
35.1376941257
 21
23.2212785509
 31
0.0
  0
LINE
  5
128
330
A
100
AcDbEntity
  8
4
 62
    92
100
AcDbLine
 10
35.1376941257
 20
23.2212785509
 30
0.0
 11
35.1376941257
 21
23.13238966199999
 31
0.0
  0
LINE
  5
129
330
A
100
AcDbEntity
  8
4
 62
    92
100
AcDbLine
 10
35.1376941257
 20
23.13238966199999
 30
0.0
 11
35.27102745909999
 21
23.17683410639999
 31
0.0
  0
LINE
  5
12A
330
A
100
AcDbEntity
  8
4
  6
Continuous
 62
    92
100
AcDbLine
 10
29.818139818
 20
17.4055158827
 30
0.0
 11
29.818139818
 21
23.17683410639999
 31
0.0
  0
LINE
  5
12B
330
A
100
AcDbEntity
  8
4
  6
Continuous
 62
    92
100
AcDbLine
 10
35.27102745909999
 20
17.8162502713
 30
0.0
 11
35.27102745909999
 21
23.17683410639999
 31
0.0
  0
LINE
  5
12C
330
A
100
AcDbEntity
  8
4
  6
Continuous
 62
    92
100
AcDbLine
 10
6.6640218099
 20
16.4268646239
 30
0.0
 11
5.8862550524
 21
16.4268646239
 31
0.0
  0
LINE
  5
12D
330
A
100
AcDbEntity
  8
4
  6
Continuous
 62
    92
100
AcDbLine
 10
6.6640218099
 20
16.70465596509999
 30
0.0
 11
5.8862550524
 21
16.70465596509999
 31
0.0
  0
LINE
  5
12E
330
A
100
AcDbEntity
  8
4
  6
Continuous
 62
    92
100
AcDbLine
 10
5.8862550524
 20
17.9164140489
 30
0.0
 11
5.8862550524
 21
16.70465596509999
 31
0.0
  0
LINE
  5
12F
330
A
100
AcDbEntity
  8
4
 62
    92
100
AcDbLine
 10
5.8862550524
 20
16.70465596509999
 30
0.0
 11
5.930699496799999
 21
16.8379892985
 31
0.0
  0
LINE
  5
130
330
A
100
AcDbEntity
  8
4
 62
    92
100
AcDbLine
 10
5.930699496799999
 20
16.8379892985
 30
0.0
 11
5.841810607899999
 21
16.8379892985
 31
0.0
  0
LINE
  5
131
330
A
100
AcDbEntity
  8
4
 62
    92
100
AcDbLine
 10
5.841810607899999
 20
16.8379892985
 30
0.0
 11
5.8862550524
 21
16.70465596509999
 31
0.0
  0
LINE
  5
132
330
A
100
AcDbEntity
  8
4
  6
Continuous
 62
    92
100
AcDbLine
 10
5.8862550524
 20
16.70465596509999
 30
0.0
 11
5.8862550524
 21
16.4268646239
 31
0.0
  0
LINE
  5
133
330
A
100
AcDbEntity
  8
4
 62
    92
100
AcDbLine
 10
5.8862550524
 20
16.4268646239
 30
0.0
 11
5.841810607899999
 21
16.2935312907
 31
0.0
  0
LINE
  5
134
330
A
100
AcDbEntity
  8
4
 62
    92
100
AcDbLine
 10
5.841810607899999
 20
16.2935312907
 30
0.0
 11
5.930699496799999
 21
16.2935312907
 31
0.0
  0
LINE
  5
135
330
A
100
AcDbEntity
  8
4
 62
    92
100
AcDbLine
 10
5.930699496799999
 20
16.2935312907
 30
0.0
 11
5.8862550524
 21
16.4268646239
 31
0.0
  0
LINE
  5
136
330
A
100
AcDbEntity
  8
4
  6
Continuous
 62
    92
100
AcDbLine
 10
5.8862550524
 20
16.4268646239
 30
0.0
 11
5.8862550524
 21
15.7483944363
 31
0.0
  0
LINE
  5
137
330
A
100
AcDbEntity
  8
11
  6
CENTERX2
 62
    92
100
AcDbLine
 10
6.4474902683
 20
16.5657602946
 30
0.0
 11
7.7723337809
 21
16.5657602946
 31
0.0
  0
LINE
  5
138
330
A
100
AcDbEntity
  8
11
  6
CENTERX2
 62
    92
100
AcDbLine
 10
7.1640209622
 20
15.9113922118
 30
0.0
 11
7.1640209622
 21
17.2452477349
 31
0.0
  0
LINE
  5
139
330
A
100
AcDbEntity
  8
11
  6
Continuous
 62
    92
100
AcDbLine
 10
6.800772772899999
 20
16.4268646239
 30
0.0
 11
6.6640218099
 21
16.4268646239
 31
0.0
  0
LINE
  5
13A
330
A
100
AcDbEntity
  8
11
  6
Continuous
 62
    92
100
AcDbLine
 10
6.6640218099
 20
16.4268646239
 30
0.0
 11
6.6640218099
 21
16.70465596509999
 31
0.0
  0
LINE
  5
13B
330
A
100
AcDbEntity
  8
11
  6
Continuous
 62
    92
100
AcDbLine
 10
6.6640218099
 20
16.70465596509999
 30
0.0
 11
6.800772772899999
 21
16.70465596509999
 31
0.0
  0
LINE
  5
13C
330
A
100
AcDbEntity
  8
4
  6
Continuous
 62
    92
100
AcDbLine
 10
7.5529056126
 20
16.5657602946
 30
0.0
 11
7.5529056126
 21
17.5355682372
 31
0.0
  0
LINE
  5
13D
330
A
100
AcDbEntity
  8
4
  6
Continuous
 62
    92
100
AcDbLine
 10
6.6640218099
 20
16.70465596509999
 30
0.0
 11
6.6640218099
 21
17.5355682372
 31
0.0
  0
LINE
  5
13E
330
A
100
AcDbEntity
  8
4
 62
    92
100
AcDbLine
 10
6.6640218099
 20
17.5355682372
 30
0.0
 11
6.7973551432
 21
17.4911237928
 31
0.0
  0
LINE
  5
13F
330
A
100
AcDbEntity
  8
4
 62
    92
100
AcDbLine
 10
6.7973551432
 20
17.4911237928
 30
0.0
 11
6.7973551432
 21
17.5800126818
 31
0.0
  0
LINE
  5
140
330
A
100
AcDbEntity
  8
4
 62
    92
100
AcDbLine
 10
6.7973551432
 20
17.5800126818
 30
0.0
 11
6.6640218099
 21
17.5355682372
 31
0.0
  0
LINE
  5
141
330
A
100
AcDbEntity
  8
4
  6
Continuous
 62
    92
100
AcDbLine
 10
6.6640218099
 20
17.5355682372
 30
0.0
 11
7.5529056126
 21
17.5355682372
 31
0.0
  0
LINE
  5
142
330
A
100
AcDbEntity
  8
4
 62
    92
100
AcDbLine
 10
7.5529056126
 20
17.5355682372
 30
0.0
 11
7.419572279199999
 21
17.5800126818
 31
0.0
  0
LINE
  5
143
330
A
100
AcDbEntity
  8
4
 62
    92
100
AcDbLine
 10
7.419572279199999
 20
17.5800126818
 30
0.0
 11
7.419572279199999
 21
17.4911237928
 31
0.0
  0
LINE
  5
144
330
A
100
AcDbEntity
  8
4
 62
    92
100
AcDbLine
 10
7.419572279199999
 20
17.4911237928
 30
0.0
 11
7.5529056126
 21
17.5355682372
 31
0.0
  0
LINE
  5
145
330
A
100
AcDbEntity
  8
4
 62
    92
100
AcDbLine
 10
27.45294274229999
 20
15.4024895562
 30
0.0
 11
27.515794268
 21
15.2767804788
 31
0.0
  0
LINE
  5
146
330
A
100
AcDbEntity
  8
4
 62
    92
100
AcDbLine
 10
27.515794268
 20
15.2767804788
 30
0.0
 11
27.5786494092
 21
15.3396332097
 31
0.0
  0
LINE
  5
147
330
A
100
AcDbEntity
  8
4
 62
    92
100
AcDbLine
 10
27.5786494092
 20
15.3396332097
 30
0.0
 11
27.45294274229999
 21
15.4024895562
 31
0.0
  0
LINE
  5
148
330
A
100
AcDbEntity
  8
4
  6
Continuous
 62
    92
100
AcDbLine
 10
27.45294274229999
 20
15.4024895562
 30
0.0
 11
31.38131120469999
 21
11.4741244846
 31
0.0
  0
LINE
  5
149
330
A
100
AcDbEntity
  8
4
 62
    92
100
AcDbLine
 10
31.38131120469999
 20
11.4741244846
 30
0.0
 11
31.31845967889999
 21
11.5998335619
 31
0.0
  0
LINE
  5
14A
330
A
100
AcDbEntity
  8
4
 62
    92
100
AcDbLine
 10
31.31845967889999
 20
11.5998335619
 30
0.0
 11
31.25560453769999
 21
11.53698083099999
 31
0.0
  0
LINE
  5
14B
330
A
100
AcDbEntity
  8
4
 62
    92
100
AcDbLine
 10
31.25560453769999
 20
11.53698083099999
 30
0.0
 11
31.38131120469999
 21
11.4741244846
 31
0.0
  0
LINE
  5
14C
330
A
100
AcDbEntity
  8
4
  6
Continuous
 62
    92
100
AcDbLine
 10
27.45294274229999
 20
15.4024895562
 30
0.0
 11
28.4116728041
 21
16.36121961799999
 31
0.0
  0
LINE
  5
14D
330
A
100
AcDbEntity
  8
4
  6
Continuous
 62
    92
100
AcDbLine
 10
28.4116728041
 20
16.36121961799999
 30
0.0
 11
30.0445802476
 21
17.9941304524
 31
0.0
  0
LINE
  5
14E
330
A
100
AcDbEntity
  8
4
  6
Continuous
 62
    92
100
AcDbLine
 10
30.0445802476
 20
17.9941304524
 30
0.0
 11
30.5803977119
 21
18.52994452579999
 31
0.0
  0
LINE
  5
14F
330
A
100
AcDbEntity
  8
4
  6
Continuous
 62
    92
100
AcDbLine
 10
34.5087661743
 20
14.6015828451
 30
0.0
 11
31.38131120469999
 21
11.4741244846
 31
0.0
  0
LINE
  5
150
330
A
100
AcDbEntity
  8
4
 62
    92
100
AcDbLine
 10
37.2362815009
 20
16.5657585991
 30
0.0
 11
37.2807259454
 21
16.6990919325
 31
0.0
  0
LINE
  5
151
330
A
100
AcDbEntity
  8
4
 62
    92
100
AcDbLine
 10
37.2807259454
 20
16.6990919325
 30
0.0
 11
37.19183705649999
 21
16.6990919325
 31
0.0
  0
LINE
  5
152
330
A
100
AcDbEntity
  8
4
 62
    92
100
AcDbLine
 10
37.19183705649999
 20
16.6990919325
 30
0.0
 11
37.2362815009
 21
16.5657585991
 31
0.0
  0
LINE
  5
153
330
A
100
AcDbEntity
  8
4
  6
Continuous
 62
    92
100
AcDbLine
 10
37.2362815009
 20
16.5657585991
 30
0.0
 11
37.2362815009
 21
20.8428649902
 31
0.0
  0
LINE
  5
154
330
A
100
AcDbEntity
  8
4
 62
    92
100
AcDbLine
 10
37.2362815009
 20
20.8428649902
 30
0.0
 11
37.19183705649999
 21
20.7095316569
 31
0.0
  0
LINE
  5
155
330
A
100
AcDbEntity
  8
4
 62
    92
100
AcDbLine
 10
37.19183705649999
 20
20.7095316569
 30
0.0
 11
37.2807259454
 21
20.7095316569
 31
0.0
  0
LINE
  5
156
330
A
100
AcDbEntity
  8
4
 62
    92
100
AcDbLine
 10
37.2807259454
 20
20.7095316569
 30
0.0
 11
37.2362815009
 21
20.8428649902
 31
0.0
  0
LINE
  5
157
330
A
100
AcDbEntity
  8
4
  6
Continuous
 62
    92
100
AcDbLine
 10
35.50077735059999
 20
16.5657585991
 30
0.0
 11
35.8243823581
 21
16.5657585991
 31
0.0
  0
LINE
  5
158
330
A
100
AcDbEntity
  8
4
  6
Continuous
 62
    92
100
AcDbLine
 10
36.6586854723
 20
16.5657585991
 30
0.0
 11
37.2362815009
 21
16.5657585991
 31
0.0
  0
LINE
  5
159
330
A
100
AcDbEntity
  8
4
  6
Continuous
 62
    92
100
AcDbLine
 10
32.665002611
 20
20.8428649902
 30
0.0
 11
37.2362815009
 21
20.8428649902
 31
0.0
  0
LINE
  5
15A
330
A
100
AcDbEntity
  8
4
 62
    92
100
AcDbLine
 10
38.1640870836
 20
21.0693088107
 30
0.0
 11
38.1196426392
 21
20.93597547739999
 31
0.0
  0
LINE
  5
15B
330
A
100
AcDbEntity
  8
4
 62
    92
100
AcDbLine
 10
38.1196426392
 20
20.93597547739999
 30
0.0
 11
38.20853152809999
 21
20.93597547739999
 31
0.0
  0
LINE
  5
15C
330
A
100
AcDbEntity
  8
4
 62
    92
100
AcDbLine
 10
38.20853152809999
 20
20.93597547739999
 30
0.0
 11
38.1640870836
 21
21.0693088107
 31
0.0
  0
LINE
  5
15D
330
A
100
AcDbEntity
  8
4
  6
Continuous
 62
    92
100
AcDbLine
 10
38.1640870836
 20
21.0693088107
 30
0.0
 11
38.1640870836
 21
16.5657585991
 31
0.0
  0
LINE
  5
15E
330
A
100
AcDbEntity
  8
4
 62
    92
100
AcDbLine
 10
38.1640870836
 20
16.5657585991
 30
0.0
 11
38.20853152809999
 21
16.6990919325
 31
0.0
  0
LINE
  5
15F
330
A
100
AcDbEntity
  8
4
 62
    92
100
AcDbLine
 10
38.20853152809999
 20
16.6990919325
 30
0.0
 11
38.1196426392
 21
16.6990919325
 31
0.0
  0
LINE
  5
160
330
A
100
AcDbEntity
  8
4
 62
    92
100
AcDbLine
 10
38.1196426392
 20
16.6990919325
 30
0.0
 11
38.1640870836
 21
16.5657585991
 31
0.0
  0
LINE
  5
161
330
A
100
AcDbEntity
  8
4
  6
Continuous
 62
    92
100
AcDbLine
 10
33.3935792711
 20
21.0693088107
 30
0.0
 11
38.1640870836
 21
21.0693088107
 31
0.0
  0
LINE
  5
162
330
A
100
AcDbEntity
  8
4
  6
Continuous
 62
    92
100
AcDbLine
 10
36.92332712809999
 20
16.5657585991
 30
0.0
 11
38.1640870836
 21
16.5657585991
 31
0.0
  0
LINE
  5
163
330
A
100
AcDbEntity
  8
4
  6
Continuous
 62
    92
100
AcDbLine
 10
34.2386788262
 20
22.04269409179999
 30
0.0
 11
33.2109993829
 21
22.04269409179999
 31
0.0
  0
LINE
  5
164
330
A
100
AcDbEntity
  8
4
 62
    92
100
AcDbLine
 10
33.2109993829
 20
22.04269409179999
 30
0.0
 11
33.3443327163
 21
21.99824964739999
 31
0.0
  0
LINE
  5
165
330
A
100
AcDbEntity
  8
4
 62
    92
100
AcDbLine
 10
33.3443327163
 20
21.99824964739999
 30
0.0
 11
33.3443327163
 21
22.08713853619999
 31
0.0
  0
LINE
  5
166
330
A
100
AcDbEntity
  8
4
 62
    92
100
AcDbLine
 10
33.3443327163
 20
22.08713853619999
 30
0.0
 11
33.2109993829
 21
22.04269409179999
 31
0.0
  0
LINE
  5
167
330
A
100
AcDbEntity
  8
4
  6
Continuous
 62
    92
100
AcDbLine
 10
33.2109993829
 20
22.04269409179999
 30
0.0
 11
32.54458024769999
 21
22.04269409179999
 31
0.0
  0
LINE
  5
168
330
A
100
AcDbEntity
  8
4
 62
    92
100
AcDbLine
 10
32.54458024769999
 20
22.04269409179999
 30
0.0
 11
32.4112469144
 21
22.08713853619999
 31
0.0
  0
LINE
  5
169
330
A
100
AcDbEntity
  8
4
 62
    92
100
AcDbLine
 10
32.4112469144
 20
22.08713853619999
 30
0.0
 11
32.4112469144
 21
21.99824964739999
 31
0.0
  0
LINE
  5
16A
330
A
100
AcDbEntity
  8
4
 62
    92
100
AcDbLine
 10
32.4112469144
 20
21.99824964739999
 30
0.0
 11
32.54458024769999
 21
22.04269409179999
 31
0.0
  0
LINE
  5
16B
330
A
100
AcDbEntity
  8
4
  6
Continuous
 62
    92
100
AcDbLine
 10
32.54458024769999
 20
22.04269409179999
 30
0.0
 11
32.1556913588
 21
22.04269409179999
 31
0.0
  0
LINE
  5
16C
330
A
100
AcDbEntity
  8
4
  6
Continuous
 62
    92
100
AcDbLine
 10
33.2109993829
 20
21.0693088107
 30
0.0
 11
33.2109993829
 21
22.04269409179999
 31
0.0
  0
LINE
  5
16D
330
A
100
AcDbEntity
  8
4
  6
Continuous
 62
    92
100
AcDbLine
 10
32.54458024769999
 20
20.8428649902
 30
0.0
 11
32.54458024769999
 21
22.04269409179999
 31
0.0
  0
LINE
  5
16E
330
A
100
AcDbEntity
  8
4
 62
    92
100
AcDbLine
 10
26.55554283989999
 20
15.2907647027
 30
0.0
 11
26.6183942985
 21
15.1650555918
 31
0.0
  0
LINE
  5
16F
330
A
100
AcDbEntity
  8
4
 62
    92
100
AcDbLine
 10
26.6183942985
 20
15.1650555918
 30
0.0
 11
26.6812494734
 21
15.2279082891
 31
0.0
  0
LINE
  5
170
330
A
100
AcDbEntity
  8
4
 62
    92
100
AcDbLine
 10
26.6812494734
 20
15.2279082891
 30
0.0
 11
26.55554283989999
 21
15.2907647027
 31
0.0
  0
LINE
  5
171
330
A
100
AcDbEntity
  8
4
  6
Continuous
 62
    92
100
AcDbLine
 10
26.55554283989999
 20
15.2907647027
 30
0.0
 11
31.26958974199999
 21
10.5767211914
 31
0.0
  0
LINE
  5
172
330
A
100
AcDbEntity
  8
4
 62
    92
100
AcDbLine
 10
31.26958974199999
 20
10.5767211914
 30
0.0
 11
31.2067382834
 21
10.7024303023
 31
0.0
  0
LINE
  5
173
330
A
100
AcDbEntity
  8
4
 62
    92
100
AcDbLine
 10
31.2067382834
 20
10.7024303023
 30
0.0
 11
31.1438831086
 21
10.63957760489999
 31
0.0
  0
LINE
  5
174
330
A
100
AcDbEntity
  8
4
 62
    92
100
AcDbLine
 10
31.1438831086
 20
10.63957760489999
 30
0.0
 11
31.26958974199999
 21
10.5767211914
 31
0.0
  0
LINE
  5
175
330
A
100
AcDbEntity
  8
4
  6
Continuous
 62
    92
100
AcDbLine
 10
26.55554283989999
 20
15.2907647027
 30
0.0
 11
28.4700834486
 21
17.2053087022
 31
0.0
  0
LINE
  5
176
330
A
100
AcDbEntity
  8
4
  6
Continuous
 62
    92
100
AcDbLine
 10
28.4700834486
 20
17.2053087022
 30
0.0
 11
29.74027252199999
 21
18.4754943848
 31
0.0
  0
LINE
  5
177
330
A
100
AcDbEntity
  8
4
  6
Continuous
 62
    92
100
AcDbLine
 10
29.74027252199999
 20
18.4754943848
 30
0.0
 11
30.0445802476
 21
18.7798055012
 31
0.0
  0
LINE
  5
178
330
A
100
AcDbEntity
  8
4
  6
Continuous
 62
    92
100
AcDbLine
 10
34.7586305407
 20
14.06576114219999
 30
0.0
 11
31.26958974199999
 21
10.5767211914
 31
0.0
  0
LINE
  5
179
330
A
100
AcDbEntity
  8
4
  6
Continuous
 62
    92
100
AcDbLine
 10
34.75862714979999
 20
14.0657594469
 30
0.0
 11
36.32433827719999
 21
14.0657594469
 31
0.0
  0
LINE
  5
17A
330
A
100
AcDbEntity
  8
4
  6
Continuous
 62
    92
100
AcDbLine
 10
34.75862714979999
 20
19.0657585992
 30
0.0
 11
36.32433827719999
 21
19.0657585992
 31
0.0
  0
LINE
  5
17B
330
A
100
AcDbEntity
  8
4
 62
    92
100
AcDbLine
 10
36.32433827719999
 20
19.0657585992
 30
0.0
 11
36.2798938328
 21
18.93242526579999
 31
0.0
  0
LINE
  5
17C
330
A
100
AcDbEntity
  8
4
 62
    92
100
AcDbLine
 10
36.2798938328
 20
18.93242526579999
 30
0.0
 11
36.3687827216
 21
18.93242526579999
 31
0.0
  0
LINE
  5
17D
330
A
100
AcDbEntity
  8
4
 62
    92
100
AcDbLine
 10
36.3687827216
 20
18.93242526579999
 30
0.0
 11
36.32433827719999
 21
19.0657585992
 31
0.0
  0
LINE
  5
17E
330
A
100
AcDbEntity
  8
4
  6
Continuous
 62
    92
100
AcDbLine
 10
36.32433827719999
 20
19.0657585992
 30
0.0
 11
36.32433827719999
 21
14.0657594469
 31
0.0
  0
LINE
  5
17F
330
A
100
AcDbEntity
  8
4
 62
    92
100
AcDbLine
 10
36.32433827719999
 20
14.0657594469
 30
0.0
 11
36.3687827216
 21
14.19909278019999
 31
0.0
  0
LINE
  5
180
330
A
100
AcDbEntity
  8
4
 62
    92
100
AcDbLine
 10
36.3687827216
 20
14.19909278019999
 30
0.0
 11
36.2798938328
 21
14.19909278019999
 31
0.0
  0
LINE
  5
181
330
A
100
AcDbEntity
  8
4
 62
    92
100
AcDbLine
 10
36.2798938328
 20
14.19909278019999
 30
0.0
 11
36.32433827719999
 21
14.0657594469
 31
0.0
  0
LINE
  5
182
330
A
100
AcDbEntity
  8
1
  6
Continuous
 62
    92
100
AcDbLine
 10
36.1356277466
 20
15.9256973266
 30
0.0
 11
35.8856345283
 21
15.9256973266
 31
0.0
  0
LINE
  5
183
330
A
100
AcDbEntity
  8
1
  6
Continuous
 62
    92
100
AcDbLine
 10
35.8856345283
 20
15.9256973266
 30
0.0
 11
35.8856345283
 21
16.1756939358
 31
0.0
  0
LINE
  5
184
330
A
100
AcDbEntity
  8
1
  6
Continuous
 62
    92
100
AcDbLine
 10
35.8856345283
 20
16.1756939358
 30
0.0
 11
36.1356277466
 21
16.1756939358
 31
0.0
  0
LINE
  5
185
330
A
100
AcDbEntity
  8
1
  6
Continuous
 62
    92
100
AcDbLine
 10
36.1356277466
 20
16.1756939358
 30
0.0
 11
36.1356277466
 21
15.9256973266
 31
0.0
  0
LINE
  5
186
330
A
100
AcDbEntity
  8
1
  6
Continuous
 62
    92
100
AcDbLine
 10
32.1652026707
 20
23.38735961909999
 30
0.0
 11
31.9152026706
 21
23.38735961909999
 31
0.0
  0
LINE
  5
187
330
A
100
AcDbEntity
  8
1
  6
Continuous
 62
    92
100
AcDbLine
 10
31.9152026706
 20
23.38735961909999
 30
0.0
 11
31.9152026706
 21
23.6373596191
 31
0.0
  0
LINE
  5
188
330
A
100
AcDbEntity
  8
1
  6
Continuous
 62
    92
100
AcDbLine
 10
31.9152026706
 20
23.6373596191
 30
0.0
 11
32.1652026707
 21
23.6373596191
 31
0.0
  0
LINE
  5
189
330
A
100
AcDbEntity
  8
1
  6
Continuous
 62
    92
100
AcDbLine
 10
32.1652026707
 20
23.6373596191
 30
0.0
 11
32.1652026707
 21
23.38735961909999
 31
0.0
  0
LINE
  5
18A
330
A
100
AcDbEntity
  8
1
  6
Continuous
 62
    92
100
AcDbLine
 10
28.427921719
 20
13.6373401217
 30
0.0
 11
28.6046964858
 21
13.81411488849999
 31
0.0
  0
LINE
  5
18B
330
A
100
AcDbEntity
  8
1
  6
Continuous
 62
    92
100
AcDbLine
 10
28.6046964858
 20
13.81411488849999
 30
0.0
 11
28.7814712525
 21
13.6373401217
 31
0.0
  0
LINE
  5
18C
330
A
100
AcDbEntity
  8
1
  6
Continuous
 62
    92
100
AcDbLine
 10
28.7814712525
 20
13.6373401217
 30
0.0
 11
28.6046964858
 21
13.4605687459
 31
0.0
  0
LINE
  5
18D
330
A
100
AcDbEntity
  8
1
  6
Continuous
 62
    92
100
AcDbLine
 10
28.6046964858
 20
13.4605687459
 30
0.0
 11
28.427921719
 21
13.6373401217
 31
0.0
  0
LINE
  5
18E
330
A
100
AcDbEntity
  8
4
  6
Continuous
 62
    92
100
AcDbLine
 10
12.4048419528
 20
18.7879825167
 30
0.0
 11
12.4048419528
 21
19.8990800646
 31
0.0
  0
LINE
  5
18F
330
A
100
AcDbEntity
  8
4
  6
Continuous
 62
    92
100
AcDbLine
 10
12.5715120104
 20
19.8990800646
 30
0.0
 11
12.5715120104
 21
19.0657602946
 31
0.0
  0
LINE
  5
190
330
A
100
AcDbEntity
  8
4
  6
Continuous
 62
    92
100
AcDbLine
 10
12.5715120104
 20
17.33779059509999
 30
0.0
 11
12.5715120104
 21
17.12130906839999
 31
0.0
  0
LINE
  5
191
330
A
100
AcDbEntity
  8
4
  6
Continuous
 62
    92
100
AcDbLine
 10
13.7832700941
 20
19.8990800646
 30
0.0
 11
12.5715120104
 21
19.8990800646
 31
0.0
  0
LINE
  5
192
330
A
100
AcDbEntity
  8
4
 62
    92
100
AcDbLine
 10
12.5715120104
 20
19.8990800646
 30
0.0
 11
12.70484534369999
 21
19.85463561999999
 31
0.0
  0
LINE
  5
193
330
A
100
AcDbEntity
  8
4
 62
    92
100
AcDbLine
 10
12.70484534369999
 20
19.85463561999999
 30
0.0
 11
12.70484534369999
 21
19.943524509
 31
0.0
  0
LINE
  5
194
330
A
100
AcDbEntity
  8
4
 62
    92
100
AcDbLine
 10
12.70484534369999
 20
19.943524509
 30
0.0
 11
12.5715120104
 21
19.8990800646
 31
0.0
  0
LINE
  5
195
330
A
100
AcDbEntity
  8
4
  6
Continuous
 62
    92
100
AcDbLine
 10
12.5715120104
 20
19.8990800646
 30
0.0
 11
12.4048419528
 21
19.8990800646
 31
0.0
  0
LINE
  5
196
330
A
100
AcDbEntity
  8
4
 62
    92
100
AcDbLine
 10
12.4048419528
 20
19.8990800646
 30
0.0
 11
12.2715086195
 21
19.943524509
 31
0.0
  0
LINE
  5
197
330
A
100
AcDbEntity
  8
4
 62
    92
100
AcDbLine
 10
12.2715086195
 20
19.943524509
 30
0.0
 11
12.2715086195
 21
19.85463561999999
 31
0.0
  0
LINE
  5
198
330
A
100
AcDbEntity
  8
4
 62
    92
100
AcDbLine
 10
12.2715086195
 20
19.85463561999999
 30
0.0
 11
12.4048419528
 21
19.8990800646
 31
0.0
  0
LINE
  5
199
330
A
100
AcDbEntity
  8
4
  6
Continuous
 62
    92
100
AcDbLine
 10
12.4048419528
 20
19.8990800646
 30
0.0
 11
11.62707604299999
 21
19.8990800646
 31
0.0
  0
LINE
  5
19A
330
A
100
AcDbEntity
  8
4
  6
Continuous
 62
    92
100
AcDbLine
 10
10.90484364829999
 20
16.8990970188
 30
0.0
 11
10.90484364829999
 21
20.6768442789
 31
0.0
  0
LINE
  5
19B
330
A
100
AcDbEntity
  8
4
  6
Continuous
 62
    92
100
AcDbLine
 10
12.5715120104
 20
19.8990800646
 30
0.0
 11
12.5715120104
 21
20.6768442789
 31
0.0
  0
LINE
  5
19C
330
A
100
AcDbEntity
  8
4
 62
    92
100
AcDbLine
 10
12.5715120104
 20
20.6768442789
 30
0.0
 11
12.4381786771
 21
20.72128872339999
 31
0.0
  0
LINE
  5
19D
330
A
100
AcDbEntity
  8
4
 62
    92
100
AcDbLine
 10
12.4381786771
 20
20.72128872339999
 30
0.0
 11
12.4381786771
 21
20.63239983449999
 31
0.0
  0
LINE
  5
19E
330
A
100
AcDbEntity
  8
4
 62
    92
100
AcDbLine
 10
12.4381786771
 20
20.63239983449999
 30
0.0
 11
12.5715120104
 21
20.6768442789
 31
0.0
  0
LINE
  5
19F
330
A
100
AcDbEntity
  8
4
  6
Continuous
 62
    92
100
AcDbLine
 10
12.5715120104
 20
20.6768442789
 30
0.0
 11
10.90484364829999
 21
20.6768442789
 31
0.0
  0
LINE
  5
1A0
330
A
100
AcDbEntity
  8
4
 62
    92
100
AcDbLine
 10
10.90484364829999
 20
20.6768442789
 30
0.0
 11
11.0381769816
 21
20.63239983449999
 31
0.0
  0
LINE
  5
1A1
330
A
100
AcDbEntity
  8
4
 62
    92
100
AcDbLine
 10
11.0381769816
 20
20.63239983449999
 30
0.0
 11
11.0381769816
 21
20.72128872339999
 31
0.0
  0
LINE
  5
1A2
330
A
100
AcDbEntity
  8
4
 62
    92
100
AcDbLine
 10
11.0381769816
 20
20.72128872339999
 30
0.0
 11
10.90484364829999
 21
20.6768442789
 31
0.0
  0
LINE
  5
1A3
330
A
100
AcDbEntity
  8
4
  6
Continuous
 62
    92
100
AcDbLine
 10
10.12707689079999
 20
14.3414510091
 30
0.0
 11
10.12707689079999
 21
16.1768680148
 31
0.0
  0
LINE
  5
1A4
330
A
100
AcDbEntity
  8
4
 62
    92
100
AcDbLine
 10
10.12707689079999
 20
16.1768680148
 30
0.0
 11
10.08263244619999
 21
16.0435346815
 31
0.0
  0
LINE
  5
1A5
330
A
100
AcDbEntity
  8
4
 62
    92
100
AcDbLine
 10
10.08263244619999
 20
16.0435346815
 30
0.0
 11
10.1715213352
 21
16.0435346815
 31
0.0
  0
LINE
  5
1A6
330
A
100
AcDbEntity
  8
4
 62
    92
100
AcDbLine
 10
10.1715213352
 20
16.0435346815
 30
0.0
 11
10.12707689079999
 21
16.1768680148
 31
0.0
  0
LINE
  5
1A7
330
A
100
AcDbEntity
  8
4
  6
Continuous
 62
    92
100
AcDbLine
 10
10.12707689079999
 20
16.1768680148
 30
0.0
 11
10.12707689079999
 21
16.95464918349999
 31
0.0
  0
LINE
  5
1A8
330
A
100
AcDbEntity
  8
4
 62
    92
100
AcDbLine
 10
10.12707689079999
 20
16.95464918349999
 30
0.0
 11
10.1715213352
 21
17.0879825167
 31
0.0
  0
LINE
  5
1A9
330
A
100
AcDbEntity
  8
4
 62
    92
100
AcDbLine
 10
10.1715213352
 20
17.0879825167
 30
0.0
 11
10.08263244619999
 21
17.0879825167
 31
0.0
  0
LINE
  5
1AA
330
A
100
AcDbEntity
  8
4
 62
    92
100
AcDbLine
 10
10.08263244619999
 20
17.0879825167
 30
0.0
 11
10.12707689079999
 21
16.95464918349999
 31
0.0
  0
LINE
  5
1AB
330
A
100
AcDbEntity
  8
4
  6
Continuous
 62
    92
100
AcDbLine
 10
10.12707689079999
 20
16.95464918349999
 30
0.0
 11
10.12707689079999
 21
17.34353807229999
 31
0.0
  0
LINE
  5
1AC
330
A
100
AcDbEntity
  8
4
  6
Continuous
 62
    92
100
AcDbLine
 10
10.9603992039
 20
16.1768680148
 30
0.0
 11
10.12707689079999
 21
16.1768680148
 31
0.0
  0
LINE
  5
1AD
330
A
100
AcDbEntity
  8
4
  6
Continuous
 62
    92
100
AcDbLine
 10
10.9603992039
 20
16.95464918349999
 30
0.0
 11
10.12707689079999
 21
16.95464918349999
 31
0.0
  0
LINE
  5
1AE
330
A
100
AcDbEntity
  8
4
 62
    92
100
AcDbLine
 10
9.349310133200001
 20
14.34353807229999
 30
0.0
 11
9.393754577599999
 21
14.4768714057
 31
0.0
  0
LINE
  5
1AF
330
A
100
AcDbEntity
  8
4
 62
    92
100
AcDbLine
 10
9.393754577599999
 20
14.4768714057
 30
0.0
 11
9.304865688799999
 21
14.4768714057
 31
0.0
  0
LINE
  5
1B0
330
A
100
AcDbEntity
  8
4
 62
    92
100
AcDbLine
 10
9.304865688799999
 20
14.4768714057
 30
0.0
 11
9.349310133200001
 21
14.34353807229999
 31
0.0
  0
LINE
  5
1B1
330
A
100
AcDbEntity
  8
4
  6
Continuous
 62
    92
100
AcDbLine
 10
9.349310133200001
 20
14.34353807229999
 30
0.0
 11
9.349310133200001
 21
18.7879825167
 31
0.0
  0
LINE
  5
1B2
330
A
100
AcDbEntity
  8
4
 62
    92
100
AcDbLine
 10
9.349310133200001
 20
18.7879825167
 30
0.0
 11
9.304865688799999
 21
18.65464918349999
 31
0.0
  0
LINE
  5
1B3
330
A
100
AcDbEntity
  8
4
 62
    92
100
AcDbLine
 10
9.304865688799999
 20
18.65464918349999
 30
0.0
 11
9.393754577599999
 21
18.65464918349999
 31
0.0
  0
LINE
  5
1B4
330
A
100
AcDbEntity
  8
4
 62
    92
100
AcDbLine
 10
9.393754577599999
 20
18.65464918349999
 30
0.0
 11
9.349310133200001
 21
18.7879825167
 31
0.0
  0
LINE
  5
1B5
330
A
100
AcDbEntity
  8
4
  6
Continuous
 62
    92
100
AcDbLine
 10
12.4048419528
 20
14.34353807229999
 30
0.0
 11
9.349310133200001
 21
14.34353807229999
 31
0.0
  0
LINE
  5
1B6
330
A
100
AcDbEntity
  8
4
  6
Continuous
 62
    92
100
AcDbLine
 10
12.4048419528
 20
18.7879825167
 30
0.0
 11
9.349310133200001
 21
18.7879825167
 31
0.0
  0
LINE
  5
1B7
330
A
100
AcDbEntity
  8
11
  6
CENTERX2
 62
    92
100
AcDbLine
 10
35.3803549872
 20
16.5657585991
 30
0.0
 11
29.58209991449999
 21
16.5657585991
 31
0.0
  0
LINE
  5
1B8
330
A
100
AcDbEntity
  8
11
  6
CENTERX2
 62
    92
100
AcDbLine
 10
33.8016603258
 20
17.8228318956
 30
0.0
 11
33.4088244968
 21
17.4299960666
 31
0.0
  0
LINE
  5
1B9
330
A
100
AcDbEntity
  8
11
  6
CENTERX2
 62
    92
100
AcDbLine
 10
33.80166371659999
 20
15.3086853027
 30
0.0
 11
33.4088244968
 21
15.70151435
 31
0.0
  0
LINE
  5
1BA
330
A
100
AcDbEntity
  8
11
  6
CENTERX2
 62
    92
100
AcDbLine
 10
31.2875001696
 20
15.3086785211
 30
0.0
 11
31.6803393894
 21
15.70151435
 31
0.0
  0
LINE
  5
1BB
330
A
100
AcDbEntity
  8
11
  6
CENTERX2
 62
    92
100
AcDbLine
 10
31.2875001696
 20
17.8228318956
 30
0.0
 11
31.6803393894
 21
17.43000284829999
 31
0.0
  0
LINE
  5
1BC
330
A
100
AcDbEntity
  8
11
  6
CENTERX2
 62
    92
100
AcDbLine
 10
34.7444703843
 20
14.36586846239999
 30
0.0
 11
34.2730653551
 21
14.8372768826
 31
0.0
  0
LINE
  5
1BD
330
A
100
AcDbEntity
  8
11
  6
CENTERX2
 62
    92
100
AcDbLine
 10
30.3447002835
 20
18.76563856329999
 30
0.0
 11
30.8161019219
 21
18.2942369249
 31
0.0
  0
LINE
  5
1BE
330
A
100
AcDbEntity
  8
11
  6
CENTERX2
 62
    92
100
AcDbLine
 10
30.3447002835
 20
14.36586846239999
 30
0.0
 11
30.8161019219
 21
14.8372768826
 31
0.0
  0
LINE
  5
1BF
330
A
100
AcDbEntity
  8
11
  6
CENTERX2
 62
    92
100
AcDbLine
 10
34.75862714979999
 20
18.7797953287
 30
0.0
 11
34.2730653551
 21
18.2942369249
 31
0.0
  0
LINE
  5
1C0
330
A
100
AcDbEntity
  8
11
  6
CENTERX2
 62
    92
100
AcDbLine
 10
32.54458024769999
 20
13.65194108749999
 30
0.0
 11
32.54458024769999
 21
19.5838419596
 31
0.0
  0
LINE
  5
1C1
330
A
100
AcDbEntity
  8
11
  6
Continuous
 62
    92
100
AcDbLine
 10
35.0445836385
 20
18.7797953287
 30
0.0
 11
35.0445836385
 21
14.35171508779999
 31
0.0
  0
LINE
  5
1C2
330
A
100
AcDbEntity
  8
11
  6
Continuous
 62
    92
100
AcDbLine
 10
35.0445836385
 20
14.35171508779999
 30
0.0
 11
34.7586203682
 21
14.0657594469
 31
0.0
  0
LINE
  5
1C3
330
A
100
AcDbEntity
  8
11
  6
Continuous
 62
    92
100
AcDbLine
 10
34.7586203682
 20
14.0657594469
 30
0.0
 11
30.3305401272
 21
14.0657594469
 31
0.0
  0
LINE
  5
1C4
330
A
100
AcDbEntity
  8
11
  6
Continuous
 62
    92
100
AcDbLine
 10
30.3305401272
 20
14.0657594469
 30
0.0
 11
30.0445836385
 21
14.35170830609999
 31
0.0
  0
LINE
  5
1C5
330
A
100
AcDbEntity
  8
11
  6
Continuous
 62
    92
100
AcDbLine
 10
30.0445836385
 20
14.35170830609999
 30
0.0
 11
30.0445836385
 21
18.77980211039999
 31
0.0
  0
LINE
  5
1C6
330
A
100
AcDbEntity
  8
11
  6
Continuous
 62
    92
100
AcDbLine
 10
30.0445836385
 20
18.77980211039999
 30
0.0
 11
30.3305401272
 21
19.0657585992
 31
0.0
  0
LINE
  5
1C7
330
A
100
AcDbEntity
  8
11
  6
Continuous
 62
    92
100
AcDbLine
 10
30.3305401272
 20
19.0657585992
 30
0.0
 11
34.75862714979999
 21
19.0657585992
 31
0.0
  0
LINE
  5
1C8
330
A
100
AcDbEntity
  8
11
  6
Continuous
 62
    92
100
AcDbLine
 10
34.75862714979999
 20
19.0657585992
 30
0.0
 11
35.0445836385
 21
18.7797953287
 31
0.0
  0
LINE
  5
1C9
330
A
100
AcDbEntity
  8
11
  6
CENTERX2
 62
    92
100
AcDbLine
 10
35.0445836385
 20
15.7324388292
 30
0.0
 11
33.3779034084
 21
14.0657594469
 31
0.0
  0
LINE
  5
1CA
330
A
100
AcDbEntity
  8
11
  6
CENTERX2
 62
    92
100
AcDbLine
 10
33.3779034084
 20
19.0657585992
 30
0.0
 11
35.0445836385
 21
17.39908176
 31
0.0
  0
LINE
  5
1CB
330
A
100
AcDbEntity
  8
11
  6
CENTERX2
 62
    92
100
AcDbLine
 10
30.0445836385
 20
17.3990783691
 30
0.0
 11
31.7112638685
 21
19.0657585992
 31
0.0
  0
LINE
  5
1CC
330
A
100
AcDbEntity
  8
11
  6
CENTERX2
 62
    92
100
AcDbLine
 10
31.7112672594
 20
14.0657594469
 30
0.0
 11
30.0445836385
 21
15.7324388292
 31
0.0
  0
LINE
  5
1CD
330
A
100
AcDbEntity
  8
11
  6
Continuous
 62
    92
100
AcDbLine
 10
33.41593509249999
 20
14.8898586697
 30
0.0
 11
33.1099387274
 21
15.4198608398
 31
0.0
  0
LINE
  5
1CE
330
A
100
AcDbEntity
  8
11
  6
Continuous
 62
    92
100
AcDbLine
 10
31.9792217679
 20
15.4198574489
 30
0.0
 11
31.67322879369999
 21
14.8898586697
 31
0.0
  0
LINE
  5
1CF
330
A
100
AcDbEntity
  8
11
  6
Continuous
 62
    92
100
AcDbLine
 10
31.67322201199999
 20
18.2416585286
 30
0.0
 11
31.979218377
 21
17.71165635849999
 31
0.0
  0
LINE
  5
1D0
330
A
100
AcDbEntity
  8
11
  6
Continuous
 62
    92
100
AcDbLine
 10
33.1099387274
 20
17.71165635849999
 30
0.0
 11
33.4159317016
 21
18.2416585286
 31
0.0
  0
LINE
  5
1D1
330
A
100
AcDbEntity
  8
11
  6
Continuous
 62
    92
100
AcDbLine
 10
31.52888404
 20
14.9731886122
 30
0.0
 11
31.9184239706
 21
15.6478814019
 31
0.0
  0
LINE
  5
1D2
330
A
100
AcDbEntity
  8
11
  6
Continuous
 62
    92
100
AcDbLine
 10
31.582327101
 20
16.0102030436
 30
0.0
 11
31.4379925198
 21
15.92687310109999
 31
0.0
  0
LINE
  5
1D3
330
A
100
AcDbEntity
  8
11
  6
Continuous
 62
    92
100
AcDbLine
 10
31.2695253161
 20
16.48242526579999
 30
0.0
 11
30.6575359769
 21
16.48242526579999
 31
0.0
  0
LINE
  5
1D4
330
A
100
AcDbEntity
  8
11
  6
Continuous
 62
    92
100
AcDbLine
 10
31.52888064909999
 20
18.1583218045
 30
0.0
 11
31.91842057969999
 21
17.4836290147
 31
0.0
  0
LINE
  5
1D5
330
A
100
AcDbEntity
  8
11
  6
Continuous
 62
    92
100
AcDbLine
 10
31.582327101
 20
17.121307373
 30
0.0
 11
31.4379925198
 21
17.2046407064
 31
0.0
  0
LINE
  5
1D6
330
A
100
AcDbEntity
  8
11
  6
Continuous
 62
    92
100
AcDbLine
 10
31.2695253161
 20
16.6490919324
 30
0.0
 11
30.6575224135
 21
16.6490919324
 31
0.0
  0
LINE
  5
1D7
330
A
100
AcDbEntity
  8
11
  6
Continuous
 62
    92
100
AcDbLine
 10
33.5602764554
 20
18.15831841359999
 30
0.0
 11
33.1707433065
 21
17.4836290147
 31
0.0
  0
LINE
  5
1D8
330
A
100
AcDbEntity
  8
11
  6
Continuous
 62
    92
100
AcDbLine
 10
33.5068367852
 20
17.121307373
 30
0.0
 11
33.65117475719999
 21
17.20463731559999
 31
0.0
  0
LINE
  5
1D9
330
A
100
AcDbEntity
  8
11
  6
Continuous
 62
    92
100
AcDbLine
 10
33.819641961
 20
16.6490919324
 30
0.0
 11
34.4316346911
 21
16.6490919324
 31
0.0
  0
LINE
  5
1DA
330
A
100
AcDbEntity
  8
11
  6
Continuous
 62
    92
100
AcDbLine
 10
34.4316279094
 20
16.48242526579999
 30
0.0
 11
33.8196385702
 21
16.48242526579999
 31
0.0
  0
LINE
  5
1DB
330
A
100
AcDbEntity
  8
11
  6
Continuous
 62
    92
100
AcDbLine
 10
33.6511679755
 20
15.92686292859999
 30
0.0
 11
33.5068300035
 21
16.0102030436
 31
0.0
  0
LINE
  5
1DC
330
A
100
AcDbEntity
  8
11
  6
Continuous
 62
    92
100
AcDbLine
 10
33.1707433065
 20
15.64788479279999
 30
0.0
 11
33.5602764554
 21
14.9731886122
 31
0.0
  0
LINE
  5
1DD
330
A
100
AcDbEntity
  8
11
  6
Continuous
 62
    92
100
AcDbLine
 10
32.1813362969
 20
16.42686292859999
 30
0.0
 11
32.0445870294
 21
16.42686292859999
 31
0.0
  0
LINE
  5
1DE
330
A
100
AcDbEntity
  8
11
  6
Continuous
 62
    92
100
AcDbLine
 10
32.0445870294
 20
16.42686292859999
 30
0.0
 11
32.0445870294
 21
16.7046542697
 31
0.0
  0
LINE
  5
1DF
330
A
100
AcDbEntity
  8
11
  6
Continuous
 62
    92
100
AcDbLine
 10
32.0445870294
 20
16.7046542697
 30
0.0
 11
32.1813362969
 21
16.7046542697
 31
0.0
  0
LINE
  5
1E0
330
A
100
AcDbEntity
  8
4
  6
Continuous
 62
    92
100
AcDbLine
 10
12.5715120104
 20
14.0657594469
 30
0.0
 11
12.5715120104
 21
13.0657458834
 31
0.0
  0
LINE
  5
1E1
330
A
100
AcDbEntity
  8
4
  6
Continuous
 62
    92
100
AcDbLine
 10
13.01595645489999
 20
14.0657594469
 30
0.0
 11
13.01595645489999
 21
13.0657458834
 31
0.0
  0
LINE
  5
1E2
330
A
100
AcDbEntity
  8
4
  6
Continuous
 62
    92
100
AcDbLine
 10
14.2277145386
 20
13.0657458834
 30
0.0
 11
13.01595645489999
 21
13.0657458834
 31
0.0
  0
LINE
  5
1E3
330
A
100
AcDbEntity
  8
4
 62
    92
100
AcDbLine
 10
13.01595645489999
 20
13.0657458834
 30
0.0
 11
13.1492897881
 21
13.021301439
 31
0.0
  0
LINE
  5
1E4
330
A
100
AcDbEntity
  8
4
 62
    92
100
AcDbLine
 10
13.1492897881
 20
13.021301439
 30
0.0
 11
13.1492897881
 21
13.11019032789999
 31
0.0
  0
LINE
  5
1E5
330
A
100
AcDbEntity
  8
4
 62
    92
100
AcDbLine
 10
13.1492897881
 20
13.11019032789999
 30
0.0
 11
13.01595645489999
 21
13.0657458834
 31
0.0
  0
LINE
  5
1E6
330
A
100
AcDbEntity
  8
4
  6
Continuous
 62
    92
100
AcDbLine
 10
13.01595645489999
 20
13.0657458834
 30
0.0
 11
12.5715120104
 21
13.0657458834
 31
0.0
  0
LINE
  5
1E7
330
A
100
AcDbEntity
  8
4
 62
    92
100
AcDbLine
 10
12.5715120104
 20
13.0657458834
 30
0.0
 11
12.4381786771
 21
13.11019032789999
 31
0.0
  0
LINE
  5
1E8
330
A
100
AcDbEntity
  8
4
 62
    92
100
AcDbLine
 10
12.4381786771
 20
13.11019032789999
 30
0.0
 11
12.4381786771
 21
13.021301439
 31
0.0
  0
LINE
  5
1E9
330
A
100
AcDbEntity
  8
4
 62
    92
100
AcDbLine
 10
12.4381786771
 20
13.021301439
 30
0.0
 11
12.5715120104
 21
13.0657458834
 31
0.0
  0
LINE
  5
1EA
330
A
100
AcDbEntity
  8
4
  6
Continuous
 62
    92
100
AcDbLine
 10
12.5715120104
 20
13.0657458834
 30
0.0
 11
11.79374610059999
 21
13.0657458834
 31
0.0
  0
LINE
  5
1EB
330
A
100
AcDbEntity
  8
4
  6
Continuous
 62
    92
100
AcDbLine
 10
14.5158937243
 20
14.4833153618
 30
0.0
 11
14.5158937243
 21
12.2879816691
 31
0.0
  0
LINE
  5
1EC
330
A
100
AcDbEntity
  8
4
  6
Continuous
 62
    92
100
AcDbLine
 10
13.01595645489999
 20
13.0657458834
 30
0.0
 11
13.01595645489999
 21
12.2879816691
 31
0.0
  0
LINE
  5
1ED
330
A
100
AcDbEntity
  8
4
 62
    92
100
AcDbLine
 10
13.01595645489999
 20
12.2879816691
 30
0.0
 11
13.1492897881
 21
12.2435372247
 31
0.0
  0
LINE
  5
1EE
330
A
100
AcDbEntity
  8
4
 62
    92
100
AcDbLine
 10
13.1492897881
 20
12.2435372247
 30
0.0
 11
13.1492897881
 21
12.33242611349999
 31
0.0
  0
LINE
  5
1EF
330
A
100
AcDbEntity
  8
4
 62
    92
100
AcDbLine
 10
13.1492897881
 20
12.33242611349999
 30
0.0
 11
13.01595645489999
 21
12.2879816691
 31
0.0
  0
LINE
  5
1F0
330
A
100
AcDbEntity
  8
4
  6
Continuous
 62
    92
100
AcDbLine
 10
13.01595645489999
 20
12.2879816691
 30
0.0
 11
14.5158937243
 21
12.2879816691
 31
0.0
  0
LINE
  5
1F1
330
A
100
AcDbEntity
  8
4
 62
    92
100
AcDbLine
 10
14.5158937243
 20
12.2879816691
 30
0.0
 11
14.38256039089999
 21
12.33242611349999
 31
0.0
  0
LINE
  5
1F2
330
A
100
AcDbEntity
  8
4
 62
    92
100
AcDbLine
 10
14.38256039089999
 20
12.33242611349999
 30
0.0
 11
14.38256039089999
 21
12.2435372247
 31
0.0
  0
LINE
  5
1F3
330
A
100
AcDbEntity
  8
4
 62
    92
100
AcDbLine
 10
14.38256039089999
 20
12.2435372247
 30
0.0
 11
14.5158937243
 21
12.2879816691
 31
0.0
  0
LINE
  5
1F4
330
A
100
AcDbEntity
  8
11
  6
Continuous
 62
    92
100
AcDbLine
 10
16.765897115
 20
14.0657594469
 30
0.0
 11
21.0992270576
 21
14.0657594469
 31
0.0
  0
LINE
  5
1F5
330
A
100
AcDbEntity
  8
11
  6
Continuous
 62
    92
100
AcDbLine
 10
21.0992270576
 20
14.0657594469
 30
0.0
 11
21.0992270576
 21
19.0657602946
 31
0.0
  0
LINE
  5
1F6
330
A
100
AcDbEntity
  8
11
  6
Continuous
 62
    92
100
AcDbLine
 10
21.0992270576
 20
19.0657602946
 30
0.0
 11
16.765897115
 21
19.0657602946
 31
0.0
  0
LINE
  5
1F7
330
A
100
AcDbEntity
  8
11
  6
Continuous
 62
    92
100
AcDbLine
 10
16.765897115
 20
19.0657602946
 30
0.0
 11
15.37700822609999
 21
19.0657602946
 31
0.0
  0
LINE
  5
1F8
330
A
100
AcDbEntity
  8
11
  6
Continuous
 62
    92
100
AcDbLine
 10
15.37700822609999
 20
14.0657594469
 30
0.0
 11
16.765897115
 21
14.0657594469
 31
0.0
  0
LINE
  5
1F9
330
A
100
AcDbEntity
  8
11
  6
Continuous
 62
    92
100
AcDbLine
 10
21.0992270576
 20
18.77980380589999
 30
0.0
 11
18.1546995375
 21
18.77980380589999
 31
0.0
  0
LINE
  5
1FA
330
A
100
AcDbEntity
  8
11
  6
Continuous
 62
    92
100
AcDbLine
 10
18.1546995375
 20
18.77980380589999
 30
0.0
 11
16.765897115
 21
18.77980380589999
 31
0.0
  0
LINE
  5
1FB
330
A
100
AcDbEntity
  8
11
  6
Continuous
 62
    92
100
AcDbLine
 10
16.765897115
 20
18.77980380589999
 30
0.0
 11
15.37700822609999
 21
18.77980380589999
 31
0.0
  0
LINE
  5
1FC
330
A
100
AcDbEntity
  8
11
  6
Continuous
 62
    92
100
AcDbLine
 10
15.37700822609999
 20
14.35171678329999
 30
0.0
 11
16.7658937242
 21
14.35171678329999
 31
0.0
  0
LINE
  5
1FD
330
A
100
AcDbEntity
  8
11
  6
Continuous
 62
    92
100
AcDbLine
 10
21.0992270576
 20
18.0101979573
 30
0.0
 11
18.1546995375
 21
18.0101979573
 31
0.0
  0
LINE
  5
1FE
330
A
100
AcDbEntity
  8
11
  6
Continuous
 62
    92
100
AcDbLine
 10
18.1546995375
 20
18.0101979573
 30
0.0
 11
16.765897115
 21
18.0101979573
 31
0.0
  0
LINE
  5
1FF
330
A
100
AcDbEntity
  8
11
  6
Continuous
 62
    92
100
AcDbLine
 10
16.765897115
 20
18.0101979573
 30
0.0
 11
14.9325620863
 21
18.0101979573
 31
0.0
  0
LINE
  5
200
330
A
100
AcDbEntity
  8
11
  6
CENTERX2
 62
    92
100
AcDbLine
 10
25.2307985094
 20
16.5657602946
 30
0.0
 11
22.48803626159999
 21
16.5657602946
 31
0.0
  0
LINE
  5
201
330
A
100
AcDbEntity
  8
11
  6
CENTERX2
 62
    92
100
AcDbLine
 10
22.48803626159999
 20
16.5657602946
 30
0.0
 11
18.7917217679
 21
16.5657602946
 31
0.0
  0
LINE
  5
202
330
A
100
AcDbEntity
  8
11
  6
CENTERX2
 62
    92
100
AcDbLine
 10
15.92650095619999
 20
16.5657602946
 30
0.0
 11
15.37700822609999
 21
16.5657602946
 31
0.0
  0
LINE
  5
203
330
A
100
AcDbEntity
  8
11
  6
CENTERX2
 62
    92
100
AcDbLine
 10
20.15478091769999
 20
18.6372595893
 30
0.0
 11
20.15478091769999
 21
20.9698672825
 31
0.0
  0
LINE
  5
204
330
A
100
AcDbEntity
  8
11
  6
Continuous
 62
    92
100
AcDbLine
 10
12.4048419528
 20
16.1768680148
 30
0.0
 11
12.4048419528
 21
14.34353807229999
 31
0.0
  0
LINE
  5
205
330
A
100
AcDbEntity
  8
11
  6
Continuous
 62
    92
100
AcDbLine
 10
12.4048419528
 20
14.34353807229999
 30
0.0
 11
12.5715120104
 21
14.34353807229999
 31
0.0
  0
LINE
  5
206
330
A
100
AcDbEntity
  8
11
  6
Continuous
 62
    92
100
AcDbLine
 10
12.5715120104
 20
14.34353807229999
 30
0.0
 11
12.5715120104
 21
14.0657594469
 31
0.0
  0
LINE
  5
207
330
A
100
AcDbEntity
  8
11
  6
Continuous
 62
    92
100
AcDbLine
 10
12.5715120104
 20
14.0657594469
 30
0.0
 11
15.37700822609999
 21
14.0657594469
 31
0.0
  0
LINE
  5
208
330
A
100
AcDbEntity
  8
11
  6
Continuous
 62
    92
100
AcDbLine
 10
15.37700822609999
 20
14.0657594469
 30
0.0
 11
15.37700822609999
 21
19.0657602946
 31
0.0
  0
LINE
  5
209
330
A
100
AcDbEntity
  8
11
  6
Continuous
 62
    92
100
AcDbLine
 10
15.37700822609999
 20
19.0657602946
 30
0.0
 11
12.5715120104
 21
19.0657602946
 31
0.0
  0
LINE
  5
20A
330
A
100
AcDbEntity
  8
11
  6
Continuous
 62
    92
100
AcDbLine
 10
12.5715120104
 20
19.0657602946
 30
0.0
 11
12.5715120104
 21
18.7879825167
 31
0.0
  0
LINE
  5
20B
330
A
100
AcDbEntity
  8
11
  6
Continuous
 62
    92
100
AcDbLine
 10
12.5715120104
 20
18.7879825167
 30
0.0
 11
12.4048419528
 21
18.7879825167
 31
0.0
  0
LINE
  5
20C
330
A
100
AcDbEntity
  8
11
  6
Continuous
 62
    92
100
AcDbLine
 10
12.4048419528
 20
18.7879825167
 30
0.0
 11
12.4048419528
 21
16.95464918349999
 31
0.0
  0
LINE
  5
20D
330
A
100
AcDbEntity
  8
11
  6
Continuous
 62
    92
100
AcDbLine
 10
13.01595645489999
 20
17.3990800645
 30
0.0
 11
14.9325620863
 21
17.3990800645
 31
0.0
  0
LINE
  5
20E
330
A
100
AcDbEntity
  8
11
  6
Continuous
 62
    92
100
AcDbLine
 10
13.01595645489999
 20
15.7324371337
 30
0.0
 11
14.9325620863
 21
15.7324371337
 31
0.0
  0
LINE
  5
20F
330
A
100
AcDbEntity
  8
11
  6
Continuous
 62
    92
100
AcDbLine
 10
14.9325620863
 20
14.4833153618
 30
0.0
 11
14.5158937243
 21
14.4833153618
 31
0.0
  0
LINE
  5
210
330
A
100
AcDbEntity
  8
11
  6
Continuous
 62
    92
100
AcDbLine
 10
14.5158937243
 20
14.4833153618
 30
0.0
 11
14.5158937243
 21
14.9555375841
 31
0.0
  0
LINE
  5
211
330
A
100
AcDbEntity
  8
11
  6
Continuous
 62
    92
100
AcDbLine
 10
14.5158937243
 20
14.9555375841
 30
0.0
 11
14.9325620863
 21
14.9555375841
 31
0.0
  0
LINE
  5
212
330
A
100
AcDbEntity
  8
11
  6
Continuous
 62
    92
100
AcDbLine
 10
14.84923044839999
 20
14.9555375841
 30
0.0
 11
14.84923044839999
 21
14.4833153618
 31
0.0
  0
LINE
  5
213
330
A
100
AcDbEntity
  8
11
  6
Continuous
 62
    92
100
AcDbLine
 10
14.9325620863
 20
18.1759830051
 30
0.0
 11
14.5158937243
 21
18.1759830051
 31
0.0
  0
LINE
  5
214
330
A
100
AcDbEntity
  8
11
  6
Continuous
 62
    92
100
AcDbLine
 10
14.5158937243
 20
18.1759830051
 30
0.0
 11
14.5158937243
 21
18.64819844559999
 31
0.0
  0
LINE
  5
215
330
A
100
AcDbEntity
  8
11
  6
Continuous
 62
    92
100
AcDbLine
 10
14.5158937243
 20
18.64819844559999
 30
0.0
 11
14.9325620863
 21
18.64819844559999
 31
0.0
  0
LINE
  5
216
330
A
100
AcDbEntity
  8
11
  6
Continuous
 62
    92
100
AcDbLine
 10
14.84923044839999
 20
18.64819844559999
 30
0.0
 11
14.84923044839999
 21
18.1759830051
 31
0.0
  0
LINE
  5
217
330
A
100
AcDbEntity
  8
11
  6
Continuous
 62
    92
100
AcDbLine
 10
14.9325620863
 20
14.35171678329999
 30
0.0
 11
15.37700822609999
 21
14.35171678329999
 31
0.0
  0
LINE
  5
218
330
A
100
AcDbEntity
  8
11
  6
Continuous
 62
    92
100
AcDbLine
 10
14.9325620863
 20
18.7797970242
 30
0.0
 11
15.37700822609999
 21
18.7797970242
 31
0.0
  0
LINE
  5
219
330
A
100
AcDbEntity
  8
11
  6
Continuous
 62
    92
100
AcDbLine
 10
13.01595645489999
 20
18.7797970242
 30
0.0
 11
12.5715120104
 21
18.7797970242
 31
0.0
  0
LINE
  5
21A
330
A
100
AcDbEntity
  8
11
  6
Continuous
 62
    92
100
AcDbLine
 10
13.01595645489999
 20
14.35171678329999
 30
0.0
 11
12.5715120104
 21
14.35171678329999
 31
0.0
  0
LINE
  5
21B
330
A
100
AcDbEntity
  8
11
  6
Continuous
 62
    92
100
AcDbLine
 10
14.9325620863
 20
14.0657594469
 30
0.0
 11
14.9325620863
 21
19.0657602946
 31
0.0
  0
LINE
  5
21C
330
A
100
AcDbEntity
  8
11
  6
Continuous
 62
    92
100
AcDbLine
 10
13.01595645489999
 20
19.0657602946
 30
0.0
 11
13.01595645489999
 21
14.0657594469
 31
0.0
  0
LINE
  5
21D
330
A
100
AcDbEntity
  8
11
  6
Continuous
 62
    92
100
AcDbLine
 10
12.5715120104
 20
14.34353807229999
 30
0.0
 11
12.5715120104
 21
15.7721879747
 31
0.0
  0
LINE
  5
21E
330
A
100
AcDbEntity
  8
11
  6
Continuous
 62
    92
100
AcDbLine
 10
12.5715120104
 20
17.33779059509999
 30
0.0
 11
12.5715120104
 21
18.7879825167
 31
0.0
  0
LINE
  5
21F
330
A
100
AcDbEntity
  8
11
  6
CENTERX2
 62
    92
100
AcDbLine
 10
12.4048419528
 20
16.5657602946
 30
0.0
 11
15.37700822609999
 21
16.5657602946
 31
0.0
  0
LINE
  5
220
330
A
100
AcDbEntity
  8
11
  6
CENTERX2
 62
    92
100
AcDbLine
 10
12.27115461569999
 20
18.5299394395
 30
0.0
 11
13.26100243469999
 21
18.5299394395
 31
0.0
  0
LINE
  5
221
330
A
100
AcDbEntity
  8
11
  6
CENTERX2
 62
    92
100
AcDbLine
 10
12.21512773299999
 20
14.6015743679
 30
0.0
 11
13.3076943291
 21
14.6015743679
 31
0.0
  0
LINE
  5
222
330
A
100
AcDbEntity
  8
11
  6
CENTERX2
 62
    92
100
AcDbLine
 10
14.3161714342
 20
14.7194264729
 30
0.0
 11
15.79160308839999
 21
14.7194264729
 31
0.0
  0
LINE
  5
223
330
A
100
AcDbEntity
  8
11
  6
CENTERX2
 62
    92
100
AcDbLine
 10
15.7635930379
 20
18.41208394359999
 30
0.0
 11
14.3348498874
 21
18.41208394359999
 31
0.0
  0
LINE
  5
224
330
A
100
AcDbEntity
  8
11
  6
Continuous
 62
    92
100
AcDbLine
 10
11.1270667182
 20
16.5657602946
 30
0.0
 11
11.12706587049999
 21
16.56575351289999
 31
0.0
  0
LINE
  5
225
330
A
100
AcDbEntity
  8
11
  6
Continuous
 62
    92
100
AcDbLine
 10
11.265953064
 20
16.4268595377
 30
0.0
 11
12.0992847019
 21
16.4268595377
 31
0.0
  0
LINE
  5
226
330
A
100
AcDbEntity
  8
11
  6
Continuous
 62
    92
100
AcDbLine
 10
12.0992847019
 20
16.7046508789
 30
0.0
 11
11.26595645479999
 21
16.7046508789
 31
0.0
  0
LINE
  5
227
330
A
100
AcDbEntity
  8
11
  6
CENTERX2
 62
    92
100
AcDbLine
 10
12.4048419528
 20
16.5657602946
 30
0.0
 11
10.68826209179999
 21
16.5657602946
 31
0.0
  0
LINE
  5
228
330
A
100
AcDbEntity
  8
11
  6
Continuous
 62
    92
100
AcDbLine
 10
12.5715120104
 20
16.1768680148
 30
0.0
 11
10.9603992039
 21
16.1768680148
 31
0.0
  0
LINE
  5
229
330
A
100
AcDbEntity
  8
11
  6
Continuous
 62
    92
100
AcDbLine
 10
10.9603992039
 20
16.1768680148
 30
0.0
 11
10.90484364829999
 21
16.2324201795
 31
0.0
  0
LINE
  5
22A
330
A
100
AcDbEntity
  8
11
  6
Continuous
 62
    92
100
AcDbLine
 10
10.90484364829999
 20
16.2324201795
 30
0.0
 11
10.90484364829999
 21
16.8990970188
 31
0.0
  0
LINE
  5
22B
330
A
100
AcDbEntity
  8
11
  6
Continuous
 62
    92
100
AcDbLine
 10
10.90484364829999
 20
16.8990970188
 30
0.0
 11
10.9603992039
 21
16.95464918349999
 31
0.0
  0
LINE
  5
22C
330
A
100
AcDbEntity
  8
11
  6
Continuous
 62
    92
100
AcDbLine
 10
10.9603992039
 20
16.95464918349999
 30
0.0
 11
12.5715120104
 21
16.95464918349999
 31
0.0
  0
LINE
  5
22D
330
A
100
AcDbEntity
  8
11
  6
Continuous
 62
    92
100
AcDbLine
 10
10.9603992039
 20
16.1768680148
 30
0.0
 11
10.9603992039
 21
16.95464918349999
 31
0.0
  0
LINE
  5
22E
330
A
100
AcDbEntity
  8
11
  6
Continuous
 62
    92
100
AcDbLine
 10
12.8510428534
 20
16.0101979574
 30
0.0
 11
12.5715120104
 21
16.0101979574
 31
0.0
  0
LINE
  5
22F
330
A
100
AcDbEntity
  8
11
  6
Continuous
 62
    92
100
AcDbLine
 10
12.5715120104
 20
16.0101979574
 30
0.0
 11
12.5715120104
 21
17.12130906839999
 31
0.0
  0
LINE
  5
230
330
A
100
AcDbEntity
  8
11
  6
Continuous
 62
    92
100
AcDbLine
 10
12.5715120104
 20
17.12130906839999
 30
0.0
 11
12.8575973511
 21
17.12130906839999
 31
0.0
  0
LINE
  5
231
330
A
100
AcDbEntity
  8
11
  6
Continuous
 62
    92
100
AcDbLine
 10
12.6478737725
 20
15.7950354682
 30
0.0
 11
12.67714045049999
 21
15.8066604751
 31
0.0
  0
LINE
  5
232
330
A
100
AcDbEntity
  8
11
  6
Continuous
 62
    92
100
AcDbLine
 10
12.67714045049999
 20
15.8066604751
 30
0.0
 11
12.703407674
 21
15.8179933332
 31
0.0
  0
LINE
  5
233
330
A
100
AcDbEntity
  8
11
  6
Continuous
 62
    92
100
AcDbLine
 10
12.703407674
 20
15.8179933332
 30
0.0
 11
12.7268953828
 21
15.8291079556
 31
0.0
  0
LINE
  5
234
330
A
100
AcDbEntity
  8
11
  6
Continuous
 62
    92
100
AcDbLine
 10
12.7268953828
 20
15.8291079556
 30
0.0
 11
12.7477851134
 21
15.8400738888
 31
0.0
  0
LINE
  5
235
330
A
100
AcDbEntity
  8
11
  6
Continuous
 62
    92
100
AcDbLine
 10
12.7477851134
 20
15.8400738888
 30
0.0
 11
12.7662245573
 21
15.8509578022
 31
0.0
  0
LINE
  5
236
330
A
100
AcDbEntity
  8
11
  6
Continuous
 62
    92
100
AcDbLine
 10
12.7662245573
 20
15.8509578022
 30
0.0
 11
12.7823310022
 21
15.8618248568
 31
0.0
  0
LINE
  5
237
330
A
100
AcDbEntity
  8
11
  6
Continuous
 62
    92
100
AcDbLine
 10
12.7823310022
 20
15.8618248568
 30
0.0
 11
12.79619382319999
 21
15.8727400118
 31
0.0
  0
LINE
  5
238
330
A
100
AcDbEntity
  8
11
  6
Continuous
 62
    92
100
AcDbLine
 10
12.79619382319999
 20
15.8727400118
 30
0.0
 11
12.8078761329
 21
15.8837693254
 31
0.0
  0
LINE
  5
239
330
A
100
AcDbEntity
  8
11
  6
Continuous
 62
    92
100
AcDbLine
 10
12.8078761329
 20
15.8837693254
 30
0.0
 11
12.81741565829999
 21
15.89498130489999
 31
0.0
  0
LINE
  5
23A
330
A
100
AcDbEntity
  8
11
  6
Continuous
 62
    92
100
AcDbLine
 10
12.81741565829999
 20
15.89498130489999
 30
0.0
 11
12.824824863
 21
15.9064483642
 31
0.0
  0
LINE
  5
23B
330
A
100
AcDbEntity
  8
11
  6
Continuous
 62
    92
100
AcDbLine
 10
12.824824863
 20
15.9064483642
 30
0.0
 11
12.827317057
 21
15.91154550279999
 31
0.0
  0
LINE
  5
23C
330
A
100
AcDbEntity
  8
11
  6
Continuous
 62
    92
100
AcDbLine
 10
12.827317057
 20
15.91154550279999
 30
0.0
 11
12.8296639064
 21
15.91738237109999
 31
0.0
  0
LINE
  5
23D
330
A
100
AcDbEntity
  8
11
  6
Continuous
 62
    92
100
AcDbLine
 10
12.8296639064
 20
15.91738237109999
 30
0.0
 11
12.8319378192
 21
15.9240413238
 31
0.0
  0
LINE
  5
23E
330
A
100
AcDbEntity
  8
11
  6
Continuous
 62
    92
100
AcDbLine
 10
12.8319378192
 20
15.9240413238
 30
0.0
 11
12.8342002989
 21
15.93163763599999
 31
0.0
  0
LINE
  5
23F
330
A
100
AcDbEntity
  8
11
  6
Continuous
 62
    92
100
AcDbLine
 10
12.8342002989
 20
15.93163763599999
 30
0.0
 11
12.8365081889
 21
15.940325665
 31
0.0
  0
LINE
  5
240
330
A
100
AcDbEntity
  8
11
  6
Continuous
 62
    92
100
AcDbLine
 10
12.8365081889
 20
15.940325665
 30
0.0
 11
12.8389187092
 21
15.95030928619999
 31
0.0
  0
LINE
  5
241
330
A
100
AcDbEntity
  8
11
  6
Continuous
 62
    92
100
AcDbLine
 10
12.8389187092
 20
15.95030928619999
 30
0.0
 11
12.8414942842
 21
15.96185808
 31
0.0
  0
LINE
  5
242
330
A
100
AcDbEntity
  8
11
  6
Continuous
 62
    92
100
AcDbLine
 10
12.8414942842
 20
15.96185808
 30
0.0
 11
12.84430804599999
 21
15.975332027
 31
0.0
  0
LINE
  5
243
330
A
100
AcDbEntity
  8
11
  6
Continuous
 62
    92
100
AcDbLine
 10
12.84430804599999
 20
15.975332027
 30
0.0
 11
12.84745106039999
 21
15.9912195977
 31
0.0
  0
LINE
  5
244
330
A
100
AcDbEntity
  8
11
  6
Continuous
 62
    92
100
AcDbLine
 10
12.84745106039999
 20
15.9912195977
 30
0.0
 11
12.8510428534
 21
16.0101979574
 31
0.0
  0
LINE
  5
245
330
A
100
AcDbEntity
  8
11
  6
Continuous
 62
    92
100
AcDbLine
 10
12.8510428534
 20
16.0101979574
 30
0.0
 11
12.8568996557
 21
16.04269445599999
 31
0.0
  0
LINE
  5
246
330
A
100
AcDbEntity
  8
11
  6
Continuous
 62
    92
100
AcDbLine
 10
12.8568996557
 20
16.04269445599999
 30
0.0
 11
12.8623284859
 21
16.07483740069999
 31
0.0
  0
LINE
  5
247
330
A
100
AcDbEntity
  8
11
  6
Continuous
 62
    92
100
AcDbLine
 10
12.8623284859
 20
16.07483740069999
 30
0.0
 11
12.8673295143
 21
16.1066276116
 31
0.0
  0
LINE
  5
248
330
A
100
AcDbEntity
  8
11
  6
Continuous
 62
    92
100
AcDbLine
 10
12.8673295143
 20
16.1066276116
 30
0.0
 11
12.87190288989999
 21
16.1380658916
 31
0.0
  0
LINE
  5
249
330
A
100
AcDbEntity
  8
11
  6
Continuous
 62
    92
100
AcDbLine
 10
12.87190288989999
 20
16.1380658916
 30
0.0
 11
12.87604874109999
 21
16.16915302609999
 31
0.0
  0
LINE
  5
24A
330
A
100
AcDbEntity
  8
11
  6
Continuous
 62
    92
100
AcDbLine
 10
12.87604874109999
 20
16.16915302609999
 30
0.0
 11
12.8797671749
 21
16.1998897836
 31
0.0
  0
LINE
  5
24B
330
A
100
AcDbEntity
  8
11
  6
Continuous
 62
    92
100
AcDbLine
 10
12.8797671749
 20
16.1998897836
 30
0.0
 11
12.8830582774
 21
16.23027691489999
 31
0.0
  0
LINE
  5
24C
330
A
100
AcDbEntity
  8
11
  6
Continuous
 62
    92
100
AcDbLine
 10
12.8830582774
 20
16.23027691489999
 30
0.0
 11
12.8859221138
 21
16.260315154
 31
0.0
  0
LINE
  5
24D
330
A
100
AcDbEntity
  8
11
  6
Continuous
 62
    92
100
AcDbLine
 10
12.8859221138
 20
16.260315154
 30
0.0
 11
12.8883587282
 21
16.2900052176
 31
0.0
  0
LINE
  5
24E
330
A
100
AcDbEntity
  8
11
  6
Continuous
 62
    92
100
AcDbLine
 10
12.8883587282
 20
16.2900052176
 30
0.0
 11
12.8903681438
 21
16.31934780539999
 31
0.0
  0
LINE
  5
24F
330
A
100
AcDbEntity
  8
11
  6
Continuous
 62
    92
100
AcDbLine
 10
12.8903681438
 20
16.31934780539999
 30
0.0
 11
12.891628273
 21
16.34062477999999
 31
0.0
  0
LINE
  5
250
330
A
100
AcDbEntity
  8
11
  6
Continuous
 62
    92
100
AcDbLine
 10
12.891628273
 20
16.34062477999999
 30
0.0
 11
12.8927521363
 21
16.3613462943
 31
0.0
  0
LINE
  5
251
330
A
100
AcDbEntity
  8
11
  6
Continuous
 62
    92
100
AcDbLine
 10
12.8927521363
 20
16.3613462943
 30
0.0
 11
12.89374120269999
 21
16.3815331499
 31
0.0
  0
LINE
  5
252
330
A
100
AcDbEntity
  8
11
  6
Continuous
 62
    92
100
AcDbLine
 10
12.89374120269999
 20
16.3815331499
 30
0.0
 11
12.89459668859999
 21
16.40120509119999
 31
0.0
  0
LINE
  5
253
330
A
100
AcDbEntity
  8
11
  6
Continuous
 62
    92
100
AcDbLine
 10
12.89459668859999
 20
16.40120509119999
 30
0.0
 11
12.8953195624
 21
16.4203808699
 31
0.0
  0
LINE
  5
254
330
A
100
AcDbEntity
  8
11
  6
Continuous
 62
    92
100
AcDbLine
 10
12.8953195624
 20
16.4203808699
 30
0.0
 11
12.8959105483
 21
16.439078304
 31
0.0
  0
LINE
  5
255
330
A
100
AcDbEntity
  8
11
  6
Continuous
 62
    92
100
AcDbLine
 10
12.8959105483
 20
16.439078304
 30
0.0
 11
12.8963701279
 21
16.4573143341
 31
0.0
  0
LINE
  5
256
330
A
100
AcDbEntity
  8
11
  6
Continuous
 62
    92
100
AcDbLine
 10
12.8963701279
 20
16.4573143341
 30
0.0
 11
12.8966985423
 21
16.47510507349999
 31
0.0
  0
LINE
  5
257
330
A
100
AcDbEntity
  8
11
  6
Continuous
 62
    92
100
AcDbLine
 10
12.8966985423
 20
16.47510507349999
 30
0.0
 11
12.8968957921
 21
16.4924658566
 31
0.0
  0
LINE
  5
258
330
A
100
AcDbEntity
  8
11
  6
Continuous
 62
    92
100
AcDbLine
 10
12.8968957921
 20
16.4924658566
 30
0.0
 11
12.89696163599999
 21
16.509411282
 31
0.0
  0
LINE
  5
259
330
A
100
AcDbEntity
  8
11
  6
Continuous
 62
    92
100
AcDbLine
 10
12.89696163599999
 20
16.509411282
 30
0.0
 11
12.8903681438
 21
16.7519039577
 31
0.0
  0
LINE
  5
25A
330
A
100
AcDbEntity
  8
11
  6
Continuous
 62
    92
100
AcDbLine
 10
12.8903681438
 20
16.7519039577
 30
0.0
 11
12.88381364609999
 21
16.9747365316
 31
0.0
  0
LINE
  5
25B
330
A
100
AcDbEntity
  8
11
  6
Continuous
 62
    92
100
AcDbLine
 10
12.88381364609999
 20
16.9747365316
 30
0.0
 11
12.88302707289999
 21
16.9933981142
 31
0.0
  0
LINE
  5
25C
330
A
100
AcDbEntity
  8
11
  6
Continuous
 62
    92
100
AcDbLine
 10
12.88302707289999
 20
16.9933981142
 30
0.0
 11
12.8818379021
 21
17.0110925791
 31
0.0
  0
LINE
  5
25D
330
A
100
AcDbEntity
  8
11
  6
Continuous
 62
    92
100
AcDbLine
 10
12.8818379021
 20
17.0110925791
 30
0.0
 11
12.8802464919
 21
17.0278542476
 31
0.0
  0
LINE
  5
25E
330
A
100
AcDbEntity
  8
11
  6
Continuous
 62
    92
100
AcDbLine
 10
12.8802464919
 20
17.0278542476
 30
0.0
 11
12.8782518892
 21
17.0437141825
 31
0.0
  0
LINE
  5
25F
330
A
100
AcDbEntity
  8
11
  6
Continuous
 62
    92
100
AcDbLine
 10
12.8782518892
 20
17.0437141825
 30
0.0
 11
12.8758518337
 21
17.0587003785
 31
0.0
  0
LINE
  5
260
330
A
100
AcDbEntity
  8
11
  6
Continuous
 62
    92
100
AcDbLine
 10
12.8758518337
 20
17.0587003785
 30
0.0
 11
12.8730427505
 21
17.0728379269
 31
0.0
  0
LINE
  5
261
330
A
100
AcDbEntity
  8
11
  6
Continuous
 62
    92
100
AcDbLine
 10
12.8730427505
 20
17.0728379269
 30
0.0
 11
12.869819733
 21
17.0861491555
 31
0.0
  0
LINE
  5
262
330
A
100
AcDbEntity
  8
11
  6
Continuous
 62
    92
100
AcDbLine
 10
12.869819733
 20
17.0861491555
 30
0.0
 11
12.866176514
 21
17.09865374609999
 31
0.0
  0
LINE
  5
263
330
A
100
AcDbEntity
  8
11
  6
Continuous
 62
    92
100
AcDbLine
 10
12.866176514
 20
17.09865374609999
 30
0.0
 11
12.8621054263
 21
17.1103688307
 31
0.0
  0
LINE
  5
264
330
A
100
AcDbEntity
  8
11
  6
Continuous
 62
    92
100
AcDbLine
 10
12.8621054263
 20
17.1103688307
 30
0.0
 11
12.8575973511
 21
17.12130906839999
 31
0.0
  0
LINE
  5
265
330
A
100
AcDbEntity
  8
11
  6
Continuous
 62
    92
100
AcDbLine
 10
12.8575973511
 20
17.12130906839999
 30
0.0
 11
12.8482772479
 21
17.13990376099999
 31
0.0
  0
LINE
  5
266
330
A
100
AcDbEntity
  8
11
  6
Continuous
 62
    92
100
AcDbLine
 10
12.8482772479
 20
17.13990376099999
 30
0.0
 11
12.8370686271
 21
17.1582372835
 31
0.0
  0
LINE
  5
267
330
A
100
AcDbEntity
  8
11
  6
Continuous
 62
    92
100
AcDbLine
 10
12.8370686271
 20
17.1582372835
 30
0.0
 11
12.8239986546
 21
17.1761959381
 31
0.0
  0
LINE
  5
268
330
A
100
AcDbEntity
  8
11
  6
Continuous
 62
    92
100
AcDbLine
 10
12.8239986546
 20
17.1761959381
 30
0.0
 11
12.80911719529999
 21
17.1936677741
 31
0.0
  0
LINE
  5
269
330
A
100
AcDbEntity
  8
11
  6
Continuous
 62
    92
100
AcDbLine
 10
12.80911719529999
 20
17.1936677741
 30
0.0
 11
12.7924963889
 21
17.21054484469999
 31
0.0
  0
LINE
  5
26A
330
A
100
AcDbEntity
  8
11
  6
Continuous
 62
    92
100
AcDbLine
 10
12.7924963889
 20
17.21054484469999
 30
0.0
 11
12.7742295548
 21
17.2267253981
 31
0.0
  0
LINE
  5
26B
330
A
100
AcDbEntity
  8
11
  6
Continuous
 62
    92
100
AcDbLine
 10
12.7742295548
 20
17.2267253981
 30
0.0
 11
12.7544294591
 21
17.2421159107
 31
0.0
  0
LINE
  5
26C
330
A
100
AcDbEntity
  8
11
  6
Continuous
 62
    92
100
AcDbLine
 10
12.7544294591
 20
17.2421159107
 30
0.0
 11
12.7332260093
 21
17.25663288039999
 31
0.0
  0
LINE
  5
26D
330
A
100
AcDbEntity
  8
11
  6
Continuous
 62
    92
100
AcDbLine
 10
12.7332260093
 20
17.25663288039999
 30
0.0
 11
12.7107634771
 21
17.2702043047
 31
0.0
  0
LINE
  5
26E
330
A
100
AcDbEntity
  8
11
  6
Continuous
 62
    92
100
AcDbLine
 10
12.7107634771
 20
17.2702043047
 30
0.0
 11
12.6871973673
 21
17.2827707926
 31
0.0
  0
LINE
  5
26F
330
A
100
AcDbEntity
  8
11
  6
Continuous
 62
    92
100
AcDbLine
 10
16.7658937242
 20
14.3517040677
 30
0.0
 11
18.1547266642
 21
14.3517040677
 31
0.0
  0
LINE
  5
270
330
A
100
AcDbEntity
  8
11
  6
Continuous
 62
    92
100
AcDbLine
 10
18.1547266642
 20
14.3517040677
 30
0.0
 11
21.0992270576
 21
14.3517040677
 31
0.0
  0
LINE
  5
271
330
A
100
AcDbEntity
  8
11
  6
Continuous
 62
    92
100
AcDbLine
 10
21.0992270576
 20
15.12131500239999
 30
0.0
 11
18.1547266642
 21
15.12131500239999
 31
0.0
  0
LINE
  5
272
330
A
100
AcDbEntity
  8
11
  6
Continuous
 62
    92
100
AcDbLine
 10
18.1547266642
 20
15.12131500239999
 30
0.0
 11
16.7658937242
 21
15.12131500239999
 31
0.0
  0
LINE
  5
273
330
A
100
AcDbEntity
  8
11
  6
Continuous
 62
    92
100
AcDbLine
 10
16.7658937242
 20
15.12131500239999
 30
0.0
 11
14.9325620863
 21
15.12131500239999
 31
0.0
  0
LINE
  5
274
330
A
100
AcDbEntity
  8
1
  6
Continuous
 62
    92
100
AcDbLine
 10
15.37699805359999
 20
15.9268714056
 30
0.0
 11
15.37700822609999
 21
17.2046491834
 31
0.0
  0
LINE
  5
275
330
A
100
AcDbEntity
  8
1
  6
Continuous
 62
    92
100
AcDbLine
 10
15.5158971151
 20
17.3435482449
 30
0.0
 11
19.404786004
 21
17.3435482449
 31
0.0
  0
LINE
  5
276
330
A
100
AcDbEntity
  8
1
  6
Continuous
 62
    92
100
AcDbLine
 10
19.5436647203
 20
17.2046491834
 30
0.0
 11
19.5436647203
 21
15.9268714056
 31
0.0
  0
LINE
  5
277
330
A
100
AcDbEntity
  8
1
  6
Continuous
 62
    92
100
AcDbLine
 10
19.404786004
 20
15.7879909939
 30
0.0
 11
15.5158971151
 21
15.7879909939
 31
0.0
  0
LINE
  5
278
330
A
100
AcDbEntity
  8
11
  6
Continuous
 62
    92
100
AcDbLine
 10
15.9985868666
 20
10.9329562717
 30
0.0
 11
8.014149136
 21
10.91226281059999
 31
0.0
  0
LINE
  5
279
330
A
100
AcDbEntity
  8
11
  6
Continuous
 62
    92
100
AcDbLine
 10
8.014149136
 20
10.91226281059999
 30
0.0
 11
8.014149136
 21
14.2729407416
 31
0.0
  0
LINE
  5
27A
330
A
100
AcDbEntity
  8
11
  6
Continuous
 62
    92
100
AcDbLine
 10
8.014149136
 20
14.2729407416
 30
0.0
 11
8.992309570299999
 21
15.0487908257
 31
0.0
  0
LINE
  5
27B
330
A
100
AcDbEntity
  8
11
  6
Continuous
 62
    92
100
AcDbLine
 10
10.5538635254
 20
16.2873721652
 30
0.0
 11
10.90484364829999
 21
16.5657602946
 31
0.0
  0
LINE
  5
27C
330
A
100
AcDbEntity
  8
11
  6
Continuous
 62
    92
100
AcDbLine
 10
10.90484364829999
 20
16.5657602946
 30
0.0
 11
10.7869949341
 21
16.6836090088
 31
0.0
  0
LINE
  5
27D
330
A
100
AcDbEntity
  8
4
 62
    92
100
AcDbLine
 10
21.0992270576
 20
12.2879816691
 30
0.0
 11
21.23256039089999
 21
12.2435372247
 31
0.0
  0
LINE
  5
27E
330
A
100
AcDbEntity
  8
4
 62
    92
100
AcDbLine
 10
21.23256039089999
 20
12.2435372247
 30
0.0
 11
21.23256039089999
 21
12.33242611349999
 31
0.0
  0
LINE
  5
27F
330
A
100
AcDbEntity
  8
4
 62
    92
100
AcDbLine
 10
21.23256039089999
 20
12.33242611349999
 30
0.0
 11
21.0992270576
 21
12.2879816691
 31
0.0
  0
LINE
  5
280
330
A
100
AcDbEntity
  8
4
  6
Continuous
 62
    92
100
AcDbLine
 10
21.0992270576
 20
12.2879816691
 30
0.0
 11
24.7158957587
 21
12.2879816691
 31
0.0
  0
LINE
  5
281
330
A
100
AcDbEntity
  8
4
 62
    92
100
AcDbLine
 10
24.7158957587
 20
12.2879816691
 30
0.0
 11
24.5825624254
 21
12.33242611349999
 31
0.0
  0
LINE
  5
282
330
A
100
AcDbEntity
  8
4
 62
    92
100
AcDbLine
 10
24.5825624254
 20
12.33242611349999
 30
0.0
 11
24.5825624254
 21
12.2435372247
 31
0.0
  0
LINE
  5
283
330
A
100
AcDbEntity
  8
4
 62
    92
100
AcDbLine
 10
24.5825624254
 20
12.2435372247
 30
0.0
 11
24.7158957587
 21
12.2879816691
 31
0.0
  0
LINE
  5
284
330
A
100
AcDbEntity
  8
4
  6
Continuous
 62
    92
100
AcDbLine
 10
21.0992270576
 20
14.5145433213
 30
0.0
 11
21.0992270576
 21
12.2879816691
 31
0.0
  0
LINE
  5
285
330
A
100
AcDbEntity
  8
4
  6
Continuous
 62
    92
100
AcDbLine
 10
24.7158957587
 20
14.6792136298
 30
0.0
 11
24.7158957587
 21
12.2879816691
 31
0.0
  0
LINE
  5
291
330
A
100
AcDbEntity
  8
1
  6
Continuous
 62
    92
100
AcDbLine
 10
9.4998813205
 20
31.2819959852
 30
0.0
 11
9.4998813205
 21
29.6523912217
 31
0.0
  0
LINE
  5
292
330
A
100
AcDbEntity
  8
1
  6
Continuous
 62
    92
100
AcDbLine
 10
9.4998813205
 20
31.2819959852
 30
0.0
 11
3.388858795199999
 21
31.2819959852
 31
0.0
  0
LINE
  5
293
330
A
100
AcDbEntity
  8
1
  6
Continuous
 62
    92
100
AcDbLine
 10
3.388858795199999
 20
31.2819959852
 30
0.0
 11
3.388858795199999
 21
30.4671902126
 31
0.0
  0
LINE
  5
294
330
A
100
AcDbEntity
  8
1
  6
Continuous
 62
    92
100
AcDbLine
 10
3.388858795199999
 20
30.4671902126
 30
0.0
 11
9.4998813205
 21
30.4671902126
 31
0.0
  0
LINE
  5
295
330
A
100
AcDbEntity
  8
1
  6
Continuous
 62
    92
100
AcDbLine
 10
3.388858795199999
 20
30.4671902126
 30
0.0
 11
3.388858795199999
 21
29.6523912217
 31
0.0
  0
LINE
  5
296
330
A
100
AcDbEntity
  8
1
  6
Continuous
 62
    92
100
AcDbLine
 10
3.388858795199999
 20
29.6523912217
 30
0.0
 11
9.4998813205
 21
29.6523912217
 31
0.0
  0
LINE
  5
29C
330
A
100
AcDbEntity
  8
1
  6
Continuous
 62
    92
100
AcDbLine
 10
3.11538781059999
 20
23.8375854492
 30
0.0
 11
8.601251390299999
 21
23.8375854492
 31
0.0
  0
CIRCLE
  5
2A6
330
A
100
AcDbEntity
  8
11
  6
Continuous
 62
    92
100
AcDbCircle
 10
39.1644126045
 20
7.406402164
 30
0.0
 40
0.2038667467
  0
CIRCLE
  5
2A7
330
A
100
AcDbEntity
  8
11
  6
Continuous
 62
    92
100
AcDbCircle
 10
39.1644126045
 20
7.406402164
 30
0.0
 40
0.4077334934000001
  0
CIRCLE
  5
2A8
330
A
100
AcDbEntity
  8
11
  6
Continuous
 62
    92
100
AcDbCircle
 10
32.54458024769999
 20
20.1486816406
 30
0.0
 40
0.6388821071999999
  0
CIRCLE
  5
2A9
330
A
100
AcDbEntity
  8
11
  6
Continuous
 62
    92
100
AcDbCircle
 10
32.54458024769999
 20
20.1486816406
 30
0.0
 40
0.5277777778
  0
ARC
  5
2AA
330
A
100
AcDbEntity
  8
11
  6
Continuous
 62
    92
100
AcDbCircle
 10
32.8777881198
 20
20.82027689609999
 30
0.0
 40
0.0555284288
100
AcDbArc
 50
180.0
 51
243.6154785
  0
ARC
  5
2AB
330
A
100
AcDbEntity
  8
11
  6
Continuous
 62
    92
100
AcDbCircle
 10
32.54458024769999
 20
20.1486816406
 30
0.0
 40
0.6941813049
100
AcDbArc
 50
116.3859482
 51
63.6099548
  0
ARC
  5
2AC
330
A
100
AcDbEntity
  8
11
  6
Continuous
 62
    92
100
AcDbCircle
 10
32.2113859388
 20
20.8202752007
 30
0.0
 40
0.0555228752
100
AcDbArc
 50
296.3803406000001
 51
0.0
  0
ARC
  5
2AD
330
A
100
AcDbEntity
  8
11
  6
Continuous
 62
    92
100
AcDbCircle
 10
33.5442106459
 20
21.04672580289999
 30
0.0
 40
0.0555352109
100
AcDbArc
 50
180.0
 51
243.6094359999999
  0
ARC
  5
2AE
330
A
100
AcDbEntity
  8
11
  6
Continuous
 62
    92
100
AcDbCircle
 10
33.2109926012
 20
20.37512885199999
 30
0.0
 40
0.6941816542
100
AcDbArc
 50
270.0
 51
63.6109314
  0
ARC
  5
2AF
330
A
100
AcDbEntity
  8
11
  6
Continuous
 62
    92
100
AcDbCircle
 10
33.2109993829
 20
20.37512546119999
 30
0.0
 40
0.6941813049
100
AcDbArc
 50
116.3859482
 51
137.6372986
  0
ARC
  5
2B0
330
A
100
AcDbEntity
  8
11
  6
Continuous
 62
    92
100
AcDbCircle
 10
32.87779829239999
 20
21.04671902119999
 30
0.0
 40
0.055525889
100
AcDbArc
 50
296.3866271999999
 51
0.0
  0
CIRCLE
  5
2B1
330
A
100
AcDbEntity
  8
11
  6
Continuous
 62
    92
100
AcDbCircle
 10
7.1640209622
 20
16.5657602946
 30
0.0
 40
0.3888846503
  0
ARC
  5
2B2
330
A
100
AcDbEntity
  8
11
  6
CENTERX2
 62
    92
100
AcDbCircle
 10
32.54458024769999
 20
16.56576538079999
 30
0.0
 40
1.5000041686
100
AcDbArc
 50
306.5024718999999
 51
325.624115
  0
ARC
  5
2B3
330
A
100
AcDbEntity
  8
11
  6
CENTERX2
 62
    92
100
AcDbCircle
 10
32.54458024769999
 20
16.56576538079999
 30
0.0
 40
1.500006022899999
100
AcDbArc
 50
214.3757171999999
 51
235.6265410999999
  0
ARC
  5
2B4
330
A
100
AcDbEntity
  8
11
  6
CENTERX2
 62
    92
100
AcDbCircle
 10
32.54458024769999
 20
16.5657585991
 30
0.0
 40
1.4999927676
100
AcDbArc
 50
124.3731383999999
 51
145.6240996999999
  0
ARC
  5
2B5
330
A
100
AcDbEntity
  8
11
  6
CENTERX2
 62
    92
100
AcDbCircle
 10
32.54458024769999
 20
16.5657585991
 30
0.0
 40
1.499998365099999
100
AcDbArc
 50
34.3752899
 51
55.6262207
  0
ARC
  5
2B6
330
A
100
AcDbEntity
  8
11
  6
CENTERX2
 62
    92
100
AcDbCircle
 10
32.54458024769999
 20
16.5657518174
 30
0.0
 40
2.777778858
100
AcDbArc
 50
38.121418
 51
51.880558
  0
ARC
  5
2B7
330
A
100
AcDbEntity
  8
11
  6
CENTERX2
 62
    92
100
AcDbCircle
 10
32.54458024769999
 20
16.5657518174
 30
0.0
 40
2.777772948399999
100
AcDbArc
 50
308.1193236999999
 51
321.8783568999999
  0
ARC
  5
2B8
330
A
100
AcDbEntity
  8
11
  6
CENTERX2
 62
    92
100
AcDbCircle
 10
32.54458024769999
 20
16.5657585991
 30
0.0
 40
2.777773522799999
100
AcDbArc
 50
218.1215057
 51
231.8806
  0
ARC
  5
2B9
330
A
100
AcDbEntity
  8
11
  6
CENTERX2
 62
    92
100
AcDbCircle
 10
32.54458024769999
 20
16.5657518174
 30
0.0
 40
2.7777800069
100
AcDbArc
 50
128.118927
 51
141.8782349
  0
ARC
  5
2BA
330
A
100
AcDbEntity
  8
11
  6
Continuous
 62
    92
100
AcDbCircle
 10
32.54458024769999
 20
16.5657585991
 30
0.0
 40
1.2777791893
100
AcDbArc
 50
243.7410735999999
 51
296.2622681
  0
ARC
  5
2BB
330
A
100
AcDbEntity
  8
11
  6
Continuous
 62
    92
100
AcDbCircle
 10
32.54458024769999
 20
16.56576538079999
 30
0.0
 40
1.2777700667
100
AcDbArc
 50
63.74086759999999
 51
116.2625275
  0
ARC
  5
2BC
330
A
100
AcDbEntity
  8
11
  6
Continuous
 62
    92
100
AcDbCircle
 10
32.54458024769999
 20
16.5657585991
 30
0.0
 40
1.111113447699999
100
AcDbArc
 50
210.0006866
 51
235.6997833
  0
ARC
  5
2BD
330
A
100
AcDbEntity
  8
11
  6
Continuous
 62
    92
100
AcDbCircle
 10
32.54458024769999
 20
16.5657585991
 30
0.0
 40
1.277775223999999
100
AcDbArc
 50
183.7394256999999
 51
209.9999541999999
  0
ARC
  5
2BE
330
A
100
AcDbEntity
  8
11
  6
Continuous
 62
    92
100
AcDbCircle
 10
32.54458024769999
 20
16.5657518174
 30
0.0
 40
1.1111140712
100
AcDbArc
 50
124.2996979
 51
149.9986419999999
  0
ARC
  5
2BF
330
A
100
AcDbEntity
  8
11
  6
Continuous
 62
    92
100
AcDbCircle
 10
32.54458024769999
 20
16.5657518174
 30
0.0
 40
1.277777528299999
100
AcDbArc
 50
149.9992218
 51
176.2595825
  0
ARC
  5
2C0
330
A
100
AcDbEntity
  8
11
  6
Continuous
 62
    92
100
AcDbCircle
 10
32.54458024769999
 20
16.5657518174
 30
0.0
 40
1.1111163843
100
AcDbArc
 50
30.00060839999999
 51
55.69950099999999
  0
ARC
  5
2C1
330
A
100
AcDbEntity
  8
11
  6
Continuous
 62
    92
100
AcDbCircle
 10
32.54458024769999
 20
16.5657518174
 30
0.0
 40
1.277782433499999
100
AcDbArc
 50
3.739721499999999
 51
29.9998188
  0
ARC
  5
2C2
330
A
100
AcDbEntity
  8
11
  6
Continuous
 62
    92
100
AcDbCircle
 10
32.54458024769999
 20
16.5657585991
 30
0.0
 40
1.2777809191
100
AcDbArc
 50
329.9989623999999
 51
356.2598876999999
  0
ARC
  5
2C3
330
A
100
AcDbEntity
  8
11
  6
Continuous
 62
    92
100
AcDbCircle
 10
32.54458024769999
 20
16.5657585991
 30
0.0
 40
1.1111131809
100
AcDbArc
 50
304.2999573
 51
329.9985656999999
  0
CIRCLE
  5
2C4
330
A
100
AcDbEntity
  8
11
  6
Continuous
 62
    92
100
AcDbCircle
 10
32.54458024769999
 20
16.5657585991
 30
0.0
 40
0.7083333333000001
  0
CIRCLE
  5
2C5
330
A
100
AcDbEntity
  8
11
  6
Continuous
 62
    92
100
AcDbCircle
 10
32.54458024769999
 20
16.5657585991
 30
0.0
 40
0.3888888889
  0
CIRCLE
  5
2C6
330
A
100
AcDbEntity
  8
11
  6
Continuous
 62
    92
100
AcDbCircle
 10
32.54458024769999
 20
16.5657585991
 30
0.0
 40
0.166659885
  0
CIRCLE
  5
2C7
330
A
100
AcDbEntity
  8
11
  6
Continuous
 62
    92
100
AcDbCircle
 10
32.54458024769999
 20
16.5657585991
 30
0.0
 40
0.3333299425
  0
CIRCLE
  5
2C8
330
A
100
AcDbEntity
  8
11
  6
Continuous
 62
    92
100
AcDbCircle
 10
32.54458024769999
 20
16.5657585991
 30
0.0
 40
0.5555487739000001
  0
CIRCLE
  5
2C9
330
A
100
AcDbEntity
  8
11
  6
Continuous
 62
    92
100
AcDbCircle
 10
33.6052424113
 20
15.50509643549999
 30
0.0
 40
0.2222154405
  0
CIRCLE
  5
2CA
330
A
100
AcDbEntity
  8
11
  6
Continuous
 62
    92
100
AcDbCircle
 10
31.4839113024
 20
15.50509643549999
 30
0.0
 40
0.2222188313
  0
CIRCLE
  5
2CB
330
A
100
AcDbEntity
  8
11
  6
Continuous
 62
    92
100
AcDbCircle
 10
31.4839113024
 20
15.50509643549999
 30
0.0
 40
0.1333245171
  0
CIRCLE
  5
2CC
330
A
100
AcDbEntity
  8
11
  6
Continuous
 62
    92
100
AcDbCircle
 10
31.4839248658
 20
17.6264173719
 30
0.0
 40
0.222229004
  0
CIRCLE
  5
2CD
330
A
100
AcDbEntity
  8
11
  6
Continuous
 62
    92
100
AcDbCircle
 10
31.4839248658
 20
17.6264173719
 30
0.0
 40
0.1333380805
  0
CIRCLE
  5
2CE
330
A
100
AcDbEntity
  8
11
  6
Continuous
 62
    92
100
AcDbCircle
 10
33.6052424113
 20
17.6264173719
 30
0.0
 40
0.2222222222
  0
CIRCLE
  5
2CF
330
A
100
AcDbEntity
  8
11
  6
Continuous
 62
    92
100
AcDbCircle
 10
33.6052424113
 20
17.6264173719
 30
0.0
 40
0.1333380805
  0
CIRCLE
  5
2D0
330
A
100
AcDbEntity
  8
11
  6
Continuous
 62
    92
100
AcDbCircle
 10
33.6052424113
 20
15.50509643549999
 30
0.0
 40
0.1333346897
  0
CIRCLE
  5
2D1
330
A
100
AcDbEntity
  8
11
  6
Continuous
 62
    92
100
AcDbCircle
 10
32.54458024769999
 20
16.5657585991
 30
0.0
 40
2.2222222222
  0
CIRCLE
  5
2D2
330
A
100
AcDbEntity
  8
11
  6
Continuous
 62
    92
100
AcDbCircle
 10
32.54458024769999
 20
16.5657585991
 30
0.0
 40
1.8888922797
  0
CIRCLE
  5
2D3
330
A
100
AcDbEntity
  8
11
  6
Continuous
 62
    92
100
AcDbCircle
 10
32.54458024769999
 20
16.5657585991
 30
0.0
 40
1.0
  0
CIRCLE
  5
2D4
330
A
100
AcDbEntity
  8
11
  6
Continuous
 62
    92
100
AcDbCircle
 10
34.5087627834
 20
14.6015726725
 30
0.0
 40
0.1944444444
  0
CIRCLE
  5
2D5
330
A
100
AcDbEntity
  8
11
  6
Continuous
 62
    92
100
AcDbCircle
 10
30.5804011027
 20
14.6015726725
 30
0.0
 40
0.1944444444
  0
CIRCLE
  5
2D6
330
A
100
AcDbEntity
  8
11
  6
Continuous
 62
    92
100
AcDbCircle
 10
30.5804011027
 20
18.52993774409999
 30
0.0
 40
0.1944444444
  0
CIRCLE
  5
2D7
330
A
100
AcDbEntity
  8
11
  6
Continuous
 62
    92
100
AcDbCircle
 10
34.5087661743
 20
18.52993774409999
 30
0.0
 40
0.1944410536
  0
ARC
  5
2D8
330
A
100
AcDbEntity
  8
11
  6
Continuous
 62
    92
100
AcDbCircle
 10
11.2659539117
 20
16.56574673119999
 30
0.0
 40
0.1388880413
100
AcDbArc
 50
180.0
 51
270.0024414
  0
ARC
  5
2D9
330
A
100
AcDbEntity
  8
11
  6
Continuous
 62
    92
100
AcDbCircle
 10
12.0992796157
 20
16.56575351289999
 30
0.0
 40
0.1388939753
100
AcDbArc
 50
270.0
 51
0.0
  0
ARC
  5
2DA
330
A
100
AcDbEntity
  8
11
  6
Continuous
 62
    92
100
AcDbCircle
 10
12.0992855496
 20
16.5657602946
 30
0.0
 40
0.1388897368
100
AcDbArc
 50
0.0
 51
90.0031433
  0
ARC
  5
2DB
330
A
100
AcDbEntity
  8
11
  6
Continuous
 62
    92
100
AcDbCircle
 10
11.26595815019999
 20
16.5657602946
 30
0.0
 40
0.1388905843
100
AcDbArc
 50
90.0
 51
180.0
  0
ARC
  5
2DC
330
A
100
AcDbEntity
  8
11
  6
Continuous
 62
    92
100
AcDbCircle
 10
12.4567489624
 20
16.2947972615
 30
0.0
 40
0.5350614077
100
AcDbArc
 50
264.4350890999999
 51
290.9306335
  0
ARC
  5
2DD
330
A
100
AcDbEntity
  8
11
  6
Continuous
 62
    92
100
AcDbCircle
 10
11.25477600099999
 20
14.4193471273
 30
0.0
 40
3.2017223581
100
AcDbArc
 50
63.425209
 51
65.8910522
  0
ARC
  5
2DE
330
A
100
AcDbEntity
  8
11
  6
Continuous
 62
    92
100
AcDbCircle
 10
11.2724880642
 20
14.4577577379
 30
0.0
 40
3.159427433
100
AcDbArc
 50
65.8997498
 51
68.99941250000001
  0
ARC
  5
2DF
330
A
100
AcDbEntity
  8
1
  6
Continuous
 62
    92
100
AcDbCircle
 10
15.5158971151
 20
17.2046593558
 30
0.0
 40
0.1388888891
100
AcDbArc
 50
90.0
 51
180.0
  0
ARC
  5
2E0
330
A
100
AcDbEntity
  8
1
  6
Continuous
 62
    92
100
AcDbCircle
 10
19.4047656589
 20
17.2046491835
 30
0.0
 40
0.1388990629
100
AcDbArc
 50
0.008392369
 51
89.99160768600003
  0
ARC
  5
2E1
330
A
100
AcDbEntity
  8
1
  6
Continuous
 62
    92
100
AcDbCircle
 10
19.40478430849999
 20
15.92687225339999
 30
0.0
 40
0.1388812595
100
AcDbArc
 50
270.0
 51
0.0
  0
ARC
  5
2E2
330
A
100
AcDbEntity
  8
1
  6
Continuous
 62
    92
100
AcDbCircle
 10
15.5158784654
 20
15.92687225339999
 30
0.0
 40
0.1388804118
100
AcDbArc
 50
180.0
 51
270.0073546999999
  0
POINT
  5
2E3
330
A
100
AcDbEntity
  8
4
100
AcDbPoint
 10
34.7031326294
 20
14.5961642795
 30
0.0
  0
POINT
  5
2E4
330
A
100
AcDbEntity
  8
4
100
AcDbPoint
 10
34.7031326294
 20
12.907248603
 30
0.0
  0
POINT
  5
2E5
330
A
100
AcDbEntity
  8
4
100
AcDbPoint
 10
34.31440650089999
 20
14.5957260132
 30
0.0
  0
POINT
  5
2E6
330
A
100
AcDbEntity
  8
4
100
AcDbPoint
 10
34.31440650089999
 20
12.907248603
 30
0.0
  0
POINT
  5
2E7
330
A
100
AcDbEntity
  8
4
100
AcDbPoint
 10
20.15478091769999
 20
20.8428632948
 30
0.0
  0
POINT
  5
2E8
330
A
100
AcDbEntity
  8
4
100
AcDbPoint
 10
20.15478091769999
 20
21.6213022867
 30
0.0
  0
POINT
  5
2E9
330
A
100
AcDbEntity
  8
4
100
AcDbPoint
 10
10.90484364829999
 20
16.8990970188
 30
0.0
  0
POINT
  5
2EA
330
A
100
AcDbEntity
  8
4
100
AcDbPoint
 10
10.90484364829999
 20
21.6213022867
 30
0.0
  0
POINT
  5
2EB
330
A
100
AcDbEntity
  8
4
100
AcDbPoint
 10
10.90484364829999
 20
21.6213022867
 30
0.0
  0
POINT
  5
2EC
330
A
100
AcDbEntity
  8
4
100
AcDbPoint
 10
10.90484364829999
 20
22.3990665012
 30
0.0
  0
POINT
  5
2ED
330
A
100
AcDbEntity
  8
4
100
AcDbPoint
 10
21.9894502428
 20
20.9778662788
 30
0.0
  0
POINT
  5
2EE
330
A
100
AcDbEntity
  8
4
100
AcDbPoint
 10
21.9894502428
 20
22.3990665012
 30
0.0
  0
POINT
  5
2EF
330
A
100
AcDbEntity
  8
4
100
AcDbPoint
 10
10.90484364829999
 20
22.3990665012
 30
0.0
  0
POINT
  5
2F0
330
A
100
AcDbEntity
  8
4
100
AcDbPoint
 10
10.90484364829999
 20
23.17683410639999
 30
0.0
  0
POINT
  5
2F1
330
A
100
AcDbEntity
  8
4
100
AcDbPoint
 10
24.7158957587
 20
18.4666392008
 30
0.0
  0
POINT
  5
2F2
330
A
100
AcDbEntity
  8
4
100
AcDbPoint
 10
24.7158957587
 20
23.17683410639999
 30
0.0
  0
POINT
  5
2F3
330
A
100
AcDbEntity
  8
4
100
AcDbPoint
 10
29.818139818
 20
17.4055158827
 30
0.0
  0
POINT
  5
2F4
330
A
100
AcDbEntity
  8
4
100
AcDbPoint
 10
29.818139818
 20
23.17683410639999
 30
0.0
  0
POINT
  5
2F5
330
A
100
AcDbEntity
  8
4
100
AcDbPoint
 10
35.27102745909999
 20
17.8162502713
 30
0.0
  0
POINT
  5
2F6
330
A
100
AcDbEntity
  8
4
100
AcDbPoint
 10
35.27102745909999
 20
23.17683410639999
 30
0.0
  0
POINT
  5
2F7
330
A
100
AcDbEntity
  8
4
100
AcDbPoint
 10
5.8862550524
 20
16.4268646239
 30
0.0
  0
POINT
  5
2F8
330
A
100
AcDbEntity
  8
4
100
AcDbPoint
 10
5.8862550524
 20
16.70465596509999
 30
0.0
  0
POINT
  5
2F9
330
A
100
AcDbEntity
  8
4
100
AcDbPoint
 10
5.8862550524
 20
17.9164140489
 30
0.0
  0
POINT
  5
2FA
330
A
100
AcDbEntity
  8
4
100
AcDbPoint
 10
7.5529056126
 20
17.5355682372
 30
0.0
  0
POINT
  5
2FB
330
A
100
AcDbEntity
  8
4
100
AcDbPoint
 10
6.6640218099
 20
17.5355682372
 30
0.0
  0
POINT
  5
2FC
330
A
100
AcDbEntity
  8
4
100
AcDbPoint
 10
27.45294274229999
 20
15.4024895562
 30
0.0
  0
POINT
  5
2FD
330
A
100
AcDbEntity
  8
4
100
AcDbPoint
 10
31.38131120469999
 20
11.4741244846
 30
0.0
  0
POINT
  5
2FE
330
A
100
AcDbEntity
  8
4
100
AcDbPoint
 10
35.50077735059999
 20
16.5657585991
 30
0.0
  0
POINT
  5
2FF
330
A
100
AcDbEntity
  8
4
100
AcDbPoint
 10
37.2362815009
 20
16.5657585991
 30
0.0
  0
POINT
  5
300
330
A
100
AcDbEntity
  8
4
100
AcDbPoint
 10
32.665002611
 20
20.8428649902
 30
0.0
  0
POINT
  5
301
330
A
100
AcDbEntity
  8
4
100
AcDbPoint
 10
37.2362815009
 20
20.8428649902
 30
0.0
  0
POINT
  5
302
330
A
100
AcDbEntity
  8
4
100
AcDbPoint
 10
33.3935792711
 20
21.0693088107
 30
0.0
  0
POINT
  5
303
330
A
100
AcDbEntity
  8
4
100
AcDbPoint
 10
38.1640870836
 20
21.0693088107
 30
0.0
  0
POINT
  5
304
330
A
100
AcDbEntity
  8
4
100
AcDbPoint
 10
36.92332712809999
 20
16.5657585991
 30
0.0
  0
POINT
  5
305
330
A
100
AcDbEntity
  8
4
100
AcDbPoint
 10
38.1640870836
 20
16.5657585991
 30
0.0
  0
POINT
  5
306
330
A
100
AcDbEntity
  8
4
100
AcDbPoint
 10
33.2109993829
 20
21.0693088107
 30
0.0
  0
POINT
  5
307
330
A
100
AcDbEntity
  8
4
100
AcDbPoint
 10
33.2109993829
 20
22.04269409179999
 30
0.0
  0
POINT
  5
308
330
A
100
AcDbEntity
  8
4
100
AcDbPoint
 10
32.54458024769999
 20
20.8428649902
 30
0.0
  0
POINT
  5
309
330
A
100
AcDbEntity
  8
4
100
AcDbPoint
 10
32.54458024769999
 20
22.04269409179999
 30
0.0
  0
POINT
  5
30A
330
A
100
AcDbEntity
  8
4
100
AcDbPoint
 10
26.55554283989999
 20
15.2907647027
 30
0.0
  0
POINT
  5
30B
330
A
100
AcDbEntity
  8
4
100
AcDbPoint
 10
31.26958974199999
 20
10.5767211914
 30
0.0
  0
POINT
  5
30C
330
A
100
AcDbEntity
  8
4
100
AcDbPoint
 10
34.75862714979999
 20
14.0657594469
 30
0.0
  0
POINT
  5
30D
330
A
100
AcDbEntity
  8
4
100
AcDbPoint
 10
36.32433827719999
 20
14.0657594469
 30
0.0
  0
POINT
  5
30E
330
A
100
AcDbEntity
  8
4
100
AcDbPoint
 10
34.75862714979999
 20
19.0657585992
 30
0.0
  0
POINT
  5
30F
330
A
100
AcDbEntity
  8
4
100
AcDbPoint
 10
36.32433827719999
 20
19.0657585992
 30
0.0
  0
POINT
  5
310
330
A
100
AcDbEntity
  8
4
100
AcDbPoint
 10
12.4048419528
 20
19.8990800646
 30
0.0
  0
POINT
  5
311
330
A
100
AcDbEntity
  8
4
100
AcDbPoint
 10
12.5715120104
 20
19.8990800646
 30
0.0
  0
POINT
  5
312
330
A
100
AcDbEntity
  8
4
100
AcDbPoint
 10
13.7832700941
 20
19.8990800646
 30
0.0
  0
POINT
  5
313
330
A
100
AcDbEntity
  8
4
100
AcDbPoint
 10
11.62707604299999
 20
19.8990800646
 30
0.0
  0
POINT
  5
314
330
A
100
AcDbEntity
  8
4
100
AcDbPoint
 10
10.90484364829999
 20
20.6768442789
 30
0.0
  0
POINT
  5
315
330
A
100
AcDbEntity
  8
4
100
AcDbPoint
 10
12.5715120104
 20
20.6768442789
 30
0.0
  0
POINT
  5
316
330
A
100
AcDbEntity
  8
4
100
AcDbPoint
 10
10.9603992039
 20
16.1768680148
 30
0.0
  0
POINT
  5
317
330
A
100
AcDbEntity
  8
4
100
AcDbPoint
 10
10.12707689079999
 20
16.1768680148
 30
0.0
  0
POINT
  5
318
330
A
100
AcDbEntity
  8
4
100
AcDbPoint
 10
10.9603992039
 20
16.95464918349999
 30
0.0
  0
POINT
  5
319
330
A
100
AcDbEntity
  8
4
100
AcDbPoint
 10
10.12707689079999
 20
16.95464918349999
 30
0.0
  0
POINT
  5
31A
330
A
100
AcDbEntity
  8
4
100
AcDbPoint
 10
12.4048419528
 20
14.34353807229999
 30
0.0
  0
POINT
  5
31B
330
A
100
AcDbEntity
  8
4
100
AcDbPoint
 10
9.349310133200001
 20
14.34353807229999
 30
0.0
  0
POINT
  5
31C
330
A
100
AcDbEntity
  8
4
100
AcDbPoint
 10
12.4048419528
 20
18.7879825167
 30
0.0
  0
POINT
  5
31D
330
A
100
AcDbEntity
  8
4
100
AcDbPoint
 10
9.349310133200001
 20
18.7879825167
 30
0.0
  0
POINT
  5
31E
330
A
100
AcDbEntity
  8
4
100
AcDbPoint
 10
12.5715120104
 20
13.0657458834
 30
0.0
  0
POINT
  5
31F
330
A
100
AcDbEntity
  8
4
100
AcDbPoint
 10
13.01595645489999
 20
13.0657458834
 30
0.0
  0
POINT
  5
320
330
A
100
AcDbEntity
  8
4
100
AcDbPoint
 10
14.5158937243
 20
12.2879816691
 30
0.0
  0
POINT
  5
321
330
A
100
AcDbEntity
  8
4
100
AcDbPoint
 10
13.01595645489999
 20
12.2879816691
 30
0.0
  0
POINT
  5
322
330
A
100
AcDbEntity
  8
4
100
AcDbPoint
 10
21.0992270576
 20
14.5145433213
 30
0.0
  0
POINT
  5
323
330
A
100
AcDbEntity
  8
4
100
AcDbPoint
 10
21.0992270576
 20
12.2879816691
 30
0.0
  0
POINT
  5
324
330
A
100
AcDbEntity
  8
4
100
AcDbPoint
 10
24.7158957587
 20
14.6792136298
 30
0.0
  0
POINT
  5
325
330
A
100
AcDbEntity
  8
4
100
AcDbPoint
 10
24.7158957587
 20
12.2879816691
 30
0.0
  0
MTEXT
  5
327
330
A
100
AcDbEntity
  8
6
 62
    92
100
AcDbMText
 10
9.0928115247
 20
7.854960560499999
 30
0.0
 40
0.3571430511
 41
0.0
 71
     1
 72
     5
  1
Typ
  7
SLDTEXTSTYLE0
 73
     1
 44
1.0
  0
MTEXT
  5
328
330
A
100
AcDbEntity
  8
6
 62
    92
100
AcDbMText
 10
9.0928115247
 20
7.1141828031
 30
0.0
 40
0.3571430511
 41
0.0
 71
     1
 72
     5
  1
MSM 100-6-604-E2-O/2KA
  7
SLDTEXTSTYLE0
 73
     1
 44
1.0
  0
MTEXT
  5
329
330
A
100
AcDbEntity
  8
6
 62
    92
100
AcDbMText
 10
9.0928115247
 20
6.3734603588
 30
0.0
 40
0.3571430511
 41
0.0
 71
     1
 72
     5
  1
MSM 100-14-604-E2-O/2KA
  7
SLDTEXTSTYLE0
 73
     1
 44
1.0
  0
MTEXT
  5
32D
330
A
100
AcDbEntity
  8
6
 62
    92
100
AcDbMText
 10
16.1793441174
 20
7.854960560499999
 30
0.0
 40
0.3571430511
 41
0.0
 71
     1
 72
     5
  1
a [mm]
  7
SLDTEXTSTYLE0
 73
     1
 44
1.0
  0
MTEXT
  5
32E
330
A
100
AcDbEntity
  8
6
 62
    92
100
AcDbMText
 10
16.1793441174
 20
7.1142383281
 30
0.0
 40
0.3571430511
 41
0.0
 71
     1
 72
     5
  1
224
  7
SLDTEXTSTYLE0
 73
     1
 44
1.0
  0
MTEXT
  5
32F
330
A
100
AcDbEntity
  8
6
 62
    92
100
AcDbMText
 10
16.1793441174
 20
6.3734603588
 30
0.0
 40
0.3571430511
 41
0.0
 71
     1
 72
     5
  1
249
  7
SLDTEXTSTYLE0
 73
     1
 44
1.0
  0
MTEXT
  5
330
330
A
100
AcDbEntity
  8
6
 62
    92
100
AcDbMText
 10
21.761341459
 20
7.854960560499999
 30
0.0
 40
0.3571430511
 41
0.0
 71
     1
 72
     5
  1
c [mm]
  7
SLDTEXTSTYLE0
 73
     1
 44
1.0
  0
MTEXT
  5
331
330
A
100
AcDbEntity
  8
6
 62
    92
100
AcDbMText
 10
21.761341459
 20
7.1142383281
 30
0.0
 40
0.3571430511
 41
0.0
 71
     1
 72
     5
  1
142
  7
SLDTEXTSTYLE0
 73
     1
 44
1.0
  0
MTEXT
  5
332
330
A
100
AcDbEntity
  8
6
 62
    92
100
AcDbMText
 10
21.761341459
 20
6.3734603588
 30
0.0
 40
0.3571430511
 41
0.0
 71
     1
 72
     5
  1
167
  7
SLDTEXTSTYLE0
 73
     1
 44
1.0
  0
MTEXT
  5
333
330
A
100
AcDbEntity
  8
6
 62
    92
100
AcDbMText
 10
18.97034278819999
 20
7.854960560499999
 30
0.0
 40
0.3571430511
 41
0.0
 71
     1
 72
     5
  1
b [mm]
  7
SLDTEXTSTYLE0
 73
     1
 44
1.0
  0
MTEXT
  5
334
330
A
100
AcDbEntity
  8
6
 62
    92
100
AcDbMText
 10
18.97034278819999
 20
7.1142383281
 30
0.0
 40
0.3571430511
 41
0.0
 71
     1
 72
     5
  1
175
  7
SLDTEXTSTYLE0
 73
     1
 44
1.0
  0
MTEXT
  5
335
330
A
100
AcDbEntity
  8
6
 62
    92
100
AcDbMText
 10
18.97034278819999
 20
6.3734603588
 30
0.0
 40
0.3571430511
 41
0.0
 71
     1
 72
     5
  1
200
  7
SLDTEXTSTYLE0
 73
     1
 44
1.0
  0
MTEXT
  5
336
330
A
100
AcDbEntity
  8
6
 62
    92
100
AcDbMText
 10
27.4539379544
 20
25.8126068115
 30
0.0
 40
0.4861111112
 41
0.0
 71
     2
 72
     5
  1
Hengstler M21
  7
SLDTEXTSTYLE0
 73
     1
 44
1.0
  0
MTEXT
  5
337
330
A
100
AcDbEntity
  8
6
 62
    92
100
AcDbMText
 10
27.5057737563
 20
26.5894961887
 30
0.0
 40
0.4861111112
 41
0.0
 71
     2
 72
     5
  1
connector for
  7
SLDTEXTSTYLE0
 73
     1
 44
1.0
  0
MTEXT
  5
338
330
A
100
AcDbEntity
  8
6
 62
    92
100
AcDbMText
 10
17.38144683839999
 20
16.77048280009999
 30
0.0
 40
0.3333341711
 41
0.0
 71
     2
 72
     5
  1
rating plate
  7
SLDTEXTSTYLE0
 73
     1
 44
1.0
  0
MTEXT
  5
339
330
A
100
AcDbEntity
  8
6
 62
    92
100
AcDbMText
 10
23.28500111899999
 20
31.0219456553
 30
0.0
 40
0.3695036967
 41
0.0
 71
     2
 72
     5
  1
Three phase current synchronous motor
  7
SLDTEXTSTYLE0
 73
     1
 44
1.0
  0
MTEXT
  5
33A
330
A
100
AcDbEntity
  8
6
 62
    92
100
AcDbMText
 10
17.5902633667
 20
30.945604773
 30
0.0
 40
0.251937492
 41
0.0
 71
     2
 72
     5
  1
motortyp :
  7
SLDTEXTSTYLE0
 73
     1
 44
1.0
  0
MTEXT
  5
33B
330
A
100
AcDbEntity
  8
6
 62
    92
100
AcDbMText
 10
8.696064419299998
 20
30.2023928248
 30
0.0
 40
0.3527124888
 41
0.0
 71
     2
 72
     5
  1
IP 65
  7
SLDTEXTSTYLE0
 73
     1
 44
1.0
  0
MTEXT
  5
33C
330
A
100
AcDbEntity
  8
6
 62
    92
100
AcDbMText
 10
3.5503809512
 20
31.0077151928
 30
0.0
 40
0.251937492
 41
0.0
 71
     1
 72
     5
  1
mounting of motor :
  7
SLDTEXTSTYLE0
 73
     1
 44
1.0
  0
MTEXT
  5
33D
330
A
100
AcDbEntity
  8
6
 62
    92
100
AcDbMText
 10
3.5503809512
 20
30.20151537719999
 30
0.0
 40
0.251937492
 41
0.0
 71
     1
 72
     5
  1
class of protection:
  7
SLDTEXTSTYLE0
 73
     1
 44
1.0
  0
MTEXT
  5
33E
330
A
100
AcDbEntity
  8
6
 62
    92
100
AcDbMText
 10
8.7079713609
 20
31.0113731307
 30
0.0
 40
0.3527124888
 41
0.0
 71
     2
 72
     5
  1
B 5
  7
SLDTEXTSTYLE0
 73
     1
 44
1.0
  0
MTEXT
  5
33F
330
A
100
AcDbEntity
  8
6
 62
    92
100
AcDbMText
 10
6.471600426599999
 20
28.40279469889999
 30
0.0
 40
0.3627895117
 41
0.0
 71
     2
 72
     5
  1
     all dimensions in millimeter
  7
SLDTEXTSTYLE0
 73
     1
 44
1.0
  0
MTEXT
  5
340
330
A
100
AcDbEntity
  8
6
 62
    92
100
AcDbMText
 10
7.7754084269
 20
23.1822476751
 30
0.0
 40
0.3706666827
 41
0.0
 71
     2
 72
     5
  1
+0.001
  7
SLDTEXTSTYLE0
 73
     1
 44
1.0
  0
MTEXT
  5
341
330
A
100
AcDbEntity
  8
6
 62
    92
100
AcDbMText
 10
7.7754084269
 20
22.5099505153
 30
0.0
 40
0.3706666827
 41
0.0
 71
     2
 72
     5
  1
+0.012
  7
SLDTEXTSTYLE0
 73
     1
 44
1.0
  0
MTEXT
  5
342
330
A
100
AcDbEntity
  8
6
 62
    92
100
AcDbMText
 10
7.7754084269
 20
21.9768406384
 30
0.0
 40
0.3706666827
 41
0.0
 71
     2
 72
     5
  1
-0.007
  7
SLDTEXTSTYLE0
 73
     1
 44
1.0
  0
MTEXT
  5
343
330
A
100
AcDbEntity
  8
6
 62
    92
100
AcDbMText
 10
4.611444261399995
 20
22.24372025
 30
0.0
 40
0.3706666827
 41
0.0
 71
     2
 72
     5
  1
80
  7
SLDTEXTSTYLE0
 73
     1
 44
1.0
  0
MTEXT
  5
344
330
A
100
AcDbEntity
  8
6
 62
    92
100
AcDbMText
 10
5.213634067100002
 20
22.0367949373
 30
0.0
 40
0.2780000038
 41
0.0
 71
     2
 72
     5
  1
j6
  7
SLDTEXTSTYLE0
 73
     1
 44
1.0
  0
MTEXT
  5
345
330
A
100
AcDbEntity
  8
6
 62
    92
100
AcDbMText
 10
4.611444261399995
 20
23.4298520452
 30
0.0
 40
0.3706666827
 41
0.0
 71
     2
 72
     5
  1
14
  7
SLDTEXTSTYLE0
 73
     1
 44
1.0
  0
MTEXT
  5
346
330
A
100
AcDbEntity
  8
6
 62
    92
100
AcDbMText
 10
5.213634067100002
 20
23.2229284279
 30
0.0
 40
0.2780000038
 41
0.0
 71
     2
 72
     5
  1
k6
  7
SLDTEXTSTYLE0
 73
     1
 44
1.0
  0
MTEXT
  5
347
330
A
100
AcDbEntity
  8
6
 62
    92
100
AcDbMText
 10
7.7754084269
 20
23.64585885399999
 30
0.0
 40
0.3706666827
 41
0.0
 71
     2
 72
     5
  1
+0.012
  7
SLDTEXTSTYLE0
 73
     1
 44
1.0
  0
MTEXT
  5
348
330
A
100
AcDbEntity
  8
6
 62
    92
100
AcDbMText
 10
11.77099355069999
 20
11.4789195673
 30
0.0
 40
0.3729833133
 41
0.0
 71
     2
 72
     5
  1
  center hole D M5 DIN 332 Bl.2
  7
SLDTEXTSTYLE0
 73
     1
 44
1.0
  0
MTEXT
  5
352
330
A
100
AcDbEntity
  8
6
 62
    92
100
AcDbMText
 10
7.7127439711
 20
27.8148024595
 30
0.0
 40
0.3669604692
 41
0.0
 71
     2
 72
     5
  1
dimensions with or without brake 
  7
SLDTEXTSTYLE0
 73
     1
 44
1.0
  0
MTEXT
  5
353
330
A
100
AcDbEntity
  8
6
 62
    92
100
AcDbMText
 10
38.6944995456
 20
8.633915872999999
 30
0.0
 40
0.3669604692
 41
0.0
 71
     2
 72
     5
  1
projection
  7
SLDTEXTSTYLE0
 73
     1
 44
1.0
  0
MTEXT
  5
357
330
A
100
AcDbEntity
  8
6
 62
    92
100
AcDbMText
 10
14.34364912249999
 20
5.094248796399999
 30
0.0
 40
0.3544509113
 41
0.0
 71
     2
 72
     5
  1
subject to alterations
  7
SLDTEXTSTYLE0
 73
     1
 44
1.0
  0
MTEXT
  5
359
330
A
100
AcDbEntity
  8
4
 62
    92
100
AcDbMText
 10
35.22152151989999
 20
13.4256374935
 30
0.0
 40
0.3888888889
 41
0.0
 71
     1
 72
     5
  1
%%c7
  7
SLDTEXTSTYLE0
 73
     1
 44
1.0
  0
MTEXT
  5
35A
330
A
100
AcDbEntity
  8
4
 62
    92
100
AcDbMText
 10
15.17981246769999
 20
22.1396911773
 30
0.0
 40
0.3888888889
 41
0.0
 71
     1
 72
     5
  1
c 
  7
SLDTEXTSTYLE0
 73
     1
 44
1.0
  0
MTEXT
  5
35B
330
A
100
AcDbEntity
  8
4
 62
    92
100
AcDbMText
 10
16.09714713029999
 20
22.91745539169999
 30
0.0
 40
0.3888888889
 41
0.0
 71
     1
 72
     5
  1
b
  7
SLDTEXTSTYLE0
 73
     1
 44
1.0
  0
MTEXT
  5
35C
330
A
100
AcDbEntity
  8
4
 62
    92
100
AcDbMText
 10
17.4603690406
 20
23.69522299699999
 30
0.0
 40
0.3888888889
 41
0.0
 71
     1
 72
     5
  1
a
  7
SLDTEXTSTYLE0
 73
     1
 44
1.0
  0
MTEXT
  5
35D
330
A
100
AcDbEntity
  8
4
 62
    92
100
AcDbMText
 10
32.3258339929
 20
23.69522299699999
 30
0.0
 40
0.3888888889
 41
0.0
 71
     1
 72
     5
  1
99
  7
SLDTEXTSTYLE0
 73
     1
 44
1.0
  0
MTEXT
  5
35E
330
A
100
AcDbEntity
  8
4
 62
    92
100
AcDbMText
 10
5.3833173451
 20
17.2273917427
 30
0.0
 40
0.3888832099
 41
0.0
 71
     1
 72
     5
  1
5
  7
SLDTEXTSTYLE0
 11
0.0
 21
1.0
 31
0.0
 73
     1
 44
1.0
  0
MTEXT
  5
35F
330
A
100
AcDbEntity
  8
4
 62
    92
100
AcDbMText
 10
6.887446244299999
 20
18.0539495577
 30
0.0
 40
0.3888832099
 41
0.0
 71
     1
 72
     5
  1
16
  7
SLDTEXTSTYLE0
 73
     1
 44
1.0
  0
MTEXT
  5
360
330
A
100
AcDbEntity
  8
4
 62
    92
100
AcDbMText
 10
29.9977610534
 20
13.5974834764
 30
0.0
 40
0.3888832099
 41
0.0
 71
     3
 72
     5
  1
%%c100
  7
SLDTEXTSTYLE0
 11
0.7071067811865478
 21
-0.7071067811865478
 31
0.0
 73
     1
 44
1.0
  0
MTEXT
  5
361
330
A
100
AcDbEntity
  8
4
 62
    92
100
AcDbMText
 10
36.7608448485
 20
18.5036865417
 30
0.0
 40
0.3566666709000001
 41
0.0
 71
     1
 72
     5
  1
77
  7
SLDTEXTSTYLE0
 11
0.0
 21
1.0
 31
0.0
 73
     1
 44
1.0
  0
MTEXT
  5
362
330
A
100
AcDbEntity
  8
4
 62
    92
100
AcDbMText
 10
37.64569821629999
 20
18.5987840825
 30
0.0
 40
0.3888888889
 41
0.0
 71
     1
 72
     5
  1
81
  7
SLDTEXTSTYLE0
 11
0.0
 21
1.0
 31
0.0
 73
     1
 44
1.0
  0
MTEXT
  5
363
330
A
100
AcDbEntity
  8
4
 62
    92
100
AcDbMText
 10
33.71865827469999
 20
22.51813076559999
 30
0.0
 40
0.3566666709000001
 41
0.0
 71
     1
 72
     5
  1
12
  7
SLDTEXTSTYLE0
 73
     1
 44
1.0
  0
MTEXT
  5
364
330
A
100
AcDbEntity
  8
4
 62
    92
100
AcDbMText
 10
29.43611217139999
 20
13.0866090627
 30
0.0
 40
0.3888832099
 41
0.0
 71
     3
 72
     5
  1
120
  7
SLDTEXTSTYLE0
 11
0.7071067811865478
 21
-0.7071067811865478
 31
0.0
 73
     1
 44
1.0
  0
MTEXT
  5
365
330
A
100
AcDbEntity
  8
4
 62
    92
100
AcDbMText
 10
35.80594940989999
 20
16.3470089768
 30
0.0
 40
0.3888888889
 41
0.0
 71
     1
 72
     5
  1
90
  7
SLDTEXTSTYLE0
 11
0.0
 21
1.0
 31
0.0
 73
     1
 44
1.0
  0
MTEXT
  5
366
330
A
100
AcDbEntity
  8
4
 62
    92
100
AcDbMText
 10
13.16990084079999
 20
20.4020177951
 30
0.0
 40
0.3888832099
 41
0.0
 71
     1
 72
     5
  1
3
  7
SLDTEXTSTYLE0
 73
     1
 44
1.0
  0
MTEXT
  5
367
330
A
100
AcDbEntity
  8
4
 62
    92
100
AcDbMText
 10
11.5194322265
 20
21.1952255994
 30
0.0
 40
0.3888832099
 41
0.0
 71
     1
 72
     5
  1
30
  7
SLDTEXTSTYLE0
 73
     1
 44
1.0
  0
MTEXT
  5
368
330
A
100
AcDbEntity
  8
4
 62
    92
100
AcDbMText
 10
9.6086955935
 20
14.470949143
 30
0.0
 40
0.3888832099
 41
0.0
 71
     1
 72
     5
  1
%%c14
  7
SLDTEXTSTYLE0
 11
0.0
 21
1.0
 31
0.0
 73
     1
 44
1.0
  0
MTEXT
  5
369
330
A
100
AcDbEntity
  8
4
 62
    92
100
AcDbMText
 10
9.764209973399999
 20
15.39108577549999
 30
0.0
 40
0.2722182538
 41
0.0
 71
     1
 72
     5
  1
k6
  7
SLDTEXTSTYLE0
 11
0.0
 21
1.0
 31
0.0
 73
     1
 44
1.0
  0
MTEXT
  5
36A
330
A
100
AcDbEntity
  8
4
 62
    92
100
AcDbMText
 10
8.8309279883
 20
15.9719935223
 30
0.0
 40
0.3888832099
 41
0.0
 71
     1
 72
     5
  1
%%c80
  7
SLDTEXTSTYLE0
 11
0.0
 21
1.0
 31
0.0
 73
     1
 44
1.0
  0
MTEXT
  5
36B
330
A
100
AcDbEntity
  8
4
 62
    92
100
AcDbMText
 10
8.9864423682
 20
16.8921301548
 30
0.0
 40
0.2722182538
 41
0.0
 71
     1
 72
     5
  1
j6
  7
SLDTEXTSTYLE0
 11
0.0
 21
1.0
 31
0.0
 73
     1
 44
1.0
  0
MTEXT
  5
36C
330
A
100
AcDbEntity
  8
4
 62
    92
100
AcDbMText
 10
13.9232187798
 20
13.584127204
 30
0.0
 40
0.3888832099
 41
0.0
 71
     1
 72
     5
  1
8
  7
SLDTEXTSTYLE0
 73
     1
 44
1.0
  0
MTEXT
  5
36D
330
A
100
AcDbEntity
  8
4
 62
    92
100
AcDbMText
 10
13.5471777913
 20
12.8063629895
 30
0.0
 40
0.3888832099
 41
0.0
 71
     1
 72
     5
  1
27
  7
SLDTEXTSTYLE0
 73
     1
 44
1.0
  0
MTEXT
  5
36E
330
A
100
AcDbEntity
  8
4
 62
    92
100
AcDbMText
 10
22.68881176249999
 20
12.8063705596
 30
0.0
 40
0.3888888889
 41
0.0
 71
     1
 72
     5
  1
65
  7
SLDTEXTSTYLE0
 73
     1
 44
1.0
  0
MTEXT
  5
36F
330
A
100
AcDbEntity
  8
6
 62
    92
100
AcDbMText
 10
23.63157229949999
 20
30.1938119596
 30
0.0
 40
1.018503639399999
 41
0.0
 71
     2
 72
     5
  1
MSM100
  7
SLDTEXTSTYLE0
 73
     1
 44
1.0
  0
INSERT
  5
791
330
A
100
AcDbEntity
  8
0
  6
Continuous
100
AcDbBlockReference
 66
     1
  2
BM_E
 10
0.0
 20
0.0
 30
0.0
  0
ATTRIB
  5
793
330
791
100
AcDbEntity
  8
TITLE BLOCK
  6
Continuous
100
AcDbText
 10
35.34999999999999
 20
3.250068621953476
 30
0.0
 40
0.2021222838
  1
G. MUMM
100
AcDbAttribute
  2
GEN-TITLE-NAME{5}
 70
     0
  0
ATTRIB
  5
794
330
791
100
AcDbEntity
  8
TITLE BLOCK
  6
Continuous
100
AcDbText
 10
35.34999999999999
 20
2.750068621953476
 30
0.0
 40
0.2021222838
  1

100
AcDbAttribute
  2
GEN-TITLE-CHKM{5}
 70
     0
  0
ATTRIB
  5
795
330
791
100
AcDbEntity
  8
TITLE BLOCK
  6
Continuous
100
AcDbText
 10
35.34999999999999
 20
2.250068621953476
 30
0.0
 40
0.2021222838
  1

100
AcDbAttribute
  2
GEN-TITLE-APPM{5}
 70
     0
  0
ATTRIB
  5
796
330
791
100
AcDbEntity
  8
TITLE BLOCK
  6
Continuous
100
AcDbText
 10
32.0
 20
1.25
 30
0.0
 40
0.3
  1
SERVO MOTOR, MSM100
 41
0.8
100
AcDbAttribute
  2
GEN-TITLE-DES1{15.54}
 70
     0
  0
ATTRIB
  5
797
330
791
100
AcDbEntity
  8
TITLE BLOCK
  6
Continuous
100
AcDbText
 10
42.29999999999999
 20
2.250068621953476
 30
0.0
 40
0.2361798886203
  1
1
 41
0.8
100
AcDbAttribute
  2
GEN-TITLE-SHEET-OF{2.62}
 70
     0
  0
ATTRIB
  5
798
330
791
100
AcDbEntity
  8
TITLE BLOCK
  6
Continuous
100
AcDbText
 10
41.5
 20
2.250068621953476
 30
0.0
 40
0.2361798886203
  1
1
 41
0.8
100
AcDbAttribute
  2
GEN-TITLE-SHEET{2.62}
 70
     0
  0
ATTRIB
  5
799
330
791
100
AcDbEntity
  8
TITLE BLOCK
  6
Continuous
100
AcDbText
 10
38.4
 20
2.250068621953476
 30
0.0
 40
0.2021222838
  1

 41
0.8
100
AcDbAttribute
  2
GEN-TITLE-MAT{11.15}
 70
     0
  0
ATTRIB
  5
79A
330
791
100
AcDbEntity
  8
TITLE BLOCK
  6
Continuous
100
AcDbText
 10
38.4
 20
2.750068621953476
 30
0.0
 40
0.2021222838
  1

100
AcDbAttribute
  2
GEN-TITLE-MACH{5}
 70
     0
  0
ATTRIB
  5
79B
330
791
100
AcDbEntity
  8
TITLE BLOCK
  6
Continuous
100
AcDbText
 10
38.4
 20
3.250068621953476
 30
0.0
 40
0.2021222838
  1
70402220
100
AcDbAttribute
  2
GEN-TITLE-REF{5}
 70
     0
  0
ATTRIB
  5
79C
330
791
100
AcDbEntity
  8
TITLE BLOCK
  6
Continuous
100
AcDbText
 10
41.35
 20
2.750068621953476
 30
0.0
 40
0.2021222838
  1
10.01.03
100
AcDbAttribute
  2
GEN-TITLE-PLOT{5}
 70
     0
  0
ATTRIB
  5
79D
330
791
100
AcDbEntity
  8
TITLE BLOCK
  6
Continuous
100
AcDbText
 10
38.0
 20
1.25
 30
0.0
 40
0.3
  1
MSM100-xx-604-E2-xKA
 41
0.8
100
AcDbAttribute
  2
GEN-TITLE-NR{13.37}
 70
     0
  0
SEQEND
  5
792
330
791
100
AcDbEntity
  8
0
  6
Continuous
  0
ENDSEC
  0
SECTION
  2
OBJECTS
  0
DICTIONARY
  5
19
330
0
100
AcDbDictionary
281
     1
  3
ACAD_GROUP
350
1A
  3
ACAD_LAYOUT
350
376
  3
ACAD_MLINESTYLE
350
1B
  3
ACAD_PLOTSETTINGS
350
377
  3
ACAD_PLOTSTYLENAME
350
374
  3
AcDbVariableDictionary
350
385
  3
AcmDictionary
350
398
  3
AMG
350
37C
  3
AMGSNAPSETTINGS
350
3CB
  3
ASE_INDEX_DICTIONARY
350
4B7
  3
DWGPROPS
350
7C9
  0
DICTIONARY
  5
4BA
330
A
100
AcDbDictionary
280
     1
281
     1
  3
ACAD_INDEX
360
4BB
  0
DICTIONARY
  5
1A
102
{ACAD_REACTORS
330
19
102
}
330
19
100
AcDbDictionary
281
     1
  0
DICTIONARY
  5
376
102
{ACAD_REACTORS
330
19
102
}
330
19
100
AcDbDictionary
281
     1
  3
Layout1
350
379
  3
Model
350
378
  0
DICTIONARY
  5
1B
102
{ACAD_REACTORS
330
19
102
}
330
19
100
AcDbDictionary
281
     1
  3
STANDARD
350
1C
  0
DICTIONARY
  5
377
102
{ACAD_REACTORS
330
19
102
}
330
19
100
AcDbDictionary
281
     1
  0
ACDBDICTIONARYWDFLT
  5
374
102
{ACAD_REACTORS
330
19
102
}
330
19
100
AcDbDictionary
281
     1
  3
Normal
350
375
100
AcDbDictionaryWithDefault
340
375
  0
DICTIONARY
  5
385
102
{ACAD_REACTORS
330
19
102
}
330
19
100
AcDbDictionary
281
     1
  3
INDEXCTL
350
386
  0
DICTIONARY
  5
398
102
{ACAD_REACTORS
330
19
102
}
330
19
100
AcDbDictionary
281
     1
  3
AcmBOMDATA
350
399
  3
AcmStdDictionary
350
39E
  0
DICTIONARY
  5
37C
102
{ACAD_REACTORS
330
19
102
}
330
19
100
AcDbDictionary
281
     1
  3
AcMgSettings
350
37D
  3
AMGLAYCFG
350
3A0
  0
DICTIONARY
  5
3CB
102
{ACAD_REACTORS
330
19
102
}
330
19
100
AcDbDictionary
281
     1
  3
DIMENSION
350
3D0
  3
FEA
350
3CF
  3
HATCH (1)
350
3CC
  3
HATCH (2)
350
3CD
  3
SIMPLE WELD
350
3D1
  3
SYMBOLS
350
3CE
  0
DICTIONARY
  5
4B7
102
{ACAD_REACTORS
330
19
102
}
330
19
100
AcDbDictionary
281
     1
  3
ASEBlockHierarchyIndexRecord
350
4B9
1001
DCO15
1040
1455609932.404
  0
XRECORD
  5
7C9
102
{ACAD_REACTORS
330
19
102
}
330
19
100
AcDbXrecord
280
     1
  1
DWGPROPS COOKIE
  2

  3

  4

  6

  7

  8

  9

300
AmdtFileType=84
301
=
302
=
303
=
304
=
305
=
306
=
307
=
308
=
309
=
 40
0.0643144791666667
 41
2311942.2621914
 42
2452650.549032454
  1

 90
        1
  0
DICTIONARY
  5
4BB
102
{ACAD_REACTORS
330
4BA
102
}
330
4BA
100
AcDbDictionary
281
     1
  3
*A1
350
4BC
  0
LAYOUT
  5
379
102
{ACAD_REACTORS
330
376
102
}
330
376
100
AcDbPlotSettings
  1

  2
\\CONTROLSFS1\HP LaserJet 5Si MX
  4

  6

 40
0.0
 41
0.0
 42
0.0
 43
0.0
 44
0.0
 45
0.0
 46
0.0
 47
0.0
 48
0.0
 49
0.0
140
0.0
141
0.0
142
1.0
143
1.0
 70
   688
 72
     0
 73
     0
 74
     5
  7
monochrome.ctb
 75
    16
147
1.0
148
0.0
149
0.0
100
AcDbLayout
  1
Layout1
 70
     1
 71
     1
 10
0.0
 20
0.0
 11
12.0
 21
9.0
 12
0.0
 22
0.0
 32
0.0
 14
1.000000000000000E+20
 24
1.000000000000000E+20
 34
1.000000000000000E+20
 15
-1.000000000000000E+20
 25
-1.000000000000000E+20
 35
-1.000000000000000E+20
146
0.0
 13
0.0
 23
0.0
 33
0.0
 16
1.0
 26
0.0
 36
0.0
 17
0.0
 27
1.0
 37
0.0
 76
     0
330
B
  0
LAYOUT
  5
378
102
{ACAD_REACTORS
330
376
102
}
330
376
100
AcDbPlotSettings
  1

  2
\\Fdlfs06\Engineering - HP LaserJet 5Si MX
  4
Letter
  6

 40
7.143749713897705
 41
6.974400997161865
 42
7.14373779296875
 43
6.297088623046875
 44
215.8999938964843
 45
279.3999938964843
 46
0.0
 47
2.54
 48
0.0
 49
0.0
140
0.0
141
0.0
142
1.0
143
4.28371294115977
 70
 11956
 72
     0
 73
     1
 74
     1
  7
monochrome.ctb
 75
     0
147
0.2334423463326794
148
0.0542882098566679
149
0.0243768438821206
100
AcDbLayout
  1
Model
 70
     1
 71
     0
 10
0.0
 20
0.0
 11
12.0
 21
9.0
 12
0.0
 22
0.0
 32
0.0
 14
0.0
 24
0.0
 34
0.0
 15
0.0
 25
0.0
 35
0.0
146
0.0
 13
0.0
 23
0.0
 33
0.0
 16
1.0
 26
0.0
 36
0.0
 17
0.0
 27
1.0
 37
0.0
 76
     0
330
A
  0
MLINESTYLE
  5
1C
102
{ACAD_REACTORS
330
1B
102
}
330
1B
100
AcDbMlineStyle
  2
STANDARD
 70
     0
  3

 62
     0
 51
90.0
 52
90.0
 71
     2
 49
0.5
 62
   256
  6
BYLAYER
 49
-0.5
 62
   256
  6
BYLAYER
  0
ACDBPLACEHOLDER
  5
375
102
{ACAD_REACTORS
330
374
102
}
330
374
  0
DICTIONARYVAR
  5
386
102
{ACAD_REACTORS
330
385
102
}
330
385
100
DictionaryVariables
280
     0
  1
1
  0
ACMDATADICTIONARY
  5
399
102
{ACAD_REACTORS
330
398
102
}
330
398
100
AcDbDictionary
281
     1
  3
*A1
350
39A
100
AcmDataDictionary
  0
DICTIONARY
  5
39E
102
{ACAD_REACTORS
330
398
102
}
330
398
100
AcDbDictionary
281
     1
  3
ANSI
350
39F
  0
DICTIONARY
  5
37D
102
{ACAD_REACTORS
330
37C
102
}
330
37C
100
AcDbDictionary
281
     1
  3
DWGSETTINGS
350
37E
  3
TRANSSETTINGS
350
37F
  0
ACAMGFILTERDAT
  5
3D0
102
{ACAD_REACTORS
330
3CB
102
}
330
3CB
100
AcAmgFilterDat
 70
    15
  1
DIMENSION,AMDT_*_DIM
  2
*
  3
*
  4
*
  5
*
290
     1
  0
ACAMGFILTERDAT
  5
3CF
102
{ACAD_REACTORS
330
3CB
102
}
330
3CB
100
AcAmgFilterDat
 70
    15
  1
*
  2
AM_FEA-AM_*
  3
*
  4
*
  5
*
290
     1
  0
ACAMGFILTERDAT
  5
3CC
102
{ACAD_REACTORS
330
3CB
102
}
330
3CB
100
AcAmgFilterDat
 70
    15
  1
HATCH
  2
*
  3
*
  4
*
  5
*
290
     1
  0
ACAMGFILTERDAT
  5
3CD
102
{ACAD_REACTORS
330
3CB
102
}
330
3CB
100
AcAmgFilterDat
 70
    15
  1
LINE
  2
8,8N,*-8,*-8N,AM_8,AM_8N,*-AM_8,*-AM_8N
  3
*
  4
*
  5
INSERT,STDPART2D
290
     1
  0
ACAMGFILTERDAT
  5
3D1
102
{ACAD_REACTORS
330
3CB
102
}
330
3CB
100
AcAmgFilterDat
 70
    15
  1
ARC
  2
AM_5
  3
*
  4
2
  5
INSERT
290
     0
  0
ACAMGFILTERDAT
  5
3CE
102
{ACAD_REACTORS
330
3CB
102
}
330
3CB
100
AcAmgFilterDat
 70
    15
  1
ACMFCFRAME,ACMDATUMTARGET,ACMDATUMID,ACMWELDSYM,ACMSURFSYM,ACMFEATID,ACMPARTREF,ACMBALLOON,AMDTEDGESYM
  2
*
  3
*
  4
*
  5
*
290
     1
  0
XRECORD
  5
4B9
102
{ACAD_REACTORS
330
4B7
102
}
330
4B7
100
AcDbXrecord
280
     1
330
791
  0
LAYER_INDEX
  5
4BC
102
{ACAD_REACTORS
330
4BB
102
}
330
4BB
100
AcDbIndex
 40
2452655.29872537
100
AcDbLayerIndex
  8
0
360
4BD
 90
        1
  8
DEFPOINTS
360
4BE
 90
        0
  8
1
360
4BF
 90
       38
  8
5
360
4C0
 90
        0
  8
6
360
4C1
 90
       35
  8
11
360
4C2
 90
      429
  8
2
360
4C3
 90
        0
  8
4
360
4C4
 90
      287
  8
90
360
4C5
 90
        0
  8
BORDER
360
6A6
 90
        0
  8
TITLE BLOCK
360
6A7
 90
        0
  0
ACMDATAENTRYBLOCK
  5
39A
102
{ACAD_REACTORS
330
399
102
}
330
399
100
AcmDataEntry
100
AcmDataEntryBlock
  0
IDBUFFER
  5
4BD
330
0
100
AcDbIdBuffer
330
791
  0
IDBUFFER
  5
4BE
330
0
100
AcDbIdBuffer
  0
IDBUFFER
  5
4BF
330
0
100
AcDbIdBuffer
330
30
330
2E2
330
32
330
33
330
34
330
35
330
36
330
37
330
38
330
39
330
3A
330
3B
330
182
330
183
330
184
330
185
330
186
330
187
330
188
330
189
330
18A
330
18B
330
18C
330
18D
330
274
330
275
330
276
330
277
330
291
330
292
330
293
330
294
330
295
330
296
330
29C
330
2DF
330
2E0
330
2E1
  0
IDBUFFER
  5
4C0
330
0
100
AcDbIdBuffer
  0
IDBUFFER
  5
4C1
330
0
100
AcDbIdBuffer
330
327
330
328
330
329
330
36F
330
357
330
353
330
32D
330
32E
330
32F
330
330
330
331
330
332
330
333
330
334
330
335
330
336
330
337
330
338
330
339
330
33A
330
33B
330
33C
330
33D
330
33E
330
33F
330
340
330
341
330
342
330
343
330
344
330
345
330
346
330
347
330
348
330
352
  0
IDBUFFER
  5
4C2
330
0
100
AcDbIdBuffer
330
3C
330
3D
330
3E
330
3F
330
40
330
41
330
42
330
43
330
44
330
45
330
46
330
47
330
48
330
49
330
55
330
56
330
57
330
58
330
59
330
5A
330
5B
330
5C
330
5D
330
5E
330
5F
330
60
330
61
330
62
330
63
330
64
330
65
330
66
330
67
330
68
330
69
330
6A
330
6B
330
6C
330
6D
330
6E
330
6F
330
70
330
71
330
72
330
73
330
74
330
75
330
76
330
77
330
78
330
79
330
7A
330
7B
330
7C
330
7D
330
7E
330
7F
330
80
330
81
330
82
330
83
330
84
330
85
330
86
330
87
330
88
330
89
330
8A
330
8B
330
8C
330
8D
330
8E
330
8F
330
90
330
91
330
92
330
93
330
94
330
95
330
96
330
97
330
98
330
99
330
9A
330
9B
330
9C
330
9D
330
9E
330
9F
330
A0
330
A1
330
A2
330
A3
330
A4
330
A5
330
A6
330
A7
330
A8
330
A9
330
AA
330
AB
330
AC
330
AD
330
AE
330
AF
330
B0
330
B1
330
B2
330
B3
330
B4
330
B5
330
B6
330
B7
330
B8
330
B9
330
BA
330
BB
330
BC
330
D8
330
D9
330
DA
330
DB
330
DC
330
DD
330
DE
330
DF
330
E0
330
E1
330
E2
330
E3
330
E4
330
E5
330
E6
330
E7
330
E8
330
E9
330
EA
330
EB
330
EC
330
ED
330
EE
330
EF
330
F0
330
F1
330
F2
330
F3
330
F4
330
F5
330
F6
330
F7
330
F8
330
F9
330
FA
330
FB
330
FC
330
FD
330
FE
330
FF
330
100
330
101
330
102
330
103
330
104
330
105
330
106
330
107
330
108
330
109
330
10A
330
10B
330
10C
330
10D
330
10E
330
10F
330
110
330
111
330
112
330
113
330
114
330
115
330
116
330
117
330
118
330
119
330
11A
330
11B
330
11C
330
11D
330
11E
330
11F
330
120
330
121
330
122
330
137
330
138
330
139
330
13A
330
13B
330
1B7
330
1B8
330
1B9
330
1BA
330
1BB
330
1BC
330
1BD
330
1BE
330
1BF
330
1C0
330
1C1
330
1C2
330
1C3
330
1C4
330
1C5
330
1C6
330
1C7
330
1C8
330
1C9
330
1CA
330
1CB
330
1CC
330
1CD
330
1CE
330
1CF
330
1D0
330
1D1
330
1D2
330
1D3
330
1D4
330
1D5
330
1D6
330
1D7
330
1D8
330
1D9
330
1DA
330
1DB
330
1DC
330
1DD
330
1DE
330
1DF
330
1F4
330
1F5
330
1F6
330
1F7
330
1F8
330
1F9
330
1FA
330
1FB
330
1FC
330
1FD
330
1FE
330
1FF
330
200
330
201
330
202
330
203
330
204
330
205
330
206
330
207
330
208
330
209
330
20A
330
20B
330
20C
330
20D
330
20E
330
20F
330
210
330
211
330
212
330
213
330
214
330
215
330
216
330
217
330
218
330
219
330
21A
330
21B
330
21C
330
21D
330
21E
330
21F
330
220
330
221
330
222
330
223
330
224
330
225
330
226
330
227
330
228
330
229
330
22A
330
22B
330
22C
330
22D
330
22E
330
22F
330
230
330
231
330
232
330
233
330
234
330
235
330
236
330
237
330
238
330
239
330
23A
330
23B
330
23C
330
23D
330
23E
330
23F
330
240
330
241
330
242
330
243
330
244
330
245
330
246
330
247
330
248
330
249
330
24A
330
24B
330
24C
330
24D
330
24E
330
24F
330
250
330
251
330
252
330
253
330
254
330
255
330
256
330
257
330
258
330
259
330
25A
330
25B
330
25C
330
25D
330
25E
330
25F
330
260
330
261
330
262
330
263
330
264
330
265
330
266
330
267
330
268
330
269
330
26A
330
26B
330
26C
330
26D
330
26E
330
26F
330
270
330
271
330
272
330
273
330
278
330
279
330
27A
330
27B
330
27C
330
2A6
330
2A7
330
2A8
330
2A9
330
2AA
330
2AB
330
2AC
330
2AD
330
2AE
330
2AF
330
2B0
330
2B1
330
2B2
330
2B3
330
2B4
330
2B5
330
2B6
330
2B7
330
2B8
330
2B9
330
2BA
330
2BB
330
2BC
330
2BD
330
2BE
330
2BF
330
2C0
330
2C1
330
2C2
330
2C3
330
2C4
330
2C5
330
2C6
330
2C7
330
2C8
330
2C9
330
2CA
330
2CB
330
2CC
330
2CD
330
2CE
330
2CF
330
2D0
330
2D1
330
2D2
330
2D3
330
2D4
330
2D5
330
2D6
330
2D7
330
2D8
330
2D9
330
2DA
330
2DB
330
2DC
330
2DD
330
2DE
  0
IDBUFFER
  5
4C3
330
0
100
AcDbIdBuffer
  0
IDBUFFER
  5
4C4
330
0
100
AcDbIdBuffer
330
4A
330
4B
330
4C
330
4D
330
4E
330
4F
330
50
330
51
330
52
330
53
330
54
330
BD
330
BE
330
BF
330
C0
330
C1
330
C2
330
C3
330
C4
330
C5
330
C6
330
C7
330
C8
330
C9
330
CA
330
CB
330
CC
330
CD
330
CE
330
CF
330
D0
330
D1
330
D2
330
D3
330
D4
330
D5
330
D6
330
D7
330
123
330
124
330
125
330
126
330
127
330
128
330
129
330
12A
330
12B
330
12C
330
12D
330
12E
330
12F
330
130
330
131
330
132
330
133
330
134
330
135
330
136
330
13C
330
13D
330
13E
330
13F
330
140
330
141
330
142
330
143
330
144
330
145
330
146
330
147
330
148
330
149
330
14A
330
14B
330
14C
330
14D
330
14E
330
14F
330
150
330
151
330
152
330
153
330
154
330
155
330
156
330
157
330
158
330
159
330
15A
330
15B
330
15C
330
15D
330
15E
330
15F
330
160
330
161
330
162
330
163
330
164
330
165
330
166
330
167
330
168
330
169
330
16A
330
16B
330
16C
330
16D
330
16E
330
16F
330
170
330
171
330
172
330
173
330
174
330
175
330
176
330
177
330
178
330
179
330
17A
330
17B
330
17C
330
17D
330
17E
330
17F
330
180
330
181
330
18E
330
18F
330
190
330
191
330
192
330
193
330
194
330
195
330
196
330
197
330
198
330
199
330
19A
330
19B
330
19C
330
19D
330
19E
330
19F
330
1A0
330
1A1
330
1A2
330
1A3
330
1A4
330
1A5
330
1A6
330
1A7
330
1A8
330
1A9
330
1AA
330
1AB
330
1AC
330
1AD
330
1AE
330
1AF
330
1B0
330
1B1
330
1B2
330
1B3
330
1B4
330
1B5
330
1B6
330
1E0
330
1E1
330
1E2
330
1E3
330
1E4
330
1E5
330
1E6
330
1E7
330
1E8
330
1E9
330
1EA
330
1EB
330
1EC
330
1ED
330
1EE
330
1EF
330
1F0
330
1F1
330
1F2
330
1F3
330
27D
330
27E
330
27F
330
280
330
281
330
282
330
283
330
284
330
285
330
2E3
330
2E4
330
2E5
330
2E6
330
2E7
330
2E8
330
2E9
330
2EA
330
2EB
330
2EC
330
2ED
330
2EE
330
2EF
330
2F0
330
2F1
330
2F2
330
2F3
330
2F4
330
2F5
330
2F6
330
2F7
330
2F8
330
2F9
330
2FA
330
2FB
330
2FC
330
2FD
330
2FE
330
2FF
330
300
330
301
330
302
330
303
330
304
330
305
330
306
330
307
330
308
330
309
330
30A
330
30B
330
30C
330
30D
330
30E
330
30F
330
310
330
311
330
312
330
313
330
314
330
315
330
316
330
317
330
318
330
319
330
31A
330
31B
330
31C
330
31D
330
31E
330
31F
330
320
330
321
330
322
330
323
330
324
330
325
330
359
330
35A
330
35B
330
35C
330
35D
330
35E
330
35F
330
360
330
361
330
362
330
363
330
364
330
365
330
366
330
367
330
368
330
369
330
36A
330
36B
330
36C
330
36D
330
36E
  0
IDBUFFER
  5
4C5
330
0
100
AcDbIdBuffer
  0
IDBUFFER
  5
6A6
330
0
100
AcDbIdBuffer
  0
IDBUFFER
  5
6A7
330
0
100
AcDbIdBuffer
  0
ENDSEC
  0
EOF
