  0
SECTION
  2
HEADER
  9
$ACADVER
  1
AC1015
  9
$ACADMAINTVER
 70
    10
  9
$DWGCODEPAGE
  3
ANSI_1252
  9
$INSBASE
 10
0.0
 20
0.0
 30
0.0
  9
$EXTMIN
 10
0.0
 20
0.0
 30
0.0
  9
$EXTMAX
 10
44.0
 20
34.0
 30
0.0
  9
$LIMMIN
 10
0.0
 20
0.0
  9
$LIMMAX
 10
0.0
 20
0.0
  9
$ORTHOMODE
 70
     0
  9
$REGENMODE
 70
     1
  9
$FILLMODE
 70
     1
  9
$QTEXTMODE
 70
     0
  9
$MIRRTEXT
 70
     1
  9
$LTSCALE
 40
1.0
  9
$ATTMODE
 70
     1
  9
$TEXTSIZE
 40
0.0
  9
$TRACEWID
 40
0.05
  9
$TEXTSTYLE
  7
STANDARD
  9
$CLAYER
  8
0
  9
$CELTYPE
  6
CONTINUOUS
  9
$CECOLOR
 62
   256
  9
$CELTSCALE
 40
1.0
  9
$DISPSILH
 70
     0
  9
$DIMSCALE
 40
1.0
  9
$DIMASZ
 40
0.18
  9
$DIMEXO
 40
0.0393700787
  9
$DIMDLI
 40
0.38
  9
$DIMRND
 40
0.0
  9
$DIMDLE
 40
0.0393700787
  9
$DIMEXE
 40
0.18
  9
$DIMTP
 40
0.0
  9
$DIMTM
 40
0.0
  9
$DIMTXT
 40
0.18
  9
$DIMCEN
 40
0.09
  9
$DIMTSZ
 40
0.0
  9
$DIMTOL
 70
     0
  9
$DIMLIM
 70
     0
  9
$DIMTIH
 70
     1
  9
$DIMTOH
 70
     1
  9
$DIMSE1
 70
     0
  9
$DIMSE2
 70
     0
  9
$DIMTAD
 70
     1
  9
$DIMZIN
 70
     1
  9
$DIMBLK
  1

  9
$DIMASO
 70
     1
  9
$DIMSHO
 70
     1
  9
$DIMPOST
  1

  9
$DIMAPOST
  1

  9
$DIMALT
 70
     0
  9
$DIMALTD
 70
     2
  9
$DIMALTF
 40
25.4
  9
$DIMLFAC
 40
17.0
  9
$DIMTOFL
 70
     0
  9
$DIMTVP
 40
0.0
  9
$DIMTIX
 70
     0
  9
$DIMSOXD
 70
     0
  9
$DIMSAH
 70
     0
  9
$DIMBLK1
  1

  9
$DIMBLK2
  1

  9
$DIMSTYLE
  2
STANDARD
  9
$DIMCLRD
 70
     0
  9
$DIMCLRE
 70
     0
  9
$DIMCLRT
 70
     0
  9
$DIMTFAC
 40
1.0
  9
$DIMGAP
 40
0.0393700787
  9
$DIMJUST
 70
     0
  9
$DIMSD1
 70
     0
  9
$DIMSD2
 70
     0
  9
$DIMTOLJ
 70
     1
  9
$DIMTZIN
 70
     1
  9
$DIMALTZ
 70
     0
  9
$DIMALTTZ
 70
     0
  9
$DIMUPT
 70
     0
  9
$DIMDEC
 70
     4
  9
$DIMTDEC
 70
     4
  9
$DIMALTU
 70
     2
  9
$DIMALTTD
 70
     2
  9
$DIMTXSTY
  7
STANDARD
  9
$DIMAUNIT
 70
     0
  9
$DIMADEC
 70
     0
  9
$DIMALTRND
 40
0.0
  9
$DIMAZIN
 70
     0
  9
$DIMDSEP
 70
    46
  9
$DIMATFIT
 70
     3
  9
$DIMFRAC
 70
     0
  9
$DIMLDRBLK
  1

  9
$DIMLUNIT
 70
     2
  9
$DIMLWD
 70
    -2
  9
$DIMLWE
 70
    -2
  9
$DIMTMOVE
 70
     0
  9
$LUNITS
 70
     2
  9
$LUPREC
 70
     2
  9
$SKETCHINC
 40
0.1
  9
$FILLETRAD
 40
0.0
  9
$AUNITS
 70
     0
  9
$AUPREC
 70
     0
  9
$MENU
  1
acad
  9
$ELEVATION
 40
0.0
  9
$PELEVATION
 40
0.0
  9
$THICKNESS
 40
0.0
  9
$LIMCHECK
 70
     0
  9
$CHAMFERA
 40
0.0
  9
$CHAMFERB
 40
0.0
  9
$CHAMFERC
 40
0.0
  9
$CHAMFERD
 40
0.0
  9
$SKPOLY
 70
     0
  9
$TDCREATE
 40
2311942.580326736
  9
$TDUCREATE
 40
2311942.830326735
  9
$TDUPDATE
 40
2452655.299066493
  9
$TDUUPDATE
 40
2452655.549066493
  9
$TDINDWG
 40
0.0161220255
  9
$TDUSRTIMER
 40
0.0161206366
  9
$USRTIMER
 70
     1
  9
$ANGBASE
 50
0.0
  9
$ANGDIR
 70
     0
  9
$PDMODE
 70
     0
  9
$PDSIZE
 40
-1.0
  9
$PLINEWID
 40
0.0
  9
$SPLFRAME
 70
     0
  9
$SPLINETYPE
 70
     6
  9
$SPLINESEGS
 70
     8
  9
$HANDSEED
  5
4C6
  9
$SURFTAB1
 70
     6
  9
$SURFTAB2
 70
     6
  9
$SURFTYPE
 70
     6
  9
$SURFU
 70
     6
  9
$SURFV
 70
     6
  9
$UCSBASE
  2

  9
$UCSNAME
  2

  9
$UCSORG
 10
0.0
 20
0.0
 30
0.0
  9
$UCSXDIR
 10
1.0
 20
0.0
 30
0.0
  9
$UCSYDIR
 10
0.0
 20
1.0
 30
0.0
  9
$UCSORTHOREF
  2

  9
$UCSORTHOVIEW
 70
     0
  9
$UCSORGTOP
 10
0.0
 20
0.0
 30
0.0
  9
$UCSORGBOTTOM
 10
0.0
 20
0.0
 30
0.0
  9
$UCSORGLEFT
 10
0.0
 20
0.0
 30
0.0
  9
$UCSORGRIGHT
 10
0.0
 20
0.0
 30
0.0
  9
$UCSORGFRONT
 10
0.0
 20
0.0
 30
0.0
  9
$UCSORGBACK
 10
0.0
 20
0.0
 30
0.0
  9
$PUCSBASE
  2

  9
$PUCSNAME
  2

  9
$PUCSORG
 10
0.0
 20
0.0
 30
0.0
  9
$PUCSXDIR
 10
1.0
 20
0.0
 30
0.0
  9
$PUCSYDIR
 10
0.0
 20
1.0
 30
0.0
  9
$PUCSORTHOREF
  2

  9
$PUCSORTHOVIEW
 70
     0
  9
$PUCSORGTOP
 10
0.0
 20
0.0
 30
0.0
  9
$PUCSORGBOTTOM
 10
0.0
 20
0.0
 30
0.0
  9
$PUCSORGLEFT
 10
0.0
 20
0.0
 30
0.0
  9
$PUCSORGRIGHT
 10
0.0
 20
0.0
 30
0.0
  9
$PUCSORGFRONT
 10
0.0
 20
0.0
 30
0.0
  9
$PUCSORGBACK
 10
0.0
 20
0.0
 30
0.0
  9
$USERI1
 70
     0
  9
$USERI2
 70
     0
  9
$USERI3
 70
     0
  9
$USERI4
 70
     0
  9
$USERI5
 70
     0
  9
$USERR1
 40
0.0
  9
$USERR2
 40
0.0
  9
$USERR3
 40
0.0
  9
$USERR4
 40
0.0
  9
$USERR5
 40
0.0
  9
$WORLDVIEW
 70
     1
  9
$SHADEDGE
 70
     3
  9
$SHADEDIF
 70
    70
  9
$TILEMODE
 70
     1
  9
$MAXACTVP
 70
    16
  9
$PINSBASE
 10
0.0
 20
0.0
 30
0.0
  9
$PLIMCHECK
 70
     0
  9
$PEXTMIN
 10
1.000000000000000E+20
 20
1.000000000000000E+20
 30
1.000000000000000E+20
  9
$PEXTMAX
 10
-1.000000000000000E+20
 20
-1.000000000000000E+20
 30
-1.000000000000000E+20
  9
$PLIMMIN
 10
0.0
 20
0.0
  9
$PLIMMAX
 10
12.0
 20
9.0
  9
$UNITMODE
 70
     0
  9
$VISRETAIN
 70
     0
  9
$PLINEGEN
 70
     1
  9
$PSLTSCALE
 70
     1
  9
$TREEDEPTH
 70
  3020
  9
$CMLSTYLE
  2
STANDARD
  9
$CMLJUST
 70
     0
  9
$CMLSCALE
 40
1.0
  9
$PROXYGRAPHICS
 70
     1
  9
$MEASUREMENT
 70
     0
  9
$CELWEIGHT
370
    -1
  9
$ENDCAPS
280
     0
  9
$JOINSTYLE
280
     0
  9
$LWDISPLAY
290
     0
  9
$INSUNITS
 70
     0
  9
$HYPERLINKBASE
  1

  9
$STYLESHEET
  1
monochrome.ctb
  9
$XEDIT
290
     1
  9
$CEPSNTYPE
380
     0
  9
$PSTYLEMODE
290
     1
  9
$FINGERPRINTGUID
  2
{AB72CBE7-0961-4973-A505-22B12F8771F0}
  9
$VERSIONGUID
  2
{A3F2BC5B-1F8D-494A-AA0B-8B52AC71E96F}
  9
$EXTNAMES
290
     1
  9
$PSVPSCALE
 40
0.0
  9
$OLESTARTUP
290
     0
  0
ENDSEC
  0
SECTION
  2
CLASSES
  0
CLASS
  1
LWPOLYLINE
  2
AcDbPolyline
  3
AutoCAD 2000
 90
    32768
280
     0
281
     1
  0
CLASS
  1
IMAGE
  2
AcDbRasterImage
  3
ISM
 90
    32895
280
     0
281
     1
  0
CLASS
  1
OLE2FRAME
  2
AcDbOle2Frame
  3
AutoCAD 2000
 90
    32768
280
     0
281
     1
  0
CLASS
  1
HATCH
  2
AcDbHatch
  3
AutoCAD 2000
 90
    32768
280
     0
281
     1
  0
CLASS
  1
DICTIONARYVAR
  2
AcDbDictionaryVar
  3
AutoCAD 2000
 90
        0
280
     0
281
     0
  0
CLASS
  1
RASTERVARIABLES
  2
AcDbRasterVariables
  3
ISM
 90
    32768
280
     0
281
     0
  0
CLASS
  1
IMAGEDEF
  2
AcDbRasterImageDef
  3
ISM
 90
    32768
280
     0
281
     0
  0
CLASS
  1
IMAGEDEF_REACTOR
  2
AcDbRasterImageDefReactor
  3
ISM
 90
    32769
280
     0
281
     0
  0
CLASS
  1
IDBUFFER
  2
AcDbIdBuffer
  3
AutoCAD 2000
 90
        0
280
     0
281
     0
  0
CLASS
  1
SPATIAL_FILTER
  2
AcDbSpatialFilter
  3
AutoCAD 2000
 90
    32768
280
     0
281
     0
  0
CLASS
  1
XRECORD
  2
AcDbXrecord
  3
AutoCAD 2000
 90
    32768
280
     0
281
     0
  0
CLASS
  1
SORTENTSTABLE
  2
AcDbSortentsTable
  3
AutoCAD 2000
 90
    32768
280
     0
281
     0
  0
CLASS
  1
LAYER_INDEX
  2
AcDbLayerIndex
  3
AutoCAD 2000
 90
        0
280
     0
281
     0
  0
CLASS
  1
SPATIAL_INDEX
  2
AcDbSpatialIndex
  3
AutoCAD 2000
 90
    32768
280
     0
281
     0
  0
CLASS
  1
OBJECT_PTR
  2
CAseDLPNTableRecord
  3
ASE-LPNTableRecord
 90
    32769
280
     0
281
     0
  0
CLASS
  1
LAYOUT
  2
AcDbLayout
  3
AutoCAD 2000
 90
        0
280
     0
281
     0
  0
CLASS
  1
PLOTSETTINGS
  2
AcDbPlotSettings
  3
AutoCAD 2000
 90
    32768
280
     0
281
     0
  0
CLASS
  1
ACDBDICTIONARYWDFLT
  2
AcDbDictionaryWithDefault
  3
AutoCAD 2000
 90
        0
280
     0
281
     0
  0
CLASS
  1
ACDBPLACEHOLDER
  2
AcDbPlaceHolder
  3
AutoCAD 2000
 90
        0
280
     0
281
     0
  0
CLASS
  1
VBA_PROJECT
  2
AcDbVbaProject
  3
acadvba
 90
    32768
280
     0
281
     0
  0
CLASS
  1
WIPEOUT
  2
AcDbWipeout
  3
WipeOut|AutoCAD Express Tool|expresstools@autodesk.com
 90
    32768
280
     0
281
     1
  0
CLASS
  1
WIPEOUTVARIABLES
  2
AcDbWipeoutVariables
  3
WipeOut|AutoCAD Express Tool|expresstools@autodesk.com
 90
    32768
280
     0
281
     0
  0
CLASS
  1
RTEXT
  2
RText
  3
RText|AutoCAD Express Tool|expresstools@autodesk.com
 90
    32768
280
     0
281
     1
  0
CLASS
  1
ARCALIGNEDTEXT
  2
AcDbArcAlignedText
  3
ATEXT|AutoCAD Express Tool|expresstools@autodesk.com
 90
    32768
280
     0
281
     1
  0
CLASS
  1
AMGSETTINGSOBJ
  2
AmgSettingsObj
  3
"AcadM|Product Description: AutoCAD Mechanical 2000|Company: Autodesk"
 90
        0
280
     0
281
     0
  0
CLASS
  1
ACME_DOCUMENT
  2
AcMeDbDoc
  3
AcMeServices
 90
        0
280
     0
281
     0
  0
CLASS
  1
ACMESCOPE
  2
AcMeScope
  3
AcMeServices
 90
        0
280
     0
281
     0
  0
CLASS
  1
ACMECOMMANDHISTORY
  2
AcMeCommandHistory
  3
AcMeServices
 90
        0
280
     0
281
     0
  0
CLASS
  1
ACIMSYSVARMAN
  2
AcImSysVarManager
  3
AcMeServices
 90
        0
280
     0
281
     0
  0
CLASS
  1
ACIMREALSYSVAR
  2
AcImRealSysVar
  3
AcMeServices
 90
        0
280
     0
281
     0
  0
CLASS
  1
ACIMINTSYSVAR
  2
AcImIntSysVar
  3
AcMeServices
 90
        0
280
     0
281
     0
  0
CLASS
  1
ACMEDRAWINGMAN
  2
AcMeDrawingMan
  3
AcMeServices
 90
        0
280
     0
281
     0
  0
CLASS
  1
ACMEVIEW
  2
AcMeView
  3
AcMeServices
 90
        0
280
     0
281
     0
  0
CLASS
  1
ACDBENTITYCACHE
  2
AcMeEntityCache
  3
AcMeServices
 90
        0
280
     0
281
     0
  0
CLASS
  1
GSMANAGER
  2
AcMeGSManager
  3
AcMeServices
 90
        0
280
     0
281
     0
  0
CLASS
  1
AmdtInternalReactor
  2
AmdtInternalReactor
  3
AcMeServices
 90
        0
280
     0
281
     0
  0
CLASS
  1
ACMESTATEMGR
  2
AcMeStateMgr
  3
AcMeServices
 90
        0
280
     0
281
     0
  0
CLASS
  1
ACGREFMASTER
  2
AcGrefMaster
  3
AcAttribServices
 90
        0
280
     0
281
     0
  0
CLASS
  1
ACME_DATABASE
  2
AcMeDbDatabase
  3
AcMeServices
 90
        0
280
     0
281
     0
  0
CLASS
  1
ACRFINSADJUSTERMGR
  2
AcRfInsAdjusterMgr
  3
AcMeServices
 90
        0
280
     0
281
     0
  0
CLASS
  1
ACGREFMASTER
  2
AcGrefacadMaster
  3
AcGrefServices
 90
        0
280
     0
281
     0
  0
CLASS
  1
AMIMASTER
  2
AmiMaster
  3
AmiServices
 90
        0
280
     0
281
     0
  0
CLASS
  1
ACMDATADICTIONARY
  2
AcmDataDictionary
  3
"AcmSymBB|Product Description: AutoCAD Mechanical 2000|Company: Autodesk"
 90
        0
280
     0
281
     0
  0
CLASS
  1
ACMDATAENTRYBLOCK
  2
AcmDataEntryBlock
  3
"AcmSymBB|Product Description: AutoCAD Mechanical 2000|Company: Autodesk"
 90
        0
280
     0
281
     0
  0
CLASS
  1
ACIMSTRSYSVAR
  2
AcImStrSysVar
  3
AcMeServices
 90
        0
280
     0
281
     0
  0
CLASS
  1
ACMSTANDARDANSI
  2
AcmStandardANSI
  3
"Amdt_StdImp|Product Description: AutoCAD Mechanical 2000|Company: Autodesk"
 90
        0
280
     0
281
     0
  0
CLASS
  1
AMGOBJPROPCFG
  2
AmgObjPropCfg
  3
"AmgLay|Product Description: AutoCAD Mechanical 2000|Company: Autodesk"
 90
        1
280
     0
281
     0
  0
CLASS
  1
ACMSURFSTANDARDANSI
  2
AcmSurfTextStdANSI
  3
"Amdt_StdImp|Product Description: AutoCAD Mechanical 2000|Company: Autodesk"
 90
        0
280
     0
281
     0
  0
CLASS
  1
ACMFCFSTANDARDANSI
  2
AcmFCFStdANSI
  3
"Amdt_StdImp|Product Description: AutoCAD Mechanical 2000|Company: Autodesk"
 90
        0
280
     0
281
     0
  0
CLASS
  1
ACMWELDSTANDARDANSI
  2
AcmWeldingStdANSI
  3
"Amdt_StdImp|Product Description: AutoCAD Mechanical 2000|Company: Autodesk"
 90
        0
280
     0
281
     0
  0
CLASS
  1
ACMIDSTANDARDANSI
  2
AcmIdStdANSI
  3
"Amdt_StdImp|Product Description: AutoCAD Mechanical 2000|Company: Autodesk"
 90
        0
280
     0
281
     0
  0
CLASS
  1
ACMDATUMSTANDARDANSI
  2
AcmDatumStdANSI
  3
"Amdt_StdImp|Product Description: AutoCAD Mechanical 2000|Company: Autodesk"
 90
        0
280
     0
281
     0
  0
CLASS
  1
ACMBOMSTANDARDANSI
  2
AcmBOMStdANSI
  3
"Amdt_StdImp|Product Description: AutoCAD Mechanical 2000|Company: Autodesk"
 90
        0
280
     0
281
     0
  0
CLASS
  1
ACMDETAILSTANDARDANSI
  2
AmdtDetailSymStdANSI
  3
"Amdt_StdImp|Product Description: AutoCAD Mechanical 2000|Company: Autodesk"
 90
        0
280
     0
281
     0
  0
CLASS
  1
ACMSECTIONSTANDARDANSI
  2
AmdtSectionSymStdANSI
  3
"Amdt_StdImp|Product Description: AutoCAD Mechanical 2000|Company: Autodesk"
 90
        0
280
     0
281
     0
  0
CLASS
  1
ACMCENTERLINESTANDARDANSI
  2
AmdtCenterLineStdANSI
  3
"Amdt_StdImp|Product Description: AutoCAD Mechanical 2000|Company: Autodesk"
 90
        0
280
     0
281
     0
  0
CLASS
  1
ACMThreadLineSTANDARDANSI
  2
AmdtThreadLineStdANSI
  3
"Amdt_StdImp|Product Description: AutoCAD Mechanical 2000|Company: Autodesk"
 90
        0
280
     0
281
     0
  0
CLASS
  1
"AcAmgLayStd"
  2
AcAmgLayStd
  3
"AcAmgLayStd|Product Description: AutoCAD Mechanical 2000|Company: Autodesk"
 90
        0
280
     0
281
     0
  0
CLASS
  1
"AcAmgDimStd"
  2
AcAmgDimStd
  3
"AcAmgDimStd|Product Description: AutoCAD Mechanical 2000|Company: Autodesk"
 90
        0
280
     0
281
     0
  0
CLASS
  1
AcAmgTitleStd
  2
AcAmgTitleStd
  3
"TITLEAPP"
 90
        0
280
     0
281
     0
  0
CLASS
  1
ACAMGFILTERDAT
  2
AcAmgFilterDat
  3
"AcadM|Product Description: AutoCAD Mechanical 2000|Company: Autodesk"
 90
        0
280
     0
281
     0
  0
CLASS
  1
AMDTFORMULAUPDATEDISPATCHER
  2
AmdtFormulaUpdateDispatcher
  3
AcMeServices
 90
        0
280
     0
281
     0
  0
ENDSEC
  0
SECTION
  2
TABLES
  0
TABLE
  2
VPORT
  5
7
330
0
100
AcDbSymbolTable
 70
     3
  0
VPORT
  5
4C5
330
7
100
AcDbSymbolTableRecord
100
AcDbViewportTableRecord
  2
*Active
 70
     0
 10
0.0
 20
0.0
 11
1.0
 21
1.0
 12
22.00016693275431
 22
16.99971364492073
 13
0.0
 23
0.0
 14
1.0
 24
1.0
 15
0.0
 25
0.0
 16
0.0
 26
0.0
 36
1.0
 17
0.0
 27
0.0
 37
0.0
 40
34.3744072346055
 41
1.666666666666666
 42
50.0
 43
0.0
 44
0.0
 50
0.0
 51
0.0
 71
     0
 72
  2000
 73
     1
 74
     1
 75
     0
 76
     0
 77
     0
 78
     0
281
     0
 65
     1
110
0.0
120
0.0
130
0.0
111
1.0
121
0.0
131
0.0
112
0.0
122
1.0
132
0.0
 79
     0
146
0.0
  0
ENDTAB
  0
TABLE
  2
LTYPE
  5
4
330
0
100
AcDbSymbolTable
 70
    23
  0
LTYPE
  5
11
330
4
100
AcDbSymbolTableRecord
100
AcDbLinetypeTableRecord
  2
BYBLOCK
 70
     0
  3

 72
    65
 73
     0
 40
0.0
  0
LTYPE
  5
12
330
4
100
AcDbSymbolTableRecord
100
AcDbLinetypeTableRecord
  2
BYLAYER
 70
     0
  3

 72
    65
 73
     0
 40
0.0
  0
LTYPE
  5
13
330
4
100
AcDbSymbolTableRecord
100
AcDbLinetypeTableRecord
  2
CONTINUOUS
 70
     0
  3
Solid line
 72
    65
 73
     0
 40
0.0
  0
LTYPE
  5
1E
330
4
100
AcDbSymbolTableRecord
100
AcDbLinetypeTableRecord
  2
HIDDEN
 70
     0
  3
Hidden __ __ __ __ __ __ __ __ __ __ __ __ __ __
 72
    65
 73
     2
 40
0.075
 49
0.05
 74
     0
 49
-0.025
 74
     0
  0
LTYPE
  5
1F
330
4
100
AcDbSymbolTableRecord
100
AcDbLinetypeTableRecord
  2
PHANTOM
 70
     0
  3
Phantom ______  __  __  ______  __  __  ______
 72
    65
 73
     6
 40
0.5
 49
0.25
 74
     0
 49
-0.05
 74
     0
 49
0.05
 74
     0
 49
-0.05
 74
     0
 49
0.05
 74
     0
 49
-0.05
 74
     0
  0
LTYPE
  5
20
330
4
100
AcDbSymbolTableRecord
100
AcDbLinetypeTableRecord
  2
CENTER
 70
     0
  3
Center ____ _ ____ _ ____ _ ____ _ ____ _ ____
 72
    65
 73
     4
 40
0.4
 49
0.25
 74
     0
 49
-0.05
 74
     0
 49
0.05
 74
     0
 49
-0.05
 74
     0
  0
LTYPE
  5
21
330
4
100
AcDbSymbolTableRecord
100
AcDbLinetypeTableRecord
  2
CENTERX2
 70
     0
  3
Center (2x) ________  __  ________  __  _____
 72
    65
 73
     4
 40
0.8
 49
0.5
 74
     0
 49
-0.1
 74
     0
 49
0.1
 74
     0
 49
-0.1
 74
     0
  0
LTYPE
  5
22
330
4
100
AcDbSymbolTableRecord
100
AcDbLinetypeTableRecord
  2
DOT2
 70
     0
  3
Dot (.5x) ........................................
 72
    65
 73
     2
 40
0.025
 49
0.0
 74
     0
 49
-0.025
 74
     0
  0
LTYPE
  5
358
330
4
100
AcDbSymbolTableRecord
100
AcDbLinetypeTableRecord
  2
AM_ISO02W050
 70
     0
  3
__ __ __ __ __ __ __ __ __ __ __ __ __ __ __
 72
    65
 73
     2
 40
7.5
 49
6.0
 74
     0
 49
-1.5
 74
     0
  0
LTYPE
  5
359
330
4
100
AcDbSymbolTableRecord
100
AcDbLinetypeTableRecord
  2
AM_ISO08W050
 70
     0
  3
____ . ____ . ____ . ____ . ____ . ____ . ____
 72
    65
 73
     4
 40
18.0
 49
12.0
 74
     0
 49
-1.5
 74
     0
 49
3.0
 74
     0
 49
-1.5
 74
     0
  0
LTYPE
  5
35A
330
4
100
AcDbSymbolTableRecord
100
AcDbLinetypeTableRecord
  2
AM_ISO09W050
 70
     0
  3
_____ . . _____ . . _____ . . ____ .. ____
 72
    65
 73
     6
 40
22.5
 49
12.0
 74
     0
 49
-1.5
 74
     0
 49
3.0
 74
     0
 49
-1.5
 74
     0
 49
3.0
 74
     0
 49
-1.5
 74
     0
  0
LTYPE
  5
35B
330
4
100
AcDbSymbolTableRecord
100
AcDbLinetypeTableRecord
  2
Amconstr
 70
     0
  3
_______________________
 72
    65
 73
     2
 40
9999.0
 49
9999.0
 74
     0
 49
0.0
 74
     0
  0
LTYPE
  5
35C
330
4
100
AcDbSymbolTableRecord
100
AcDbLinetypeTableRecord
  2
AM_ISO08W050x2
 70
     0
  3
__ . __ . __ . __ . __ . __
 72
    65
 73
     4
 40
9.0
 49
6.0
 74
     0
 49
-0.75
 74
     0
 49
1.5
 74
     0
 49
-0.75
 74
     0
  0
LTYPE
  5
35D
330
4
100
AcDbSymbolTableRecord
100
AcDbLinetypeTableRecord
  2
AM_ISO02W050x2
 70
     0
  3
 _ _ _ _ _ _ _ _ _ _ _ _
 72
    65
 73
     2
 40
3.75
 49
3.0
 74
     0
 49
-0.75
 74
     0
  0
LTYPE
  5
360
330
4
100
AcDbSymbolTableRecord
100
AcDbLinetypeTableRecord
  2
Amzigzag
 70
     0
  3
/\/-/\/-/\/-/\/-/\/-/\/
 72
    65
 73
     2
 40
11.00009999999999
 49
0.0001
 74
     4
 75
   135
340
35F
 46
0.04
 50
0.0
 44
0.0
 45
0.0
 49
-11.0
 74
     0
  0
LTYPE
  5
361
330
4
100
AcDbSymbolTableRecord
100
AcDbLinetypeTableRecord
  2
PHANTOM2
 70
     0
  3
Phantom (.5x) ___ _ _ ___ _ _ ___ _ _ ___ _ _
 72
    65
 73
     6
 40
1.25
 49
0.625
 74
     0
 49
-0.125
 74
     0
 49
0.125
 74
     0
 49
-0.125
 74
     0
 49
0.125
 74
     0
 49
-0.125
 74
     0
  0
LTYPE
  5
362
330
4
100
AcDbSymbolTableRecord
100
AcDbLinetypeTableRecord
  2
CENTER2
 70
     0
  3
Center (.5x) ___ _ ___ _ ___ _ ___ _ ___ _ ___
 72
    65
 73
     4
 40
1.125
 49
0.75
 74
     0
 49
-0.125
 74
     0
 49
0.125
 74
     0
 49
-0.125
 74
     0
  0
LTYPE
  5
363
330
4
100
AcDbSymbolTableRecord
100
AcDbLinetypeTableRecord
  2
HIDDEN2
 70
     0
  3
Hidden (.5x) _ _ _ _ _ _ _ _ _ _ _ _ _ _ _ _ _
 72
    65
 73
     2
 40
0.1875
 49
0.125
 74
     0
 49
-0.0625
 74
     0
  0
LTYPE
  5
364
330
4
100
AcDbSymbolTableRecord
100
AcDbLinetypeTableRecord
  2
Amzigzag2
 70
     0
  3
/\/-/\/-/\/-/\/-/\/-/\/
 72
    65
 73
     2
 40
0.4401
 49
0.0001
 74
     4
 75
   135
340
35F
 46
0.0016
 50
0.0
 44
0.0
 45
0.0
 49
-0.4400000000000001
 74
     0
  0
LTYPE
  5
371
330
4
100
AcDbSymbolTableRecord
100
AcDbLinetypeTableRecord
  2
ACANSTGB
 70
     0
  3
__ . . __ . .
 72
    65
 73
     6
 40
0.35433070866
 49
0.15748031496
 74
     0
 49
-0.03937007874
 74
     0
 49
0.03937007874
 74
     0
 49
-0.03937007874
 74
     0
 49
0.03937007874
 74
     0
 49
-0.03937007874
 74
     0
  0
LTYPE
  5
372
330
4
100
AcDbSymbolTableRecord
100
AcDbLinetypeTableRecord
  2
ACANSTGL
 70
     0
  3
_ _ _ _ _
 72
    65
 73
     2
 40
0.11811023622
 49
0.07874015748
 74
     0
 49
-0.03937007874
 74
     0
  0
LTYPE
  5
38F
330
4
100
AcDbSymbolTableRecord
100
AcDbLinetypeTableRecord
  2
MS
 70
     0
  3
MEDIUM_SOLID
 72
    65
 73
     0
 40
0.0
  0
LTYPE
  5
390
330
4
100
AcDbSymbolTableRecord
100
AcDbLinetypeTableRecord
  2
LS
 70
     0
  3
LIGHT_SOLID
 72
    65
 73
     0
 40
0.0
  0
LTYPE
  5
391
330
4
100
AcDbSymbolTableRecord
100
AcDbLinetypeTableRecord
  2
LP
 70
     0
  3
LIGHT_PHANTOM
 72
    65
 73
     6
 40
1.5
 49
0.75
 74
     0
 49
-0.14999998
 74
     0
 49
0.14999998
 74
     0
 49
-0.14999998
 74
     0
 49
0.14999998
 74
     0
 49
-0.14999998
 74
     0
  0
LTYPE
  5
392
330
4
100
AcDbSymbolTableRecord
100
AcDbLinetypeTableRecord
  2
NC
 70
     0
  3
NUMERIC_CONTROL
 72
    65
 73
     0
 40
0.0
  0
ENDTAB
  0
TABLE
  2
LAYER
  5
2
330
0
100
AcDbSymbolTable
 70
    11
  0
LAYER
  5
14
330
2
100
AcDbSymbolTableRecord
100
AcDbLayerTableRecord
  2
0
 70
     0
 62
     7
  6
CONTINUOUS
370
    -3
390
32C
  0
LAYER
  5
26
330
2
100
AcDbSymbolTableRecord
100
AcDbLayerTableRecord
  2
DEFPOINTS
 70
     0
 62
     7
  6
CONTINUOUS
290
     0
370
    -3
390
32C
  0
LAYER
  5
28
330
2
100
AcDbSymbolTableRecord
100
AcDbLayerTableRecord
  2
1
 70
     0
 62
     7
  6
CONTINUOUS
370
    -3
390
32C
  0
LAYER
  5
29
330
2
100
AcDbSymbolTableRecord
100
AcDbLayerTableRecord
  2
5
 70
     0
 62
     7
  6
CONTINUOUS
370
    -3
390
32C
  0
LAYER
  5
2A
330
2
100
AcDbSymbolTableRecord
100
AcDbLayerTableRecord
  2
6
 70
     0
 62
     7
  6
CONTINUOUS
370
    -3
390
32C
  0
LAYER
  5
2B
330
2
100
AcDbSymbolTableRecord
100
AcDbLayerTableRecord
  2
11
 70
     0
 62
     7
  6
CONTINUOUS
370
    -3
390
32C
  0
LAYER
  5
2C
330
2
100
AcDbSymbolTableRecord
100
AcDbLayerTableRecord
  2
2
 70
     0
 62
     7
  6
CONTINUOUS
370
    -3
390
32C
  0
LAYER
  5
2D
330
2
100
AcDbSymbolTableRecord
100
AcDbLayerTableRecord
  2
4
 70
     0
 62
     7
  6
CONTINUOUS
370
    -3
390
32C
  0
LAYER
  5
2E
330
2
100
AcDbSymbolTableRecord
100
AcDbLayerTableRecord
  2
90
 70
     0
 62
     7
  6
CONTINUOUS
370
    -3
390
32C
  0
LAYER
  5
393
330
2
100
AcDbSymbolTableRecord
100
AcDbLayerTableRecord
  2
BORDER
 70
     0
 62
    15
  6
CONTINUOUS
370
    -3
390
32C
  0
LAYER
  5
394
330
2
100
AcDbSymbolTableRecord
100
AcDbLayerTableRecord
  2
TITLE BLOCK
 70
     0
 62
     2
  6
CONTINUOUS
370
    -3
390
32C
  0
ENDTAB
  0
TABLE
  2
STYLE
  5
3
330
0
100
AcDbSymbolTable
 70
     8
  0
STYLE
  5
17
330
3
100
AcDbSymbolTableRecord
100
AcDbTextStyleTableRecord
  2
STANDARD
 70
     0
 40
0.0
 41
1.0
 50
0.0
 71
     0
 42
0.0
  3
txt
  4

  0
STYLE
  5
2DE
330
3
100
AcDbSymbolTableRecord
100
AcDbTextStyleTableRecord
  2
SLDTEXTSTYLE0
 70
     0
 40
0.0
 41
0.675
 50
0.0
 71
     0
 42
0.0
  3
txt
  4

  0
STYLE
  5
30C
330
3
100
AcDbSymbolTableRecord
100
AcDbTextStyleTableRecord
  2
SLDTEXTSTYLE1
 70
     0
 40
0.0
 41
0.75
 50
0.0
 71
     0
 42
0.0
  3
txt
  4

  0
STYLE
  5
35F
330
3
100
AcDbSymbolTableRecord
100
AcDbTextStyleTableRecord
  2

 70
     1
 40
0.0
 41
1.0
 50
0.0
 71
     0
 42
0.1377952756
  3
ltypeshp.shx
  4

  0
STYLE
  5
365
330
3
100
AcDbSymbolTableRecord
100
AcDbTextStyleTableRecord
  2
ACANSTS
 70
     0
 40
1.0
 41
1.0
 50
0.0
 71
     0
 42
0.1377952756
  3
romans.shx
  4

  0
STYLE
  5
370
330
3
100
AcDbSymbolTableRecord
100
AcDbTextStyleTableRecord
  2
ACANSGDT
 70
     0
 40
0.0
 41
1.0
 50
0.0
 71
     0
 42
0.1377952756
  3
amgdtans.shx
  4

  0
STYLE
  5
395
330
3
100
AcDbSymbolTableRecord
100
AcDbTextStyleTableRecord
  2
AE
 70
     0
 40
0.0
 41
1.0
 50
0.0
 71
     0
 42
0.16408998
  3
MIGRATOR
  4

  0
STYLE
  5
396
330
3
100
AcDbSymbolTableRecord
100
AcDbTextStyleTableRecord
  2

 70
     1
 40
0.0
 41
1.0
 50
0.0
 71
     0
 42
1.0
  3
symtb128
  4

  0
ENDTAB
  0
TABLE
  2
VIEW
  5
5
330
0
100
AcDbSymbolTable
 70
     0
  0
ENDTAB
  0
TABLE
  2
UCS
  5
6
330
0
100
AcDbSymbolTable
 70
     0
  0
ENDTAB
  0
TABLE
  2
APPID
  5
8
330
0
100
AcDbSymbolTable
 70
     7
  0
APPID
  5
16
330
8
100
AcDbSymbolTableRecord
100
AcDbRegAppTableRecord
  2
ACAD
 70
     0
  0
APPID
  5
338
330
8
100
AcDbSymbolTableRecord
100
AcDbRegAppTableRecord
  2
MCAD_NO_VIS
 70
     0
  0
APPID
  5
339
330
8
100
AcDbSymbolTableRecord
100
AcDbRegAppTableRecord
  2
ACAD_TEMP_GRAPHIC
 70
     0
  0
APPID
  5
34C
330
8
100
AcDbSymbolTableRecord
100
AcDbRegAppTableRecord
  2
ACATTRIBSERVICES
 70
     0
  0
APPID
  5
398
330
8
100
AcDbSymbolTableRecord
100
AcDbRegAppTableRecord
  2
GENIUS_GENBLLY_14
 70
     0
  0
APPID
  5
399
330
8
100
AcDbSymbolTableRecord
100
AcDbRegAppTableRecord
  2
GENIUS_GENTRA_14
 70
     0
  0
APPID
  5
39A
330
8
100
AcDbSymbolTableRecord
100
AcDbRegAppTableRecord
  2
DCO15
 70
     0
  0
ENDTAB
  0
TABLE
  2
DIMSTYLE
  5
9
330
0
100
AcDbSymbolTable
 70
     8
100
AcDbDimStyleTable
 71
     0
  0
DIMSTYLE
105
18
330
9
100
AcDbSymbolTableRecord
100
AcDbDimStyleTableRecord
  2
STANDARD
 70
     0
340
17
  0
DIMSTYLE
105
376
330
9
100
AcDbSymbolTableRecord
100
AcDbDimStyleTableRecord
  2
AM_ANSI
 70
     0
  4
mm
 41
0.1
 42
0.05
 43
0.5
 44
0.1
 47
0.1
 48
0.1
 78
     7
 79
     2
140
0.12
141
0.0
146
0.71
147
0.06
176
   256
177
   256
178
     2
274
     4
284
     7
340
17
371
    -1
372
    -1
  0
DIMSTYLE
105
377
330
9
100
AcDbSymbolTableRecord
100
AcDbDimStyleTableRecord
  2
AM_ANSI$3
 70
     0
  4
mm
 41
0.1
 42
0.05
 43
0.5
 44
0.1
 47
0.1
 48
0.1
 78
     7
 79
     2
140
0.12
141
0.0
146
0.71
147
0.06
176
   256
177
   256
178
     2
274
     4
284
     7
288
     1
289
     0
340
17
371
    -1
372
    -1
  0
DIMSTYLE
105
378
330
9
100
AcDbSymbolTableRecord
100
AcDbDimStyleTableRecord
  2
AM_ANSI$4
 70
     0
  4
mm
 41
0.1
 42
0.05
 43
0.5
 44
0.1
 47
0.1
 48
0.1
 78
     7
 79
     2
140
0.12
141
0.0
146
0.71
147
0.06
176
   256
177
   256
178
     2
274
     4
284
     7
288
     1
289
     0
340
17
371
    -1
372
    -1
  0
DIMSTYLE
105
379
330
9
100
AcDbSymbolTableRecord
100
AcDbDimStyleTableRecord
  2
AM_ANSI$7
 70
     0
  4
mm
 41
0.1
 42
0.05
 43
0.5
 44
0.1
 47
0.1
 48
0.1
 78
     7
 79
     2
140
0.24
141
0.0
146
0.71
147
0.06
176
   256
177
   256
178
     2
274
     4
284
     7
340
17
371
    -1
372
    -1
  0
DIMSTYLE
105
37A
330
9
100
AcDbSymbolTableRecord
100
AcDbDimStyleTableRecord
  2
AM_ANSI$SF
 70
     0
  4
mm
 41
0.1
 42
0.05
 43
0.5
 44
0.1
 47
0.1
 48
0.1
 75
     1
 76
     1
 78
     7
 79
     2
140
0.12
141
0.0
146
0.71
147
0.06
176
   256
177
   256
178
     2
274
     4
284
     7
340
17
371
    -1
372
    -1
  0
DIMSTYLE
105
37F
330
9
100
AcDbSymbolTableRecord
100
AcDbDimStyleTableRecord
  2
AM_ANSI$SH
 70
     0
  4
mm
 41
0.1
 42
0.05
 43
0.5
 44
0.1
 47
0.1
 48
0.1
 75
     1
 76
     1
 78
     7
 79
     2
140
0.12
141
0.0
146
0.71
147
0.06
173
     1
176
   256
177
   256
178
     2
274
     4
284
     7
340
17
343
37B
371
    -1
372
    -1
  0
DIMSTYLE
105
397
330
9
100
AcDbSymbolTableRecord
100
AcDbDimStyleTableRecord
  2
GEN-ANSI
 70
     0
  3
<>
  4
mm
 41
0.14
 42
0.125
 43
0.5
 44
0.125
 47
0.1
 48
0.1
 73
     0
 74
     0
 77
     1
 78
     7
140
0.12
141
0.0
146
0.71
147
0.06
176
   256
177
   256
178
     2
274
     4
340
17
  0
ENDTAB
  0
TABLE
  2
BLOCK_RECORD
  5
1
330
0
100
AcDbSymbolTable
 70
     3
  0
BLOCK_RECORD
  5
A
102
{ACAD_XDICTIONARY
360
48E
102
}
330
1
100
AcDbSymbolTableRecord
100
AcDbBlockTableRecord
  2
*MODEL_SPACE
340
32F
  0
BLOCK_RECORD
  5
B
330
1
100
AcDbSymbolTableRecord
100
AcDbBlockTableRecord
  2
*PAPER_SPACE
340
330
  0
BLOCK_RECORD
  5
37B
330
1
100
AcDbSymbolTableRecord
100
AcDbBlockTableRecord
  2
GENAXEH
340
0
  0
BLOCK_RECORD
  5
38B
330
1
100
AcDbSymbolTableRecord
100
AcDbBlockTableRecord
  2
A$C215E2678
340
0
  0
BLOCK_RECORD
  5
39B
330
1
100
AcDbSymbolTableRecord
100
AcDbBlockTableRecord
  2
BM_E
340
0
102
{BLKREFS
331
474
102
}
  0
ENDTAB
  0
ENDSEC
  0
SECTION
  2
BLOCKS
  0
BLOCK
  5
D
330
A
100
AcDbEntity
  8
0
100
AcDbBlockBegin
  2
*MODEL_SPACE
 70
     0
 10
0.0
 20
0.0
 30
0.0
  3
*MODEL_SPACE
  1

  0
ENDBLK
  5
E
330
A
100
AcDbEntity
  8
0
100
AcDbBlockEnd
  0
BLOCK
  5
F
330
B
100
AcDbEntity
 67
     1
  8
0
100
AcDbBlockBegin
  2
*PAPER_SPACE
 70
     0
 10
0.0
 20
0.0
 30
0.0
  3
*PAPER_SPACE
  1

  0
ENDBLK
  5
10
330
B
100
AcDbEntity
 67
     1
  8
0
100
AcDbBlockEnd
  0
BLOCK
  5
37D
330
37B
100
AcDbEntity
  8
0
100
AcDbBlockBegin
  2
GENAXEH
 70
     0
 10
0.0
 20
0.0
 30
0.0
  3
GENAXEH
  1

  0
LINE
  5
37C
330
37B
100
AcDbEntity
  8
0
100
AcDbLine
 10
-1.0
 20
0.0
 30
0.0
 11
1.0
 21
0.0
 31
0.0
  0
ENDBLK
  5
37E
330
37B
100
AcDbEntity
  8
0
100
AcDbBlockEnd
  0
BLOCK
  5
38D
330
38B
100
AcDbEntity
  8
0
100
AcDbBlockBegin
  2
A$C215E2678
 70
     0
 10
0.0
 20
0.0
 30
0.0
  3
A$C215E2678
  1

  0
TEXT
  5
38C
330
38B
100
AcDbEntity
  8
BORDER
100
AcDbText
 10
-0.375
 20
-2.3125
 30
0.0
 40
0.375
  1
2
 72
     1
 11
-0.25
 21
-2.125
 31
0.0
100
AcDbText
 73
     2
  0
ENDBLK
  5
38E
330
38B
100
AcDbEntity
  8
0
100
AcDbBlockEnd
  0
BLOCK
  5
470
330
39B
100
AcDbEntity
  8
0
100
AcDbBlockBegin
  2
BM_E
 70
     2
 10
0.0
 20
0.0
 30
0.0
  3
BM_E
  1

  0
LINE
  5
39C
330
39B
100
AcDbEntity
  8
BORDER
100
AcDbLine
 10
0.3000030000000038
 20
17.099998
 30
0.0
 11
0.5
 21
17.0
 31
0.0
  0
LINE
  5
39D
330
39B
100
AcDbEntity
  8
BORDER
100
AcDbLine
 10
0.299987999999999
 20
16.90000299999999
 30
0.0
 11
0.4999849999999953
 21
17.00000099999999
 31
0.0
  0
LINE
  5
39E
330
39B
100
AcDbEntity
  8
BORDER
100
AcDbLine
 10
0.1000060000000005
 20
17.00002899999999
 30
0.0
 11
0.3000030000000038
 21
17.00002899999999
 31
0.0
  0
LINE
  5
39F
330
39B
100
AcDbEntity
  8
BORDER
100
AcDbLine
 10
0.3000030000000038
 20
16.90002299999999
 30
0.0
 11
0.3000030000000038
 21
17.10002
 31
0.0
  0
ATTDEF
  5
3A0
330
39B
100
AcDbEntity
  8
TITLE BLOCK
  6
Continuous
100
AcDbText
 10
35.34999999999999
 20
3.250068621953476
 30
0.0
 40
0.2021222838
  1

100
AcDbAttributeDefinition
  3
Drawn by
  2
GEN-TITLE-NAME{5}
 70
     0
1001
GENIUS_GENBLLY_14
1000
BOR2
  0
ATTDEF
  5
3A1
330
39B
100
AcDbEntity
  8
TITLE BLOCK
  6
Continuous
100
AcDbText
 10
35.34999999999999
 20
2.750068621953476
 30
0.0
 40
0.2021222838
  1

100
AcDbAttributeDefinition
  3
Check by
  2
GEN-TITLE-CHKM{5}
 70
     0
1001
GENIUS_GENBLLY_14
1000
BOR2
  0
ATTDEF
  5
3A2
330
39B
100
AcDbEntity
  8
TITLE BLOCK
  6
Continuous
100
AcDbText
 10
35.34999999999999
 20
2.250068621953476
 30
0.0
 40
0.2021222838
  1

100
AcDbAttributeDefinition
  3
Approved by
  2
GEN-TITLE-APPM{5}
 70
     0
1001
GENIUS_GENBLLY_14
1000
BOR2
1001
GENIUS_GENTRA_14
1002
{
1070
     3
1000
GENTRAPR,%s,(GENMSG gentitus 73)
1000
Approved by
1000
gb
1070
     0
1002
}
  0
TEXT
  5
3A3
330
39B
100
AcDbEntity
  8
TITLE BLOCK
  6
Continuous
100
AcDbText
 10
34.91338965445351
 20
4.192395147082805
 30
0.0
 40
0.2021222838
  1
  DRAWING
 50
0.09999996
  7
AE
100
AcDbText
  0
TEXT
  5
3A4
330
39B
100
AcDbEntity
  8
TITLE BLOCK
  6
Continuous
100
AcDbText
 10
34.91338965445351
 20
4.611161697456088
 30
0.0
 40
0.2021222838
  1
DO NOT SCALE
 50
0.09999996
  7
AE
100
AcDbText
  0
LINE
  5
3A5
330
39B
100
AcDbEntity
  8
TITLE BLOCK
  6
Continuous
100
AcDbLine
 10
31.69931278063705
 20
2.100068621953476
 30
0.0
 11
43.5
 21
2.100068621953476
 31
0.0
  0
LINE
  5
3A6
330
39B
100
AcDbEntity
  8
TITLE BLOCK
  6
Continuous
100
AcDbLine
 10
34.65037991030702
 20
2.600068621953476
 30
0.0
 11
43.5
 21
2.600068621953476
 31
0.0
  0
LINE
  5
3A7
330
39B
100
AcDbEntity
  8
TITLE BLOCK
  6
Continuous
100
AcDbLine
 10
34.65037991030702
 20
3.100068621953475
 30
0.0
 11
43.5
 21
3.100068621953475
 31
0.0
  0
LINE
  5
3A8
330
39B
100
AcDbEntity
  8
TITLE BLOCK
  6
Continuous
100
AcDbLine
 10
34.65037991030702
 20
3.600068621953475
 30
0.0
 11
43.5
 21
3.600068621953475
 31
0.0
  0
LINE
  5
3A9
330
39B
100
AcDbEntity
  8
TITLE BLOCK
  6
Continuous
100
AcDbLine
 10
26.0
 20
5.000068621953477
 30
0.0
 11
43.5
 21
5.000068621953477
 31
0.0
  0
LINE
  5
3AA
330
39B
100
AcDbEntity
  8
BORDER
100
AcDbLine
 10
22.0
 20
0.9999985699999999
 30
0.0
 11
22.099991
 21
0.79999936
 31
0.0
  0
LINE
  5
3AB
330
39B
100
AcDbEntity
  8
BORDER
100
AcDbLine
 10
21.899994
 20
0.80000037
 30
0.0
 11
22.0
 21
1.0
 31
0.0
  0
LINE
  5
3AC
330
39B
100
AcDbEntity
  8
BORDER
100
AcDbLine
 10
21.899994
 20
0.7999999500000001
 30
0.0
 11
22.099991
 21
0.7999999500000001
 31
0.0
  0
LINE
  5
3AD
330
39B
100
AcDbEntity
  8
BORDER
100
AcDbLine
 10
21.999985
 20
0.5999999000000001
 30
0.0
 11
21.999985
 21
0.7999999500000001
 31
0.0
  0
LINE
  5
3AE
330
39B
100
AcDbEntity
  8
BORDER
100
AcDbLine
 10
21.999985
 20
0.5999999000000001
 30
0.0
 11
21.999985
 21
0.7999999500000001
 31
0.0
  0
TEXT
  5
3AF
330
39B
100
AcDbEntity
  8
TITLE BLOCK
  6
Continuous
100
AcDbText
 10
28.24708615700002
 20
1.180117028838981
 30
0.0
 40
0.1518741343009839
  1
REVISION
 50
0.09999996
  7
AE
100
AcDbText
  0
LINE
  5
3B0
330
39B
100
AcDbEntity
  8
TITLE BLOCK
  6
Continuous
100
AcDbLine
 10
26.0
 20
1.500068621953476
 30
0.0
 11
31.69931278063705
 21
1.500068621953476
 31
0.0
  0
LINE
  5
3B1
330
39B
100
AcDbEntity
  8
TITLE BLOCK
  6
Continuous
100
AcDbLine
 10
26.0
 20
3.000068621953476
 30
0.0
 11
31.69931278063705
 21
3.000068621953476
 31
0.0
  0
LINE
  5
3B2
330
39B
100
AcDbEntity
  8
TITLE BLOCK
  6
Continuous
100
AcDbLine
 10
26.0
 20
3.500068621953476
 30
0.0
 11
31.69931278063705
 21
3.500068621953476
 31
0.0
  0
LINE
  5
3B3
330
39B
100
AcDbEntity
  8
TITLE BLOCK
  6
Continuous
100
AcDbLine
 10
26.0
 20
4.000068621953476
 30
0.0
 11
31.69931278063705
 21
4.000068621953476
 31
0.0
  0
LINE
  5
3B4
330
39B
100
AcDbEntity
  8
TITLE BLOCK
  6
Continuous
100
AcDbLine
 10
26.0
 20
4.500068621953476
 30
0.0
 11
31.69931278063705
 21
4.500068621953476
 31
0.0
  0
LINE
  5
3B5
330
39B
100
AcDbEntity
  8
TITLE BLOCK
  6
Continuous
100
AcDbLine
 10
26.0
 20
2.500068621953476
 30
0.0
 11
31.69931278063705
 21
2.500068621953476
 31
0.0
  0
LINE
  5
3B6
330
39B
100
AcDbEntity
  8
TITLE BLOCK
  6
Continuous
100
AcDbLine
 10
26.0
 20
2.000068621953476
 30
0.0
 11
31.69931278063705
 21
2.000068621953476
 31
0.0
  0
TEXT
  5
3B7
330
39B
100
AcDbEntity
  8
BORDER
100
AcDbText
 10
36.702981
 20
0.5829867509767382
 30
0.0
 40
0.04
  1
FULL SIZE   50   02
 50
0.0999999600000001
 41
0.7749084200000001
  7
AE
100
AcDbText
  0
LINE
  5
3B8
330
39B
100
AcDbEntity
  8
TITLE BLOCK
  6
Continuous
100
AcDbLine
 10
28.3
 20
1.500068621953476
 30
0.0
 11
28.3
 21
5.000068621953477
 31
0.0
  0
TEXT
  5
3B9
330
39B
100
AcDbEntity
  8
TITLE BLOCK
  6
Continuous
100
AcDbText
 10
27.30274804469479
 20
1.681984803701876
 30
0.0
 40
0.1518741343009839
  1
DATE
 50
0.09999996
  7
AE
100
AcDbText
  0
TEXT
  5
3BA
330
39B
100
AcDbEntity
  8
TITLE BLOCK
  6
Continuous
100
AcDbText
 10
26.17648426449007
 20
1.680768250149125
 30
0.0
 40
0.1543041553225475
  1
NO.
 50
0.09999996
  7
AE
100
AcDbText
  0
LINE
  5
3BB
330
39B
100
AcDbEntity
  8
TITLE BLOCK
  6
Continuous
100
AcDbLine
 10
26.0
 20
1.0
 30
0.0
 11
26.0
 21
5.000068621953477
 31
0.0
  0
LINE
  5
3BC
330
39B
100
AcDbEntity
  8
TITLE BLOCK
  6
Continuous
100
AcDbLine
 10
26.7
 20
1.500068621953476
 30
0.0
 11
26.7
 21
5.000068621953477
 31
0.0
  0
LINE
  5
3BD
330
39B
100
AcDbEntity
  8
BORDER
  6
LS
100
AcDbLine
 10
36.9000015
 20
0.8100341909767383
 30
0.0
 11
36.9000015
 21
0.950034240976738
 31
0.0
  0
LINE
  5
3BE
330
39B
100
AcDbEntity
  8
BORDER
  6
LS
100
AcDbLine
 10
37.0000019
 20
0.8100341909767383
 30
0.0
 11
37.0000019
 21
0.950034240976738
 31
0.0
  0
LINE
  5
3BF
330
39B
100
AcDbEntity
  8
BORDER
  6
LS
100
AcDbLine
 10
36.880002
 20
0.8900342409767381
 30
0.0
 11
36.880002
 21
0.950034240976738
 31
0.0
  0
LINE
  5
3C0
330
39B
100
AcDbEntity
  8
BORDER
  6
LS
100
AcDbLine
 10
36.920002
 20
0.8900342409767381
 30
0.0
 11
36.920002
 21
0.950034240976738
 31
0.0
  0
LINE
  5
3C1
330
39B
100
AcDbEntity
  8
BORDER
  6
LS
100
AcDbLine
 10
36.9400025
 20
0.8500342109767382
 30
0.0
 11
36.9400025
 21
0.950034240976738
 31
0.0
  0
LINE
  5
3C2
330
39B
100
AcDbEntity
  8
BORDER
  6
LS
100
AcDbLine
 10
36.9600029
 20
0.8500342109767382
 30
0.0
 11
36.9600029
 21
0.950034240976738
 31
0.0
  0
LINE
  5
3C3
330
39B
100
AcDbEntity
  8
BORDER
  6
LS
100
AcDbLine
 10
36.9800024
 20
0.8900342409767381
 30
0.0
 11
36.9800024
 21
0.950034240976738
 31
0.0
  0
LINE
  5
3C4
330
39B
100
AcDbEntity
  8
BORDER
  6
LS
100
AcDbLine
 10
36.7000008
 20
0.8100341909767383
 30
0.0
 11
36.7000008
 21
0.950034240976738
 31
0.0
  0
LINE
  5
3C5
330
39B
100
AcDbEntity
  8
BORDER
  6
LS
100
AcDbLine
 10
36.8000012
 20
0.8100341909767383
 30
0.0
 11
36.8000012
 21
0.950034240976738
 31
0.0
  0
LINE
  5
3C6
330
39B
100
AcDbEntity
  8
BORDER
  6
LS
100
AcDbLine
 10
36.7200012
 20
0.8900342409767381
 30
0.0
 11
36.7200012
 21
0.950034240976738
 31
0.0
  0
LINE
  5
3C7
330
39B
100
AcDbEntity
  8
BORDER
  6
LS
100
AcDbLine
 10
36.74000170000001
 20
0.8500342109767382
 30
0.0
 11
36.74000170000001
 21
0.950034240976738
 31
0.0
  0
LINE
  5
3C8
330
39B
100
AcDbEntity
  8
BORDER
  6
LS
100
AcDbLine
 10
36.7600021
 20
0.8500342109767382
 30
0.0
 11
36.7600021
 21
0.950034240976738
 31
0.0
  0
LINE
  5
3C9
330
39B
100
AcDbEntity
  8
BORDER
  6
LS
100
AcDbLine
 10
36.7800016
 20
0.8900342409767381
 30
0.0
 11
36.7800016
 21
0.950034240976738
 31
0.0
  0
LINE
  5
3CA
330
39B
100
AcDbEntity
  8
BORDER
  6
LS
100
AcDbLine
 10
36.8200016
 20
0.8900342409767381
 30
0.0
 11
36.8200016
 21
0.950034240976738
 31
0.0
  0
LINE
  5
3CB
330
39B
100
AcDbEntity
  8
BORDER
  6
LS
100
AcDbLine
 10
36.8400021
 20
0.8500342109767382
 30
0.0
 11
36.8400021
 21
0.950034240976738
 31
0.0
  0
LINE
  5
3CC
330
39B
100
AcDbEntity
  8
BORDER
  6
LS
100
AcDbLine
 10
36.86000250000001
 20
0.8500342109767382
 30
0.0
 11
36.86000250000001
 21
0.950034240976738
 31
0.0
  0
LINE
  5
3CD
330
39B
100
AcDbEntity
  8
BORDER
  6
LS
100
AcDbLine
 10
37.0200024
 20
0.8900342409767381
 30
0.0
 11
37.0200024
 21
0.950034240976738
 31
0.0
  0
LINE
  5
3CE
330
39B
100
AcDbEntity
  8
BORDER
  6
LS
100
AcDbLine
 10
36.5
 20
0.7500341909767383
 30
0.0
 11
36.5
 21
0.950034240976738
 31
0.0
  0
LINE
  5
3CF
330
39B
100
AcDbEntity
  8
BORDER
  6
LS
100
AcDbLine
 10
36.5200005
 20
0.8900342409767381
 30
0.0
 11
36.5200005
 21
0.950034240976738
 31
0.0
  0
LINE
  5
3D0
330
39B
100
AcDbEntity
  8
BORDER
  6
LS
100
AcDbLine
 10
36.5400009
 20
0.8500342109767382
 30
0.0
 11
36.5400009
 21
0.950034240976738
 31
0.0
  0
LINE
  5
3D1
330
39B
100
AcDbEntity
  8
BORDER
  6
LS
100
AcDbLine
 10
36.6000004
 20
0.8100341909767383
 30
0.0
 11
36.6000004
 21
0.950034240976738
 31
0.0
  0
LINE
  5
3D2
330
39B
100
AcDbEntity
  8
BORDER
  6
LS
100
AcDbLine
 10
36.5600014
 20
0.8500342109767382
 30
0.0
 11
36.5600014
 21
0.950034240976738
 31
0.0
  0
LINE
  5
3D3
330
39B
100
AcDbEntity
  8
BORDER
  6
LS
100
AcDbLine
 10
36.5800009
 20
0.8900342409767381
 30
0.0
 11
36.5800009
 21
0.950034240976738
 31
0.0
  0
LINE
  5
3D4
330
39B
100
AcDbEntity
  8
BORDER
  6
LS
100
AcDbLine
 10
36.6200008
 20
0.8900342409767381
 30
0.0
 11
36.6200008
 21
0.950034240976738
 31
0.0
  0
LINE
  5
3D5
330
39B
100
AcDbEntity
  8
BORDER
  6
LS
100
AcDbLine
 10
36.64000130000001
 20
0.8500342109767382
 30
0.0
 11
36.64000130000001
 21
0.950034240976738
 31
0.0
  0
LINE
  5
3D6
330
39B
100
AcDbEntity
  8
BORDER
  6
LS
100
AcDbLine
 10
36.6600018
 20
0.8500342109767382
 30
0.0
 11
36.6600018
 21
0.950034240976738
 31
0.0
  0
LINE
  5
3D7
330
39B
100
AcDbEntity
  8
BORDER
  6
LS
100
AcDbLine
 10
36.6800013
 20
0.8900342409767381
 30
0.0
 11
36.6800013
 21
0.950034240976738
 31
0.0
  0
TEXT
  5
3D8
330
39B
100
AcDbEntity
  8
BORDER
100
AcDbText
 10
36.4714985
 20
0.6099843209767384
 30
0.0
 40
0.07999998
  1
0
 50
0.0999999600000001
  7
AE
100
AcDbText
  0
TEXT
  5
3D9
330
39B
100
AcDbEntity
  8
BORDER
100
AcDbText
 10
36.8715
 20
0.669984320976738
 30
0.0
 40
0.07999998
  1
4
 50
0.0999999600000001
  7
AE
100
AcDbText
  0
TEXT
  5
3DA
330
39B
100
AcDbEntity
  8
BORDER
100
AcDbText
 10
36.6714993
 20
0.669984320976738
 30
0.0
 40
0.07999998
  1
2
 50
0.0999999600000001
  7
AE
100
AcDbText
  0
TEXT
  5
3DB
330
39B
100
AcDbEntity
  8
TITLE BLOCK
  6
Continuous
100
AcDbText
 10
31.79999999999999
 20
1.800068621953476
 30
0.0
 40
0.1518741343009839
  1
DRAWING NAME
 50
0.09999996
  7
AE
100
AcDbText
  0
TEXT
  5
3DC
330
39B
100
AcDbEntity
  8
TITLE BLOCK
  6
Continuous
100
AcDbText
 10
31.73
 20
4.700068621953477
 30
0.0
 40
0.1290930102982315
  1
NOTICE: This drawing or material
 50
0.09999996
 41
0.7005041199999999
  7
AE
100
AcDbText
  0
LINE
  5
3DD
330
39B
100
AcDbEntity
  8
TITLE BLOCK
  6
Continuous
100
AcDbLine
 10
34.65037991030702
 20
2.200068621953476
 30
0.0
 11
34.65037991030702
 21
5.000068621953477
 31
0.0
  0
LINE
  5
3DE
330
39B
100
AcDbEntity
  8
TITLE BLOCK
  6
Continuous
100
AcDbLine
 10
31.69931278063705
 20
1.0
 30
0.0
 11
31.69931278063705
 21
5.000068621953477
 31
0.0
  0
TEXT
  5
3DF
330
39B
100
AcDbEntity
  8
TITLE BLOCK
  6
Continuous
100
AcDbText
 10
31.74259510702569
 20
3.41256624687789
 30
0.0
 40
0.1290930102982315
  1
reproduced, will be used only for
 50
0.09999996
 41
0.6799434399999999
  7
AE
100
AcDbText
  0
TEXT
  5
3E0
330
39B
100
AcDbEntity
  8
TITLE BLOCK
  6
Continuous
100
AcDbText
 10
31.77028788782436
 20
2.390146850986036
 30
0.0
 40
0.1290930102982315
  1
consent of G & L Motion Control Inc..
 50
0.09999996
 41
0.79688752
  7
AE
100
AcDbText
  0
TEXT
  5
3E1
330
39B
100
AcDbEntity
  8
TITLE BLOCK
  6
Continuous
100
AcDbText
 10
31.73775362006189
 20
2.670168072300595
 30
0.0
 40
0.1290930102982315
  1
as authorized by specific written
 50
0.09999996
 41
0.6799434399999999
  7
AE
100
AcDbText
  0
TEXT
  5
3E2
330
39B
100
AcDbEntity
  8
TITLE BLOCK
  6
Continuous
100
AcDbText
 10
31.73784003041041
 20
2.913869365335577
 30
0.0
 40
0.1290930102982315
  1
used or disclosed to anyone except
 50
0.09999996
 41
0.6605569100000001
  7
AE
100
AcDbText
  0
TEXT
  5
3E3
330
39B
100
AcDbEntity
  8
TITLE BLOCK
  6
Continuous
100
AcDbText
 10
31.73129714682869
 20
3.170479940112326
 30
0.0
 40
0.1290930102982315
  1
your information, and will not be
 50
0.09999996
 41
0.6799434399999999
  7
AE
100
AcDbText
  0
TEXT
  5
3E4
330
39B
100
AcDbEntity
  8
TITLE BLOCK
  6
Continuous
100
AcDbText
 10
31.74064161593091
 20
3.674823969390883
 30
0.0
 40
0.1290930102982315
  1
will not be copied or otherwise
 50
0.09999996
 41
0.72234601
  7
AE
100
AcDbText
  0
TEXT
  5
3E5
330
39B
100
AcDbEntity
  8
TITLE BLOCK
  6
Continuous
100
AcDbText
 10
31.72896291013545
 20
3.937088828472806
 30
0.0
 40
0.1290930102982315
  1
in confidence on condition that it
 50
0.09999996
 41
0.6605569100000001
  7
AE
100
AcDbText
  0
TEXT
  5
3E6
330
39B
100
AcDbEntity
  8
TITLE BLOCK
  6
Continuous
100
AcDbText
 10
31.72550842499454
 20
4.455149536187693
 30
0.0
 40
0.1290930102982315
  1
contains proprietary information
 50
0.09999996
 41
0.7005041199999999
  7
AE
100
AcDbText
  0
TEXT
  5
3E7
330
39B
100
AcDbEntity
  8
TITLE BLOCK
  6
Continuous
100
AcDbText
 10
31.736946030487
 20
4.192082488177751
 30
0.0
 40
0.1290930102982315
  1
of G & L Motion Control Inc., is submitted
 50
0.09999996
 41
0.6799434399999999
  7
AE
100
AcDbText
  0
TEXT
  5
3E8
330
39B
100
AcDbEntity
  8
TITLE BLOCK
  6
Continuous
100
AcDbText
 10
34.7
 20
3.400068621953476
 30
0.0
 40
0.1518741343009839
  1
DR
 50
0.09999996
  7
AE
100
AcDbText
  0
TEXT
  5
3E9
330
39B
100
AcDbEntity
  8
TITLE BLOCK
  6
Continuous
100
AcDbText
 10
34.7
 20
3.150068621953476
 30
0.0
 40
0.1518741343009839
  1
BY
 50
0.09999996
  7
AE
100
AcDbText
  0
TEXT
  5
3EA
330
39B
100
AcDbEntity
  8
TITLE BLOCK
  6
Continuous
100
AcDbText
 10
34.71240074512235
 20
2.650068621953475
 30
0.0
 40
0.1518741343009839
  1
BY
 50
0.09999996
  7
AE
100
AcDbText
  0
TEXT
  5
3EB
330
39B
100
AcDbEntity
  8
TITLE BLOCK
  6
Continuous
100
AcDbText
 10
34.7
 20
2.900068621953476
 30
0.0
 40
0.1518741343009839
  1
CHK
 50
0.09999996
  7
AE
100
AcDbText
  0
TEXT
  5
3EC
330
39B
100
AcDbEntity
  8
TITLE BLOCK
  6
Continuous
100
AcDbText
 10
34.71999999999999
 20
2.400068621953476
 30
0.0
 40
0.1518741343009839
  1
APPD
 50
0.09999996
  7
AE
100
AcDbText
  0
TEXT
  5
3ED
330
39B
100
AcDbEntity
  8
TITLE BLOCK
  6
Continuous
100
AcDbText
 10
34.7
 20
2.150068621953476
 30
0.0
 40
0.1518741343009839
  1
BY
 50
0.09999996
  7
AE
100
AcDbText
  0
ATTDEF
  5
3EE
330
39B
100
AcDbEntity
  8
TITLE BLOCK
  6
Continuous
100
AcDbText
 10
32.0
 20
1.25
 30
0.0
 40
0.3
  1

 41
0.8
100
AcDbAttributeDefinition
  3
Drawing Name
  2
GEN-TITLE-DES1{15.54}
 70
     0
1001
GENIUS_GENBLLY_14
1000
BOR5
  0
LINE
  5
3EF
330
39B
100
AcDbEntity
  8
BORDER
  6
LS
100
AcDbLine
 10
39.5
 20
0.7500341909767383
 30
0.0
 11
39.5
 21
0.950034240976738
 31
0.0
  0
TEXT
  5
3F0
330
39B
100
AcDbEntity
  8
BORDER
100
AcDbText
 10
39.4714985
 20
0.6099843209767384
 30
0.0
 40
0.07999998
  1
3
 50
0.0999999600000001
  7
AE
100
AcDbText
  0
LINE
  5
3F1
330
39B
100
AcDbEntity
  8
BORDER
  6
LS
100
AcDbLine
 10
38.5
 20
0.7500341909767383
 30
0.0
 11
38.5
 21
0.950034240976738
 31
0.0
  0
LINE
  5
3F2
330
39B
100
AcDbEntity
  8
BORDER
  6
LS
100
AcDbLine
 10
38.3000059
 20
0.8100341909767383
 30
0.0
 11
38.3000059
 21
0.950034240976738
 31
0.0
  0
LINE
  5
3F3
330
39B
100
AcDbEntity
  8
BORDER
  6
LS
100
AcDbLine
 10
38.1000052
 20
0.8100341909767383
 30
0.0
 11
38.1000052
 21
0.950034240976738
 31
0.0
  0
TEXT
  5
3F4
330
39B
100
AcDbEntity
  8
BORDER
100
AcDbText
 10
38.4714985
 20
0.6099843209767384
 30
0.0
 40
0.07999998
  1
2
 50
0.0999999600000001
  7
AE
100
AcDbText
  0
TEXT
  5
3F5
330
39B
100
AcDbEntity
  8
BORDER
100
AcDbText
 10
38.2715044
 20
0.669984320976738
 30
0.0
 40
0.07999998
  1
8
 50
0.0999999600000001
  7
AE
100
AcDbText
  0
TEXT
  5
3F6
330
39B
100
AcDbEntity
  8
BORDER
100
AcDbText
 10
38.07150359999999
 20
0.669984320976738
 30
0.0
 40
0.07999998
  1
6
 50
0.0999999600000001
  7
AE
100
AcDbText
  0
LINE
  5
3F7
330
39B
100
AcDbEntity
  8
BORDER
  6
LS
100
AcDbLine
 10
37.9000044
 20
0.8100341909767383
 30
0.0
 11
37.9000044
 21
0.950034240976738
 31
0.0
  0
LINE
  5
3F8
330
39B
100
AcDbEntity
  8
BORDER
  6
LS
100
AcDbLine
 10
37.7000046
 20
0.8100341909767383
 30
0.0
 11
37.7000046
 21
0.950034240976738
 31
0.0
  0
LINE
  5
3F9
330
39B
100
AcDbEntity
  8
BORDER
  6
LS
100
AcDbLine
 10
37.4000034
 20
0.8100341909767383
 30
0.0
 11
37.4000034
 21
0.950034240976738
 31
0.0
  0
LINE
  5
3FA
330
39B
100
AcDbEntity
  8
BORDER
  6
LS
100
AcDbLine
 10
37.4200039
 20
0.8900342409767381
 30
0.0
 11
37.4200039
 21
0.950034240976738
 31
0.0
  0
LINE
  5
3FB
330
39B
100
AcDbEntity
  8
BORDER
  6
LS
100
AcDbLine
 10
37.4400044
 20
0.8500342109767382
 30
0.0
 11
37.4400044
 21
0.950034240976738
 31
0.0
  0
LINE
  5
3FC
330
39B
100
AcDbEntity
  8
BORDER
  6
LS
100
AcDbLine
 10
37.32000349999999
 20
0.8900342409767381
 30
0.0
 11
37.32000349999999
 21
0.950034240976738
 31
0.0
  0
LINE
  5
3FD
330
39B
100
AcDbEntity
  8
BORDER
  6
LS
100
AcDbLine
 10
37.34000400000001
 20
0.8500342109767382
 30
0.0
 11
37.34000400000001
 21
0.950034240976738
 31
0.0
  0
LINE
  5
3FE
330
39B
100
AcDbEntity
  8
BORDER
  6
LS
100
AcDbLine
 10
37.3600044
 20
0.8500342109767382
 30
0.0
 11
37.3600044
 21
0.950034240976738
 31
0.0
  0
LINE
  5
3FF
330
39B
100
AcDbEntity
  8
BORDER
  6
LS
100
AcDbLine
 10
37.3800039
 20
0.8900342409767381
 30
0.0
 11
37.3800039
 21
0.950034240976738
 31
0.0
  0
LINE
  5
400
330
39B
100
AcDbEntity
  8
BORDER
  6
LS
100
AcDbLine
 10
37.2000027
 20
0.8100341909767383
 30
0.0
 11
37.2000027
 21
0.950034240976738
 31
0.0
  0
LINE
  5
401
330
39B
100
AcDbEntity
  8
BORDER
  6
LS
100
AcDbLine
 10
37.3000031
 20
0.8100341909767383
 30
0.0
 11
37.3000031
 21
0.950034240976738
 31
0.0
  0
LINE
  5
402
330
39B
100
AcDbEntity
  8
BORDER
  6
LS
100
AcDbLine
 10
37.1600037
 20
0.8500342109767382
 30
0.0
 11
37.1600037
 21
0.950034240976738
 31
0.0
  0
LINE
  5
403
330
39B
100
AcDbEntity
  8
BORDER
  6
LS
100
AcDbLine
 10
37.1800032
 20
0.8900342409767381
 30
0.0
 11
37.1800032
 21
0.950034240976738
 31
0.0
  0
LINE
  5
404
330
39B
100
AcDbEntity
  8
BORDER
  6
LS
100
AcDbLine
 10
37.2200031
 20
0.8900342409767381
 30
0.0
 11
37.2200031
 21
0.950034240976738
 31
0.0
  0
LINE
  5
405
330
39B
100
AcDbEntity
  8
BORDER
  6
LS
100
AcDbLine
 10
37.2400036
 20
0.8500342109767382
 30
0.0
 11
37.2400036
 21
0.950034240976738
 31
0.0
  0
LINE
  5
406
330
39B
100
AcDbEntity
  8
BORDER
  6
LS
100
AcDbLine
 10
37.2600041
 20
0.8500342109767382
 30
0.0
 11
37.2600041
 21
0.950034240976738
 31
0.0
  0
LINE
  5
407
330
39B
100
AcDbEntity
  8
BORDER
  6
LS
100
AcDbLine
 10
37.2800036
 20
0.8900342409767381
 30
0.0
 11
37.2800036
 21
0.950034240976738
 31
0.0
  0
LINE
  5
408
330
39B
100
AcDbEntity
  8
BORDER
  6
LS
100
AcDbLine
 10
37.5
 20
0.7500341909767383
 30
0.0
 11
37.5
 21
0.950034240976738
 31
0.0
  0
LINE
  5
409
330
39B
100
AcDbEntity
  8
BORDER
  6
LS
100
AcDbLine
 10
37.46000480000001
 20
0.8500342109767382
 30
0.0
 11
37.46000480000001
 21
0.950034240976738
 31
0.0
  0
LINE
  5
40A
330
39B
100
AcDbEntity
  8
BORDER
  6
LS
100
AcDbLine
 10
37.4800043
 20
0.8900342409767381
 30
0.0
 11
37.4800043
 21
0.950034240976738
 31
0.0
  0
TEXT
  5
40B
330
39B
100
AcDbEntity
  8
BORDER
100
AcDbText
 10
37.4714985
 20
0.6099843209767384
 30
0.0
 40
0.07999998
  1
1
 50
0.0999999600000001
  7
AE
100
AcDbText
  0
TEXT
  5
40C
330
39B
100
AcDbEntity
  8
BORDER
100
AcDbText
 10
37.2715016
 20
0.669984320976738
 30
0.0
 40
0.07999998
  1
8
 50
0.0999999600000001
  7
AE
100
AcDbText
  0
TEXT
  5
40D
330
39B
100
AcDbEntity
  8
BORDER
100
AcDbText
 10
37.8715029
 20
0.669984320976738
 30
0.0
 40
0.07999998
  1
4
 50
0.0999999600000001
  7
AE
100
AcDbText
  0
TEXT
  5
40E
330
39B
100
AcDbEntity
  8
BORDER
100
AcDbText
 10
37.6715031
 20
0.669984320976738
 30
0.0
 40
0.07999998
  1
2
 50
0.0999999600000001
  7
AE
100
AcDbText
  0
LINE
  5
40F
330
39B
100
AcDbEntity
  8
BORDER
  6
LS
100
AcDbLine
 10
37.1000023
 20
0.8100341909767383
 30
0.0
 11
37.1000023
 21
0.950034240976738
 31
0.0
  0
LINE
  5
410
330
39B
100
AcDbEntity
  8
BORDER
  6
LS
100
AcDbLine
 10
37.0400028
 20
0.8500342109767382
 30
0.0
 11
37.0400028
 21
0.950034240976738
 31
0.0
  0
LINE
  5
411
330
39B
100
AcDbEntity
  8
BORDER
  6
LS
100
AcDbLine
 10
37.0600033
 20
0.8500342109767382
 30
0.0
 11
37.0600033
 21
0.950034240976738
 31
0.0
  0
LINE
  5
412
330
39B
100
AcDbEntity
  8
BORDER
  6
LS
100
AcDbLine
 10
37.0800028
 20
0.8900342409767381
 30
0.0
 11
37.0800028
 21
0.950034240976738
 31
0.0
  0
LINE
  5
413
330
39B
100
AcDbEntity
  8
BORDER
  6
LS
100
AcDbLine
 10
37.1200028
 20
0.8900342409767381
 30
0.0
 11
37.1200028
 21
0.950034240976738
 31
0.0
  0
LINE
  5
414
330
39B
100
AcDbEntity
  8
BORDER
  6
LS
100
AcDbLine
 10
37.1400032
 20
0.8500342109767382
 30
0.0
 11
37.1400032
 21
0.950034240976738
 31
0.0
  0
TEXT
  5
415
330
39B
100
AcDbEntity
  8
BORDER
100
AcDbText
 10
37.0715008
 20
0.669984320976738
 30
0.0
 40
0.07999998
  1
6
 50
0.0999999600000001
  7
AE
100
AcDbText
  0
ATTDEF
  5
416
330
39B
100
AcDbEntity
  8
TITLE BLOCK
  6
Continuous
100
AcDbText
 10
42.29999999999999
 20
2.250068621953476
 30
0.0
 40
0.2361798886203
  1

 41
0.8
100
AcDbAttributeDefinition
  3
Sheet of
  2
GEN-TITLE-SHEET-OF{2.62}
 70
     0
1001
GENIUS_GENBLLY_14
1000
BOR3
  0
ATTDEF
  5
417
330
39B
100
AcDbEntity
  8
TITLE BLOCK
  6
Continuous
100
AcDbText
 10
41.5
 20
2.250068621953476
 30
0.0
 40
0.2361798886203
  1

 41
0.8
100
AcDbAttributeDefinition
  3
Sheet
  2
GEN-TITLE-SHEET{2.62}
 70
     0
1001
GENIUS_GENBLLY_14
1000
BOR3
  0
TEXT
  5
418
330
39B
100
AcDbEntity
  8
TITLE BLOCK
  6
Continuous
100
AcDbText
 10
40.65
 20
2.900068621953476
 30
0.0
 40
0.1518741343009839
  1
DATE
 50
0.09999996
  7
AE
100
AcDbText
  0
TEXT
  5
419
330
39B
100
AcDbEntity
  8
TITLE BLOCK
  6
Continuous
100
AcDbText
 10
40.65
 20
2.400068621953476
 30
0.0
 40
0.1518741343009839
  1
SHEET   OF
 50
0.09999996
  7
AE
100
AcDbText
  0
ATTDEF
  5
41A
330
39B
100
AcDbEntity
  8
TITLE BLOCK
  6
Continuous
100
AcDbText
 10
38.4
 20
2.250068621953476
 30
0.0
 40
0.2021222838
  1

 41
0.8
100
AcDbAttributeDefinition
  3
Material
  2
GEN-TITLE-MAT{11.15}
 70
     0
1001
GENIUS_GENBLLY_14
1000
BOR3
  0
ATTDEF
  5
41B
330
39B
100
AcDbEntity
  8
TITLE BLOCK
  6
Continuous
100
AcDbText
 10
38.4
 20
2.750068621953476
 30
0.0
 40
0.2021222838
  1

100
AcDbAttributeDefinition
  3
Machine
  2
GEN-TITLE-MACH{5}
 70
     0
1001
GENIUS_GENBLLY_14
1000
BOR2
  0
ATTDEF
  5
41C
330
39B
100
AcDbEntity
  8
TITLE BLOCK
  6
Continuous
100
AcDbText
 10
38.4
 20
3.250068621953476
 30
0.0
 40
0.2021222838
  1

100
AcDbAttributeDefinition
  3
Ref. No.
  2
GEN-TITLE-REF{5}
 70
     0
1001
GENIUS_GENBLLY_14
1000
BOR2
  0
TEXT
  5
41D
330
39B
100
AcDbEntity
  8
TITLE BLOCK
  6
Continuous
100
AcDbText
 10
37.7
 20
2.400068621953476
 30
0.0
 40
0.1518741343009839
  1
MATL
 50
0.09999996
  7
AE
100
AcDbText
  0
TEXT
  5
41E
330
39B
100
AcDbEntity
  8
TITLE BLOCK
  6
Continuous
100
AcDbText
 10
37.7
 20
2.900068621953476
 30
0.0
 40
0.1518741343009839
  1
MACH
 50
0.09999996
  7
AE
100
AcDbText
  0
TEXT
  5
41F
330
39B
100
AcDbEntity
  8
TITLE BLOCK
  6
Continuous
100
AcDbText
 10
37.7
 20
3.400068621953476
 30
0.0
 40
0.1518741343009839
  1
REF
 50
0.09999996
  7
AE
100
AcDbText
  0
TEXT
  5
420
330
39B
100
AcDbEntity
  8
TITLE BLOCK
  6
Continuous
100
AcDbText
 10
37.7
 20
1.800068621953476
 30
0.0
 40
0.1518741343009839
  1
DRAWING NUMBER
 50
0.09999996
  7
AE
100
AcDbText
  0
LINE
  5
421
330
39B
100
AcDbEntity
  8
TITLE BLOCK
  6
Continuous
100
AcDbLine
 10
37.59999999999999
 20
1.0
 30
0.0
 11
37.59999999999999
 21
5.000068621953477
 31
0.0
  0
LINE
  5
422
330
39B
100
AcDbEntity
  8
TITLE BLOCK
  6
Continuous
100
AcDbLine
 10
40.55251436252715
 20
2.100068621953476
 30
0.0
 11
40.55251436252707
 21
3.100068621953475
 31
0.0
  0
ATTDEF
  5
423
330
39B
100
AcDbEntity
  8
TITLE BLOCK
  6
Continuous
100
AcDbText
 10
41.35
 20
2.750068621953476
 30
0.0
 40
0.2021222838
  1

100
AcDbAttributeDefinition
  3
Date
  2
GEN-TITLE-PLOT{5}
 70
     0
1001
GENIUS_GENBLLY_14
1000
BOR2
  0
ATTDEF
  5
424
330
39B
100
AcDbEntity
  8
TITLE BLOCK
  6
Continuous
100
AcDbText
 10
38.0
 20
1.25
 30
0.0
 40
0.3
  1

 41
0.8
100
AcDbAttributeDefinition
  3
Drawing Number
  2
GEN-TITLE-NR{13.37}
 70
     0
1001
GENIUS_GENBLLY_14
1000
BOR5
  0
LINE
  5
425
330
39B
100
AcDbEntity
  8
BORDER
100
AcDbLine
 10
21.999954
 20
33.19999699999999
 30
0.0
 11
21.999954
 21
33.39999399999999
 31
0.0
  0
LINE
  5
426
330
39B
100
AcDbEntity
  8
BORDER
100
AcDbLine
 10
21.899963
 20
33.19999699999999
 30
0.0
 11
22.09996
 21
33.19999699999999
 31
0.0
  0
LINE
  5
427
330
39B
100
AcDbEntity
  8
BORDER
100
AcDbLine
 10
21.899994
 20
33.19999699999999
 30
0.0
 11
22.0
 21
33.0
 31
0.0
  0
LINE
  5
428
330
39B
100
AcDbEntity
  8
BORDER
100
AcDbLine
 10
21.999984
 20
33.000015
 30
0.0
 11
22.099991
 21
33.200012
 31
0.0
  0
LINE
  5
429
330
39B
100
AcDbEntity
  8
BORDER
100
AcDbLine
 10
43.70000414999999
 20
17.00001799999999
 30
0.0
 11
43.90000109999999
 21
17.00001799999999
 31
0.0
  0
LINE
  5
42A
330
39B
100
AcDbEntity
  8
BORDER
100
AcDbLine
 10
43.5
 20
17.0
 30
0.0
 11
43.69999579999999
 21
17.099997
 31
0.0
  0
LINE
  5
42B
330
39B
100
AcDbEntity
  8
BORDER
100
AcDbLine
 10
43.70000414999999
 20
16.90001199999999
 30
0.0
 11
43.70000414999999
 21
17.100009
 31
0.0
  0
LINE
  5
42C
330
39B
100
AcDbEntity
  8
BORDER
100
AcDbLine
 10
43.50001304
 20
16.99999799999999
 30
0.0
 11
43.70000885999999
 21
16.90000099999999
 31
0.0
  0
LINE
  5
42D
330
39B
100
AcDbEntity
  8
BORDER
  6
Continuous
100
AcDbLine
 10
44.0
 20
22.0
 30
0.0
 11
44.0
 21
0.0
 31
0.0
  0
LINE
  5
42E
330
39B
100
AcDbEntity
  8
BORDER
  6
Continuous
100
AcDbLine
 10
44.0
 20
0.0
 30
0.0
 11
0.0
 21
0.0
 31
0.0
  0
LINE
  5
42F
330
39B
100
AcDbEntity
  8
BORDER
100
AcDbLine
 10
10.0
 20
0.0
 30
0.0
 11
10.0
 21
0.0
 31
0.0
  0
MTEXT
  5
430
330
39B
100
AcDbEntity
  8
BORDER
  6
Continuous
100
AcDbMText
 10
40.50617958671742
 20
4.700068621953477
 30
0.0
 40
0.25
 41
5.326
 71
     2
 72
     5
  1
{\fArial|b0|i0|c0|p34;\C1;G & L Motion Control Inc.}
 73
     1
 44
1.0
  0
MTEXT
  5
431
330
39B
100
AcDbEntity
  8
BORDER
  6
Continuous
100
AcDbMText
 10
40.50825715527895
 20
4.056598296564496
 30
0.0
 40
0.15748
 41
5.724
 71
     5
 72
     1
  1
{\Fromans.shx;\C9;672 South Military Road\PFond du Lac, Wisconsin 54936 U.S.A.}
 73
     1
 44
1.0
  0
LINE
  5
432
330
39B
100
AcDbEntity
  8
BORDER
100
AcDbLine
 10
44.0
 20
34.0
 30
0.0
 11
44.0
 21
0.0
 31
0.0
  0
LINE
  5
433
330
39B
100
AcDbEntity
  8
BORDER
100
AcDbLine
 10
44.0
 20
34.0
 30
0.0
 11
0.0
 21
34.0
 31
0.0
  0
LINE
  5
434
330
39B
100
AcDbEntity
  8
BORDER
100
AcDbLine
 10
0.0
 20
34.0
 30
0.0
 11
0.0
 21
0.0
 31
0.0
  0
LINE
  5
435
330
39B
100
AcDbEntity
  8
BORDER
100
AcDbLine
 10
0.5
 20
1.0
 30
0.0
 11
0.5
 21
33.0
 31
0.0
  0
LINE
  5
436
330
39B
100
AcDbEntity
  8
BORDER
100
AcDbLine
 10
43.5
 20
1.0
 30
0.0
 11
43.5
 21
33.0
 31
0.0
  0
LINE
  5
437
330
39B
100
AcDbEntity
  8
BORDER
100
AcDbLine
 10
0.5
 20
33.0
 30
0.0
 11
43.5
 21
33.0
 31
0.0
  0
LINE
  5
438
330
39B
100
AcDbEntity
  8
BORDER
100
AcDbLine
 10
0.5
 20
1.0
 30
0.0
 11
43.5
 21
1.0
 31
0.0
  0
LINE
  5
439
330
39B
100
AcDbEntity
  8
BORDER
100
AcDbLine
 10
38.5
 20
33.5
 30
0.0
 11
38.5
 21
33.0
 31
0.0
  0
LINE
  5
43A
330
39B
100
AcDbEntity
  8
BORDER
100
AcDbLine
 10
33.0
 20
33.5
 30
0.0
 11
33.0
 21
33.0
 31
0.0
  0
LINE
  5
43B
330
39B
100
AcDbEntity
  8
BORDER
100
AcDbLine
 10
27.5
 20
33.5
 30
0.0
 11
27.5
 21
33.0
 31
0.0
  0
LINE
  5
43C
330
39B
100
AcDbEntity
  8
BORDER
100
AcDbLine
 10
16.5
 20
33.5
 30
0.0
 11
16.5
 21
33.0
 31
0.0
  0
LINE
  5
43D
330
39B
100
AcDbEntity
  8
BORDER
100
AcDbLine
 10
11.0
 20
33.5
 30
0.0
 11
11.0
 21
33.0
 31
0.0
  0
LINE
  5
43E
330
39B
100
AcDbEntity
  8
BORDER
100
AcDbLine
 10
5.5
 20
33.5
 30
0.0
 11
5.5
 21
33.0
 31
0.0
  0
LINE
  5
43F
330
39B
100
AcDbEntity
  8
BORDER
100
AcDbLine
 10
44.0
 20
29.75
 30
0.0
 11
43.5
 21
29.75
 31
0.0
  0
LINE
  5
440
330
39B
100
AcDbEntity
  8
BORDER
100
AcDbLine
 10
44.0
 20
25.5
 30
0.0
 11
43.5
 21
25.5
 31
0.0
  0
LINE
  5
441
330
39B
100
AcDbEntity
  8
BORDER
100
AcDbLine
 10
44.0
 20
21.25
 30
0.0
 11
43.5
 21
21.25
 31
0.0
  0
LINE
  5
442
330
39B
100
AcDbEntity
  8
BORDER
100
AcDbLine
 10
44.0
 20
12.75
 30
0.0
 11
43.5
 21
12.75
 31
0.0
  0
LINE
  5
443
330
39B
100
AcDbEntity
  8
BORDER
100
AcDbLine
 10
44.0
 20
8.5
 30
0.0
 11
43.5
 21
8.5
 31
0.0
  0
LINE
  5
444
330
39B
100
AcDbEntity
  8
BORDER
100
AcDbLine
 10
44.0
 20
4.25
 30
0.0
 11
43.5
 21
4.25
 31
0.0
  0
LINE
  5
445
330
39B
100
AcDbEntity
  8
BORDER
100
AcDbLine
 10
0.5
 20
29.75
 30
0.0
 11
0.0
 21
29.75
 31
0.0
  0
LINE
  5
446
330
39B
100
AcDbEntity
  8
BORDER
100
AcDbLine
 10
0.5
 20
25.5
 30
0.0
 11
0.0
 21
25.5
 31
0.0
  0
LINE
  5
447
330
39B
100
AcDbEntity
  8
BORDER
100
AcDbLine
 10
0.5
 20
21.25
 30
0.0
 11
0.0
 21
21.25
 31
0.0
  0
LINE
  5
448
330
39B
100
AcDbEntity
  8
BORDER
100
AcDbLine
 10
0.5
 20
12.75
 30
0.0
 11
0.0
 21
12.75
 31
0.0
  0
LINE
  5
449
330
39B
100
AcDbEntity
  8
BORDER
100
AcDbLine
 10
0.5
 20
8.5
 30
0.0
 11
0.0
 21
8.5
 31
0.0
  0
LINE
  5
44A
330
39B
100
AcDbEntity
  8
BORDER
100
AcDbLine
 10
0.5
 20
4.25
 30
0.0
 11
0.0
 21
4.25
 31
0.0
  0
LINE
  5
44B
330
39B
100
AcDbEntity
  8
BORDER
100
AcDbLine
 10
5.5
 20
1.0
 30
0.0
 11
5.5
 21
0.5
 31
0.0
  0
LINE
  5
44C
330
39B
100
AcDbEntity
  8
BORDER
100
AcDbLine
 10
11.0
 20
1.0
 30
0.0
 11
11.0
 21
0.5
 31
0.0
  0
LINE
  5
44D
330
39B
100
AcDbEntity
  8
BORDER
100
AcDbLine
 10
16.5
 20
1.0
 30
0.0
 11
16.5
 21
0.5
 31
0.0
  0
LINE
  5
44E
330
39B
100
AcDbEntity
  8
BORDER
100
AcDbLine
 10
27.5
 20
1.0
 30
0.0
 11
27.5
 21
0.5
 31
0.0
  0
LINE
  5
44F
330
39B
100
AcDbEntity
  8
BORDER
100
AcDbLine
 10
33.0
 20
1.0
 30
0.0
 11
33.0
 21
0.5
 31
0.0
  0
TEXT
  5
450
330
39B
100
AcDbEntity
  8
BORDER
100
AcDbText
 10
35.625
 20
33.3125
 30
0.0
 40
0.375
  1
2
 72
     1
 11
35.75
 21
33.5
 31
0.0
100
AcDbText
 73
     2
  0
TEXT
  5
451
330
39B
100
AcDbEntity
  8
BORDER
100
AcDbText
 10
41.1875
 20
33.3125
 30
0.0
 40
0.375
  1
1
 72
     1
 11
41.25
 21
33.5
 31
0.0
100
AcDbText
 73
     2
  0
TEXT
  5
452
330
39B
100
AcDbEntity
  8
BORDER
100
AcDbText
 10
30.125
 20
33.3125
 30
0.0
 40
0.375
  1
3
 72
     1
 11
30.25
 21
33.5
 31
0.0
100
AcDbText
 73
     2
  0
TEXT
  5
453
330
39B
100
AcDbEntity
  8
BORDER
100
AcDbText
 10
8.125
 20
33.3125
 30
0.0
 40
0.375
  1
7
 72
     1
 11
8.25
 21
33.5
 31
0.0
100
AcDbText
 73
     2
  0
TEXT
  5
454
330
39B
100
AcDbEntity
  8
BORDER
100
AcDbText
 10
13.625
 20
33.3125
 30
0.0
 40
0.375
  1
6
 72
     1
 11
13.75
 21
33.5
 31
0.0
100
AcDbText
 73
     2
  0
TEXT
  5
455
330
39B
100
AcDbEntity
  8
BORDER
100
AcDbText
 10
19.125
 20
33.3125
 30
0.0
 40
0.375
  1
5
 72
     1
 11
19.25
 21
33.5
 31
0.0
100
AcDbText
 73
     2
  0
TEXT
  5
456
330
39B
100
AcDbEntity
  8
BORDER
100
AcDbText
 10
2.625
 20
33.3125
 30
0.0
 40
0.375
  1
8
 72
     1
 11
2.75
 21
33.5
 31
0.0
100
AcDbText
 73
     2
  0
TEXT
  5
457
330
39B
100
AcDbEntity
  8
BORDER
100
AcDbText
 10
24.625
 20
33.3125
 30
0.0
 40
0.375
  1
4
 72
     1
 11
24.75
 21
33.5
 31
0.0
100
AcDbText
 73
     2
  0
TEXT
  5
458
330
39B
100
AcDbEntity
  8
BORDER
100
AcDbText
 10
43.62499999999999
 20
27.4375
 30
0.0
 40
0.375
  1
G
 72
     1
 11
43.75
 21
27.625
 31
0.0
100
AcDbText
 73
     2
  0
TEXT
  5
459
330
39B
100
AcDbEntity
  8
BORDER
100
AcDbText
 10
43.62499999999999
 20
31.6875
 30
0.0
 40
0.375
  1
H
 72
     1
 11
43.75
 21
31.875
 31
0.0
100
AcDbText
 73
     2
  0
TEXT
  5
45A
330
39B
100
AcDbEntity
  8
BORDER
100
AcDbText
 10
43.62499999999999
 20
23.1875
 30
0.0
 40
0.375
  1
F
 72
     1
 11
43.75
 21
23.37499999999999
 31
0.0
100
AcDbText
 73
     2
  0
TEXT
  5
45B
330
39B
100
AcDbEntity
  8
BORDER
100
AcDbText
 10
43.62499999999999
 20
14.6875
 30
0.0
 40
0.375
  1
D
 72
     1
 11
43.75
 21
14.875
 31
0.0
100
AcDbText
 73
     2
  0
TEXT
  5
45C
330
39B
100
AcDbEntity
  8
BORDER
100
AcDbText
 10
43.62499999999999
 20
1.9375
 30
0.0
 40
0.375
  1
A
 72
     1
 11
43.75
 21
2.125
 31
0.0
100
AcDbText
 73
     2
  0
TEXT
  5
45D
330
39B
100
AcDbEntity
  8
BORDER
100
AcDbText
 10
43.62499999999999
 20
6.1875
 30
0.0
 40
0.375
  1
B
 72
     1
 11
43.75
 21
6.375
 31
0.0
100
AcDbText
 73
     2
  0
TEXT
  5
45E
330
39B
100
AcDbEntity
  8
BORDER
100
AcDbText
 10
43.62499999999999
 20
10.43749999999999
 30
0.0
 40
0.375
  1
C
 72
     1
 11
43.75
 21
10.625
 31
0.0
100
AcDbText
 73
     2
  0
TEXT
  5
45F
330
39B
100
AcDbEntity
  8
BORDER
100
AcDbText
 10
43.62499999999999
 20
18.9375
 30
0.0
 40
0.375
  1
E
 72
     1
 11
43.75
 21
19.125
 31
0.0
100
AcDbText
 73
     2
  0
TEXT
  5
460
330
39B
100
AcDbEntity
  8
BORDER
100
AcDbText
 10
0.125
 20
1.9375
 30
0.0
 40
0.375
  1
A
 72
     1
 11
0.25
 21
2.125
 31
0.0
100
AcDbText
 73
     2
  0
TEXT
  5
461
330
39B
100
AcDbEntity
  8
BORDER
100
AcDbText
 10
0.125
 20
6.1875
 30
0.0
 40
0.375
  1
B
 72
     1
 11
0.25
 21
6.375
 31
0.0
100
AcDbText
 73
     2
  0
TEXT
  5
462
330
39B
100
AcDbEntity
  8
BORDER
100
AcDbText
 10
0.125
 20
10.43749999999999
 30
0.0
 40
0.375
  1
C
 72
     1
 11
0.25
 21
10.625
 31
0.0
100
AcDbText
 73
     2
  0
TEXT
  5
463
330
39B
100
AcDbEntity
  8
BORDER
100
AcDbText
 10
0.125
 20
14.6875
 30
0.0
 40
0.375
  1
D
 72
     1
 11
0.25
 21
14.875
 31
0.0
100
AcDbText
 73
     2
  0
TEXT
  5
464
330
39B
100
AcDbEntity
  8
BORDER
100
AcDbText
 10
0.125
 20
18.9375
 30
0.0
 40
0.375
  1
E
 72
     1
 11
0.25
 21
19.125
 31
0.0
100
AcDbText
 73
     2
  0
TEXT
  5
465
330
39B
100
AcDbEntity
  8
BORDER
100
AcDbText
 10
0.125
 20
23.1875
 30
0.0
 40
0.375
  1
F
 72
     1
 11
0.25
 21
23.37499999999999
 31
0.0
100
AcDbText
 73
     2
  0
TEXT
  5
466
330
39B
100
AcDbEntity
  8
BORDER
100
AcDbText
 10
0.125
 20
27.4375
 30
0.0
 40
0.375
  1
G
 72
     1
 11
0.25
 21
27.625
 31
0.0
100
AcDbText
 73
     2
  0
TEXT
  5
467
330
39B
100
AcDbEntity
  8
BORDER
100
AcDbText
 10
0.125
 20
31.6875
 30
0.0
 40
0.375
  1
H
 72
     1
 11
0.25
 21
31.875
 31
0.0
100
AcDbText
 73
     2
  0
TEXT
  5
468
330
39B
100
AcDbEntity
  8
BORDER
100
AcDbText
 10
41.1875
 20
0.3125
 30
0.0
 40
0.375
  1
1
 72
     1
 11
41.25
 21
0.5
 31
0.0
100
AcDbText
 73
     2
  0
TEXT
  5
469
330
39B
100
AcDbEntity
  8
BORDER
100
AcDbText
 10
35.625
 20
0.3125
 30
0.0
 40
0.375
  1
2
 72
     1
 11
35.75
 21
0.5
 31
0.0
100
AcDbText
 73
     2
  0
TEXT
  5
46A
330
39B
100
AcDbEntity
  8
BORDER
100
AcDbText
 10
30.125
 20
0.3125
 30
0.0
 40
0.375
  1
3
 72
     1
 11
30.25
 21
0.5
 31
0.0
100
AcDbText
 73
     2
  0
TEXT
  5
46B
330
39B
100
AcDbEntity
  8
BORDER
100
AcDbText
 10
24.625
 20
0.3125
 30
0.0
 40
0.375
  1
4
 72
     1
 11
24.75
 21
0.5
 31
0.0
100
AcDbText
 73
     2
  0
TEXT
  5
46C
330
39B
100
AcDbEntity
  8
BORDER
100
AcDbText
 10
19.125
 20
0.3125
 30
0.0
 40
0.375
  1
5
 72
     1
 11
19.25
 21
0.5
 31
0.0
100
AcDbText
 73
     2
  0
TEXT
  5
46D
330
39B
100
AcDbEntity
  8
BORDER
100
AcDbText
 10
13.625
 20
0.3125
 30
0.0
 40
0.375
  1
6
 72
     1
 11
13.75
 21
0.5
 31
0.0
100
AcDbText
 73
     2
  0
TEXT
  5
46E
330
39B
100
AcDbEntity
  8
BORDER
100
AcDbText
 10
8.125
 20
0.3125
 30
0.0
 40
0.375
  1
7
 72
     1
 11
8.25
 21
0.5
 31
0.0
100
AcDbText
 73
     2
  0
TEXT
  5
46F
330
39B
100
AcDbEntity
  8
BORDER
100
AcDbText
 10
2.625
 20
0.3125
 30
0.0
 40
0.375
  1
8
 72
     1
 11
2.75
 21
0.5
 31
0.0
100
AcDbText
 73
     2
  0
ENDBLK
  5
471
330
39B
100
AcDbEntity
  8
0
100
AcDbBlockEnd
  0
ENDSEC
  0
SECTION
  2
ENTITIES
  0
LINE
  5
2F
330
A
100
AcDbEntity
  8
1
  6
Continuous
 62
    92
100
AcDbLine
 10
40.4858111213
 20
14.9455822216
 30
0.0
 11
40.22110523899999
 21
14.9455822216
 31
0.0
  0
LINE
  5
30
330
A
100
AcDbEntity
  8
1
  6
Continuous
 62
    92
100
AcDbLine
 10
40.22110523899999
 20
14.9455822216
 30
0.0
 11
40.22110523899999
 21
15.2102881039
 31
0.0
  0
LINE
  5
31
330
A
100
AcDbEntity
  8
1
  6
Continuous
 62
    92
100
AcDbLine
 10
40.22110523899999
 20
15.2102881039
 30
0.0
 11
40.4858111213
 21
15.2102881039
 31
0.0
  0
LINE
  5
32
330
A
100
AcDbEntity
  8
1
  6
Continuous
 62
    92
100
AcDbLine
 10
40.4858111213
 20
15.2102881039
 30
0.0
 11
40.4858111213
 21
14.9455822216
 31
0.0
  0
LINE
  5
33
330
A
100
AcDbEntity
  8
1
  6
Continuous
 62
    92
100
AcDbLine
 10
32.51847929109999
 20
12.51165636849999
 30
0.0
 11
32.7056561638
 21
12.6988332412
 31
0.0
  0
LINE
  5
34
330
A
100
AcDbEntity
  8
1
  6
Continuous
 62
    92
100
AcDbLine
 10
32.7056561638
 20
12.6988332412
 30
0.0
 11
32.8927720014
 21
12.51165636849999
 31
0.0
  0
LINE
  5
35
330
A
100
AcDbEntity
  8
1
  6
Continuous
 62
    92
100
AcDbLine
 10
32.8927720014
 20
12.51165636849999
 30
0.0
 11
32.7056561638
 21
12.3244803934
 31
0.0
  0
LINE
  5
36
330
A
100
AcDbEntity
  8
1
  6
Continuous
 62
    92
100
AcDbLine
 10
32.7056561638
 20
12.3244803934
 30
0.0
 11
32.51847929109999
 21
12.51165636849999
 31
0.0
  0
LINE
  5
37
330
A
100
AcDbEntity
  8
1
  6
Continuous
 62
    92
100
AcDbLine
 10
7.129906149499998
 20
7.0
 30
0.0
 11
7.129906149499998
 21
4.6470585992
 31
0.0
  0
LINE
  5
39
330
A
100
AcDbEntity
  8
1
  6
Continuous
 62
    92
100
AcDbLine
 10
14.0
 20
7.0
 30
0.0
 11
14.0
 21
4.6470588235
 31
0.0
  0
LINE
  5
3A
330
A
100
AcDbEntity
  8
1
  6
Continuous
 62
    92
100
AcDbLine
 10
16.95517506319999
 20
7.0
 30
0.0
 11
16.95517506319999
 21
4.6470588235
 31
0.0
  0
LINE
  5
3B
330
A
100
AcDbEntity
  8
1
  6
Continuous
 62
    92
100
AcDbLine
 10
19.91035012639999
 20
7.0
 30
0.0
 11
19.91035012639999
 21
4.6470588235
 31
0.0
  0
LINE
  5
3C
330
A
100
AcDbEntity
  8
1
  6
Continuous
 62
    92
100
AcDbLine
 10
22.8655287799
 20
7.0
 30
0.0
 11
22.8655287799
 21
4.6470588235
 31
0.0
  0
LINE
  5
3D
330
A
100
AcDbEntity
  8
1
  6
Continuous
 62
    92
100
AcDbLine
 10
7.1299061495
 20
7.0
 30
0.0
 11
22.8655287799
 21
7.0
 31
0.0
  0
LINE
  5
3E
330
A
100
AcDbEntity
  8
1
  6
Continuous
 62
    92
100
AcDbLine
 10
7.129906149499999
 20
6.2157058716
 30
0.0
 11
22.8655287799
 21
6.2157058716
 31
0.0
  0
LINE
  5
3F
330
A
100
AcDbEntity
  8
1
  6
Continuous
 62
    92
100
AcDbLine
 10
7.129906149499999
 20
5.431352952000001
 30
0.0
 11
22.8655287799
 21
5.431352952
 31
0.0
  0
LINE
  5
40
330
A
100
AcDbEntity
  8
1
  6
Continuous
 62
    92
100
AcDbLine
 10
7.129906149499999
 20
4.647058599200001
 30
0.0
 11
22.8655287799
 21
4.6470585992
 31
0.0
  0
LINE
  5
43
330
A
100
AcDbEntity
  8
11
  6
Continuous
 62
    92
100
AcDbLine
 10
4.260325712299998
 20
23.5792510088
 30
0.0
 11
10.06888714959999
 21
23.5792510088
 31
0.0
  0
LINE
  5
44
330
A
100
AcDbEntity
  8
11
  6
Continuous
 62
    92
100
AcDbLine
 10
10.06888714959999
 20
23.5792510088
 30
0.0
 11
10.06888714959999
 21
21.0674407061
 31
0.0
  0
LINE
  5
45
330
A
100
AcDbEntity
  8
11
  6
Continuous
 62
    92
100
AcDbLine
 10
10.06888714959999
 20
21.0674407061
 30
0.0
 11
4.260325712299998
 21
21.0674407061
 31
0.0
  0
LINE
  5
46
330
A
100
AcDbEntity
  8
11
  6
Continuous
 62
    92
100
AcDbLine
 10
4.260325712299998
 20
21.0674407061
 30
0.0
 11
4.260325712299998
 21
23.5792510088
 31
0.0
  0
LINE
  5
47
330
A
100
AcDbEntity
  8
11
  6
Continuous
 62
    92
100
AcDbLine
 10
4.260325712299998
 20
22.3233467551
 30
0.0
 11
10.06888714959999
 21
22.3233467551
 31
0.0
  0
LINE
  5
48
330
A
100
AcDbEntity
  8
11
  6
Continuous
 62
    92
100
AcDbLine
 10
8.028040268799994
 20
23.5792510088
 30
0.0
 11
8.028040268799994
 21
21.0674407061
 31
0.0
  0
LINE
  5
49
330
A
100
AcDbEntity
  8
11
  6
CENTERX2
 62
    92
100
AcDbLine
 10
38.5015940947
 20
6.67621163765
 30
0.0
 11
40.555764591
 21
6.67621163765
 31
0.0
  0
LINE
  5
4A
330
A
100
AcDbEntity
  8
11
  6
CENTERX2
 62
    92
100
AcDbLine
 10
40.0793062098
 20
7.16990975775
 30
0.0
 11
40.0793062098
 21
6.18303770185
 31
0.0
  0
LINE
  5
4B
330
A
100
AcDbEntity
  8
11
  6
Continuous
 62
    92
100
AcDbLine
 10
39.4317303826
 20
6.67621163765
 30
0.0
 11
39.4317303826
 21
7.10792945415
 31
0.0
  0
LINE
  5
4C
330
A
100
AcDbEntity
  8
11
  6
Continuous
 62
    92
100
AcDbLine
 10
39.4317303826
 20
7.10792945415
 30
0.0
 11
38.56826961739999
 21
6.89207054585
 31
0.0
  0
LINE
  5
4D
330
A
100
AcDbEntity
  8
11
  6
Continuous
 62
    92
100
AcDbLine
 10
38.56826961739999
 20
6.89207054585
 30
0.0
 11
38.56826961739999
 21
6.67621163765
 31
0.0
  0
LINE
  5
4E
330
A
100
AcDbEntity
  8
11
  6
Continuous
 62
    92
100
AcDbLine
 10
39.4317303826
 20
6.67621163765
 30
0.0
 11
39.4317303826
 21
6.244493821149999
 31
0.0
  0
LINE
  5
4F
330
A
100
AcDbEntity
  8
11
  6
Continuous
 62
    92
100
AcDbLine
 10
39.4317303826
 20
6.244493821149999
 30
0.0
 11
38.56826961739999
 21
6.46035272935
 31
0.0
  0
LINE
  5
50
330
A
100
AcDbEntity
  8
11
  6
Continuous
 62
    92
100
AcDbLine
 10
38.56826961739999
 20
6.46035272935
 30
0.0
 11
38.56826961739999
 21
6.67621163765
 31
0.0
  0
LINE
  5
51
330
A
100
AcDbEntity
  8
4
  6
Continuous
 62
    92
100
AcDbLine
 10
41.1459494198
 20
11.7464209164
 30
0.0
 11
39.16289206109999
 21
11.7464209164
 31
0.0
  0
LINE
  5
52
330
A
100
AcDbEntity
  8
4
 62
    92
100
AcDbLine
 10
39.16289206109999
 20
11.7464209164
 30
0.0
 11
39.3040685317
 21
11.6993620929
 31
0.0
  0
LINE
  5
53
330
A
100
AcDbEntity
  8
4
 62
    92
100
AcDbLine
 10
39.3040685317
 20
11.6993620929
 30
0.0
 11
39.3040685317
 21
11.7934797399
 31
0.0
  0
LINE
  5
54
330
A
100
AcDbEntity
  8
4
 62
    92
100
AcDbLine
 10
39.3040685317
 20
11.7934797399
 30
0.0
 11
39.16289206109999
 21
11.7464209164
 31
0.0
  0
LINE
  5
55
330
A
100
AcDbEntity
  8
4
  6
Continuous
 62
    92
100
AcDbLine
 10
39.16289206109999
 20
11.7464209164
 30
0.0
 11
38.7511273552
 21
11.7464209164
 31
0.0
  0
LINE
  5
56
330
A
100
AcDbEntity
  8
4
 62
    92
100
AcDbLine
 10
38.7511273552
 20
11.7464209164
 30
0.0
 11
38.60995088459999
 21
11.7934797399
 31
0.0
  0
LINE
  5
57
330
A
100
AcDbEntity
  8
4
 62
    92
100
AcDbLine
 10
38.60995088459999
 20
11.7934797399
 30
0.0
 11
38.60995088459999
 21
11.6993620929
 31
0.0
  0
LINE
  5
58
330
A
100
AcDbEntity
  8
4
 62
    92
100
AcDbLine
 10
38.60995088459999
 20
11.6993620929
 30
0.0
 11
38.7511273552
 21
11.7464209164
 31
0.0
  0
LINE
  5
59
330
A
100
AcDbEntity
  8
4
  6
Continuous
 62
    92
100
AcDbLine
 10
38.7511273552
 20
11.7464209164
 30
0.0
 11
38.3393626493
 21
11.7464209164
 31
0.0
  0
LINE
  5
5A
330
A
100
AcDbEntity
  8
4
  6
Continuous
 62
    92
100
AcDbLine
 10
39.16289206109999
 20
13.5325384701
 30
0.0
 11
39.16289206109999
 21
11.7464209164
 31
0.0
  0
LINE
  5
5B
330
A
100
AcDbEntity
  8
4
  6
Continuous
 62
    92
100
AcDbLine
 10
38.7511273552
 20
13.5325384701
 30
0.0
 11
38.7511273552
 21
11.7464209164
 31
0.0
  0
LINE
  5
5C
330
A
100
AcDbEntity
  8
4
 62
    92
100
AcDbLine
 10
31.5663057215
 20
14.4608329324
 30
0.0
 11
31.6328542539
 21
14.3277291325
 31
0.0
  0
LINE
  5
5D
330
A
100
AcDbEntity
  8
4
 62
    92
100
AcDbLine
 10
31.6328542539
 20
14.3277291325
 30
0.0
 11
31.6994068274
 21
14.3942790119
 31
0.0
  0
LINE
  5
5E
330
A
100
AcDbEntity
  8
4
 62
    92
100
AcDbLine
 10
31.6994068274
 20
14.3942790119
 30
0.0
 11
31.5663057215
 21
14.4608329324
 31
0.0
  0
LINE
  5
5F
330
A
100
AcDbEntity
  8
4
  6
Continuous
 62
    92
100
AcDbLine
 10
31.5663057215
 20
14.4608329324
 30
0.0
 11
35.72577263329999
 21
10.3013624304
 31
0.0
  0
LINE
  5
60
330
A
100
AcDbEntity
  8
4
 62
    92
100
AcDbLine
 10
35.72577263329999
 20
10.3013624304
 30
0.0
 11
35.6592241009
 21
10.4344662303
 31
0.0
  0
LINE
  5
61
330
A
100
AcDbEntity
  8
4
 62
    92
100
AcDbLine
 10
35.6592241009
 20
10.4344662303
 30
0.0
 11
35.5926715274
 21
10.36791635089999
 31
0.0
  0
LINE
  5
62
330
A
100
AcDbEntity
  8
4
 62
    92
100
AcDbLine
 10
35.5926715274
 20
10.36791635089999
 30
0.0
 11
35.72577263329999
 21
10.3013624304
 31
0.0
  0
LINE
  5
63
330
A
100
AcDbEntity
  8
4
  6
Continuous
 62
    92
100
AcDbLine
 10
34.79753920609999
 20
17.6920691098
 30
0.0
 11
31.5663057215
 21
14.4608329324
 31
0.0
  0
LINE
  5
64
330
A
100
AcDbEntity
  8
4
  6
Continuous
 62
    92
100
AcDbLine
 10
38.9570097082
 20
13.5325977101
 30
0.0
 11
35.72577263329999
 21
10.3013624304
 31
0.0
  0
LINE
  5
65
330
A
100
AcDbEntity
  8
4
 62
    92
100
AcDbLine
 10
22.63653923479999
 20
20.9653037576
 30
0.0
 11
22.4953627642
 21
21.0123625812
 31
0.0
  0
LINE
  5
66
330
A
100
AcDbEntity
  8
4
 62
    92
100
AcDbLine
 10
22.4953627642
 20
21.0123625812
 30
0.0
 11
22.4953627642
 21
20.9182449341
 31
0.0
  0
LINE
  5
67
330
A
100
AcDbEntity
  8
4
 62
    92
100
AcDbLine
 10
22.4953627642
 20
20.9182449341
 30
0.0
 11
22.63653923479999
 21
20.9653037576
 31
0.0
  0
LINE
  5
68
330
A
100
AcDbEntity
  8
4
  6
Continuous
 62
    92
100
AcDbLine
 10
22.63653923479999
 20
20.9653037576
 30
0.0
 11
12.84259751259999
 21
20.9653037576
 31
0.0
  0
LINE
  5
69
330
A
100
AcDbEntity
  8
4
 62
    92
100
AcDbLine
 10
12.84259751259999
 20
20.9653037576
 30
0.0
 11
12.98377398319999
 21
20.9182449341
 31
0.0
  0
LINE
  5
6A
330
A
100
AcDbEntity
  8
4
 62
    92
100
AcDbLine
 10
12.98377398319999
 20
20.9182449341
 30
0.0
 11
12.98377398319999
 21
21.0123625812
 31
0.0
  0
LINE
  5
6B
330
A
100
AcDbEntity
  8
4
 62
    92
100
AcDbLine
 10
12.98377398319999
 20
21.0123625812
 30
0.0
 11
12.84259751259999
 21
20.9653037576
 31
0.0
  0
LINE
  5
6C
330
A
100
AcDbEntity
  8
4
  6
Continuous
 62
    92
100
AcDbLine
 10
22.63653923479999
 20
20.4873033412
 30
0.0
 11
22.63653923479999
 21
20.9653037576
 31
0.0
  0
LINE
  5
6D
330
A
100
AcDbEntity
  8
4
  6
Continuous
 62
    92
100
AcDbLine
 10
12.84259751259999
 20
15.9653037576
 30
0.0
 11
12.84259751259999
 21
20.9653037576
 31
0.0
  0
LINE
  5
6E
330
A
100
AcDbEntity
  8
4
 62
    92
100
AcDbLine
 10
12.84259751259999
 20
21.7887739294
 30
0.0
 11
12.98377398319999
 21
21.7417151059
 31
0.0
  0
LINE
  5
6F
330
A
100
AcDbEntity
  8
4
 62
    92
100
AcDbLine
 10
12.98377398319999
 20
21.7417151059
 30
0.0
 11
12.98377398319999
 21
21.8358327529
 31
0.0
  0
LINE
  5
70
330
A
100
AcDbEntity
  8
4
 62
    92
100
AcDbLine
 10
12.98377398319999
 20
21.8358327529
 30
0.0
 11
12.84259751259999
 21
21.7887739294
 31
0.0
  0
LINE
  5
71
330
A
100
AcDbEntity
  8
4
  6
Continuous
 62
    92
100
AcDbLine
 10
12.84259751259999
 20
21.7887739294
 30
0.0
 11
24.5775972254
 21
21.7887739294
 31
0.0
  0
LINE
  5
72
330
A
100
AcDbEntity
  8
4
 62
    92
100
AcDbLine
 10
24.5775972254
 20
21.7887739294
 30
0.0
 11
24.43642075479999
 21
21.8358327529
 31
0.0
  0
LINE
  5
73
330
A
100
AcDbEntity
  8
4
 62
    92
100
AcDbLine
 10
24.43642075479999
 20
21.8358327529
 30
0.0
 11
24.43642075479999
 21
21.7417151059
 31
0.0
  0
LINE
  5
74
330
A
100
AcDbEntity
  8
4
 62
    92
100
AcDbLine
 10
24.43642075479999
 20
21.7417151059
 30
0.0
 11
24.5775972254
 21
21.7887739294
 31
0.0
  0
LINE
  5
75
330
A
100
AcDbEntity
  8
4
  6
Continuous
 62
    92
100
AcDbLine
 10
12.84259751259999
 20
20.9653037576
 30
0.0
 11
12.84259751259999
 21
21.7887739294
 31
0.0
  0
LINE
  5
76
330
A
100
AcDbEntity
  8
4
  6
Continuous
 62
    92
100
AcDbLine
 10
24.5775972254
 20
20.4873033412
 30
0.0
 11
24.5775972254
 21
21.7887739294
 31
0.0
  0
LINE
  5
77
330
A
100
AcDbEntity
  8
4
 62
    92
100
AcDbLine
 10
12.84259751259999
 20
22.61230334119999
 30
0.0
 11
12.98377398319999
 21
22.5652445176
 31
0.0
  0
LINE
  5
78
330
A
100
AcDbEntity
  8
4
 62
    92
100
AcDbLine
 10
12.98377398319999
 20
22.5652445176
 30
0.0
 11
12.98377398319999
 21
22.6593621647
 31
0.0
  0
LINE
  5
79
330
A
100
AcDbEntity
  8
4
 62
    92
100
AcDbLine
 10
12.98377398319999
 20
22.6593621647
 30
0.0
 11
12.84259751259999
 21
22.61230334119999
 31
0.0
  0
LINE
  5
7A
330
A
100
AcDbEntity
  8
4
  6
Continuous
 62
    92
100
AcDbLine
 10
12.84259751259999
 20
22.61230334119999
 30
0.0
 11
27.66595099949999
 21
22.61230334119999
 31
0.0
  0
LINE
  5
7B
330
A
100
AcDbEntity
  8
4
 62
    92
100
AcDbLine
 10
27.66595099949999
 20
22.61230334119999
 30
0.0
 11
27.5247745289
 21
22.6593621647
 31
0.0
  0
LINE
  5
7C
330
A
100
AcDbEntity
  8
4
 62
    92
100
AcDbLine
 10
27.5247745289
 20
22.6593621647
 30
0.0
 11
27.5247745289
 21
22.5652445176
 31
0.0
  0
LINE
  5
7D
330
A
100
AcDbEntity
  8
4
 62
    92
100
AcDbLine
 10
27.5247745289
 20
22.5652445176
 30
0.0
 11
27.66595099949999
 21
22.61230334119999
 31
0.0
  0
LINE
  5
7E
330
A
100
AcDbEntity
  8
4
  6
Continuous
 62
    92
100
AcDbLine
 10
12.84259751259999
 20
21.7887739294
 30
0.0
 11
12.84259751259999
 21
22.61230334119999
 31
0.0
  0
LINE
  5
7F
330
A
100
AcDbEntity
  8
4
  6
Continuous
 62
    92
100
AcDbLine
 10
27.66595099949999
 20
17.7292449054
 30
0.0
 11
27.66595099949999
 21
22.61230334119999
 31
0.0
  0
LINE
  5
80
330
A
100
AcDbEntity
  8
11
  6
Continuous
 62
    92
100
AcDbLine
 10
37.17130414179999
 20
20.1410688513
 30
0.0
 11
37.17130414179999
 21
20.1171269136
 31
0.0
  0
LINE
  5
81
330
A
100
AcDbEntity
  8
11
  6
Continuous
 62
    92
100
AcDbLine
 10
36.58328067549999
 20
20.1171269136
 30
0.0
 11
36.58328067549999
 21
20.1410688513
 31
0.0
  0
LINE
  5
82
330
A
100
AcDbEntity
  8
11
  6
Continuous
 62
    92
100
AcDbLine
 10
36.58328067549999
 20
20.1410688513
 30
0.0
 11
37.17130414179999
 21
20.1410688513
 31
0.0
  0
LINE
  5
83
330
A
100
AcDbEntity
  8
11
  6
Continuous
 62
    92
100
AcDbLine
 10
37.5828929228
 20
18.4005382762
 30
0.0
 11
37.5828929228
 21
19.2001849904
 31
0.0
  0
LINE
  5
84
330
A
100
AcDbEntity
  8
11
  6
Continuous
 62
    92
100
AcDbLine
 10
36.1716559915
 20
18.4005382762
 30
0.0
 11
36.1716559915
 21
19.2002442304
 31
0.0
  0
LINE
  5
85
330
A
100
AcDbEntity
  8
11
  6
CENTERX2
 62
    92
100
AcDbLine
 10
36.87724393959999
 20
20.2354220222
 30
0.0
 11
36.87724393959999
 21
18.178009482
 31
0.0
  0
LINE
  5
86
330
A
100
AcDbEntity
  8
11
  6
CENTERX2
 62
    92
100
AcDbLine
 10
36.0834206974
 20
19.4060098985
 30
0.0
 11
37.67106718169999
 21
19.4060098985
 31
0.0
  0
LINE
  5
87
330
A
100
AcDbEntity
  8
11
  6
Continuous
 62
    92
100
AcDbLine
 10
36.1422442268
 20
18.25942140469999
 30
0.0
 11
37.6123046875
 21
18.25942140469999
 31
0.0
  0
LINE
  5
88
330
A
100
AcDbEntity
  8
11
  6
Continuous
 62
    92
100
AcDbLine
 10
37.6123046875
 20
18.25942140469999
 30
0.0
 11
37.6123046875
 21
18.4005382762
 31
0.0
  0
LINE
  5
89
330
A
100
AcDbEntity
  8
11
  6
Continuous
 62
    92
100
AcDbLine
 10
37.6123046875
 20
18.4005382762
 30
0.0
 11
36.1422442268
 21
18.4005382762
 31
0.0
  0
LINE
  5
8A
330
A
100
AcDbEntity
  8
11
  6
Continuous
 62
    92
100
AcDbLine
 10
36.1422442268
 20
18.4005382762
 30
0.0
 11
36.1422442268
 21
18.25942140469999
 31
0.0
  0
LINE
  5
8B
330
A
100
AcDbEntity
  8
11
  6
Continuous
 62
    92
100
AcDbLine
 10
38.75889318129999
 20
20.1410688513
 30
0.0
 11
38.75889318129999
 21
20.1171269136
 31
0.0
  0
LINE
  5
8C
330
A
100
AcDbEntity
  8
11
  6
Continuous
 62
    92
100
AcDbLine
 10
38.17091997929999
 20
20.1171269136
 30
0.0
 11
38.17091997929999
 21
20.1410688513
 31
0.0
  0
LINE
  5
8D
330
A
100
AcDbEntity
  8
11
  6
Continuous
 62
    92
100
AcDbLine
 10
38.17091997929999
 20
20.1410688513
 30
0.0
 11
38.75889318129999
 21
20.1410688513
 31
0.0
  0
LINE
  5
8E
330
A
100
AcDbEntity
  8
11
  6
Continuous
 62
    92
100
AcDbLine
 10
39.17053940719999
 20
18.4005382762
 30
0.0
 11
39.17053940719999
 21
19.2001849904
 31
0.0
  0
LINE
  5
8F
330
A
100
AcDbEntity
  8
11
  6
Continuous
 62
    92
100
AcDbLine
 10
37.7593024759
 20
18.4005382762
 30
0.0
 11
37.7593024759
 21
19.2002442304
 31
0.0
  0
LINE
  5
90
330
A
100
AcDbEntity
  8
11
  6
CENTERX2
 62
    92
100
AcDbLine
 10
38.4648904239
 20
20.2354220222
 30
0.0
 11
38.4648904239
 21
18.178009482
 31
0.0
  0
LINE
  5
91
330
A
100
AcDbEntity
  8
11
  6
CENTERX2
 62
    92
100
AcDbLine
 10
37.67106718169999
 20
19.4060098985
 30
0.0
 11
39.25871366609999
 21
19.4060098985
 31
0.0
  0
LINE
  5
92
330
A
100
AcDbEntity
  8
11
  6
Continuous
 62
    92
100
AcDbLine
 10
37.7298907112
 20
18.25942140469999
 30
0.0
 11
39.1999511719
 21
18.25942140469999
 31
0.0
  0
LINE
  5
93
330
A
100
AcDbEntity
  8
11
  6
Continuous
 62
    92
100
AcDbLine
 10
39.1999511719
 20
18.25942140469999
 30
0.0
 11
39.1999511719
 21
18.4005382762
 31
0.0
  0
LINE
  5
94
330
A
100
AcDbEntity
  8
11
  6
Continuous
 62
    92
100
AcDbLine
 10
39.1999511719
 20
18.4005382762
 30
0.0
 11
37.7298907112
 21
18.4005382762
 31
0.0
  0
LINE
  5
95
330
A
100
AcDbEntity
  8
11
  6
Continuous
 62
    92
100
AcDbLine
 10
37.7298907112
 20
18.4005382762
 30
0.0
 11
37.7298907112
 21
18.25942140469999
 31
0.0
  0
LINE
  5
96
330
A
100
AcDbEntity
  8
11
  6
Continuous
 62
    92
100
AcDbLine
 10
21.9015377269
 20
18.25942140469999
 30
0.0
 11
23.37153894759999
 21
18.25942140469999
 31
0.0
  0
LINE
  5
97
330
A
100
AcDbEntity
  8
11
  6
Continuous
 62
    92
100
AcDbLine
 10
23.37153894759999
 20
18.25942140469999
 30
0.0
 11
23.37153894759999
 21
18.4005382762
 31
0.0
  0
LINE
  5
98
330
A
100
AcDbEntity
  8
11
  6
Continuous
 62
    92
100
AcDbLine
 10
23.37153894759999
 20
18.4005382762
 30
0.0
 11
21.9015377269
 21
18.4005382762
 31
0.0
  0
LINE
  5
99
330
A
100
AcDbEntity
  8
11
  6
Continuous
 62
    92
100
AcDbLine
 10
21.9015377269
 20
18.4005382762
 30
0.0
 11
21.9015377269
 21
18.25942140469999
 31
0.0
  0
LINE
  5
9A
330
A
100
AcDbEntity
  8
11
  6
Continuous
 62
    92
100
AcDbLine
 10
23.28336289349999
 20
18.4005382762
 30
0.0
 11
23.28336289349999
 21
20.1410688513
 31
0.0
  0
LINE
  5
9B
330
A
100
AcDbEntity
  8
11
  6
Continuous
 62
    92
100
AcDbLine
 10
23.28336289349999
 20
20.1410688513
 30
0.0
 11
21.98971557619999
 21
20.1410688513
 31
0.0
  0
LINE
  5
9C
330
A
100
AcDbEntity
  8
11
  6
Continuous
 62
    92
100
AcDbLine
 10
21.98971557619999
 20
20.1410688513
 30
0.0
 11
21.1665380141
 21
20.1410688513
 31
0.0
  0
LINE
  5
9D
330
A
100
AcDbEntity
  8
11
  6
Continuous
 62
    92
100
AcDbLine
 10
21.98971557619999
 20
18.6710101857
 30
0.0
 11
21.1665380141
 21
18.6710101857
 31
0.0
  0
LINE
  5
9E
330
A
100
AcDbEntity
  8
11
  6
Continuous
 62
    92
100
AcDbLine
 10
23.28336289349999
 20
20.1410688513
 30
0.0
 11
23.22424495919999
 21
20.0720093671
 31
0.0
  0
LINE
  5
9F
330
A
100
AcDbEntity
  8
11
  6
Continuous
 62
    92
100
AcDbLine
 10
23.22424495919999
 20
20.0720093671
 30
0.0
 11
23.13632660399999
 21
19.9584091877
 31
0.0
  0
LINE
  5
A0
330
A
100
AcDbEntity
  8
11
  6
Continuous
 62
    92
100
AcDbLine
 10
23.13632660399999
 20
19.9584091877
 30
0.0
 11
23.0612900695
 21
19.8297256478
 31
0.0
  0
LINE
  5
A1
330
A
100
AcDbEntity
  8
11
  6
Continuous
 62
    92
100
AcDbLine
 10
23.0612900695
 20
19.8297256478
 30
0.0
 11
23.00240439099999
 21
19.6880240728
 31
0.0
  0
LINE
  5
A2
330
A
100
AcDbEntity
  8
11
  6
Continuous
 62
    92
100
AcDbLine
 10
23.00240439099999
 20
19.6880240728
 30
0.0
 11
22.96240817979999
 21
19.5363160356
 31
0.0
  0
LINE
  5
A3
330
A
100
AcDbEntity
  8
11
  6
Continuous
 62
    92
100
AcDbLine
 10
22.96240817979999
 20
19.5363160356
 30
0.0
 11
22.9431953466
 21
19.378390397
 31
0.0
  0
LINE
  5
A4
330
A
100
AcDbEntity
  8
11
  6
Continuous
 62
    92
100
AcDbLine
 10
22.9431953466
 20
19.378390397
 30
0.0
 11
22.94558266509999
 21
19.218518476
 31
0.0
  0
LINE
  5
A5
330
A
100
AcDbEntity
  8
11
  6
Continuous
 62
    92
100
AcDbLine
 10
22.94558266509999
 20
19.218518476
 30
0.0
 11
22.96921125259999
 21
19.0610775242
 31
0.0
  0
LINE
  5
A6
330
A
100
AcDbEntity
  8
11
  6
Continuous
 62
    92
100
AcDbLine
 10
22.96921125259999
 20
19.0610775242
 30
0.0
 11
23.01260447369999
 21
18.9101601056
 31
0.0
  0
LINE
  5
A7
330
A
100
AcDbEntity
  8
11
  6
Continuous
 62
    92
100
AcDbLine
 10
23.01260447369999
 20
18.9101601056
 30
0.0
 11
23.07336709829999
 21
18.7692403781
 31
0.0
  0
LINE
  5
A8
330
A
100
AcDbEntity
  8
11
  6
Continuous
 62
    92
100
AcDbLine
 10
23.07336709829999
 20
18.7692403781
 30
0.0
 11
23.14847878849999
 21
18.6409503713
 31
0.0
  0
LINE
  5
A9
330
A
100
AcDbEntity
  8
11
  6
Continuous
 62
    92
100
AcDbLine
 10
23.14847878849999
 20
18.6409503713
 30
0.0
 11
23.28336289349999
 21
18.4447744033
 31
0.0
  0
LINE
  5
AA
330
A
100
AcDbEntity
  8
11
  6
Continuous
 62
    92
100
AcDbLine
 10
21.98971557619999
 20
18.4005382762
 30
0.0
 11
21.98971557619999
 21
18.6710101857
 31
0.0
  0
LINE
  5
AB
330
A
100
AcDbEntity
  8
11
  6
Continuous
 62
    92
100
AcDbLine
 10
23.28336289349999
 20
18.4005382762
 30
0.0
 11
22.63653923479999
 21
19.4060098985
 31
0.0
  0
LINE
  5
AC
330
A
100
AcDbEntity
  8
11
  6
Continuous
 62
    92
100
AcDbLine
 10
22.63653923479999
 20
19.4060098985
 30
0.0
 11
21.1665380141
 21
19.4060098985
 31
0.0
  0
LINE
  5
AD
330
A
100
AcDbEntity
  8
11
  6
Continuous
 62
    92
100
AcDbLine
 10
20.25506771309999
 20
20.0381276748
 30
0.0
 11
20.25506771309999
 21
18.77389212219999
 31
0.0
  0
LINE
  5
AE
330
A
100
AcDbEntity
  8
11
  6
Continuous
 62
    92
100
AcDbLine
 10
20.25506771309999
 20
18.77389212219999
 30
0.0
 11
20.31389124249999
 21
18.7298337151
 31
0.0
  0
LINE
  5
AF
330
A
100
AcDbEntity
  8
11
  6
Continuous
 62
    92
100
AcDbLine
 10
20.31389124249999
 20
18.7298337151
 30
0.0
 11
20.7254800235
 21
18.7298337151
 31
0.0
  0
LINE
  5
B0
330
A
100
AcDbEntity
  8
11
  6
Continuous
 62
    92
100
AcDbLine
 10
20.7254800235
 20
18.7298337151
 30
0.0
 11
20.7843035529
 21
18.77389212219999
 31
0.0
  0
LINE
  5
B1
330
A
100
AcDbEntity
  8
11
  6
Continuous
 62
    92
100
AcDbLine
 10
20.7843035529
 20
18.77389212219999
 30
0.0
 11
20.7843035529
 21
20.0381276748
 31
0.0
  0
LINE
  5
B2
330
A
100
AcDbEntity
  8
11
  6
Continuous
 62
    92
100
AcDbLine
 10
20.7843035529
 20
20.0381276748
 30
0.0
 11
20.7254800235
 21
20.0822453219
 31
0.0
  0
LINE
  5
B3
330
A
100
AcDbEntity
  8
11
  6
Continuous
 62
    92
100
AcDbLine
 10
20.7254800235
 20
20.0822453219
 30
0.0
 11
20.31389124249999
 21
20.0822453219
 31
0.0
  0
LINE
  5
B4
330
A
100
AcDbEntity
  8
11
  6
Continuous
 62
    92
100
AcDbLine
 10
20.31389124249999
 20
20.0822453219
 30
0.0
 11
20.25506771309999
 21
20.0381276748
 31
0.0
  0
LINE
  5
B5
330
A
100
AcDbEntity
  8
11
  6
Continuous
 62
    92
100
AcDbLine
 10
20.7843035529
 20
20.0381276748
 30
0.0
 11
20.25506771309999
 21
20.0381276748
 31
0.0
  0
LINE
  5
B6
330
A
100
AcDbEntity
  8
11
  6
Continuous
 62
    92
100
AcDbLine
 10
20.7843035529
 20
18.77389212219999
 30
0.0
 11
20.25506771309999
 21
18.77389212219999
 31
0.0
  0
LINE
  5
B7
330
A
100
AcDbEntity
  8
11
  6
Continuous
 62
    92
100
AcDbLine
 10
20.9313031365
 20
20.0234217924
 30
0.0
 11
20.9313031365
 21
18.7885980045
 31
0.0
  0
LINE
  5
B8
330
A
100
AcDbEntity
  8
11
  6
Continuous
 62
    92
100
AcDbLine
 10
20.9313031365
 20
18.7885980045
 30
0.0
 11
21.04889095529999
 21
18.7885980045
 31
0.0
  0
LINE
  5
B9
330
A
100
AcDbEntity
  8
11
  6
Continuous
 62
    92
100
AcDbLine
 10
21.04889095529999
 20
18.7885980045
 30
0.0
 11
21.04889095529999
 21
20.0234217924
 31
0.0
  0
LINE
  5
BA
330
A
100
AcDbEntity
  8
11
  6
Continuous
 62
    92
100
AcDbLine
 10
21.04889095529999
 20
20.0234217924
 30
0.0
 11
20.9313031365
 21
20.0234217924
 31
0.0
  0
LINE
  5
BB
330
A
100
AcDbEntity
  8
11
  6
Continuous
 62
    92
100
AcDbLine
 10
20.9313031365
 20
20.0234217924
 30
0.0
 11
20.9313031365
 21
20.0822453219
 31
0.0
  0
LINE
  5
BC
330
A
100
AcDbEntity
  8
11
  6
Continuous
 62
    92
100
AcDbLine
 10
20.9313031365
 20
20.0822453219
 30
0.0
 11
20.90189137179999
 21
20.0822453219
 31
0.0
  0
LINE
  5
BD
330
A
100
AcDbEntity
  8
11
  6
Continuous
 62
    92
100
AcDbLine
 10
20.90189137179999
 20
20.0822453219
 30
0.0
 11
20.8255381864
 21
20.0381276748
 31
0.0
  0
LINE
  5
BE
330
A
100
AcDbEntity
  8
11
  6
Continuous
 62
    92
100
AcDbLine
 10
20.8255381864
 20
20.0381276748
 30
0.0
 11
20.7843035529
 21
20.0381276748
 31
0.0
  0
LINE
  5
BF
330
A
100
AcDbEntity
  8
11
  6
Continuous
 62
    92
100
AcDbLine
 10
20.90189137179999
 20
18.7298337151
 30
0.0
 11
20.90189137179999
 21
20.0822453219
 31
0.0
  0
LINE
  5
C0
330
A
100
AcDbEntity
  8
11
  6
Continuous
 62
    92
100
AcDbLine
 10
20.31389124249999
 20
18.7298337151
 30
0.0
 11
20.31389124249999
 21
20.0822453219
 31
0.0
  0
LINE
  5
C1
330
A
100
AcDbEntity
  8
11
  6
Continuous
 62
    92
100
AcDbLine
 10
20.7254800235
 20
18.7298337151
 30
0.0
 11
20.7254800235
 21
20.0822453219
 31
0.0
  0
LINE
  5
C2
330
A
100
AcDbEntity
  8
11
  6
Continuous
 62
    92
100
AcDbLine
 10
20.9313031365
 20
18.7885980045
 30
0.0
 11
20.9313031365
 21
18.7298337151
 31
0.0
  0
LINE
  5
C3
330
A
100
AcDbEntity
  8
11
  6
Continuous
 62
    92
100
AcDbLine
 10
20.9313031365
 20
18.7298337151
 30
0.0
 11
20.90189137179999
 21
18.7298337151
 31
0.0
  0
LINE
  5
C4
330
A
100
AcDbEntity
  8
11
  6
Continuous
 62
    92
100
AcDbLine
 10
20.90189137179999
 20
18.7298337151
 30
0.0
 11
20.8255381864
 21
18.77389212219999
 31
0.0
  0
LINE
  5
C5
330
A
100
AcDbEntity
  8
11
  6
Continuous
 62
    92
100
AcDbLine
 10
20.8255381864
 20
18.77389212219999
 30
0.0
 11
20.7843035529
 21
18.77389212219999
 31
0.0
  0
LINE
  5
C6
330
A
100
AcDbEntity
  8
11
  6
Continuous
 62
    92
100
AcDbLine
 10
21.04889095529999
 20
20.0822453219
 30
0.0
 11
21.04889095529999
 21
18.7298337151
 31
0.0
  0
LINE
  5
C7
330
A
100
AcDbEntity
  8
11
  6
Continuous
 62
    92
100
AcDbLine
 10
21.04889095529999
 20
18.7298337151
 30
0.0
 11
21.10771448469999
 21
18.7298337151
 31
0.0
  0
LINE
  5
C8
330
A
100
AcDbEntity
  8
11
  6
Continuous
 62
    92
100
AcDbLine
 10
21.10771448469999
 20
18.7298337151
 30
0.0
 11
21.10771448469999
 21
20.0822453219
 31
0.0
  0
LINE
  5
C9
330
A
100
AcDbEntity
  8
11
  6
Continuous
 62
    92
100
AcDbLine
 10
21.10771448469999
 20
20.0822453219
 30
0.0
 11
21.04889095529999
 21
20.0822453219
 31
0.0
  0
LINE
  5
CA
330
A
100
AcDbEntity
  8
11
  6
Continuous
 62
    92
100
AcDbLine
 10
21.10771448469999
 20
20.0234217924
 30
0.0
 11
21.10771448469999
 21
18.7885980045
 31
0.0
  0
LINE
  5
CB
330
A
100
AcDbEntity
  8
11
  6
Continuous
 62
    92
100
AcDbLine
 10
21.10771448469999
 20
18.7885980045
 30
0.0
 11
21.1665380141
 21
18.7885980045
 31
0.0
  0
LINE
  5
CC
330
A
100
AcDbEntity
  8
11
  6
Continuous
 62
    92
100
AcDbLine
 10
21.1665380141
 20
18.7885980045
 30
0.0
 11
21.1665380141
 21
20.0234217924
 31
0.0
  0
LINE
  5
CD
330
A
100
AcDbEntity
  8
11
  6
Continuous
 62
    92
100
AcDbLine
 10
21.1665380141
 20
20.0234217924
 30
0.0
 11
21.10771448469999
 21
20.0234217924
 31
0.0
  0
LINE
  5
CE
330
A
100
AcDbEntity
  8
11
  6
Continuous
 62
    92
100
AcDbLine
 10
21.1665380141
 20
18.6710101857
 30
0.0
 11
21.1665380141
 21
20.1410688513
 31
0.0
  0
LINE
  5
CF
330
A
100
AcDbEntity
  8
11
  6
Continuous
 62
    92
100
AcDbLine
 10
22.63653923479999
 20
19.4060098985
 30
0.0
 11
21.98971557619999
 21
18.6710101857
 31
0.0
  0
LINE
  5
D0
330
A
100
AcDbEntity
  8
11
  6
Continuous
 62
    92
100
AcDbLine
 10
25.31265617819999
 20
18.25942140469999
 30
0.0
 11
23.84259751259999
 21
18.25942140469999
 31
0.0
  0
LINE
  5
D1
330
A
100
AcDbEntity
  8
11
  6
Continuous
 62
    92
100
AcDbLine
 10
23.84259751259999
 20
18.25942140469999
 30
0.0
 11
23.84259751259999
 21
18.4005382762
 31
0.0
  0
LINE
  5
D2
330
A
100
AcDbEntity
  8
11
  6
Continuous
 62
    92
100
AcDbLine
 10
23.84259751259999
 20
18.4005382762
 30
0.0
 11
25.31265617819999
 21
18.4005382762
 31
0.0
  0
LINE
  5
D3
330
A
100
AcDbEntity
  8
11
  6
Continuous
 62
    92
100
AcDbLine
 10
25.31265617819999
 20
18.4005382762
 30
0.0
 11
25.31265617819999
 21
18.25942140469999
 31
0.0
  0
LINE
  5
D4
330
A
100
AcDbEntity
  8
11
  6
Continuous
 62
    92
100
AcDbLine
 10
23.93083280669999
 20
18.4005382762
 30
0.0
 11
23.93083280669999
 21
20.1410688513
 31
0.0
  0
LINE
  5
D5
330
A
100
AcDbEntity
  8
11
  6
Continuous
 62
    92
100
AcDbLine
 10
23.93083280669999
 20
20.1410688513
 30
0.0
 11
25.2244208841
 21
20.1410688513
 31
0.0
  0
LINE
  5
D6
330
A
100
AcDbEntity
  8
11
  6
Continuous
 62
    92
100
AcDbLine
 10
25.2244208841
 20
20.1410688513
 30
0.0
 11
26.04765589099999
 21
20.1410688513
 31
0.0
  0
LINE
  5
D7
330
A
100
AcDbEntity
  8
11
  6
Continuous
 62
    92
100
AcDbLine
 10
25.2244208841
 20
18.6710101857
 30
0.0
 11
26.04765589099999
 21
18.6710101857
 31
0.0
  0
LINE
  5
D8
330
A
100
AcDbEntity
  8
11
  6
Continuous
 62
    92
100
AcDbLine
 10
23.93083280669999
 20
20.1410688513
 30
0.0
 11
23.98989150099999
 21
20.0720093671
 31
0.0
  0
LINE
  5
D9
330
A
100
AcDbEntity
  8
11
  6
Continuous
 62
    92
100
AcDbLine
 10
23.98989150099999
 20
20.0720093671
 30
0.0
 11
24.0778143619
 21
19.9584091877
 31
0.0
  0
LINE
  5
DA
330
A
100
AcDbEntity
  8
11
  6
Continuous
 62
    92
100
AcDbLine
 10
24.0778143619
 20
19.9584091877
 30
0.0
 11
24.15285460679999
 21
19.8297256478
 31
0.0
  0
LINE
  5
DB
330
A
100
AcDbEntity
  8
11
  6
Continuous
 62
    92
100
AcDbLine
 10
24.15285460679999
 20
19.8297256478
 30
0.0
 11
24.21174302369999
 21
19.6880240728
 31
0.0
  0
LINE
  5
DC
330
A
100
AcDbEntity
  8
11
  6
Continuous
 62
    92
100
AcDbLine
 10
24.21174302369999
 20
19.6880240728
 30
0.0
 11
24.2517408586
 21
19.5363160356
 31
0.0
  0
LINE
  5
DD
330
A
100
AcDbEntity
  8
11
  6
Continuous
 62
    92
100
AcDbLine
 10
24.2517408586
 20
19.5363160356
 30
0.0
 11
24.27095410959999
 21
19.378390397
 31
0.0
  0
LINE
  5
DE
330
A
100
AcDbEntity
  8
11
  6
Continuous
 62
    92
100
AcDbLine
 10
24.27095410959999
 20
19.378390397
 30
0.0
 11
24.2685659747
 21
19.218518476
 31
0.0
  0
LINE
  5
DF
330
A
100
AcDbEntity
  8
11
  6
Continuous
 62
    92
100
AcDbLine
 10
24.2685659747
 20
19.218518476
 30
0.0
 11
24.2449353756
 21
19.0610775242
 31
0.0
  0
LINE
  5
E0
330
A
100
AcDbEntity
  8
11
  6
Continuous
 62
    92
100
AcDbLine
 10
24.2449353756
 20
19.0610775242
 30
0.0
 11
24.2015390491
 21
18.9101601056
 31
0.0
  0
LINE
  5
E1
330
A
100
AcDbEntity
  8
11
  6
Continuous
 62
    92
100
AcDbLine
 10
24.2015390491
 20
18.9101601056
 30
0.0
 11
24.14077237589999
 21
18.7692403781
 31
0.0
  0
LINE
  5
E2
330
A
100
AcDbEntity
  8
11
  6
Continuous
 62
    92
100
AcDbLine
 10
24.14077237589999
 20
18.7692403781
 30
0.0
 11
24.06565587659999
 21
18.6409503713
 31
0.0
  0
LINE
  5
E3
330
A
100
AcDbEntity
  8
11
  6
Continuous
 62
    92
100
AcDbLine
 10
24.06565587659999
 20
18.6409503713
 30
0.0
 11
23.93083280669999
 21
18.4447744033
 31
0.0
  0
LINE
  5
E4
330
A
100
AcDbEntity
  8
11
  6
Continuous
 62
    92
100
AcDbLine
 10
25.2244208841
 20
18.4005382762
 30
0.0
 11
25.2244208841
 21
18.6710101857
 31
0.0
  0
LINE
  5
E5
330
A
100
AcDbEntity
  8
11
  6
Continuous
 62
    92
100
AcDbLine
 10
23.93083280669999
 20
18.4005382762
 30
0.0
 11
24.5775972254
 21
19.4060098985
 31
0.0
  0
LINE
  5
E6
330
A
100
AcDbEntity
  8
11
  6
Continuous
 62
    92
100
AcDbLine
 10
24.5775972254
 20
19.4060098985
 30
0.0
 11
26.04765589099999
 21
19.4060098985
 31
0.0
  0
LINE
  5
E7
330
A
100
AcDbEntity
  8
11
  6
Continuous
 62
    92
100
AcDbLine
 10
26.95906874709999
 20
20.0381276748
 30
0.0
 11
26.95906874709999
 21
18.77389212219999
 31
0.0
  0
LINE
  5
E8
330
A
100
AcDbEntity
  8
11
  6
Continuous
 62
    92
100
AcDbLine
 10
26.95906874709999
 20
18.77389212219999
 30
0.0
 11
26.9002452177
 21
18.7298337151
 31
0.0
  0
LINE
  5
E9
330
A
100
AcDbEntity
  8
11
  6
Continuous
 62
    92
100
AcDbLine
 10
26.9002452177
 20
18.7298337151
 30
0.0
 11
26.48865643669999
 21
18.7298337151
 31
0.0
  0
LINE
  5
EA
330
A
100
AcDbEntity
  8
11
  6
Continuous
 62
    92
100
AcDbLine
 10
26.48865643669999
 20
18.7298337151
 30
0.0
 11
26.4298329073
 21
18.77389212219999
 31
0.0
  0
LINE
  5
EB
330
A
100
AcDbEntity
  8
11
  6
Continuous
 62
    92
100
AcDbLine
 10
26.4298329073
 20
18.77389212219999
 30
0.0
 11
26.4298329073
 21
20.0381276748
 31
0.0
  0
LINE
  5
EC
330
A
100
AcDbEntity
  8
11
  6
Continuous
 62
    92
100
AcDbLine
 10
26.4298329073
 20
20.0381276748
 30
0.0
 11
26.48865643669999
 21
20.0822453219
 31
0.0
  0
LINE
  5
ED
330
A
100
AcDbEntity
  8
11
  6
Continuous
 62
    92
100
AcDbLine
 10
26.48865643669999
 20
20.0822453219
 30
0.0
 11
26.9002452177
 21
20.0822453219
 31
0.0
  0
LINE
  5
EE
330
A
100
AcDbEntity
  8
11
  6
Continuous
 62
    92
100
AcDbLine
 10
26.9002452177
 20
20.0822453219
 30
0.0
 11
26.95906874709999
 21
20.0381276748
 31
0.0
  0
LINE
  5
EF
330
A
100
AcDbEntity
  8
11
  6
Continuous
 62
    92
100
AcDbLine
 10
26.4298329073
 20
20.0381276748
 30
0.0
 11
26.95906874709999
 21
20.0381276748
 31
0.0
  0
LINE
  5
F0
330
A
100
AcDbEntity
  8
11
  6
Continuous
 62
    92
100
AcDbLine
 10
26.4298329073
 20
18.77389212219999
 30
0.0
 11
26.95906874709999
 21
18.77389212219999
 31
0.0
  0
LINE
  5
F1
330
A
100
AcDbEntity
  8
11
  6
Continuous
 62
    92
100
AcDbLine
 10
26.28283332369999
 20
20.0234217924
 30
0.0
 11
26.28283332369999
 21
18.7885980045
 31
0.0
  0
LINE
  5
F2
330
A
100
AcDbEntity
  8
11
  6
Continuous
 62
    92
100
AcDbLine
 10
26.28283332369999
 20
18.7885980045
 30
0.0
 11
26.1652437098
 21
18.7885980045
 31
0.0
  0
LINE
  5
F3
330
A
100
AcDbEntity
  8
11
  6
Continuous
 62
    92
100
AcDbLine
 10
26.1652437098
 20
18.7885980045
 30
0.0
 11
26.1652437098
 21
20.0234217924
 31
0.0
  0
LINE
  5
F4
330
A
100
AcDbEntity
  8
11
  6
Continuous
 62
    92
100
AcDbLine
 10
26.1652437098
 20
20.0234217924
 30
0.0
 11
26.28283332369999
 21
20.0234217924
 31
0.0
  0
LINE
  5
F5
330
A
100
AcDbEntity
  8
11
  6
Continuous
 62
    92
100
AcDbLine
 10
26.28283332369999
 20
20.0234217924
 30
0.0
 11
26.28283332369999
 21
20.0822453219
 31
0.0
  0
LINE
  5
F6
330
A
100
AcDbEntity
  8
11
  6
Continuous
 62
    92
100
AcDbLine
 10
26.28283332369999
 20
20.0822453219
 30
0.0
 11
26.31224508839999
 21
20.0822453219
 31
0.0
  0
LINE
  5
F7
330
A
100
AcDbEntity
  8
11
  6
Continuous
 62
    92
100
AcDbLine
 10
26.31224508839999
 20
20.0822453219
 30
0.0
 11
26.3886557186
 21
20.0381276748
 31
0.0
  0
LINE
  5
F8
330
A
100
AcDbEntity
  8
11
  6
Continuous
 62
    92
100
AcDbLine
 10
26.3886557186
 20
20.0381276748
 30
0.0
 11
26.4298329073
 21
20.0381276748
 31
0.0
  0
LINE
  5
F9
330
A
100
AcDbEntity
  8
11
  6
Continuous
 62
    92
100
AcDbLine
 10
26.31224508839999
 20
18.7298337151
 30
0.0
 11
26.31224508839999
 21
20.0822453219
 31
0.0
  0
LINE
  5
FA
330
A
100
AcDbEntity
  8
11
  6
Continuous
 62
    92
100
AcDbLine
 10
26.9002452177
 20
18.7298337151
 30
0.0
 11
26.9002452177
 21
20.0822453219
 31
0.0
  0
LINE
  5
FB
330
A
100
AcDbEntity
  8
11
  6
Continuous
 62
    92
100
AcDbLine
 10
26.48865643669999
 20
18.7298337151
 30
0.0
 11
26.48865643669999
 21
20.0822453219
 31
0.0
  0
LINE
  5
FC
330
A
100
AcDbEntity
  8
11
  6
Continuous
 62
    92
100
AcDbLine
 10
26.28283332369999
 20
18.7885980045
 30
0.0
 11
26.28283332369999
 21
18.7298337151
 31
0.0
  0
LINE
  5
FD
330
A
100
AcDbEntity
  8
11
  6
Continuous
 62
    92
100
AcDbLine
 10
26.28283332369999
 20
18.7298337151
 30
0.0
 11
26.31224508839999
 21
18.7298337151
 31
0.0
  0
LINE
  5
FE
330
A
100
AcDbEntity
  8
11
  6
Continuous
 62
    92
100
AcDbLine
 10
26.31224508839999
 20
18.7298337151
 30
0.0
 11
26.3886557186
 21
18.77389212219999
 31
0.0
  0
LINE
  5
FF
330
A
100
AcDbEntity
  8
11
  6
Continuous
 62
    92
100
AcDbLine
 10
26.3886557186
 20
18.77389212219999
 30
0.0
 11
26.4298329073
 21
18.77389212219999
 31
0.0
  0
LINE
  5
100
330
A
100
AcDbEntity
  8
11
  6
Continuous
 62
    92
100
AcDbLine
 10
26.1652437098
 20
20.0822453219
 30
0.0
 11
26.1652437098
 21
18.7298337151
 31
0.0
  0
LINE
  5
101
330
A
100
AcDbEntity
  8
11
  6
Continuous
 62
    92
100
AcDbLine
 10
26.1652437098
 20
18.7298337151
 30
0.0
 11
26.10647942039999
 21
18.7298337151
 31
0.0
  0
LINE
  5
102
330
A
100
AcDbEntity
  8
11
  6
Continuous
 62
    92
100
AcDbLine
 10
26.10647942039999
 20
18.7298337151
 30
0.0
 11
26.10647942039999
 21
20.0822453219
 31
0.0
  0
LINE
  5
103
330
A
100
AcDbEntity
  8
11
  6
Continuous
 62
    92
100
AcDbLine
 10
26.10647942039999
 20
20.0822453219
 30
0.0
 11
26.1652437098
 21
20.0822453219
 31
0.0
  0
LINE
  5
104
330
A
100
AcDbEntity
  8
11
  6
Continuous
 62
    92
100
AcDbLine
 10
26.10647942039999
 20
20.0234217924
 30
0.0
 11
26.10647942039999
 21
18.7885980045
 31
0.0
  0
LINE
  5
105
330
A
100
AcDbEntity
  8
11
  6
Continuous
 62
    92
100
AcDbLine
 10
26.10647942039999
 20
18.7885980045
 30
0.0
 11
26.04765589099999
 21
18.7885980045
 31
0.0
  0
LINE
  5
106
330
A
100
AcDbEntity
  8
11
  6
Continuous
 62
    92
100
AcDbLine
 10
26.04765589099999
 20
18.7885980045
 30
0.0
 11
26.04765589099999
 21
20.0234217924
 31
0.0
  0
LINE
  5
107
330
A
100
AcDbEntity
  8
11
  6
Continuous
 62
    92
100
AcDbLine
 10
26.04765589099999
 20
20.0234217924
 30
0.0
 11
26.10647942039999
 21
20.0234217924
 31
0.0
  0
LINE
  5
108
330
A
100
AcDbEntity
  8
11
  6
Continuous
 62
    92
100
AcDbLine
 10
26.04765589099999
 20
18.6710101857
 30
0.0
 11
26.04765589099999
 21
20.1410688513
 31
0.0
  0
LINE
  5
109
330
A
100
AcDbEntity
  8
11
  6
Continuous
 62
    92
100
AcDbLine
 10
24.5775972254
 20
19.4060098985
 30
0.0
 11
25.2244208841
 21
18.6710101857
 31
0.0
  0
LINE
  5
10A
330
A
100
AcDbEntity
  8
11
  6
Continuous
 62
    92
100
AcDbLine
 10
30.79004624309999
 20
24.2841191011
 30
0.0
 11
27.35604499369999
 21
24.2841191011
 31
0.0
  0
LINE
  5
10B
330
A
100
AcDbEntity
  8
11
  6
Continuous
 62
    92
100
AcDbLine
 10
27.35604499369999
 20
24.2841191011
 30
0.0
 11
25.2949326459
 21
19.7360449398
 31
0.0
  0
LINE
  5
10C
330
A
100
AcDbEntity
  8
4
  6
Continuous
 62
    92
100
AcDbLine
 10
8.352302999999999
 20
15.4653037576
 30
0.0
 11
7.528773588299998
 21
15.4653037576
 31
0.0
  0
LINE
  5
10D
330
A
100
AcDbEntity
  8
4
  6
Continuous
 62
    92
100
AcDbLine
 10
8.352302999999999
 20
15.7594214047
 30
0.0
 11
7.528773588299998
 21
15.7594214047
 31
0.0
  0
LINE
  5
10E
330
A
100
AcDbEntity
  8
4
  6
Continuous
 62
    92
100
AcDbLine
 10
7.528773588299998
 20
17.0424791224
 30
0.0
 11
7.528773588299998
 21
15.7594214047
 31
0.0
  0
LINE
  5
10F
330
A
100
AcDbEntity
  8
4
 62
    92
100
AcDbLine
 10
7.528773588299998
 20
15.7594214047
 30
0.0
 11
7.575832411799998
 21
15.9005978753
 31
0.0
  0
LINE
  5
110
330
A
100
AcDbEntity
  8
4
 62
    92
100
AcDbLine
 10
7.575832411799998
 20
15.9005978753
 30
0.0
 11
7.481714764699997
 21
15.9005978753
 31
0.0
  0
LINE
  5
111
330
A
100
AcDbEntity
  8
4
 62
    92
100
AcDbLine
 10
7.481714764699997
 20
15.9005978753
 30
0.0
 11
7.528773588299998
 21
15.7594214047
 31
0.0
  0
LINE
  5
112
330
A
100
AcDbEntity
  8
4
  6
Continuous
 62
    92
100
AcDbLine
 10
7.528773588299998
 20
15.7594214047
 30
0.0
 11
7.528773588299998
 21
15.4653037576
 31
0.0
  0
LINE
  5
113
330
A
100
AcDbEntity
  8
4
 62
    92
100
AcDbLine
 10
7.528773588299998
 20
15.4653037576
 30
0.0
 11
7.481714764699997
 21
15.32412728699999
 31
0.0
  0
LINE
  5
114
330
A
100
AcDbEntity
  8
4
 62
    92
100
AcDbLine
 10
7.481714764699997
 20
15.32412728699999
 30
0.0
 11
7.575832411799998
 21
15.32412728699999
 31
0.0
  0
LINE
  5
115
330
A
100
AcDbEntity
  8
4
 62
    92
100
AcDbLine
 10
7.575832411799998
 20
15.32412728699999
 30
0.0
 11
7.528773588299998
 21
15.4653037576
 31
0.0
  0
LINE
  5
116
330
A
100
AcDbEntity
  8
4
  6
Continuous
 62
    92
100
AcDbLine
 10
7.528773588299998
 20
15.4653037576
 30
0.0
 11
7.528773588299998
 21
14.74689214369999
 31
0.0
  0
LINE
  5
117
330
A
100
AcDbEntity
  8
11
  6
CENTERX2
 62
    92
100
AcDbLine
 10
8.123009176799998
 20
15.6123625812
 30
0.0
 11
9.525773889899998
 21
15.6123625812
 31
0.0
  0
LINE
  5
118
330
A
100
AcDbEntity
  8
11
  6
CENTERX2
 62
    92
100
AcDbLine
 10
8.881714764699998
 20
14.9194798189
 30
0.0
 11
8.881714764699998
 21
16.331832437
 31
0.0
  0
LINE
  5
119
330
A
100
AcDbEntity
  8
11
  6
Continuous
 62
    92
100
AcDbLine
 10
8.497068517299998
 20
15.4653037576
 30
0.0
 11
8.352302999999999
 21
15.4653037576
 31
0.0
  0
LINE
  5
11A
330
A
100
AcDbEntity
  8
11
  6
Continuous
 62
    92
100
AcDbLine
 10
8.352302999999999
 20
15.4653037576
 30
0.0
 11
8.352302999999999
 21
15.7594214047
 31
0.0
  0
LINE
  5
11B
330
A
100
AcDbEntity
  8
11
  6
Continuous
 62
    92
100
AcDbLine
 10
8.352302999999999
 20
15.7594214047
 30
0.0
 11
8.497068517299998
 21
15.7594214047
 31
0.0
  0
LINE
  5
11C
330
A
100
AcDbEntity
  8
4
  6
Continuous
 62
    92
100
AcDbLine
 10
9.293479470599997
 20
15.6123625812
 30
0.0
 11
9.293479470599997
 21
16.6391857372
 31
0.0
  0
LINE
  5
11D
330
A
100
AcDbEntity
  8
4
  6
Continuous
 62
    92
100
AcDbLine
 10
8.352302999999999
 20
15.7594214047
 30
0.0
 11
8.352302999999999
 21
16.6391857372
 31
0.0
  0
LINE
  5
11E
330
A
100
AcDbEntity
  8
4
 62
    92
100
AcDbLine
 10
8.352302999999999
 20
16.6391857372
 30
0.0
 11
8.493479470599998
 21
16.5921269136
 31
0.0
  0
LINE
  5
11F
330
A
100
AcDbEntity
  8
4
 62
    92
100
AcDbLine
 10
8.493479470599998
 20
16.5921269136
 30
0.0
 11
8.493479470599998
 21
16.6862445607
 31
0.0
  0
LINE
  5
120
330
A
100
AcDbEntity
  8
4
 62
    92
100
AcDbLine
 10
8.493479470599998
 20
16.6862445607
 30
0.0
 11
8.352302999999999
 21
16.6391857372
 31
0.0
  0
LINE
  5
121
330
A
100
AcDbEntity
  8
4
  6
Continuous
 62
    92
100
AcDbLine
 10
8.352302999999999
 20
16.6391857372
 30
0.0
 11
9.293479470599997
 21
16.6391857372
 31
0.0
  0
LINE
  5
122
330
A
100
AcDbEntity
  8
4
 62
    92
100
AcDbLine
 10
9.293479470599997
 20
16.6391857372
 30
0.0
 11
9.152302999999998
 21
16.6862445607
 31
0.0
  0
LINE
  5
123
330
A
100
AcDbEntity
  8
4
 62
    92
100
AcDbLine
 10
9.152302999999998
 20
16.6862445607
 30
0.0
 11
9.152302999999998
 21
16.5921269136
 31
0.0
  0
LINE
  5
124
330
A
100
AcDbEntity
  8
4
 62
    92
100
AcDbLine
 10
9.152302999999998
 20
16.5921269136
 30
0.0
 11
9.293479470599997
 21
16.6391857372
 31
0.0
  0
LINE
  5
125
330
A
100
AcDbEntity
  8
4
 62
    92
100
AcDbLine
 10
41.6488324333
 20
15.6123625812
 30
0.0
 11
41.69589125689999
 21
15.7535390517
 31
0.0
  0
LINE
  5
126
330
A
100
AcDbEntity
  8
4
 62
    92
100
AcDbLine
 10
41.69589125689999
 20
15.7535390517
 30
0.0
 11
41.60177360979999
 21
15.7535390517
 31
0.0
  0
LINE
  5
127
330
A
100
AcDbEntity
  8
4
 62
    92
100
AcDbLine
 10
41.60177360979999
 20
15.7535390517
 30
0.0
 11
41.6488324333
 21
15.6123625812
 31
0.0
  0
LINE
  5
128
330
A
100
AcDbEntity
  8
4
  6
Continuous
 62
    92
100
AcDbLine
 10
41.6488324333
 20
15.6123625812
 30
0.0
 11
41.6488324333
 21
20.1410688513
 31
0.0
  0
LINE
  5
129
330
A
100
AcDbEntity
  8
4
 62
    92
100
AcDbLine
 10
41.6488324333
 20
20.1410688513
 30
0.0
 11
41.60177360979999
 21
19.9998923807
 31
0.0
  0
LINE
  5
12A
330
A
100
AcDbEntity
  8
4
 62
    92
100
AcDbLine
 10
41.60177360979999
 20
19.9998923807
 30
0.0
 11
41.69589125689999
 21
19.9998923807
 31
0.0
  0
LINE
  5
12B
330
A
100
AcDbEntity
  8
4
 62
    92
100
AcDbLine
 10
41.69589125689999
 20
19.9998923807
 30
0.0
 11
41.6488324333
 21
20.1410688513
 31
0.0
  0
LINE
  5
12C
330
A
100
AcDbEntity
  8
4
  6
Continuous
 62
    92
100
AcDbLine
 10
39.87983254819999
 20
15.6123625812
 30
0.0
 11
40.0027753044
 21
15.6123625812
 31
0.0
  0
LINE
  5
12D
330
A
100
AcDbEntity
  8
4
  6
Continuous
 62
    92
100
AcDbLine
 10
40.7495368509
 20
15.6123625812
 30
0.0
 11
41.6488324333
 21
15.6123625812
 31
0.0
  0
LINE
  5
12E
330
A
100
AcDbEntity
  8
4
  6
Continuous
 62
    92
100
AcDbLine
 10
38.75889318129999
 20
20.1410688513
 30
0.0
 11
41.6488324333
 21
20.1410688513
 31
0.0
  0
LINE
  5
12F
330
A
100
AcDbEntity
  8
4
 62
    92
100
AcDbLine
 10
38.4648904239
 20
21.4114797256
 30
0.0
 11
38.3237139533
 21
21.4585385491
 31
0.0
  0
LINE
  5
130
330
A
100
AcDbEntity
  8
4
 62
    92
100
AcDbLine
 10
38.3237139533
 20
21.4585385491
 30
0.0
 11
38.3237139533
 21
21.364420902
 31
0.0
  0
LINE
  5
131
330
A
100
AcDbEntity
  8
4
 62
    92
100
AcDbLine
 10
38.3237139533
 20
21.364420902
 30
0.0
 11
38.4648904239
 21
21.4114797256
 31
0.0
  0
LINE
  5
132
330
A
100
AcDbEntity
  8
4
  6
Continuous
 62
    92
100
AcDbLine
 10
38.4648904239
 20
21.4114797256
 30
0.0
 11
36.87724393959999
 21
21.4114797256
 31
0.0
  0
LINE
  5
133
330
A
100
AcDbEntity
  8
4
 62
    92
100
AcDbLine
 10
36.87724393959999
 20
21.4114797256
 30
0.0
 11
37.01842041009999
 21
21.364420902
 31
0.0
  0
LINE
  5
134
330
A
100
AcDbEntity
  8
4
 62
    92
100
AcDbLine
 10
37.01842041009999
 20
21.364420902
 30
0.0
 11
37.01842041009999
 21
21.4585385491
 31
0.0
  0
LINE
  5
135
330
A
100
AcDbEntity
  8
4
 62
    92
100
AcDbLine
 10
37.01842041009999
 20
21.4585385491
 30
0.0
 11
36.87724393959999
 21
21.4114797256
 31
0.0
  0
LINE
  5
136
330
A
100
AcDbEntity
  8
4
  6
Continuous
 62
    92
100
AcDbLine
 10
38.4648904239
 20
20.1410688513
 30
0.0
 11
38.4648904239
 21
21.4114797256
 31
0.0
  0
LINE
  5
137
330
A
100
AcDbEntity
  8
4
  6
Continuous
 62
    92
100
AcDbLine
 10
36.87724393959999
 20
20.1410688513
 30
0.0
 11
36.87724393959999
 21
21.4114797256
 31
0.0
  0
LINE
  5
138
330
A
100
AcDbEntity
  8
4
 62
    92
100
AcDbLine
 10
30.4827737247
 20
14.2091858808
 30
0.0
 11
30.54932303699999
 21
14.07608247079999
 31
0.0
  0
LINE
  5
139
330
A
100
AcDbEntity
  8
4
 62
    92
100
AcDbLine
 10
30.54932303699999
 20
14.07608247079999
 30
0.0
 11
30.61587522049999
 21
14.1426327401
 31
0.0
  0
LINE
  5
13A
330
A
100
AcDbEntity
  8
4
 62
    92
100
AcDbLine
 10
30.61587522049999
 20
14.1426327401
 30
0.0
 11
30.4827737247
 21
14.2091858808
 31
0.0
  0
LINE
  5
13B
330
A
100
AcDbEntity
  8
4
  6
Continuous
 62
    92
100
AcDbLine
 10
30.4827737247
 20
14.2091858808
 30
0.0
 11
35.4741282743
 21
9.217891468699999
 31
0.0
  0
LINE
  5
13C
330
A
100
AcDbEntity
  8
4
 62
    92
100
AcDbLine
 10
35.4741282743
 20
9.217891468699999
 30
0.0
 11
35.4075789621
 21
9.350994878800001
 31
0.0
  0
LINE
  5
13D
330
A
100
AcDbEntity
  8
4
 62
    92
100
AcDbLine
 10
35.4075789621
 20
9.350994878800001
 30
0.0
 11
35.34102677849999
 21
9.284444609400001
 31
0.0
  0
LINE
  5
13E
330
A
100
AcDbEntity
  8
4
 62
    92
100
AcDbLine
 10
35.34102677849999
 20
9.284444609400001
 30
0.0
 11
35.4741282743
 21
9.217891468699999
 31
0.0
  0
LINE
  5
13F
330
A
100
AcDbEntity
  8
4
  6
Continuous
 62
    92
100
AcDbLine
 10
34.53300924859999
 20
18.25942140469999
 30
0.0
 11
30.4827737247
 21
14.2091858808
 31
0.0
  0
LINE
  5
140
330
A
100
AcDbEntity
  8
4
  6
Continuous
 62
    92
100
AcDbLine
 10
39.52430276309999
 20
13.2680686502
 30
0.0
 11
35.4741282743
 21
9.217891468699999
 31
0.0
  0
LINE
  5
141
330
A
100
AcDbEntity
  8
4
  6
Continuous
 62
    92
100
AcDbLine
 10
39.22153966569999
 20
12.9653037576
 30
0.0
 11
40.6674194336
 21
12.9653037576
 31
0.0
  0
LINE
  5
142
330
A
100
AcDbEntity
  8
4
  6
Continuous
 62
    92
100
AcDbLine
 10
39.22153966569999
 20
18.25942140469999
 30
0.0
 11
40.6674194336
 21
18.25942140469999
 31
0.0
  0
LINE
  5
143
330
A
100
AcDbEntity
  8
4
 62
    92
100
AcDbLine
 10
40.6674194336
 20
18.25942140469999
 30
0.0
 11
40.62036060999999
 21
18.1182449341
 31
0.0
  0
LINE
  5
144
330
A
100
AcDbEntity
  8
4
 62
    92
100
AcDbLine
 10
40.62036060999999
 20
18.1182449341
 30
0.0
 11
40.71447825709999
 21
18.1182449341
 31
0.0
  0
LINE
  5
145
330
A
100
AcDbEntity
  8
4
 62
    92
100
AcDbLine
 10
40.71447825709999
 20
18.1182449341
 30
0.0
 11
40.6674194336
 21
18.25942140469999
 31
0.0
  0
LINE
  5
146
330
A
100
AcDbEntity
  8
4
  6
Continuous
 62
    92
100
AcDbLine
 10
40.6674194336
 20
18.25942140469999
 30
0.0
 11
40.6674194336
 21
12.9653037576
 31
0.0
  0
LINE
  5
147
330
A
100
AcDbEntity
  8
4
 62
    92
100
AcDbLine
 10
40.6674194336
 20
12.9653037576
 30
0.0
 11
40.71447825709999
 21
13.10648022819999
 31
0.0
  0
LINE
  5
148
330
A
100
AcDbEntity
  8
4
 62
    92
100
AcDbLine
 10
40.71447825709999
 20
13.10648022819999
 30
0.0
 11
40.62036060999999
 21
13.10648022819999
 31
0.0
  0
LINE
  5
149
330
A
100
AcDbEntity
  8
4
 62
    92
100
AcDbLine
 10
40.62036060999999
 20
13.10648022819999
 30
0.0
 11
40.6674194336
 21
12.9653037576
 31
0.0
  0
LINE
  5
14A
330
A
100
AcDbEntity
  8
4
  6
Continuous
 62
    92
100
AcDbLine
 10
14.43083280669999
 20
17.9653037576
 30
0.0
 11
14.43083280669999
 21
19.1417743459
 31
0.0
  0
LINE
  5
14B
330
A
100
AcDbEntity
  8
4
  6
Continuous
 62
    92
100
AcDbLine
 10
14.60730339499999
 20
19.1417743459
 30
0.0
 11
14.60730339499999
 21
18.25942140469999
 31
0.0
  0
LINE
  5
14C
330
A
100
AcDbEntity
  8
4
  6
Continuous
 62
    92
100
AcDbLine
 10
14.60730339499999
 20
16.42977411609999
 30
0.0
 11
14.60730339499999
 21
16.2005978753
 31
0.0
  0
LINE
  5
14D
330
A
100
AcDbEntity
  8
4
  6
Continuous
 62
    92
100
AcDbLine
 10
15.89030187269999
 20
19.1417743459
 30
0.0
 11
14.60730339499999
 21
19.1417743459
 31
0.0
  0
LINE
  5
14E
330
A
100
AcDbEntity
  8
4
 62
    92
100
AcDbLine
 10
14.60730339499999
 20
19.1417743459
 30
0.0
 11
14.74847986559999
 21
19.0947155223
 31
0.0
  0
LINE
  5
14F
330
A
100
AcDbEntity
  8
4
 62
    92
100
AcDbLine
 10
14.74847986559999
 20
19.0947155223
 30
0.0
 11
14.74847986559999
 21
19.1888331694
 31
0.0
  0
LINE
  5
150
330
A
100
AcDbEntity
  8
4
 62
    92
100
AcDbLine
 10
14.74847986559999
 20
19.1888331694
 30
0.0
 11
14.60730339499999
 21
19.1417743459
 31
0.0
  0
LINE
  5
151
330
A
100
AcDbEntity
  8
4
  6
Continuous
 62
    92
100
AcDbLine
 10
14.60730339499999
 20
19.1417743459
 30
0.0
 11
14.43083280669999
 21
19.1417743459
 31
0.0
  0
LINE
  5
152
330
A
100
AcDbEntity
  8
4
 62
    92
100
AcDbLine
 10
14.43083280669999
 20
19.1417743459
 30
0.0
 11
14.28965633619999
 21
19.1888331694
 31
0.0
  0
LINE
  5
153
330
A
100
AcDbEntity
  8
4
 62
    92
100
AcDbLine
 10
14.28965633619999
 20
19.1888331694
 30
0.0
 11
14.28965633619999
 21
19.0947155223
 31
0.0
  0
LINE
  5
154
330
A
100
AcDbEntity
  8
4
 62
    92
100
AcDbLine
 10
14.28965633619999
 20
19.0947155223
 30
0.0
 11
14.43083280669999
 21
19.1417743459
 31
0.0
  0
LINE
  5
155
330
A
100
AcDbEntity
  8
4
  6
Continuous
 62
    92
100
AcDbLine
 10
14.43083280669999
 20
19.1417743459
 30
0.0
 11
13.60730339499999
 21
19.1417743459
 31
0.0
  0
LINE
  5
156
330
A
100
AcDbEntity
  8
4
  6
Continuous
 62
    92
100
AcDbLine
 10
12.84259751259999
 20
15.9653037576
 30
0.0
 11
12.84259751259999
 21
19.9652445176
 31
0.0
  0
LINE
  5
157
330
A
100
AcDbEntity
  8
4
  6
Continuous
 62
    92
100
AcDbLine
 10
14.60730339499999
 20
19.1417743459
 30
0.0
 11
14.60730339499999
 21
19.9652445176
 31
0.0
  0
LINE
  5
158
330
A
100
AcDbEntity
  8
4
 62
    92
100
AcDbLine
 10
14.60730339499999
 20
19.9652445176
 30
0.0
 11
14.4661269244
 21
20.0123033412
 31
0.0
  0
LINE
  5
159
330
A
100
AcDbEntity
  8
4
 62
    92
100
AcDbLine
 10
14.4661269244
 20
20.0123033412
 30
0.0
 11
14.4661269244
 21
19.9181856941
 31
0.0
  0
LINE
  5
15A
330
A
100
AcDbEntity
  8
4
 62
    92
100
AcDbLine
 10
14.4661269244
 20
19.9181856941
 30
0.0
 11
14.60730339499999
 21
19.9652445176
 31
0.0
  0
LINE
  5
15B
330
A
100
AcDbEntity
  8
4
  6
Continuous
 62
    92
100
AcDbLine
 10
14.60730339499999
 20
19.9652445176
 30
0.0
 11
12.84259751259999
 21
19.9652445176
 31
0.0
  0
LINE
  5
15C
330
A
100
AcDbEntity
  8
4
 62
    92
100
AcDbLine
 10
12.84259751259999
 20
19.9652445176
 30
0.0
 11
12.98377398319999
 21
19.9181856941
 31
0.0
  0
LINE
  5
15D
330
A
100
AcDbEntity
  8
4
 62
    92
100
AcDbLine
 10
12.98377398319999
 20
19.9181856941
 30
0.0
 11
12.98377398319999
 21
20.0123033412
 31
0.0
  0
LINE
  5
15E
330
A
100
AcDbEntity
  8
4
 62
    92
100
AcDbLine
 10
12.98377398319999
 20
20.0123033412
 30
0.0
 11
12.84259751259999
 21
19.9652445176
 31
0.0
  0
LINE
  5
15F
330
A
100
AcDbEntity
  8
4
  6
Continuous
 62
    92
100
AcDbLine
 10
12.01906810089999
 20
12.4233627319
 30
0.0
 11
12.01906810089999
 21
15.2005978753
 31
0.0
  0
LINE
  5
160
330
A
100
AcDbEntity
  8
4
 62
    92
100
AcDbLine
 10
12.01906810089999
 20
15.2005978753
 30
0.0
 11
11.97200927729999
 21
15.0594214047
 31
0.0
  0
LINE
  5
161
330
A
100
AcDbEntity
  8
4
 62
    92
100
AcDbLine
 10
11.97200927729999
 20
15.0594214047
 30
0.0
 11
12.0661269244
 21
15.0594214047
 31
0.0
  0
LINE
  5
162
330
A
100
AcDbEntity
  8
4
 62
    92
100
AcDbLine
 10
12.0661269244
 20
15.0594214047
 30
0.0
 11
12.01906810089999
 21
15.2005978753
 31
0.0
  0
LINE
  5
163
330
A
100
AcDbEntity
  8
4
  6
Continuous
 62
    92
100
AcDbLine
 10
12.01906810089999
 20
15.2005978753
 30
0.0
 11
12.01906810089999
 21
16.024127287
 31
0.0
  0
LINE
  5
164
330
A
100
AcDbEntity
  8
4
 62
    92
100
AcDbLine
 10
12.01906810089999
 20
16.024127287
 30
0.0
 11
12.0661269244
 21
16.1653037576
 31
0.0
  0
LINE
  5
165
330
A
100
AcDbEntity
  8
4
 62
    92
100
AcDbLine
 10
12.0661269244
 20
16.1653037576
 30
0.0
 11
11.97200927729999
 21
16.1653037576
 31
0.0
  0
LINE
  5
166
330
A
100
AcDbEntity
  8
4
 62
    92
100
AcDbLine
 10
11.97200927729999
 20
16.1653037576
 30
0.0
 11
12.01906810089999
 21
16.024127287
 31
0.0
  0
LINE
  5
167
330
A
100
AcDbEntity
  8
4
  6
Continuous
 62
    92
100
AcDbLine
 10
12.01906810089999
 20
16.024127287
 30
0.0
 11
12.01906810089999
 21
16.4358919929
 31
0.0
  0
LINE
  5
168
330
A
100
AcDbEntity
  8
4
  6
Continuous
 62
    92
100
AcDbLine
 10
12.901421042
 20
15.2005978753
 30
0.0
 11
12.01906810089999
 21
15.2005978753
 31
0.0
  0
LINE
  5
169
330
A
100
AcDbEntity
  8
4
  6
Continuous
 62
    92
100
AcDbLine
 10
12.901421042
 20
16.024127287
 30
0.0
 11
12.01906810089999
 21
16.024127287
 31
0.0
  0
LINE
  5
16A
330
A
100
AcDbEntity
  8
4
 62
    92
100
AcDbLine
 10
11.19553868909999
 20
13.2594214047
 30
0.0
 11
11.24259751259999
 21
13.4005978753
 31
0.0
  0
LINE
  5
16B
330
A
100
AcDbEntity
  8
4
 62
    92
100
AcDbLine
 10
11.24259751259999
 20
13.4005978753
 30
0.0
 11
11.14847986559999
 21
13.4005978753
 31
0.0
  0
LINE
  5
16C
330
A
100
AcDbEntity
  8
4
 62
    92
100
AcDbLine
 10
11.14847986559999
 20
13.4005978753
 30
0.0
 11
11.19553868909999
 21
13.2594214047
 31
0.0
  0
LINE
  5
16D
330
A
100
AcDbEntity
  8
4
  6
Continuous
 62
    92
100
AcDbLine
 10
11.19553868909999
 20
13.2594214047
 30
0.0
 11
11.19553868909999
 21
17.9653037576
 31
0.0
  0
LINE
  5
16E
330
A
100
AcDbEntity
  8
4
 62
    92
100
AcDbLine
 10
11.19553868909999
 20
17.9653037576
 30
0.0
 11
11.14847986559999
 21
17.82412728699999
 31
0.0
  0
LINE
  5
16F
330
A
100
AcDbEntity
  8
4
 62
    92
100
AcDbLine
 10
11.14847986559999
 20
17.82412728699999
 30
0.0
 11
11.24259751259999
 21
17.82412728699999
 31
0.0
  0
LINE
  5
170
330
A
100
AcDbEntity
  8
4
 62
    92
100
AcDbLine
 10
11.24259751259999
 20
17.82412728699999
 30
0.0
 11
11.19553868909999
 21
17.9653037576
 31
0.0
  0
LINE
  5
171
330
A
100
AcDbEntity
  8
4
  6
Continuous
 62
    92
100
AcDbLine
 10
14.43083280669999
 20
13.2594214047
 30
0.0
 11
12.18106797159999
 21
13.2594214047
 31
0.0
  0
LINE
  5
172
330
A
100
AcDbEntity
  8
4
  6
Continuous
 62
    92
100
AcDbLine
 10
11.38730307179999
 20
13.2594214047
 30
0.0
 11
11.19553868909999
 21
13.2594214047
 31
0.0
  0
LINE
  5
173
330
A
100
AcDbEntity
  8
4
  6
Continuous
 62
    92
100
AcDbLine
 10
14.43083280669999
 20
17.9653037576
 30
0.0
 11
11.19553868909999
 21
17.9653037576
 31
0.0
  0
LINE
  5
174
330
A
100
AcDbEntity
  8
11
  6
CENTERX2
 62
    92
100
AcDbLine
 10
39.87983254819999
 20
15.6123625812
 30
0.0
 11
33.74053955079999
 21
15.6123625812
 31
0.0
  0
LINE
  5
175
330
A
100
AcDbEntity
  8
11
  6
CENTERX2
 62
    92
100
AcDbLine
 10
38.2083022174
 20
16.943361619
 30
0.0
 11
37.79236198869999
 21
16.52742139029999
 31
0.0
  0
LINE
  5
176
330
A
100
AcDbEntity
  8
11
  6
CENTERX2
 62
    92
100
AcDbLine
 10
38.2083022174
 20
14.2813034058
 30
0.0
 11
37.79236198869999
 21
14.697244532
 31
0.0
  0
LINE
  5
177
330
A
100
AcDbEntity
  8
11
  6
CENTERX2
 62
    92
100
AcDbLine
 10
35.5462431066
 20
14.2813034058
 30
0.0
 11
35.96218692549999
 21
14.697244532
 31
0.0
  0
LINE
  5
178
330
A
100
AcDbEntity
  8
11
  6
CENTERX2
 62
    92
100
AcDbLine
 10
35.5462431066
 20
16.943361619
 30
0.0
 11
35.96218692549999
 21
16.52742139029999
 31
0.0
  0
LINE
  5
179
330
A
100
AcDbEntity
  8
11
  6
CENTERX2
 62
    92
100
AcDbLine
 10
39.20653937839999
 20
13.2830680399
 30
0.0
 11
38.707422593
 21
13.7821857228
 31
0.0
  0
LINE
  5
17A
330
A
100
AcDbEntity
  8
11
  6
CENTERX2
 62
    92
100
AcDbLine
 10
34.54800953579999
 20
17.9416562249
 30
0.0
 11
35.04712632119999
 21
17.4424801995
 31
0.0
  0
LINE
  5
17B
330
A
100
AcDbEntity
  8
11
  6
CENTERX2
 62
    92
100
AcDbLine
 10
34.54800953579999
 20
13.2830680399
 30
0.0
 11
35.04712632119999
 21
13.7821857228
 31
0.0
  0
LINE
  5
17C
330
A
100
AcDbEntity
  8
11
  6
CENTERX2
 62
    92
100
AcDbLine
 10
39.22153966569999
 20
17.9565972721
 30
0.0
 11
38.707422593
 21
17.4424801995
 31
0.0
  0
LINE
  5
17D
330
A
100
AcDbEntity
  8
11
  6
CENTERX2
 62
    92
100
AcDbLine
 10
36.87724393959999
 20
12.5271269855
 30
0.0
 11
36.87724393959999
 21
18.8079497394
 31
0.0
  0
LINE
  5
17E
330
A
100
AcDbEntity
  8
11
  6
Continuous
 62
    92
100
AcDbLine
 10
39.52430276309999
 20
17.9565972721
 30
0.0
 11
39.52430276309999
 21
13.2680686502
 31
0.0
  0
LINE
  5
17F
330
A
100
AcDbEntity
  8
11
  6
Continuous
 62
    92
100
AcDbLine
 10
39.52430276309999
 20
13.2680686502
 30
0.0
 11
39.22153966569999
 21
12.9653037576
 31
0.0
  0
LINE
  5
180
330
A
100
AcDbEntity
  8
11
  6
Continuous
 62
    92
100
AcDbLine
 10
39.22153966569999
 20
12.9653037576
 30
0.0
 11
34.53300924859999
 21
12.9653037576
 31
0.0
  0
LINE
  5
181
330
A
100
AcDbEntity
  8
11
  6
Continuous
 62
    92
100
AcDbLine
 10
34.53300924859999
 20
12.9653037576
 30
0.0
 11
34.230185116
 21
13.2680686502
 31
0.0
  0
LINE
  5
182
330
A
100
AcDbEntity
  8
11
  6
Continuous
 62
    92
100
AcDbLine
 10
34.230185116
 20
13.2680686502
 30
0.0
 11
34.230185116
 21
17.9566565121
 31
0.0
  0
LINE
  5
183
330
A
100
AcDbEntity
  8
11
  6
Continuous
 62
    92
100
AcDbLine
 10
34.230185116
 20
17.9566565121
 30
0.0
 11
34.53300924859999
 21
18.25942140469999
 31
0.0
  0
LINE
  5
184
330
A
100
AcDbEntity
  8
11
  6
Continuous
 62
    92
100
AcDbLine
 10
34.53300924859999
 20
18.25942140469999
 30
0.0
 11
39.22153966569999
 21
18.25942140469999
 31
0.0
  0
LINE
  5
185
330
A
100
AcDbEntity
  8
11
  6
Continuous
 62
    92
100
AcDbLine
 10
39.22153966569999
 20
18.25942140469999
 30
0.0
 11
39.52430276309999
 21
17.9565972721
 31
0.0
  0
LINE
  5
186
330
A
100
AcDbEntity
  8
11
  6
CENTERX2
 62
    92
100
AcDbLine
 10
39.52430276309999
 20
14.73000963999999
 30
0.0
 11
37.7595968807
 21
12.9653037576
 31
0.0
  0
LINE
  5
187
330
A
100
AcDbEntity
  8
11
  6
CENTERX2
 62
    92
100
AcDbLine
 10
37.7595968807
 20
18.25942140469999
 30
0.0
 11
39.52430276309999
 21
16.4947155223
 31
0.0
  0
LINE
  5
188
330
A
100
AcDbEntity
  8
11
  6
CENTERX2
 62
    92
100
AcDbLine
 10
34.230185116
 20
16.4947155223
 30
0.0
 11
35.9949520335
 21
18.25942140469999
 31
0.0
  0
LINE
  5
189
330
A
100
AcDbEntity
  8
11
  6
CENTERX2
 62
    92
100
AcDbLine
 10
35.9949520335
 20
12.9653037576
 30
0.0
 11
34.230185116
 21
14.73000963999999
 31
0.0
  0
LINE
  5
18A
330
A
100
AcDbEntity
  8
11
  6
Continuous
 62
    92
100
AcDbLine
 10
37.7998908548
 20
13.8378919714
 30
0.0
 11
37.47589111329999
 21
14.399068047
 31
0.0
  0
LINE
  5
18B
330
A
100
AcDbEntity
  8
11
  6
Continuous
 62
    92
100
AcDbLine
 10
36.27865780099999
 20
14.399068047
 30
0.0
 11
35.95465446919999
 21
13.8378919714
 31
0.0
  0
LINE
  5
18C
330
A
100
AcDbEntity
  8
11
  6
Continuous
 62
    92
100
AcDbLine
 10
35.95465446919999
 20
17.3868322934
 30
0.0
 11
36.27865780099999
 21
16.8256571153
 31
0.0
  0
LINE
  5
18D
330
A
100
AcDbEntity
  8
11
  6
Continuous
 62
    92
100
AcDbLine
 10
37.47589111329999
 20
16.8256571153
 30
0.0
 11
37.7998908548
 21
17.3868322934
 31
0.0
  0
LINE
  5
18E
330
A
100
AcDbEntity
  8
11
  6
Continuous
 62
    92
100
AcDbLine
 10
35.80183320889999
 20
13.9260680255
 30
0.0
 11
36.21430161419999
 21
14.6404800415
 31
0.0
  0
LINE
  5
18F
330
A
100
AcDbEntity
  8
11
  6
Continuous
 62
    92
100
AcDbLine
 10
35.85841997929999
 20
15.02412728699999
 30
0.0
 11
35.70559871899999
 21
14.9358919929
 31
0.0
  0
LINE
  5
190
330
A
100
AcDbEntity
  8
11
  6
Continuous
 62
    92
100
AcDbLine
 10
35.52718577659999
 20
15.524127287
 30
0.0
 11
34.87924373849999
 21
15.524127287
 31
0.0
  0
LINE
  5
191
330
A
100
AcDbEntity
  8
11
  6
Continuous
 62
    92
100
AcDbLine
 10
35.80183320889999
 20
17.2985969992
 30
0.0
 11
36.21430161419999
 21
16.58418588079999
 31
0.0
  0
LINE
  5
192
330
A
100
AcDbEntity
  8
11
  6
Continuous
 62
    92
100
AcDbLine
 10
35.85841997929999
 20
16.2005978753
 30
0.0
 11
35.70559871899999
 21
16.2888331694
 31
0.0
  0
LINE
  5
193
330
A
100
AcDbEntity
  8
11
  6
Continuous
 62
    92
100
AcDbLine
 10
35.52718577659999
 20
15.7005978753
 30
0.0
 11
34.8791862936
 21
15.7005978753
 31
0.0
  0
LINE
  5
194
330
A
100
AcDbEntity
  8
11
  6
Continuous
 62
    92
100
AcDbLine
 10
37.95271570539999
 20
17.2985969992
 30
0.0
 11
37.54024370979999
 21
16.58418588079999
 31
0.0
  0
LINE
  5
195
330
A
100
AcDbEntity
  8
11
  6
Continuous
 62
    92
100
AcDbLine
 10
37.89612534469999
 20
16.2005978753
 30
0.0
 11
38.04895019529999
 21
16.2888331694
 31
0.0
  0
LINE
  5
196
330
A
100
AcDbEntity
  8
11
  6
Continuous
 62
    92
100
AcDbLine
 10
38.22736313759999
 20
15.7005978753
 30
0.0
 11
38.87530158549999
 21
15.7005978753
 31
0.0
  0
LINE
  5
197
330
A
100
AcDbEntity
  8
11
  6
Continuous
 62
    92
100
AcDbLine
 10
38.87530158549999
 20
15.524127287
 30
0.0
 11
38.2273021025
 21
15.524127287
 31
0.0
  0
LINE
  5
198
330
A
100
AcDbEntity
  8
11
  6
Continuous
 62
    92
100
AcDbLine
 10
38.04895019529999
 20
14.9358919929
 30
0.0
 11
37.89612534469999
 21
15.02412728699999
 31
0.0
  0
LINE
  5
199
330
A
100
AcDbEntity
  8
11
  6
Continuous
 62
    92
100
AcDbLine
 10
37.54024370979999
 20
14.6404800415
 30
0.0
 11
37.95271570539999
 21
13.9260680255
 31
0.0
  0
LINE
  5
19A
330
A
100
AcDbEntity
  8
11
  6
Continuous
 62
    92
100
AcDbLine
 10
36.49265782969999
 20
15.4653037576
 30
0.0
 11
36.34789320999999
 21
15.4653037576
 31
0.0
  0
LINE
  5
19B
330
A
100
AcDbEntity
  8
11
  6
Continuous
 62
    92
100
AcDbLine
 10
36.34789320999999
 20
15.4653037576
 30
0.0
 11
36.34789320999999
 21
15.7594214047
 31
0.0
  0
LINE
  5
19C
330
A
100
AcDbEntity
  8
11
  6
Continuous
 62
    92
100
AcDbLine
 10
36.34789320999999
 20
15.7594214047
 30
0.0
 11
36.49265782969999
 21
15.7594214047
 31
0.0
  0
LINE
  5
19D
330
A
100
AcDbEntity
  8
4
  6
Continuous
 62
    92
100
AcDbLine
 10
14.60730339499999
 20
12.9653037576
 30
0.0
 11
14.60730339499999
 21
11.9064802282
 31
0.0
  0
LINE
  5
19E
330
A
100
AcDbEntity
  8
4
  6
Continuous
 62
    92
100
AcDbLine
 10
15.07789163029999
 20
12.9653037576
 30
0.0
 11
15.07789163029999
 21
11.9064802282
 31
0.0
  0
LINE
  5
19F
330
A
100
AcDbEntity
  8
4
  6
Continuous
 62
    92
100
AcDbLine
 10
16.360890108
 20
11.9064802282
 30
0.0
 11
15.07789163029999
 21
11.9064802282
 31
0.0
  0
LINE
  5
1A0
330
A
100
AcDbEntity
  8
4
 62
    92
100
AcDbLine
 10
15.07789163029999
 20
11.9064802282
 30
0.0
 11
15.21906810089999
 21
11.8594214047
 31
0.0
  0
LINE
  5
1A1
330
A
100
AcDbEntity
  8
4
 62
    92
100
AcDbLine
 10
15.21906810089999
 20
11.8594214047
 30
0.0
 11
15.21906810089999
 21
11.9535390517
 31
0.0
  0
LINE
  5
1A2
330
A
100
AcDbEntity
  8
4
 62
    92
100
AcDbLine
 10
15.21906810089999
 20
11.9535390517
 30
0.0
 11
15.07789163029999
 21
11.9064802282
 31
0.0
  0
LINE
  5
1A3
330
A
100
AcDbEntity
  8
4
  6
Continuous
 62
    92
100
AcDbLine
 10
15.07789163029999
 20
11.9064802282
 30
0.0
 11
14.60730339499999
 21
11.9064802282
 31
0.0
  0
LINE
  5
1A4
330
A
100
AcDbEntity
  8
4
 62
    92
100
AcDbLine
 10
14.60730339499999
 20
11.9064802282
 30
0.0
 11
14.4661269244
 21
11.9535390517
 31
0.0
  0
LINE
  5
1A5
330
A
100
AcDbEntity
  8
4
 62
    92
100
AcDbLine
 10
14.4661269244
 20
11.9535390517
 30
0.0
 11
14.4661269244
 21
11.8594214047
 31
0.0
  0
LINE
  5
1A6
330
A
100
AcDbEntity
  8
4
 62
    92
100
AcDbLine
 10
14.4661269244
 20
11.8594214047
 30
0.0
 11
14.60730339499999
 21
11.9064802282
 31
0.0
  0
LINE
  5
1A7
330
A
100
AcDbEntity
  8
4
  6
Continuous
 62
    92
100
AcDbLine
 10
14.60730339499999
 20
11.9064802282
 30
0.0
 11
13.78377398319999
 21
11.9064802282
 31
0.0
  0
LINE
  5
1A8
330
A
100
AcDbEntity
  8
4
  6
Continuous
 62
    92
100
AcDbLine
 10
16.6660084444
 20
13.40742088769999
 30
0.0
 11
16.6660084444
 21
11.08295081649999
 31
0.0
  0
LINE
  5
1A9
330
A
100
AcDbEntity
  8
4
  6
Continuous
 62
    92
100
AcDbLine
 10
15.07789163029999
 20
11.9064802282
 30
0.0
 11
15.07789163029999
 21
11.08295081649999
 31
0.0
  0
LINE
  5
1AA
330
A
100
AcDbEntity
  8
4
 62
    92
100
AcDbLine
 10
15.07789163029999
 20
11.08295081649999
 30
0.0
 11
15.21906810089999
 21
11.0358919929
 31
0.0
  0
LINE
  5
1AB
330
A
100
AcDbEntity
  8
4
 62
    92
100
AcDbLine
 10
15.21906810089999
 20
11.0358919929
 30
0.0
 11
15.21906810089999
 21
11.13000964
 31
0.0
  0
LINE
  5
1AC
330
A
100
AcDbEntity
  8
4
 62
    92
100
AcDbLine
 10
15.21906810089999
 20
11.13000964
 30
0.0
 11
15.07789163029999
 21
11.08295081649999
 31
0.0
  0
LINE
  5
1AD
330
A
100
AcDbEntity
  8
4
  6
Continuous
 62
    92
100
AcDbLine
 10
15.07789163029999
 20
11.08295081649999
 30
0.0
 11
16.6660084444
 21
11.08295081649999
 31
0.0
  0
LINE
  5
1AE
330
A
100
AcDbEntity
  8
4
 62
    92
100
AcDbLine
 10
16.6660084444
 20
11.08295081649999
 30
0.0
 11
16.52483197379999
 21
11.13000964
 31
0.0
  0
LINE
  5
1AF
330
A
100
AcDbEntity
  8
4
 62
    92
100
AcDbLine
 10
16.52483197379999
 20
11.13000964
 30
0.0
 11
16.52483197379999
 21
11.0358919929
 31
0.0
  0
LINE
  5
1B0
330
A
100
AcDbEntity
  8
4
 62
    92
100
AcDbLine
 10
16.52483197379999
 20
11.0358919929
 30
0.0
 11
16.6660084444
 21
11.08295081649999
 31
0.0
  0
LINE
  5
1B1
330
A
100
AcDbEntity
  8
11
  6
Continuous
 62
    92
100
AcDbLine
 10
23.63653923479999
 20
18.25942140469999
 30
0.0
 11
25.4012451172
 21
18.25942140469999
 31
0.0
  0
LINE
  5
1B2
330
A
100
AcDbEntity
  8
11
  6
Continuous
 62
    92
100
AcDbLine
 10
25.4012451172
 20
18.25942140469999
 30
0.0
 11
25.4012451172
 21
12.9653037576
 31
0.0
  0
LINE
  5
1B3
330
A
100
AcDbEntity
  8
11
  6
Continuous
 62
    92
100
AcDbLine
 10
25.4012451172
 20
12.9653037576
 30
0.0
 11
23.63653923479999
 21
12.9653037576
 31
0.0
  0
LINE
  5
1B4
330
A
100
AcDbEntity
  8
11
  6
CENTERX2
 62
    92
100
AcDbLine
 10
23.63653923479999
 20
15.6123625812
 30
0.0
 11
25.4012451172
 21
15.6123625812
 31
0.0
  0
LINE
  5
1B5
330
A
100
AcDbEntity
  8
11
  6
Continuous
 62
    92
100
AcDbLine
 10
23.63653923479999
 20
17.9566565121
 30
0.0
 11
25.4012451172
 21
17.9566565121
 31
0.0
  0
LINE
  5
1B6
330
A
100
AcDbEntity
  8
11
  6
Continuous
 62
    92
100
AcDbLine
 10
17.5778323903
 20
12.9653037576
 30
0.0
 11
23.63653923479999
 21
12.9653037576
 31
0.0
  0
LINE
  5
1B7
330
A
100
AcDbEntity
  8
11
  6
Continuous
 62
    92
100
AcDbLine
 10
23.63653923479999
 20
12.9653037576
 30
0.0
 11
23.63653923479999
 21
18.25942140469999
 31
0.0
  0
LINE
  5
1B8
330
A
100
AcDbEntity
  8
11
  6
Continuous
 62
    92
100
AcDbLine
 10
23.63653923479999
 20
18.25942140469999
 30
0.0
 11
17.5778323903
 21
18.25942140469999
 31
0.0
  0
LINE
  5
1B9
330
A
100
AcDbEntity
  8
11
  6
Continuous
 62
    92
100
AcDbLine
 10
17.5778323903
 20
14.08295081649999
 30
0.0
 11
19.0483039407
 21
14.08295081649999
 31
0.0
  0
LINE
  5
1BA
330
A
100
AcDbEntity
  8
11
  6
Continuous
 62
    92
100
AcDbLine
 10
19.0483039407
 20
14.08295081649999
 30
0.0
 11
23.63653923479999
 21
14.08295081649999
 31
0.0
  0
LINE
  5
1BB
330
A
100
AcDbEntity
  8
11
  6
Continuous
 62
    92
100
AcDbLine
 10
23.63653923479999
 20
13.2680686502
 30
0.0
 11
17.5778323903
 21
13.2680686502
 31
0.0
  0
LINE
  5
1BC
330
A
100
AcDbEntity
  8
11
  6
Continuous
 62
    92
100
AcDbLine
 10
19.0483039407
 20
13.2680686502
 30
0.0
 11
23.63653923479999
 21
13.2680686502
 31
0.0
  0
LINE
  5
1BD
330
A
100
AcDbEntity
  8
11
  6
Continuous
 62
    92
100
AcDbLine
 10
17.5778323903
 20
17.9566565121
 30
0.0
 11
19.0483039407
 21
17.9566565121
 31
0.0
  0
LINE
  5
1BE
330
A
100
AcDbEntity
  8
11
  6
Continuous
 62
    92
100
AcDbLine
 10
19.0483039407
 20
17.9566565121
 30
0.0
 11
23.63653923479999
 21
17.9566565121
 31
0.0
  0
LINE
  5
1BF
330
A
100
AcDbEntity
  8
11
  6
Continuous
 62
    92
100
AcDbLine
 10
17.5778323903
 20
17.1417743459
 30
0.0
 11
19.0483039407
 21
17.1417743459
 31
0.0
  0
LINE
  5
1C0
330
A
100
AcDbEntity
  8
11
  6
Continuous
 62
    92
100
AcDbLine
 10
19.0483039407
 20
17.1417743459
 30
0.0
 11
23.63653923479999
 21
17.1417743459
 31
0.0
  0
LINE
  5
1C1
330
A
100
AcDbEntity
  8
11
  6
CENTERX2
 62
    92
100
AcDbLine
 10
17.5778323903
 20
15.6123625812
 30
0.0
 11
18.12183335249999
 21
15.6123625812
 31
0.0
  0
LINE
  5
1C2
330
A
100
AcDbEntity
  8
11
  6
CENTERX2
 62
    92
100
AcDbLine
 10
21.18194939109999
 20
15.6123625812
 30
0.0
 11
23.63653923479999
 21
15.6123625812
 31
0.0
  0
LINE
  5
1C3
330
A
100
AcDbEntity
  8
11
  6
CENTERX2
 62
    92
100
AcDbLine
 10
22.63653923479999
 20
17.8057147756
 30
0.0
 11
22.63653923479999
 21
20.2755382762
 31
0.0
  0
LINE
  5
1C4
330
A
100
AcDbEntity
  8
11
  6
CENTERX2
 62
    92
100
AcDbLine
 10
24.5775972254
 20
17.69830367149999
 30
0.0
 11
24.5775972254
 21
20.2970100852
 31
0.0
  0
LINE
  5
1C5
330
A
100
AcDbEntity
  8
11
  6
Continuous
 62
    92
100
AcDbLine
 10
14.43083280669999
 20
15.2005978753
 30
0.0
 11
14.43083280669999
 21
13.2594214047
 31
0.0
  0
LINE
  5
1C6
330
A
100
AcDbEntity
  8
11
  6
Continuous
 62
    92
100
AcDbLine
 10
14.43083280669999
 20
13.2594214047
 30
0.0
 11
14.60730339499999
 21
13.2594214047
 31
0.0
  0
LINE
  5
1C7
330
A
100
AcDbEntity
  8
11
  6
Continuous
 62
    92
100
AcDbLine
 10
14.60730339499999
 20
13.2594214047
 30
0.0
 11
14.60730339499999
 21
12.9653037576
 31
0.0
  0
LINE
  5
1C8
330
A
100
AcDbEntity
  8
11
  6
Continuous
 62
    92
100
AcDbLine
 10
14.60730339499999
 20
12.9653037576
 30
0.0
 11
17.5778323903
 21
12.9653037576
 31
0.0
  0
LINE
  5
1C9
330
A
100
AcDbEntity
  8
11
  6
Continuous
 62
    92
100
AcDbLine
 10
17.5778323903
 20
12.9653037576
 30
0.0
 11
17.5778323903
 21
18.25942140469999
 31
0.0
  0
LINE
  5
1CA
330
A
100
AcDbEntity
  8
11
  6
Continuous
 62
    92
100
AcDbLine
 10
17.5778323903
 20
18.25942140469999
 30
0.0
 11
14.60730339499999
 21
18.25942140469999
 31
0.0
  0
LINE
  5
1CB
330
A
100
AcDbEntity
  8
11
  6
Continuous
 62
    92
100
AcDbLine
 10
14.60730339499999
 20
18.25942140469999
 30
0.0
 11
14.60730339499999
 21
17.9653037576
 31
0.0
  0
LINE
  5
1CC
330
A
100
AcDbEntity
  8
11
  6
Continuous
 62
    92
100
AcDbLine
 10
14.60730339499999
 20
17.9653037576
 30
0.0
 11
14.43083280669999
 21
17.9653037576
 31
0.0
  0
LINE
  5
1CD
330
A
100
AcDbEntity
  8
11
  6
Continuous
 62
    92
100
AcDbLine
 10
14.43083280669999
 20
17.9653037576
 30
0.0
 11
14.43083280669999
 21
16.024127287
 31
0.0
  0
LINE
  5
1CE
330
A
100
AcDbEntity
  8
11
  6
Continuous
 62
    92
100
AcDbLine
 10
15.07789163029999
 20
16.4947155223
 30
0.0
 11
17.107244155
 21
16.4947155223
 31
0.0
  0
LINE
  5
1CF
330
A
100
AcDbEntity
  8
11
  6
Continuous
 62
    92
100
AcDbLine
 10
15.07789163029999
 20
14.73000963999999
 30
0.0
 11
17.107244155
 21
14.73000963999999
 31
0.0
  0
LINE
  5
1D0
330
A
100
AcDbEntity
  8
11
  6
Continuous
 62
    92
100
AcDbLine
 10
17.107244155
 20
13.40742088769999
 30
0.0
 11
16.6660084444
 21
13.40742088769999
 31
0.0
  0
LINE
  5
1D1
330
A
100
AcDbEntity
  8
11
  6
Continuous
 62
    92
100
AcDbLine
 10
16.6660084444
 20
13.40742088769999
 30
0.0
 11
16.6660084444
 21
13.90742088769999
 31
0.0
  0
LINE
  5
1D2
330
A
100
AcDbEntity
  8
11
  6
Continuous
 62
    92
100
AcDbLine
 10
16.6660084444
 20
13.90742088769999
 30
0.0
 11
17.107244155
 21
13.90742088769999
 31
0.0
  0
LINE
  5
1D3
330
A
100
AcDbEntity
  8
11
  6
Continuous
 62
    92
100
AcDbLine
 10
17.01900886089999
 20
13.90742088769999
 30
0.0
 11
17.01900886089999
 21
13.40742088769999
 31
0.0
  0
LINE
  5
1D4
330
A
100
AcDbEntity
  8
11
  6
Continuous
 62
    92
100
AcDbLine
 10
17.107244155
 20
17.3173042746
 30
0.0
 11
16.6660084444
 21
17.3173042746
 31
0.0
  0
LINE
  5
1D5
330
A
100
AcDbEntity
  8
11
  6
Continuous
 62
    92
100
AcDbLine
 10
16.6660084444
 20
17.3173042746
 30
0.0
 11
16.6660084444
 21
17.8173042746
 31
0.0
  0
LINE
  5
1D6
330
A
100
AcDbEntity
  8
11
  6
Continuous
 62
    92
100
AcDbLine
 10
16.6660084444
 20
17.8173042746
 30
0.0
 11
17.107244155
 21
17.8173042746
 31
0.0
  0
LINE
  5
1D7
330
A
100
AcDbEntity
  8
11
  6
Continuous
 62
    92
100
AcDbLine
 10
17.01900886089999
 20
17.8173042746
 30
0.0
 11
17.01900886089999
 21
17.3173042746
 31
0.0
  0
LINE
  5
1D8
330
A
100
AcDbEntity
  8
11
  6
Continuous
 62
    92
100
AcDbLine
 10
17.107244155
 20
13.2680686502
 30
0.0
 11
17.5778323903
 21
13.2680686502
 31
0.0
  0
LINE
  5
1D9
330
A
100
AcDbEntity
  8
11
  6
Continuous
 62
    92
100
AcDbLine
 10
17.107244155
 20
17.9565972721
 30
0.0
 11
17.5778323903
 21
17.9565972721
 31
0.0
  0
LINE
  5
1DA
330
A
100
AcDbEntity
  8
11
  6
Continuous
 62
    92
100
AcDbLine
 10
15.07789163029999
 20
17.9565972721
 30
0.0
 11
14.60730339499999
 21
17.9565972721
 31
0.0
  0
LINE
  5
1DB
330
A
100
AcDbEntity
  8
11
  6
Continuous
 62
    92
100
AcDbLine
 10
15.07789163029999
 20
13.2680686502
 30
0.0
 11
14.60730339499999
 21
13.2680686502
 31
0.0
  0
LINE
  5
1DC
330
A
100
AcDbEntity
  8
11
  6
Continuous
 62
    92
100
AcDbLine
 10
17.107244155
 20
12.9653037576
 30
0.0
 11
17.107244155
 21
18.25942140469999
 31
0.0
  0
LINE
  5
1DD
330
A
100
AcDbEntity
  8
11
  6
Continuous
 62
    92
100
AcDbLine
 10
15.07789163029999
 20
18.25942140469999
 30
0.0
 11
15.07789163029999
 21
12.9653037576
 31
0.0
  0
LINE
  5
1DE
330
A
100
AcDbEntity
  8
11
  6
Continuous
 62
    92
100
AcDbLine
 10
14.60730339499999
 20
13.2594214047
 30
0.0
 11
14.60730339499999
 21
14.7720682481
 31
0.0
  0
LINE
  5
1DF
330
A
100
AcDbEntity
  8
11
  6
Continuous
 62
    92
100
AcDbLine
 10
14.60730339499999
 20
16.42977411609999
 30
0.0
 11
14.60730339499999
 21
17.9653037576
 31
0.0
  0
LINE
  5
1E0
330
A
100
AcDbEntity
  8
11
  6
CENTERX2
 62
    92
100
AcDbLine
 10
14.43083280669999
 20
15.6123625812
 30
0.0
 11
17.5778323903
 21
15.6123625812
 31
0.0
  0
LINE
  5
1E1
330
A
100
AcDbEntity
  8
11
  6
CENTERX2
 62
    92
100
AcDbLine
 10
14.2892447079
 20
17.6920691098
 30
0.0
 11
15.33730361039999
 21
17.6920691098
 31
0.0
  0
LINE
  5
1E2
330
A
100
AcDbEntity
  8
11
  6
CENTERX2
 62
    92
100
AcDbLine
 10
14.22994995119999
 20
13.5325977101
 30
0.0
 11
15.3867726045
 21
13.5325977101
 31
0.0
  0
LINE
  5
1E3
330
A
100
AcDbEntity
  8
11
  6
CENTERX2
 62
    92
100
AcDbLine
 10
16.45453957949999
 20
13.6574208877
 30
0.0
 11
18.016773897
 21
13.6574208877
 31
0.0
  0
LINE
  5
1E4
330
A
100
AcDbEntity
  8
11
  6
CENTERX2
 62
    92
100
AcDbLine
 10
17.9871269675
 20
17.5673042746
 30
0.0
 11
16.4743616441
 21
17.5673042746
 31
0.0
  0
LINE
  5
1E5
330
A
100
AcDbEntity
  8
11
  6
Continuous
 62
    92
100
AcDbLine
 10
13.0778512394
 20
15.6123625812
 30
0.0
 11
13.07789163029999
 21
15.6123625812
 31
0.0
  0
LINE
  5
1E6
330
A
100
AcDbEntity
  8
11
  6
Continuous
 62
    92
100
AcDbLine
 10
13.22495045379999
 20
15.4652525958
 30
0.0
 11
14.10730339499999
 21
15.4652525958
 31
0.0
  0
LINE
  5
1E7
330
A
100
AcDbEntity
  8
11
  6
Continuous
 62
    92
100
AcDbLine
 10
14.2543101591
 20
15.6123625812
 30
0.0
 11
14.2543622185
 21
15.6123625812
 31
0.0
  0
LINE
  5
1E8
330
A
100
AcDbEntity
  8
11
  6
Continuous
 62
    92
100
AcDbLine
 10
14.10730339499999
 20
15.75940883859999
 30
0.0
 11
13.22495045379999
 21
15.75940883859999
 31
0.0
  0
LINE
  5
1E9
330
A
100
AcDbEntity
  8
11
  6
CENTERX2
 62
    92
100
AcDbLine
 10
14.43083280669999
 20
15.6123625812
 30
0.0
 11
12.61324444939999
 21
15.6123625812
 31
0.0
  0
LINE
  5
1EA
330
A
100
AcDbEntity
  8
11
  6
Continuous
 62
    92
100
AcDbLine
 10
14.60730339499999
 20
15.2005978753
 30
0.0
 11
12.901421042
 21
15.2005978753
 31
0.0
  0
LINE
  5
1EB
330
A
100
AcDbEntity
  8
11
  6
Continuous
 62
    92
100
AcDbLine
 10
12.901421042
 20
15.2005978753
 30
0.0
 11
12.84259751259999
 21
15.25942140469999
 31
0.0
  0
LINE
  5
1EC
330
A
100
AcDbEntity
  8
11
  6
Continuous
 62
    92
100
AcDbLine
 10
12.84259751259999
 20
15.25942140469999
 30
0.0
 11
12.84259751259999
 21
15.9653037576
 31
0.0
  0
LINE
  5
1ED
330
A
100
AcDbEntity
  8
11
  6
Continuous
 62
    92
100
AcDbLine
 10
12.84259751259999
 20
15.9653037576
 30
0.0
 11
12.901421042
 21
16.024127287
 31
0.0
  0
LINE
  5
1EE
330
A
100
AcDbEntity
  8
11
  6
Continuous
 62
    92
100
AcDbLine
 10
12.901421042
 20
16.024127287
 30
0.0
 11
14.60730339499999
 21
16.024127287
 31
0.0
  0
LINE
  5
1EF
330
A
100
AcDbEntity
  8
11
  6
CENTERX2
 62
    92
100
AcDbLine
 10
28.0507740694
 20
15.6123625812
 30
0.0
 11
25.4012451172
 21
15.6123625812
 31
0.0
  0
LINE
  5
1F0
330
A
100
AcDbEntity
  8
11
  6
Continuous
 62
    92
100
AcDbLine
 10
25.4600686466
 20
18.25942140469999
 30
0.0
 11
25.4600686466
 21
12.9653037576
 31
0.0
  0
LINE
  5
1F1
330
A
100
AcDbEntity
  8
11
  6
Continuous
 62
    92
100
AcDbLine
 10
25.4012451172
 20
17.9566565121
 30
0.0
 11
27.66595099949999
 21
17.9566565121
 31
0.0
  0
LINE
  5
1F2
330
A
100
AcDbEntity
  8
11
  6
Continuous
 62
    92
100
AcDbLine
 10
25.4012451172
 20
13.2680686502
 30
0.0
 11
27.66595099949999
 21
13.2680686502
 31
0.0
  0
LINE
  5
1F3
330
A
100
AcDbEntity
  8
11
  6
Continuous
 62
    92
100
AcDbLine
 10
25.4012451172
 20
18.25942140469999
 30
0.0
 11
26.93065688189999
 21
18.25942140469999
 31
0.0
  0
LINE
  5
1F4
330
A
100
AcDbEntity
  8
11
  6
Continuous
 62
    92
100
AcDbLine
 10
26.93065688189999
 20
12.9653037576
 30
0.0
 11
25.4012451172
 21
12.9653037576
 31
0.0
  0
LINE
  5
1F5
330
A
100
AcDbEntity
  8
11
  6
Continuous
 62
    92
100
AcDbLine
 10
26.93065688189999
 20
18.25942140469999
 30
0.0
 11
27.66595099949999
 21
18.25942140469999
 31
0.0
  0
LINE
  5
1F6
330
A
100
AcDbEntity
  8
11
  6
Continuous
 62
    92
100
AcDbLine
 10
27.66595099949999
 20
18.25942140469999
 30
0.0
 11
27.66595099949999
 21
12.9653037576
 31
0.0
  0
LINE
  5
1F7
330
A
100
AcDbEntity
  8
11
  6
Continuous
 62
    92
100
AcDbLine
 10
27.66595099949999
 20
12.9653037576
 30
0.0
 11
26.93065688189999
 21
12.9653037576
 31
0.0
  0
LINE
  5
1F8
330
A
100
AcDbEntity
  8
11
  6
Continuous
 62
    92
100
AcDbLine
 10
12.901421042
 20
15.2005978753
 30
0.0
 11
12.901421042
 21
16.024127287
 31
0.0
  0
LINE
  5
1F9
330
A
100
AcDbEntity
  8
11
  6
Continuous
 62
    92
100
AcDbLine
 10
14.90324401849999
 20
15.02412728699999
 30
0.0
 11
14.60730339499999
 21
15.02412728699999
 31
0.0
  0
LINE
  5
1FA
330
A
100
AcDbEntity
  8
11
  6
Continuous
 62
    92
100
AcDbLine
 10
14.60730339499999
 20
15.02412728699999
 30
0.0
 11
14.60730339499999
 21
16.2005978753
 31
0.0
  0
LINE
  5
1FB
330
A
100
AcDbEntity
  8
11
  6
Continuous
 62
    92
100
AcDbLine
 10
14.60730339499999
 20
16.2005978753
 30
0.0
 11
14.91018586999999
 21
16.2005978753
 31
0.0
  0
LINE
  5
1FC
330
A
100
AcDbEntity
  8
11
  6
Continuous
 62
    92
100
AcDbLine
 10
14.68812650789999
 20
14.79630369299999
 30
0.0
 11
14.71911653469999
 21
14.8086073867
 31
0.0
  0
LINE
  5
1FD
330
A
100
AcDbEntity
  8
11
  6
Continuous
 62
    92
100
AcDbLine
 10
14.71911653469999
 20
14.8086073867
 30
0.0
 11
14.74693009389999
 21
14.82060238289999
 31
0.0
  0
LINE
  5
1FE
330
A
100
AcDbEntity
  8
11
  6
Continuous
 62
    92
100
AcDbLine
 10
14.74693009389999
 20
14.82060238289999
 30
0.0
 11
14.77180008229999
 21
14.8323669022
 31
0.0
  0
LINE
  5
1FF
330
A
100
AcDbEntity
  8
11
  6
Continuous
 62
    92
100
AcDbLine
 10
14.77180008229999
 20
14.8323669022
 30
0.0
 11
14.79391872669999
 21
14.8439745499
 31
0.0
  0
LINE
  5
200
330
A
100
AcDbEntity
  8
11
  6
Continuous
 62
    92
100
AcDbLine
 10
14.79391872669999
 20
14.8439745499
 30
0.0
 11
14.81344241209999
 21
14.85549589229999
 31
0.0
  0
LINE
  5
201
330
A
100
AcDbEntity
  8
11
  6
Continuous
 62
    92
100
AcDbLine
 10
14.81344241209999
 20
14.85549589229999
 30
0.0
 11
14.83049532479999
 21
14.8669999049
 31
0.0
  0
LINE
  5
202
330
A
100
AcDbEntity
  8
11
  6
Continuous
 62
    92
100
AcDbLine
 10
14.83049532479999
 20
14.8669999049
 30
0.0
 11
14.84517208929999
 21
14.8785553561
 31
0.0
  0
LINE
  5
203
330
A
100
AcDbEntity
  8
11
  6
Continuous
 62
    92
100
AcDbLine
 10
14.84517208929999
 20
14.8785553561
 30
0.0
 11
14.857539517
 21
14.8902321837
 31
0.0
  0
LINE
  5
204
330
A
100
AcDbEntity
  8
11
  6
Continuous
 62
    92
100
AcDbLine
 10
14.857539517
 20
14.8902321837
 30
0.0
 11
14.86763753309999
 21
14.9021029249
 31
0.0
  0
LINE
  5
205
330
A
100
AcDbEntity
  8
11
  6
Continuous
 62
    92
100
AcDbLine
 10
14.86763753309999
 20
14.9021029249
 30
0.0
 11
14.87547930549999
 21
14.9142442591
 31
0.0
  0
LINE
  5
206
330
A
100
AcDbEntity
  8
11
  6
Continuous
 62
    92
100
AcDbLine
 10
14.87547930549999
 20
14.9142442591
 30
0.0
 11
14.878121199
 21
14.91964477029999
 31
0.0
  0
LINE
  5
207
330
A
100
AcDbEntity
  8
11
  6
Continuous
 62
    92
100
AcDbLine
 10
14.878121199
 20
14.91964477029999
 30
0.0
 11
14.8806084357
 21
14.9258281789
 31
0.0
  0
LINE
  5
208
330
A
100
AcDbEntity
  8
11
  6
Continuous
 62
    92
100
AcDbLine
 10
14.8806084357
 20
14.9258281789
 30
0.0
 11
14.88301780989999
 21
14.9328817956
 31
0.0
  0
LINE
  5
209
330
A
100
AcDbEntity
  8
11
  6
Continuous
 62
    92
100
AcDbLine
 10
14.88301780989999
 20
14.9328817956
 30
0.0
 11
14.88541452509999
 21
14.9409277655
 31
0.0
  0
LINE
  5
20A
330
A
100
AcDbEntity
  8
11
  6
Continuous
 62
    92
100
AcDbLine
 10
14.88541452509999
 20
14.9409277655
 30
0.0
 11
14.88785881789999
 21
14.95012960109999
 31
0.0
  0
LINE
  5
20B
330
A
100
AcDbEntity
  8
11
  6
Continuous
 62
    92
100
AcDbLine
 10
14.88785881789999
 20
14.95012960109999
 30
0.0
 11
14.89041129659999
 21
14.9607032402
 31
0.0
  0
LINE
  5
20C
330
A
100
AcDbEntity
  8
11
  6
Continuous
 62
    92
100
AcDbLine
 10
14.89041129659999
 20
14.9607032402
 30
0.0
 11
14.89313805569999
 21
14.9729341906
 31
0.0
  0
LINE
  5
20D
330
A
100
AcDbEntity
  8
11
  6
Continuous
 62
    92
100
AcDbLine
 10
14.89313805569999
 20
14.9729341906
 30
0.0
 11
14.89611650199999
 21
14.9872036838
 31
0.0
  0
LINE
  5
20E
330
A
100
AcDbEntity
  8
11
  6
Continuous
 62
    92
100
AcDbLine
 10
14.89611650199999
 20
14.9872036838
 30
0.0
 11
14.89944300199999
 21
15.0040290124
 31
0.0
  0
LINE
  5
20F
330
A
100
AcDbEntity
  8
11
  6
Continuous
 62
    92
100
AcDbLine
 10
14.89944300199999
 20
15.0040290124
 30
0.0
 11
14.90324401849999
 21
15.02412728699999
 31
0.0
  0
LINE
  5
210
330
A
100
AcDbEntity
  8
11
  6
Continuous
 62
    92
100
AcDbLine
 10
14.90324401849999
 20
15.02412728699999
 30
0.0
 11
14.90944413559999
 21
15.0585263673
 31
0.0
  0
LINE
  5
211
330
A
100
AcDbEntity
  8
11
  6
Continuous
 62
    92
100
AcDbLine
 10
14.90944413559999
 20
15.0585263673
 30
0.0
 11
14.91519157259999
 21
15.0925521742
 31
0.0
  0
LINE
  5
212
330
A
100
AcDbEntity
  8
11
  6
Continuous
 62
    92
100
AcDbLine
 10
14.91519157259999
 20
15.0925521742
 30
0.0
 11
14.92048650969999
 21
15.1262055758
 31
0.0
  0
LINE
  5
213
330
A
100
AcDbEntity
  8
11
  6
Continuous
 62
    92
100
AcDbLine
 10
14.92048650969999
 20
15.1262055758
 30
0.0
 11
14.92532910489999
 21
15.1594874222
 31
0.0
  0
LINE
  5
214
330
A
100
AcDbEntity
  8
11
  6
Continuous
 62
    92
100
AcDbLine
 10
14.92532910489999
 20
15.1594874222
 30
0.0
 11
14.9297194938
 21
15.1923985447
 31
0.0
  0
LINE
  5
215
330
A
100
AcDbEntity
  8
11
  6
Continuous
 62
    92
100
AcDbLine
 10
14.9297194938
 20
15.1923985447
 30
0.0
 11
14.93365778979999
 21
15.22493975689999
 31
0.0
  0
LINE
  5
216
330
A
100
AcDbEntity
  8
11
  6
Continuous
 62
    92
100
AcDbLine
 10
14.93365778979999
 20
15.22493975689999
 30
0.0
 11
14.93714408419999
 21
15.2571118536
 31
0.0
  0
LINE
  5
217
330
A
100
AcDbEntity
  8
11
  6
Continuous
 62
    92
100
AcDbLine
 10
14.93714408419999
 20
15.2571118536
 30
0.0
 11
14.9401784461
 21
15.2889156121
 31
0.0
  0
LINE
  5
218
330
A
100
AcDbEntity
  8
11
  6
Continuous
 62
    92
100
AcDbLine
 10
14.9401784461
 20
15.2889156121
 30
0.0
 11
14.94276092209999
 21
15.3203517912
 31
0.0
  0
LINE
  5
219
330
A
100
AcDbEntity
  8
11
  6
Continuous
 62
    92
100
AcDbLine
 10
14.94276092209999
 20
15.3203517912
 30
0.0
 11
14.9448915369
 21
15.3514211318
 31
0.0
  0
LINE
  5
21A
330
A
100
AcDbEntity
  8
11
  6
Continuous
 62
    92
100
AcDbLine
 10
14.9448915369
 20
15.3514211318
 30
0.0
 11
14.9462204737
 21
15.3739513332
 31
0.0
  0
LINE
  5
21B
330
A
100
AcDbEntity
  8
11
  6
Continuous
 62
    92
100
AcDbLine
 10
14.9462204737
 20
15.3739513332
 30
0.0
 11
14.94740570379999
 21
15.3958941467
 31
0.0
  0
LINE
  5
21C
330
A
100
AcDbEntity
  8
11
  6
Continuous
 62
    92
100
AcDbLine
 10
14.94740570379999
 20
15.3958941467
 30
0.0
 11
14.94844877669999
 21
15.41727159759999
 31
0.0
  0
LINE
  5
21D
330
A
100
AcDbEntity
  8
11
  6
Continuous
 62
    92
100
AcDbLine
 10
14.94844877669999
 20
15.41727159759999
 30
0.0
 11
14.94935097509999
 21
15.4381045927
 31
0.0
  0
LINE
  5
21E
330
A
100
AcDbEntity
  8
11
  6
Continuous
 62
    92
100
AcDbLine
 10
14.94935097509999
 20
15.4381045927
 30
0.0
 11
14.95011332039999
 21
15.4584129892
 31
0.0
  0
LINE
  5
21F
330
A
100
AcDbEntity
  8
11
  6
Continuous
 62
    92
100
AcDbLine
 10
14.95011332039999
 20
15.4584129892
 30
0.0
 11
14.95073657609999
 21
15.4782156575
 31
0.0
  0
LINE
  5
220
330
A
100
AcDbEntity
  8
11
  6
Continuous
 62
    92
100
AcDbLine
 10
14.95073657609999
 20
15.4782156575
 30
0.0
 11
14.95122125029999
 21
15.49753053959999
 31
0.0
  0
LINE
  5
221
330
A
100
AcDbEntity
  8
11
  6
Continuous
 62
    92
100
AcDbLine
 10
14.95122125029999
 20
15.49753053959999
 30
0.0
 11
14.95156759729999
 21
15.5163747036
 31
0.0
  0
LINE
  5
222
330
A
100
AcDbEntity
  8
11
  6
Continuous
 62
    92
100
AcDbLine
 10
14.95156759729999
 20
15.5163747036
 30
0.0
 11
14.9517756176
 21
15.5347643937
 31
0.0
  0
LINE
  5
223
330
A
100
AcDbEntity
  8
11
  6
Continuous
 62
    92
100
AcDbLine
 10
14.9517756176
 20
15.5347643937
 30
0.0
 11
14.95184505689999
 21
15.5527150771
 31
0.0
  0
LINE
  5
224
330
A
100
AcDbEntity
  8
11
  6
Continuous
 62
    92
100
AcDbLine
 10
14.95184505689999
 20
15.5527150771
 30
0.0
 11
14.9448915369
 21
15.8094217637
 31
0.0
  0
LINE
  5
225
330
A
100
AcDbEntity
  8
11
  6
Continuous
 62
    92
100
AcDbLine
 10
14.9448915369
 20
15.8094217637
 30
0.0
 11
14.93795058299999
 21
16.045362136
 31
0.0
  0
LINE
  5
226
330
A
100
AcDbEntity
  8
11
  6
Continuous
 62
    92
100
AcDbLine
 10
14.93795058299999
 20
16.045362136
 30
0.0
 11
14.93711735129999
 21
16.0651213806
 31
0.0
  0
LINE
  5
227
330
A
100
AcDbEntity
  8
11
  6
Continuous
 62
    92
100
AcDbLine
 10
14.93711735129999
 20
16.0651213806
 30
0.0
 11
14.93585778879999
 21
16.0838575494
 31
0.0
  0
LINE
  5
228
330
A
100
AcDbEntity
  8
11
  6
Continuous
 62
    92
100
AcDbLine
 10
14.93585778879999
 20
16.0838575494
 30
0.0
 11
14.93417227409999
 21
16.1016069786
 31
0.0
  0
LINE
  5
229
330
A
100
AcDbEntity
  8
11
  6
Continuous
 62
    92
100
AcDbLine
 10
14.93417227409999
 20
16.1016069786
 30
0.0
 11
14.93205979749999
 21
16.1184025573
 31
0.0
  0
LINE
  5
22A
330
A
100
AcDbEntity
  8
11
  6
Continuous
 62
    92
100
AcDbLine
 10
14.93205979749999
 20
16.1184025573
 30
0.0
 11
14.92951796489999
 21
16.1342739294
 31
0.0
  0
LINE
  5
22B
330
A
100
AcDbEntity
  8
11
  6
Continuous
 62
    92
100
AcDbLine
 10
14.92951796489999
 20
16.1342739294
 30
0.0
 11
14.92654299039999
 21
16.1492476672
 31
0.0
  0
LINE
  5
22C
330
A
100
AcDbEntity
  8
11
  6
Continuous
 62
    92
100
AcDbLine
 10
14.92654299039999
 20
16.1492476672
 30
0.0
 11
14.9231296775
 21
16.1633474199
 31
0.0
  0
LINE
  5
22D
330
A
100
AcDbEntity
  8
11
  6
Continuous
 62
    92
100
AcDbLine
 10
14.9231296775
 20
16.1633474199
 30
0.0
 11
14.91927138909999
 21
16.1765940385
 31
0.0
  0
LINE
  5
22E
330
A
100
AcDbEntity
  8
11
  6
Continuous
 62
    92
100
AcDbLine
 10
14.91927138909999
 20
16.1765940385
 30
0.0
 11
14.91496000559999
 21
16.18900567729999
 31
0.0
  0
LINE
  5
22F
330
A
100
AcDbEntity
  8
11
  6
Continuous
 62
    92
100
AcDbLine
 10
14.91496000559999
 20
16.18900567729999
 30
0.0
 11
14.91018586999999
 21
16.2005978753
 31
0.0
  0
LINE
  5
230
330
A
100
AcDbEntity
  8
11
  6
Continuous
 62
    92
100
AcDbLine
 10
14.91018586999999
 20
16.2005978753
 30
0.0
 11
14.9003182636
 21
16.2202835552
 31
0.0
  0
LINE
  5
231
330
A
100
AcDbEntity
  8
11
  6
Continuous
 62
    92
100
AcDbLine
 10
14.9003182636
 20
16.2202835552
 30
0.0
 11
14.8884511587
 21
16.2396928888
 31
0.0
  0
LINE
  5
232
330
A
100
AcDbEntity
  8
11
  6
Continuous
 62
    92
100
AcDbLine
 10
14.8884511587
 20
16.2396928888
 30
0.0
 11
14.87461331629999
 21
16.2587055095
 31
0.0
  0
LINE
  5
233
330
A
100
AcDbEntity
  8
11
  6
Continuous
 62
    92
100
AcDbLine
 10
14.87461331629999
 20
16.2587055095
 30
0.0
 11
14.85885753059999
 21
16.2772028989
 31
0.0
  0
LINE
  5
234
330
A
100
AcDbEntity
  8
11
  6
Continuous
 62
    92
100
AcDbLine
 10
14.85885753059999
 20
16.2772028989
 30
0.0
 11
14.84126017939999
 21
16.2950707753
 31
0.0
  0
LINE
  5
235
330
A
100
AcDbEntity
  8
11
  6
Continuous
 62
    92
100
AcDbLine
 10
14.84126017939999
 20
16.2950707753
 30
0.0
 11
14.821920065
 21
16.3122014136
 31
0.0
  0
LINE
  5
236
330
A
100
AcDbEntity
  8
11
  6
Continuous
 62
    92
100
AcDbLine
 10
14.821920065
 20
16.3122014136
 30
0.0
 11
14.80095657909999
 21
16.3284957985
 31
0.0
  0
LINE
  5
237
330
A
100
AcDbEntity
  8
11
  6
Continuous
 62
    92
100
AcDbLine
 10
14.80095657909999
 20
16.3284957985
 30
0.0
 11
14.77850726249999
 21
16.3438655222
 31
0.0
  0
LINE
  5
238
330
A
100
AcDbEntity
  8
11
  6
Continuous
 62
    92
100
AcDbLine
 10
14.77850726249999
 20
16.3438655222
 30
0.0
 11
14.75472486399999
 21
16.3582343498
 31
0.0
  0
LINE
  5
239
330
A
100
AcDbEntity
  8
11
  6
Continuous
 62
    92
100
AcDbLine
 10
14.75472486399999
 20
16.3582343498
 30
0.0
 11
14.72977402629999
 21
16.3715393964
 31
0.0
  0
LINE
  5
23A
330
A
100
AcDbEntity
  8
11
  6
Continuous
 62
    92
100
AcDbLine
 10
23.63653923479999
 20
13.2680686502
 30
0.0
 11
25.4012451172
 21
13.2680686502
 31
0.0
  0
LINE
  5
23B
330
A
100
AcDbEntity
  8
1
  6
Continuous
 62
    92
100
AcDbLine
 10
17.57779648719999
 20
14.9358919929
 30
0.0
 11
17.5778323903
 21
16.2888331694
 31
0.0
  0
LINE
  5
23C
330
A
100
AcDbEntity
  8
1
  6
Continuous
 62
    92
100
AcDbLine
 10
17.7248912138
 20
16.4359027638
 30
0.0
 11
21.8425382726
 21
16.4359027638
 31
0.0
  0
LINE
  5
23D
330
A
100
AcDbEntity
  8
1
  6
Continuous
 62
    92
100
AcDbLine
 10
21.9895611931
 20
16.2888331694
 30
0.0
 11
21.9895611931
 21
14.9358919929
 31
0.0
  0
LINE
  5
23E
330
A
100
AcDbEntity
  8
1
  6
Continuous
 62
    92
100
AcDbLine
 10
21.8425382726
 20
14.7888421452
 30
0.0
 11
17.7248912138
 21
14.7888421452
 31
0.0
  0
LINE
  5
23F
330
A
100
AcDbEntity
  8
11
  6
Continuous
 62
    92
100
AcDbLine
 10
12.71777343749999
 20
15.7371274163
 30
0.0
 11
12.84259751259999
 21
15.6123625812
 31
0.0
  0
LINE
  5
240
330
A
100
AcDbEntity
  8
11
  6
Continuous
 62
    92
100
AcDbLine
 10
12.84259751259999
 20
15.6123625812
 30
0.0
 11
12.49395033889999
 21
15.33583293239999
 31
0.0
  0
LINE
  5
241
330
A
100
AcDbEntity
  8
11
  6
Continuous
 62
    92
100
AcDbLine
 10
11.31359773519999
 20
14.3995976168
 30
0.0
 11
9.781832526699998
 21
13.18465603099999
 31
0.0
  0
LINE
  5
242
330
A
100
AcDbEntity
  8
11
  6
Continuous
 62
    92
100
AcDbLine
 10
9.781832526699998
 20
13.18465603099999
 30
0.0
 11
9.781832526699998
 21
9.626303728900001
 31
0.0
  0
LINE
  5
243
330
A
100
AcDbEntity
  8
11
  6
Continuous
 62
    92
100
AcDbLine
 10
9.781832526699998
 20
9.626303728900001
 30
0.0
 11
13.24771477189999
 21
9.626303728900001
 31
0.0
  0
LINE
  5
244
330
A
100
AcDbEntity
  8
11
  6
Continuous
 62
    92
100
AcDbLine
 10
13.24771477189999
 20
9.626303728900001
 30
0.0
 11
18.210950066
 21
9.628773857599998
 31
0.0
  0
LINE
  5
250
330
A
100
AcDbEntity
  8
1
  6
Continuous
 62
    92
100
AcDbLine
 10
10.68684566719999
 20
31.9039957383
 30
0.0
 11
10.68684566719999
 21
30.1785318711
 31
0.0
  0
LINE
  5
251
330
A
100
AcDbEntity
  8
1
  6
Continuous
 62
    92
100
AcDbLine
 10
10.68684566719999
 20
31.9039957383
 30
0.0
 11
4.216351228599998
 21
31.9039957383
 31
0.0
  0
LINE
  5
252
330
A
100
AcDbEntity
  8
1
  6
Continuous
 62
    92
100
AcDbLine
 10
4.216351228599998
 20
31.9039957383
 30
0.0
 11
4.216351228599998
 21
31.0412602144
 31
0.0
  0
LINE
  5
253
330
A
100
AcDbEntity
  8
1
  6
Continuous
 62
    92
100
AcDbLine
 10
4.216351228599998
 20
31.0412602144
 30
0.0
 11
10.68684566719999
 21
31.0412602144
 31
0.0
  0
LINE
  5
254
330
A
100
AcDbEntity
  8
1
  6
Continuous
 62
    92
100
AcDbLine
 10
4.216351228599998
 20
31.0412602144
 30
0.0
 11
4.216351228599998
 21
30.1785318711
 31
0.0
  0
LINE
  5
255
330
A
100
AcDbEntity
  8
1
  6
Continuous
 62
    92
100
AcDbLine
 10
4.216351228599998
 20
30.1785318711
 30
0.0
 11
10.68684566719999
 21
30.1785318711
 31
0.0
  0
LINE
  5
25B
330
A
100
AcDbEntity
  8
1
  6
Continuous
 62
    92
100
AcDbLine
 10
4.260325712299998
 20
23.5792510088
 30
0.0
 11
10.06888714959999
 21
23.5792510088
 31
0.0
  0
CIRCLE
  5
267
330
A
100
AcDbEntity
  8
11
  6
Continuous
 62
    92
100
AcDbCircle
 10
40.0793062098
 20
6.67621163765
 30
0.0
 40
0.2158589083
  0
CIRCLE
  5
268
330
A
100
AcDbEntity
  8
11
  6
Continuous
 62
    92
100
AcDbCircle
 10
40.0793062098
 20
6.67621163765
 30
0.0
 40
0.4317178165000001
  0
CIRCLE
  5
269
330
A
100
AcDbEntity
  8
11
  6
Continuous
 62
    92
100
AcDbCircle
 10
36.87724393959999
 20
19.4060098985
 30
0.0
 40
0.6764095531
  0
CIRCLE
  5
26A
330
A
100
AcDbEntity
  8
11
  6
Continuous
 62
    92
100
AcDbCircle
 10
36.87724393959999
 20
19.4060098985
 30
0.0
 40
0.5588235294000001
  0
ARC
  5
26B
330
A
100
AcDbEntity
  8
11
  6
Continuous
 62
    92
100
AcDbCircle
 10
37.23002714269999
 20
20.1170963961
 30
0.0
 40
0.0587230088
100
AcDbArc
 50
180.0
 51
243.6668091
  0
ARC
  5
26C
330
A
100
AcDbEntity
  8
11
  6
Continuous
 62
    92
100
AcDbCircle
 10
36.87724393959999
 20
19.4060098985
 30
0.0
 40
0.735038101
100
AcDbArc
 50
116.3828888
 51
63.6096191
  0
ARC
  5
26D
330
A
100
AcDbEntity
  8
11
  6
Continuous
 62
    92
100
AcDbCircle
 10
36.5245325425
 20
20.1171269136
 30
0.0
 40
0.0587457264
100
AcDbArc
 50
296.3387146
 51
0.0
  0
ARC
  5
26E
330
A
100
AcDbEntity
  8
11
  6
Continuous
 62
    92
100
AcDbCircle
 10
38.8177167107
 20
20.1171879488
 30
0.0
 40
0.0588235611
100
AcDbArc
 50
180.0594499453
 51
243.6390381
  0
ARC
  5
26F
330
A
100
AcDbEntity
  8
11
  6
Continuous
 62
    92
100
AcDbCircle
 10
38.4648904239
 20
19.4060098985
 30
0.0
 40
0.735038101
100
AcDbArc
 50
116.3828888
 51
63.6096191
  0
ARC
  5
270
330
A
100
AcDbEntity
  8
11
  6
Continuous
 62
    92
100
AcDbCircle
 10
38.112168256
 20
20.1171269136
 30
0.0
 40
0.0587505062
100
AcDbArc
 50
296.348114
 51
0.0
  0
CIRCLE
  5
271
330
A
100
AcDbEntity
  8
11
  6
Continuous
 62
    92
100
AcDbCircle
 10
8.881714764699998
 20
15.6123625812
 30
0.0
 40
0.4117647059000001
  0
ARC
  5
272
330
A
100
AcDbEntity
  8
11
  6
CENTERX2
 62
    92
100
AcDbCircle
 10
36.87724393959999
 20
15.6123625812
 30
0.0
 40
1.588244614999999
100
AcDbArc
 50
306.5031432999999
 51
325.6246947999999
  0
ARC
  5
273
330
A
100
AcDbEntity
  8
11
  6
CENTERX2
 62
    92
100
AcDbCircle
 10
36.87724393959999
 20
15.6123625812
 30
0.0
 40
1.588220964
100
AcDbArc
 50
214.3778381
 51
235.6268616
  0
ARC
  5
274
330
A
100
AcDbEntity
  8
11
  6
CENTERX2
 62
    92
100
AcDbCircle
 10
36.87724393959999
 20
15.6123625812
 30
0.0
 40
1.588188022599999
100
AcDbArc
 50
124.3737945999999
 51
145.6234131
  0
ARC
  5
275
330
A
100
AcDbEntity
  8
11
  6
CENTERX2
 62
    92
100
AcDbCircle
 10
36.87724393959999
 20
15.6123625812
 30
0.0
 40
1.5882373853
100
AcDbArc
 50
34.37480159999999
 51
55.62394710000001
  0
ARC
  5
276
330
A
100
AcDbEntity
  8
11
  6
CENTERX2
 62
    92
100
AcDbCircle
 10
36.87724393959999
 20
15.6123625812
 30
0.0
 40
2.941157883999999
100
AcDbArc
 50
38.12047580000001
 51
51.8805351
  0
ARC
  5
277
330
A
100
AcDbEntity
  8
11
  6
CENTERX2
 62
    92
100
AcDbCircle
 10
36.87724393959999
 20
15.6123625812
 30
0.0
 40
2.941195561599999
100
AcDbArc
 50
308.1191405999999
 51
321.8782959
  0
ARC
  5
278
330
A
100
AcDbEntity
  8
11
  6
CENTERX2
 62
    92
100
AcDbCircle
 10
36.87724393959999
 20
15.6123625812
 30
0.0
 40
2.941149260899999
100
AcDbArc
 50
218.1220703
 51
231.8814697
  0
ARC
  5
279
330
A
100
AcDbEntity
  8
11
  6
CENTERX2
 62
    92
100
AcDbCircle
 10
36.87724393959999
 20
15.6123625812
 30
0.0
 40
2.941157883999999
100
AcDbArc
 50
128.1181946
 51
141.8784943
  0
ARC
  5
27A
330
A
100
AcDbEntity
  8
11
  6
Continuous
 62
    92
100
AcDbCircle
 10
36.87724393959999
 20
15.6123625812
 30
0.0
 40
1.352918693699999
100
AcDbArc
 50
243.7419128
 51
296.2636413999999
  0
ARC
  5
27B
330
A
100
AcDbEntity
  8
11
  6
Continuous
 62
    92
100
AcDbCircle
 10
36.87724393959999
 20
15.6123625812
 30
0.0
 40
1.352945699299999
100
AcDbArc
 50
63.73959729999999
 51
116.261322
  0
ARC
  5
27C
330
A
100
AcDbEntity
  8
11
  6
Continuous
 62
    92
100
AcDbCircle
 10
36.87724393959999
 20
15.6123625812
 30
0.0
 40
1.1764450787
100
AcDbArc
 50
210.0014800999999
 51
235.7020111
  0
ARC
  5
27D
330
A
100
AcDbEntity
  8
11
  6
Continuous
 62
    92
100
AcDbCircle
 10
36.87724393959999
 20
15.6123625812
 30
0.0
 40
1.352938472499999
100
AcDbArc
 50
183.7394256999999
 51
210.0008545
  0
ARC
  5
27E
330
A
100
AcDbEntity
  8
11
  6
Continuous
 62
    92
100
AcDbCircle
 10
36.87724393959999
 20
15.6123625812
 30
0.0
 40
1.1764068397
100
AcDbArc
 50
124.2989654999999
 51
149.9978637999999
  0
ARC
  5
27F
330
A
100
AcDbEntity
  8
11
  6
Continuous
 62
    92
100
AcDbCircle
 10
36.87724393959999
 20
15.6123625812
 30
0.0
 40
1.352909819499999
100
AcDbArc
 50
149.9984589
 51
176.2598877
  0
ARC
  5
280
330
A
100
AcDbEntity
  8
11
  6
Continuous
 62
    92
100
AcDbCircle
 10
36.87724393959999
 20
15.6123625812
 30
0.0
 40
1.176494827399999
100
AcDbArc
 50
30.00008199999999
 51
55.6980743
  0
ARC
  5
281
330
A
100
AcDbEntity
  8
11
  6
Continuous
 62
    92
100
AcDbCircle
 10
36.87724393959999
 20
15.6123625812
 30
0.0
 40
1.3529993777
100
AcDbArc
 50
3.739269499999999
 51
29.99956889999999
  0
ARC
  5
282
330
A
100
AcDbEntity
  8
11
  6
Continuous
 62
    92
100
AcDbCircle
 10
36.87724393959999
 20
15.6123625812
 30
0.0
 40
1.3529626774
100
AcDbArc
 50
329.9997559
 51
356.2598876999999
  0
ARC
  5
283
330
A
100
AcDbEntity
  8
11
  6
Continuous
 62
    92
100
AcDbCircle
 10
36.87724393959999
 20
15.6123625812
 30
0.0
 40
1.176488149599999
100
AcDbArc
 50
304.2996521
 51
329.9992676
  0
CIRCLE
  5
284
330
A
100
AcDbEntity
  8
11
  6
Continuous
 62
    92
100
AcDbCircle
 10
36.87724393959999
 20
15.6123625812
 30
0.0
 40
0.75
  0
CIRCLE
  5
285
330
A
100
AcDbEntity
  8
11
  6
Continuous
 62
    92
100
AcDbCircle
 10
36.87724393959999
 20
15.6123625812
 30
0.0
 40
0.4117647059000001
  0
CIRCLE
  5
286
330
A
100
AcDbEntity
  8
11
  6
Continuous
 62
    92
100
AcDbCircle
 10
36.87724393959999
 20
15.6123625812
 30
0.0
 40
0.1764095531
  0
CIRCLE
  5
287
330
A
100
AcDbEntity
  8
11
  6
Continuous
 62
    92
100
AcDbCircle
 10
36.87724393959999
 20
15.6123625812
 30
0.0
 40
0.3529411765
  0
CIRCLE
  5
288
330
A
100
AcDbEntity
  8
11
  6
Continuous
 62
    92
100
AcDbCircle
 10
36.87724393959999
 20
15.6123625812
 30
0.0
 40
0.588174259
  0
CIRCLE
  5
289
330
A
100
AcDbEntity
  8
11
  6
Continuous
 62
    92
100
AcDbCircle
 10
38.00030158549999
 20
14.4893031401
 30
0.0
 40
0.2352941176
  0
CIRCLE
  5
28A
330
A
100
AcDbEntity
  8
11
  6
Continuous
 62
    92
100
AcDbCircle
 10
35.7541862936
 20
14.4893031401
 30
0.0
 40
0.2352941176
  0
CIRCLE
  5
28B
330
A
100
AcDbEntity
  8
11
  6
Continuous
 62
    92
100
AcDbCircle
 10
35.7541862936
 20
14.4893031401
 30
0.0
 40
0.1411168716
  0
CIRCLE
  5
28C
330
A
100
AcDbEntity
  8
11
  6
Continuous
 62
    92
100
AcDbCircle
 10
35.75424373849999
 20
16.7354220222
 30
0.0
 40
0.2352941176
  0
CIRCLE
  5
28D
330
A
100
AcDbEntity
  8
11
  6
Continuous
 62
    92
100
AcDbCircle
 10
35.75424373849999
 20
16.7354220222
 30
0.0
 40
0.1411743164
  0
CIRCLE
  5
28E
330
A
100
AcDbEntity
  8
11
  6
Continuous
 62
    92
100
AcDbCircle
 10
38.00030158549999
 20
16.7354220222
 30
0.0
 40
0.2352941176
  0
CIRCLE
  5
28F
330
A
100
AcDbEntity
  8
11
  6
Continuous
 62
    92
100
AcDbCircle
 10
38.00030158549999
 20
16.7354220222
 30
0.0
 40
0.1411743164
  0
CIRCLE
  5
290
330
A
100
AcDbEntity
  8
11
  6
Continuous
 62
    92
100
AcDbCircle
 10
38.00030158549999
 20
14.4893031401
 30
0.0
 40
0.1411743164
  0
CIRCLE
  5
291
330
A
100
AcDbEntity
  8
11
  6
Continuous
 62
    92
100
AcDbCircle
 10
36.87724393959999
 20
15.6123625812
 30
0.0
 40
2.352941176499999
  0
CIRCLE
  5
292
330
A
100
AcDbEntity
  8
11
  6
Continuous
 62
    92
100
AcDbCircle
 10
36.87724393959999
 20
15.6123625812
 30
0.0
 40
2.0
  0
CIRCLE
  5
293
330
A
100
AcDbEntity
  8
11
  6
Continuous
 62
    92
100
AcDbCircle
 10
36.87724393959999
 20
15.6123625812
 30
0.0
 40
1.058823529399999
  0
CIRCLE
  5
294
330
A
100
AcDbEntity
  8
11
  6
Continuous
 62
    92
100
AcDbCircle
 10
38.9570097082
 20
13.5325977101
 30
0.0
 40
0.2058823529
  0
CIRCLE
  5
295
330
A
100
AcDbEntity
  8
11
  6
Continuous
 62
    92
100
AcDbCircle
 10
34.79753920609999
 20
13.5325977101
 30
0.0
 40
0.2058823529
  0
CIRCLE
  5
296
330
A
100
AcDbEntity
  8
11
  6
Continuous
 62
    92
100
AcDbCircle
 10
34.79753920609999
 20
17.6920691098
 30
0.0
 40
0.2058823529
  0
CIRCLE
  5
297
330
A
100
AcDbEntity
  8
11
  6
Continuous
 62
    92
100
AcDbCircle
 10
38.9570097082
 20
17.6920691098
 30
0.0
 40
0.2058823529
  0
ARC
  5
298
330
A
100
AcDbEntity
  8
11
  6
Continuous
 62
    92
100
AcDbCircle
 10
13.22494955619999
 20
15.6123114193
 30
0.0
 40
0.1470579349
100
AcDbArc
 50
180.0
 51
270.0202636999999
  0
ARC
  5
299
330
A
100
AcDbEntity
  8
11
  6
Continuous
 62
    92
100
AcDbCircle
 10
14.10720107129999
 20
15.6123625812
 30
0.0
 40
0.1471100209
100
AcDbArc
 50
270.037262
 51
0.0
  0
ARC
  5
29A
330
A
100
AcDbEntity
  8
11
  6
Continuous
 62
    92
100
AcDbCircle
 10
14.1073024974
 20
15.61234911749999
 30
0.0
 40
0.1470597217
100
AcDbArc
 50
0.0
 51
89.99440000000001
  0
ARC
  5
29B
330
A
100
AcDbEntity
  8
11
  6
Continuous
 62
    92
100
AcDbCircle
 10
13.22489749679999
 20
15.6123625812
 30
0.0
 40
0.147046267
100
AcDbArc
 50
90.0
 51
180.0206299010999
  0
ARC
  5
29C
330
A
100
AcDbEntity
  8
11
  6
Continuous
 62
    92
100
AcDbCircle
 10
14.48580394069999
 20
15.3251490874
 30
0.0
 40
0.5662257715
100
AcDbArc
 50
264.4309387
 51
290.9377440999999
  0
ARC
  5
29D
330
A
100
AcDbEntity
  8
11
  6
Continuous
 62
    92
100
AcDbCircle
 10
13.16933306519999
 20
13.2490122178
 30
0.0
 40
3.4907237035
100
AcDbArc
 50
63.44863509999999
 51
65.84317780000001
  0
ARC
  5
29E
330
A
100
AcDbEntity
  8
11
  6
Continuous
 62
    92
100
AcDbCircle
 10
13.2183407054
 20
13.3456703635
 30
0.0
 40
3.382478144499999
100
AcDbArc
 50
65.93060300000001
 51
68.9958649
  0
ARC
  5
29F
330
A
100
AcDbEntity
  8
1
  6
Continuous
 62
    92
100
AcDbCircle
 10
17.7248912138
 20
16.2888448379
 30
0.0
 40
0.147057926
100
AcDbArc
 50
90.0
 51
180.0
  0
ARC
  5
2A0
330
A
100
AcDbEntity
  8
1
  6
Continuous
 62
    92
100
AcDbCircle
 10
21.84249159869999
 20
16.2888331694
 30
0.0
 40
0.1470696018
100
AcDbArc
 50
0.0181833785
 51
89.98181663670001
  0
ARC
  5
2A1
330
A
100
AcDbEntity
  8
1
  6
Continuous
 62
    92
100
AcDbCircle
 10
21.8425382726
 20
14.9358677584
 30
0.0
 40
0.1470256132
100
AcDbArc
 50
270.0
 51
0.0094604039
  0
ARC
  5
2A2
330
A
100
AcDbEntity
  8
1
  6
Continuous
 62
    92
100
AcDbCircle
 10
17.72484633499999
 20
14.9358919929
 30
0.0
 40
0.1470498546
100
AcDbArc
 50
179.9825136489999
 51
270.017486351
  0
POINT
  5
2A3
330
A
100
AcDbEntity
  8
4
100
AcDbPoint
 10
39.16289206109999
 20
13.5325384701
 30
0.0
  0
POINT
  5
2A4
330
A
100
AcDbEntity
  8
4
100
AcDbPoint
 10
39.16289206109999
 20
11.7464209164
 30
0.0
  0
POINT
  5
2A5
330
A
100
AcDbEntity
  8
4
100
AcDbPoint
 10
38.7511273552
 20
13.5325384701
 30
0.0
  0
POINT
  5
2A6
330
A
100
AcDbEntity
  8
4
100
AcDbPoint
 10
38.7511273552
 20
11.7464209164
 30
0.0
  0
POINT
  5
2A7
330
A
100
AcDbEntity
  8
4
100
AcDbPoint
 10
34.79753920609999
 20
17.6920691098
 30
0.0
  0
POINT
  5
2A8
330
A
100
AcDbEntity
  8
4
100
AcDbPoint
 10
31.5663057215
 20
14.4608329324
 30
0.0
  0
POINT
  5
2A9
330
A
100
AcDbEntity
  8
4
100
AcDbPoint
 10
38.9570097082
 20
13.5325977101
 30
0.0
  0
POINT
  5
2AA
330
A
100
AcDbEntity
  8
4
100
AcDbPoint
 10
35.72577263329999
 20
10.3013624304
 30
0.0
  0
POINT
  5
2AB
330
A
100
AcDbEntity
  8
4
100
AcDbPoint
 10
22.63653923479999
 20
20.4873033412
 30
0.0
  0
POINT
  5
2AC
330
A
100
AcDbEntity
  8
4
100
AcDbPoint
 10
22.63653923479999
 20
20.9653037576
 30
0.0
  0
POINT
  5
2AD
330
A
100
AcDbEntity
  8
4
100
AcDbPoint
 10
12.84259751259999
 20
15.9653037576
 30
0.0
  0
POINT
  5
2AE
330
A
100
AcDbEntity
  8
4
100
AcDbPoint
 10
12.84259751259999
 20
20.9653037576
 30
0.0
  0
POINT
  5
2AF
330
A
100
AcDbEntity
  8
4
100
AcDbPoint
 10
12.84259751259999
 20
20.9653037576
 30
0.0
  0
POINT
  5
2B0
330
A
100
AcDbEntity
  8
4
100
AcDbPoint
 10
12.84259751259999
 20
21.7887739294
 30
0.0
  0
POINT
  5
2B1
330
A
100
AcDbEntity
  8
4
100
AcDbPoint
 10
24.5775972254
 20
20.4873033412
 30
0.0
  0
POINT
  5
2B2
330
A
100
AcDbEntity
  8
4
100
AcDbPoint
 10
24.5775972254
 20
21.7887739294
 30
0.0
  0
POINT
  5
2B3
330
A
100
AcDbEntity
  8
4
100
AcDbPoint
 10
12.84259751259999
 20
21.7887739294
 30
0.0
  0
POINT
  5
2B4
330
A
100
AcDbEntity
  8
4
100
AcDbPoint
 10
12.84259751259999
 20
22.61230334119999
 30
0.0
  0
POINT
  5
2B5
330
A
100
AcDbEntity
  8
4
100
AcDbPoint
 10
27.66595099949999
 20
17.7292449054
 30
0.0
  0
POINT
  5
2B6
330
A
100
AcDbEntity
  8
4
100
AcDbPoint
 10
27.66595099949999
 20
22.61230334119999
 30
0.0
  0
POINT
  5
2B7
330
A
100
AcDbEntity
  8
4
100
AcDbPoint
 10
7.528773588299998
 20
15.4653037576
 30
0.0
  0
POINT
  5
2B8
330
A
100
AcDbEntity
  8
4
100
AcDbPoint
 10
7.528773588299998
 20
15.7594214047
 30
0.0
  0
POINT
  5
2B9
330
A
100
AcDbEntity
  8
4
100
AcDbPoint
 10
7.528773588299998
 20
17.0424791224
 30
0.0
  0
POINT
  5
2BA
330
A
100
AcDbEntity
  8
4
100
AcDbPoint
 10
9.293479470599997
 20
16.6391857372
 30
0.0
  0
POINT
  5
2BB
330
A
100
AcDbEntity
  8
4
100
AcDbPoint
 10
8.352302999999999
 20
16.6391857372
 30
0.0
  0
POINT
  5
2BC
330
A
100
AcDbEntity
  8
4
100
AcDbPoint
 10
39.87983254819999
 20
15.6123625812
 30
0.0
  0
POINT
  5
2BD
330
A
100
AcDbEntity
  8
4
100
AcDbPoint
 10
41.6488324333
 20
15.6123625812
 30
0.0
  0
POINT
  5
2BE
330
A
100
AcDbEntity
  8
4
100
AcDbPoint
 10
38.75889318129999
 20
20.1410688513
 30
0.0
  0
POINT
  5
2BF
330
A
100
AcDbEntity
  8
4
100
AcDbPoint
 10
41.6488324333
 20
20.1410688513
 30
0.0
  0
POINT
  5
2C0
330
A
100
AcDbEntity
  8
4
100
AcDbPoint
 10
38.4648904239
 20
20.1410688513
 30
0.0
  0
POINT
  5
2C1
330
A
100
AcDbEntity
  8
4
100
AcDbPoint
 10
38.4648904239
 20
21.4114797256
 30
0.0
  0
POINT
  5
2C2
330
A
100
AcDbEntity
  8
4
100
AcDbPoint
 10
36.87724393959999
 20
20.1410688513
 30
0.0
  0
POINT
  5
2C3
330
A
100
AcDbEntity
  8
4
100
AcDbPoint
 10
36.87724393959999
 20
21.4114797256
 30
0.0
  0
POINT
  5
2C4
330
A
100
AcDbEntity
  8
4
100
AcDbPoint
 10
34.53300924859999
 20
18.25942140469999
 30
0.0
  0
POINT
  5
2C5
330
A
100
AcDbEntity
  8
4
100
AcDbPoint
 10
30.4827737247
 20
14.2091858808
 30
0.0
  0
POINT
  5
2C6
330
A
100
AcDbEntity
  8
4
100
AcDbPoint
 10
39.52430276309999
 20
13.2680686502
 30
0.0
  0
POINT
  5
2C7
330
A
100
AcDbEntity
  8
4
100
AcDbPoint
 10
35.4741282743
 20
9.217891468699999
 30
0.0
  0
POINT
  5
2C8
330
A
100
AcDbEntity
  8
4
100
AcDbPoint
 10
39.22153966569999
 20
12.9653037576
 30
0.0
  0
POINT
  5
2C9
330
A
100
AcDbEntity
  8
4
100
AcDbPoint
 10
40.6674194336
 20
12.9653037576
 30
0.0
  0
POINT
  5
2CA
330
A
100
AcDbEntity
  8
4
100
AcDbPoint
 10
39.22153966569999
 20
18.25942140469999
 30
0.0
  0
POINT
  5
2CB
330
A
100
AcDbEntity
  8
4
100
AcDbPoint
 10
40.6674194336
 20
18.25942140469999
 30
0.0
  0
POINT
  5
2CC
330
A
100
AcDbEntity
  8
4
100
AcDbPoint
 10
14.43083280669999
 20
19.1417743459
 30
0.0
  0
POINT
  5
2CD
330
A
100
AcDbEntity
  8
4
100
AcDbPoint
 10
14.60730339499999
 20
19.1417743459
 30
0.0
  0
POINT
  5
2CE
330
A
100
AcDbEntity
  8
4
100
AcDbPoint
 10
15.89030187269999
 20
19.1417743459
 30
0.0
  0
POINT
  5
2CF
330
A
100
AcDbEntity
  8
4
100
AcDbPoint
 10
13.60730339499999
 20
19.1417743459
 30
0.0
  0
POINT
  5
2D0
330
A
100
AcDbEntity
  8
4
100
AcDbPoint
 10
12.84259751259999
 20
19.9652445176
 30
0.0
  0
POINT
  5
2D1
330
A
100
AcDbEntity
  8
4
100
AcDbPoint
 10
14.60730339499999
 20
19.9652445176
 30
0.0
  0
POINT
  5
2D2
330
A
100
AcDbEntity
  8
4
100
AcDbPoint
 10
12.901421042
 20
15.2005978753
 30
0.0
  0
POINT
  5
2D3
330
A
100
AcDbEntity
  8
4
100
AcDbPoint
 10
12.01906810089999
 20
15.2005978753
 30
0.0
  0
POINT
  5
2D4
330
A
100
AcDbEntity
  8
4
100
AcDbPoint
 10
12.901421042
 20
16.024127287
 30
0.0
  0
POINT
  5
2D5
330
A
100
AcDbEntity
  8
4
100
AcDbPoint
 10
12.01906810089999
 20
16.024127287
 30
0.0
  0
POINT
  5
2D6
330
A
100
AcDbEntity
  8
4
100
AcDbPoint
 10
14.43083280669999
 20
13.2594214047
 30
0.0
  0
POINT
  5
2D7
330
A
100
AcDbEntity
  8
4
100
AcDbPoint
 10
11.19553868909999
 20
13.2594214047
 30
0.0
  0
POINT
  5
2D8
330
A
100
AcDbEntity
  8
4
100
AcDbPoint
 10
14.43083280669999
 20
17.9653037576
 30
0.0
  0
POINT
  5
2D9
330
A
100
AcDbEntity
  8
4
100
AcDbPoint
 10
11.19553868909999
 20
17.9653037576
 30
0.0
  0
POINT
  5
2DA
330
A
100
AcDbEntity
  8
4
100
AcDbPoint
 10
14.60730339499999
 20
11.9064802282
 30
0.0
  0
POINT
  5
2DB
330
A
100
AcDbEntity
  8
4
100
AcDbPoint
 10
15.07789163029999
 20
11.9064802282
 30
0.0
  0
POINT
  5
2DC
330
A
100
AcDbEntity
  8
4
100
AcDbPoint
 10
16.6660084444
 20
11.08295081649999
 30
0.0
  0
POINT
  5
2DD
330
A
100
AcDbEntity
  8
4
100
AcDbPoint
 10
15.07789163029999
 20
11.08295081649999
 30
0.0
  0
MTEXT
  5
2DF
330
A
100
AcDbEntity
  8
6
 62
    92
100
AcDbMText
 10
7.255830589199999
 20
6.8464288289
 30
0.0
 40
0.3781514659
 41
0.0
 71
     1
 72
     5
  1
Typ
  7
SLDTEXTSTYLE0
 73
     1
 44
1.0
  0
MTEXT
  5
2E0
330
A
100
AcDbEntity
  8
6
 62
    92
100
AcDbMText
 10
7.255830589199999
 20
6.0620759092
 30
0.0
 40
0.3781514659
 41
0.0
 71
     1
 72
     5
  1
MSM 100-6-604-S/M-O/2KA
  7
SLDTEXTSTYLE0
 73
     1
 44
1.0
  0
MTEXT
  5
2E1
330
A
100
AcDbEntity
  8
6
 62
    92
100
AcDbMText
 10
7.255830589199999
 20
5.2777815564
 30
0.0
 40
0.3781514659
 41
0.0
 71
     1
 72
     5
  1
MSM 100-14-604-S/M-O/2KA
  7
SLDTEXTSTYLE0
 73
     1
 44
1.0
  0
MTEXT
  5
2E6
330
A
100
AcDbEntity
  8
6
 62
    92
100
AcDbMText
 10
14.75921804039999
 20
6.8464288289
 30
0.0
 40
0.3781514659
 41
0.0
 71
     1
 72
     5
  1
a [mm]
  7
SLDTEXTSTYLE0
 73
     1
 44
1.0
  0
MTEXT
  5
2E7
330
A
100
AcDbEntity
  8
6
 62
    92
100
AcDbMText
 10
14.75921804039999
 20
6.062134700399999
 30
0.0
 40
0.3781514659
 41
0.0
 71
     1
 72
     5
  1
227
  7
SLDTEXTSTYLE0
 73
     1
 44
1.0
  0
MTEXT
  5
2E8
330
A
100
AcDbEntity
  8
6
 62
    92
100
AcDbMText
 10
14.75921804039999
 20
5.2777815564
 30
0.0
 40
0.3781514659
 41
0.0
 71
     1
 72
     5
  1
252
  7
SLDTEXTSTYLE0
 73
     1
 44
1.0
  0
MTEXT
  5
2E9
330
A
100
AcDbEntity
  8
6
 62
    92
100
AcDbMText
 10
20.66956816679999
 20
6.8464288289
 30
0.0
 40
0.3781514659
 41
0.0
 71
     1
 72
     5
  1
c [mm]
  7
SLDTEXTSTYLE0
 73
     1
 44
1.0
  0
MTEXT
  5
2EA
330
A
100
AcDbEntity
  8
6
 62
    92
100
AcDbMText
 10
20.66956816679999
 20
6.062134700399999
 30
0.0
 40
0.3781514659
 41
0.0
 71
     1
 72
     5
  1
142
  7
SLDTEXTSTYLE0
 73
     1
 44
1.0
  0
MTEXT
  5
2EB
330
A
100
AcDbEntity
  8
6
 62
    92
100
AcDbMText
 10
20.66956816679999
 20
5.2777815564
 30
0.0
 40
0.3781514659
 41
0.0
 71
     1
 72
     5
  1
167
  7
SLDTEXTSTYLE0
 73
     1
 44
1.0
  0
MTEXT
  5
2EC
330
A
100
AcDbEntity
  8
6
 62
    92
100
AcDbMText
 10
17.71439310359999
 20
6.8464288289
 30
0.0
 40
0.3781514659
 41
0.0
 71
     1
 72
     5
  1
b [mm]
  7
SLDTEXTSTYLE0
 73
     1
 44
1.0
  0
MTEXT
  5
2ED
330
A
100
AcDbEntity
  8
6
 62
    92
100
AcDbMText
 10
17.71439310359999
 20
6.062134700399999
 30
0.0
 40
0.3781514659
 41
0.0
 71
     1
 72
     5
  1
175
  7
SLDTEXTSTYLE0
 73
     1
 44
1.0
  0
MTEXT
  5
2EE
330
A
100
AcDbEntity
  8
6
 62
    92
100
AcDbMText
 10
17.71439310359999
 20
5.2777815564
 30
0.0
 40
0.3781514659
 41
0.0
 71
     1
 72
     5
  1
200
  7
SLDTEXTSTYLE0
 73
     1
 44
1.0
  0
MTEXT
  5
2EF
330
A
100
AcDbEntity
  8
6
 62
    92
100
AcDbMText
 10
25.8710901597
 20
31.6286483302
 30
0.0
 40
0.3912392083
 41
0.0
 71
     2
 72
     5
  1
Three phase current synchronous motor
  7
SLDTEXTSTYLE0
 73
     1
 44
1.0
  0
MTEXT
  5
2F0
330
A
100
AcDbEntity
  8
6
 62
    92
100
AcDbMText
 10
19.84136783369999
 20
31.5478168077
 30
0.0
 40
0.2667573445
 41
0.0
 71
     2
 72
     5
  1
motortyp :
  7
SLDTEXTSTYLE0
 73
     1
 44
1.0
  0
MTEXT
  5
2F1
330
A
100
AcDbEntity
  8
6
 62
    92
100
AcDbMText
 10
9.835745418799998
 20
30.7608865096
 30
0.0
 40
0.3734602823
 41
0.0
 71
     2
 72
     5
  1
IP 65
  7
SLDTEXTSTYLE0
 73
     1
 44
1.0
  0
MTEXT
  5
2F2
330
A
100
AcDbEntity
  8
6
 62
    92
100
AcDbMText
 10
4.387374687899998
 20
31.6135807816
 30
0.0
 40
0.2667573445
 41
0.0
 71
     1
 72
     5
  1
mounting of motor :
  7
SLDTEXTSTYLE0
 73
     1
 44
1.0
  0
MTEXT
  5
2F3
330
A
100
AcDbEntity
  8
6
 62
    92
100
AcDbMText
 10
4.387374687899998
 20
30.7599574475
 30
0.0
 40
0.2667573445
 41
0.0
 71
     1
 72
     5
  1
class of protection:
  7
SLDTEXTSTYLE0
 73
     1
 44
1.0
  0
MTEXT
  5
2F4
330
A
100
AcDbEntity
  8
6
 62
    92
100
AcDbMText
 10
9.848352768799998
 20
31.6174538925
 30
0.0
 40
0.3734602823
 41
0.0
 71
     2
 72
     5
  1
B 5
  7
SLDTEXTSTYLE0
 73
     1
 44
1.0
  0
MTEXT
  5
2F5
330
A
100
AcDbEntity
  8
6
 62
    92
100
AcDbMText
 10
7.480430602999998
 20
28.8554296704
 30
0.0
 40
0.3841300712
 41
0.0
 71
     2
 72
     5
  1
     all dimensions in millimeter
  7
SLDTEXTSTYLE0
 73
     1
 44
1.0
  0
MTEXT
  5
2F6
330
A
100
AcDbEntity
  8
6
 62
    92
100
AcDbMText
 10
9.194465188399998
 20
22.88536395389999
 30
0.0
 40
0.3924706052
 41
0.0
 71
     2
 72
     5
  1
+0.001
  7
SLDTEXTSTYLE0
 73
     1
 44
1.0
  0
MTEXT
  5
2F7
330
A
100
AcDbEntity
  8
6
 62
    92
100
AcDbMText
 10
9.194465188399998
 20
22.1735199023
 30
0.0
 40
0.3924706052
 41
0.0
 71
     2
 72
     5
  1
+0.012
  7
SLDTEXTSTYLE0
 73
     1
 44
1.0
  0
MTEXT
  5
2F8
330
A
100
AcDbEntity
  8
6
 62
    92
100
AcDbMText
 10
9.194465188399998
 20
21.609050621
 30
0.0
 40
0.3924706052
 41
0.0
 71
     2
 72
     5
  1
-0.007
  7
SLDTEXTSTYLE0
 73
     1
 44
1.0
  0
MTEXT
  5
2F9
330
A
100
AcDbEntity
  8
6
 62
    92
100
AcDbMText
 10
5.844385483699998
 20
21.8916290332
 30
0.0
 40
0.3924706052
 41
0.0
 71
     2
 72
     5
  1
80
  7
SLDTEXTSTYLE0
 73
     1
 44
1.0
  0
MTEXT
  5
2FA
330
A
100
AcDbEntity
  8
6
 62
    92
100
AcDbMText
 10
6.481998219199997
 20
21.6725316433
 30
0.0
 40
0.2943529452
 41
0.0
 71
     2
 72
     5
  1
j6
  7
SLDTEXTSTYLE0
 73
     1
 44
1.0
  0
MTEXT
  5
2FB
330
A
100
AcDbEntity
  8
6
 62
    92
100
AcDbMText
 10
5.844385483699998
 20
23.147533287
 30
0.0
 40
0.3924706052
 41
0.0
 71
     2
 72
     5
  1
14
  7
SLDTEXTSTYLE0
 73
     1
 44
1.0
  0
MTEXT
  5
2FC
330
A
100
AcDbEntity
  8
6
 62
    92
100
AcDbMText
 10
6.481998219199997
 20
22.9284376922
 30
0.0
 40
0.2943529452
 41
0.0
 71
     2
 72
     5
  1
k6
  7
SLDTEXTSTYLE0
 73
     1
 44
1.0
  0
MTEXT
  5
2FD
330
A
100
AcDbEntity
  8
6
 62
    92
100
AcDbMText
 10
9.194465188399998
 20
23.3762463787
 30
0.0
 40
0.3924706052
 41
0.0
 71
     2
 72
     5
  1
+0.012
  7
SLDTEXTSTYLE0
 73
     1
 44
1.0
  0
MTEXT
  5
307
330
A
100
AcDbEntity
  8
6
 62
    92
100
AcDbMText
 10
8.794582591299999
 20
28.2328496523
 30
0.0
 40
0.3885463792
 41
0.0
 71
     2
 72
     5
  1
dimensions with or without brake 
  7
SLDTEXTSTYLE0
 73
     1
 44
1.0
  0
MTEXT
  5
308
330
A
100
AcDbEntity
  8
6
 62
    92
100
AcDbMText
 10
39.5817512063
 20
7.97593203545
 30
0.0
 40
0.3885463792
 41
0.0
 71
     2
 72
     5
  1
projection
  7
SLDTEXTSTYLE0
 73
     1
 44
1.0
  0
MTEXT
  5
30D
330
A
100
AcDbEntity
  8
4
 62
    92
100
AcDbMText
 10
39.71177441579999
 20
12.29530327109999
 30
0.0
 40
0.4117647059000001
 41
0.0
 71
     1
 72
     5
  1
%%c7
  7
SLDTEXTSTYLE1
 73
     1
 44
1.0
  0
MTEXT
  5
30E
330
A
100
AcDbEntity
  8
4
 62
    92
100
AcDbMText
 10
33.3790248752
 20
13.424347076
 30
0.0
 40
0.4117647059000001
 41
0.0
 71
     1
 72
     5
  1
%%c100
  7
SLDTEXTSTYLE1
 11
0.7071067811865474
 21
-0.7071067811865478
 31
0.0
 73
     1
 44
1.0
  0
MTEXT
  5
30F
330
A
100
AcDbEntity
  8
4
 62
    92
100
AcDbMText
 10
16.80383338299999
 20
21.5141861123
 30
0.0
 40
0.4117647059000001
 41
0.0
 71
     1
 72
     5
  1
c
  7
SLDTEXTSTYLE0
 73
     1
 44
1.0
  0
MTEXT
  5
310
330
A
100
AcDbEntity
  8
4
 62
    92
100
AcDbMText
 10
17.77436237819999
 20
22.3376562841
 30
0.0
 40
0.4117647059000001
 41
0.0
 71
     1
 72
     5
  1
b
  7
SLDTEXTSTYLE0
 73
     1
 44
1.0
  0
MTEXT
  5
311
330
A
100
AcDbEntity
  8
4
 62
    92
100
AcDbMText
 10
19.88365659639999
 20
23.1611856959
 30
0.0
 40
0.4117647059000001
 41
0.0
 71
     1
 72
     5
  1
a
  7
SLDTEXTSTYLE0
 73
     1
 44
1.0
  0
MTEXT
  5
312
330
A
100
AcDbEntity
  8
4
 62
    92
100
AcDbMText
 10
6.996252436599998
 20
16.3128901321
 30
0.0
 40
0.411758521
 41
0.0
 71
     1
 72
     5
  1
5
  7
SLDTEXTSTYLE0
 11
0.0
 21
1.0
 31
0.0
 73
     1
 44
1.0
  0
MTEXT
  5
313
330
A
100
AcDbEntity
  8
4
 62
    92
100
AcDbMText
 10
8.588830497599998
 20
17.1880598475
 30
0.0
 40
0.411758521
 41
0.0
 71
     1
 72
     5
  1
16
  7
SLDTEXTSTYLE0
 73
     1
 44
1.0
  0
MTEXT
  5
314
330
A
100
AcDbEntity
  8
4
 62
    92
100
AcDbMText
 10
41.14542774119999
 20
17.6642955551
 30
0.0
 40
0.3776479469
 41
0.0
 71
     1
 72
     5
  1
77
  7
SLDTEXTSTYLE0
 11
0.0
 21
1.0
 31
0.0
 73
     1
 44
1.0
  0
MTEXT
  5
315
330
A
100
AcDbEntity
  8
4
 62
    92
100
AcDbMText
 10
37.8919064976
 20
21.7889259037
 30
0.0
 40
0.3774461781
 41
0.0
 71
     3
 72
     5
  1
27
  7
SLDTEXTSTYLE0
 73
     1
 44
1.0
  0
MTEXT
  5
316
330
A
100
AcDbEntity
  8
4
 62
    92
100
AcDbMText
 10
33.22109820359999
 20
12.3320385828
 30
0.0
 40
0.4117647059000001
 41
0.0
 71
     1
 72
     5
  1
120
  7
SLDTEXTSTYLE0
 11
0.7071067811865476
 21
-0.7071067811865476
 31
0.0
 73
     1
 44
1.0
  0
MTEXT
  5
317
330
A
100
AcDbEntity
  8
4
 62
    92
100
AcDbMText
 10
40.1185371035
 20
15.461913116
 30
0.0
 40
0.4117647059000001
 41
0.0
 71
     1
 72
     5
  1
90
  7
SLDTEXTSTYLE0
 11
0.0
 21
1.0
 31
0.0
 73
     1
 44
1.0
  0
MTEXT
  5
318
330
A
100
AcDbEntity
  8
4
 62
    92
100
AcDbMText
 10
15.24088971609999
 20
19.6742946246
 30
0.0
 40
0.411758521
 41
0.0
 71
     1
 72
     5
  1
3
  7
SLDTEXTSTYLE0
 73
     1
 44
1.0
  0
MTEXT
  5
319
330
A
100
AcDbEntity
  8
4
 62
    92
100
AcDbMText
 10
13.49330150229999
 20
20.5141186279
 30
0.0
 40
0.411758521
 41
0.0
 71
     1
 72
     5
  1
30
  7
SLDTEXTSTYLE0
 73
     1
 44
1.0
  0
MTEXT
  5
31A
330
A
100
AcDbEntity
  8
4
 62
    92
100
AcDbMText
 10
11.47019401519999
 20
13.0655954257
 30
0.0
 40
0.411758521
 41
0.0
 71
     1
 72
     5
  1
%%c14
  7
SLDTEXTSTYLE1
 11
0.0000000000000001
 21
1.0
 31
0.0
 73
     1
 44
1.0
  0
MTEXT
  5
31B
330
A
100
AcDbEntity
  8
4
 62
    92
100
AcDbMText
 10
11.6348559726
 20
14.36857881459999
 30
0.0
 40
0.288231166
 41
0.0
 71
     1
 72
     5
  1
k6
  7
SLDTEXTSTYLE0
 11
0.0
 21
1.0
 31
0.0
 73
     1
 44
1.0
  0
MTEXT
  5
31C
330
A
100
AcDbEntity
  8
4
 62
    92
100
AcDbMText
 10
10.64666460349999
 20
14.5667721476
 30
0.0
 40
0.411758521
 41
0.0
 71
     1
 72
     5
  1
%%c80
  7
SLDTEXTSTYLE1
 11
0.0000000000000001
 21
1.0
 31
0.0
 73
     1
 44
1.0
  0
MTEXT
  5
31D
330
A
100
AcDbEntity
  8
4
 62
    92
100
AcDbMText
 10
10.81132656089999
 20
15.7405782186
 30
0.0
 40
0.288231166
 41
0.0
 71
     1
 72
     5
  1
j6
  7
SLDTEXTSTYLE0
 11
0.0
 21
1.0
 31
0.0
 73
     1
 44
1.0
  0
MTEXT
  5
31E
330
A
100
AcDbEntity
  8
4
 62
    92
100
AcDbMText
 10
16.03847739129999
 20
12.4553543385
 30
0.0
 40
0.411758521
 41
0.0
 71
     1
 72
     5
  1
8
  7
SLDTEXTSTYLE0
 73
     1
 44
1.0
  0
MTEXT
  5
31F
330
A
100
AcDbEntity
  8
4
 62
    92
100
AcDbMText
 10
15.64036122339999
 20
11.63182492669999
 30
0.0
 40
0.411758521
 41
0.0
 71
     1
 72
     5
  1
27
  7
SLDTEXTSTYLE0
 73
     1
 44
1.0
  0
MTEXT
  5
320
330
A
100
AcDbEntity
  8
6
 62
    92
100
AcDbMText
 10
19.59871359429999
 20
15.8319369993
 30
0.0
 40
0.3529420635
 41
0.0
 71
     2
 72
     5
  1
rating plate
  7
SLDTEXTSTYLE0
 73
     1
 44
1.0
  0
MTEXT
  5
321
330
A
100
AcDbEntity
  8
6
 62
    92
100
AcDbMText
 10
10.22741171749999
 20
10.18840810689999
 30
0.0
 40
0.411758521
 41
0.0
 71
     1
 72
     5
  1
center hole D M5 DIN 332 Bl.2
  7
SLDTEXTSTYLE0
 73
     1
 44
1.0
  0
MTEXT
  5
322
330
A
100
AcDbEntity
  8
6
 62
    92
100
AcDbMText
 10
29.4912809484
 20
24.8574137916
 30
0.0
 40
0.3529420635
 41
0.0
 71
     2
 72
     5
  1
connector for
  7
SLDTEXTSTYLE0
 73
     1
 44
1.0
  0
MTEXT
  5
323
330
A
100
AcDbEntity
  8
6
 62
    92
100
AcDbMText
 10
29.53568941
 20
24.1548255419
 30
0.0
 40
0.3529420635
 41
0.0
 71
     2
 72
     5
  1
Stegmann encoder
  7
SLDTEXTSTYLE0
 73
     1
 44
1.0
  0
MTEXT
  5
324
330
A
100
AcDbEntity
  8
6
 62
    92
100
AcDbMText
 10
13.2861292222
 20
3.9821457845
 30
0.0
 40
0.3753009649
 41
0.0
 71
     2
 72
     5
  1
subject to alterations
  7
SLDTEXTSTYLE0
 73
     1
 44
1.0
  0
MTEXT
  5
326
330
A
100
AcDbEntity
  8
6
 62
    92
100
AcDbMText
 10
25.6498125862
 20
30.7518008877
 30
0.0
 40
1.078415618199999
 41
0.0
 71
     2
 72
     5
  1
MSM100
  7
SLDTEXTSTYLE0
 73
     1
 44
1.0
  0
INSERT
  5
474
330
A
100
AcDbEntity
  8
0
  6
Continuous
100
AcDbBlockReference
 66
     1
  2
BM_E
 10
0.0
 20
0.0
 30
0.0
  0
ATTRIB
  5
476
330
474
100
AcDbEntity
  8
TITLE BLOCK
  6
Continuous
100
AcDbText
 10
35.34999999999999
 20
3.250068621953476
 30
0.0
 40
0.2021222838
  1
G. MUMM
100
AcDbAttribute
  2
GEN-TITLE-NAME{5}
 70
     0
  0
ATTRIB
  5
477
330
474
100
AcDbEntity
  8
TITLE BLOCK
  6
Continuous
100
AcDbText
 10
35.34999999999999
 20
2.750068621953476
 30
0.0
 40
0.2021222838
  1

100
AcDbAttribute
  2
GEN-TITLE-CHKM{5}
 70
     0
  0
ATTRIB
  5
478
330
474
100
AcDbEntity
  8
TITLE BLOCK
  6
Continuous
100
AcDbText
 10
35.34999999999999
 20
2.250068621953476
 30
0.0
 40
0.2021222838
  1

100
AcDbAttribute
  2
GEN-TITLE-APPM{5}
 70
     0
  0
ATTRIB
  5
479
330
474
100
AcDbEntity
  8
TITLE BLOCK
  6
Continuous
100
AcDbText
 10
32.0
 20
1.25
 30
0.0
 40
0.3
  1
SERVO MOTOR, MSM100
 41
0.8
100
AcDbAttribute
  2
GEN-TITLE-DES1{15.54}
 70
     0
  0
ATTRIB
  5
47A
330
474
100
AcDbEntity
  8
TITLE BLOCK
  6
Continuous
100
AcDbText
 10
42.29999999999999
 20
2.250068621953476
 30
0.0
 40
0.2361798886203
  1
1
 41
0.8
100
AcDbAttribute
  2
GEN-TITLE-SHEET-OF{2.62}
 70
     0
  0
ATTRIB
  5
47B
330
474
100
AcDbEntity
  8
TITLE BLOCK
  6
Continuous
100
AcDbText
 10
41.5
 20
2.250068621953476
 30
0.0
 40
0.2361798886203
  1
1
 41
0.8
100
AcDbAttribute
  2
GEN-TITLE-SHEET{2.62}
 70
     0
  0
ATTRIB
  5
47C
330
474
100
AcDbEntity
  8
TITLE BLOCK
  6
Continuous
100
AcDbText
 10
38.4
 20
2.250068621953476
 30
0.0
 40
0.2021222838
  1

 41
0.8
100
AcDbAttribute
  2
GEN-TITLE-MAT{11.15}
 70
     0
  0
ATTRIB
  5
47D
330
474
100
AcDbEntity
  8
TITLE BLOCK
  6
Continuous
100
AcDbText
 10
38.4
 20
2.750068621953476
 30
0.0
 40
0.2021222838
  1

100
AcDbAttribute
  2
GEN-TITLE-MACH{5}
 70
     0
  0
ATTRIB
  5
47E
330
474
100
AcDbEntity
  8
TITLE BLOCK
  6
Continuous
100
AcDbText
 10
38.4
 20
3.250068621953476
 30
0.0
 40
0.2021222838
  1
70402221
100
AcDbAttribute
  2
GEN-TITLE-REF{5}
 70
     0
  0
ATTRIB
  5
47F
330
474
100
AcDbEntity
  8
TITLE BLOCK
  6
Continuous
100
AcDbText
 10
41.35
 20
2.750068621953476
 30
0.0
 40
0.2021222838
  1
14.01.03
100
AcDbAttribute
  2
GEN-TITLE-PLOT{5}
 70
     0
  0
ATTRIB
  5
480
330
474
100
AcDbEntity
  8
TITLE BLOCK
  6
Continuous
100
AcDbText
 10
38.0
 20
1.25
 30
0.0
 40
0.3
  1
MSM100-xx-604-S/M-xKA
 41
0.8
100
AcDbAttribute
  2
GEN-TITLE-NR{13.37}
 70
     0
  0
SEQEND
  5
475
330
474
100
AcDbEntity
  8
0
  6
Continuous
  0
ENDSEC
  0
SECTION
  2
OBJECTS
  0
DICTIONARY
  5
19
330
0
100
AcDbDictionary
281
     1
  3
ACAD_GROUP
350
1A
  3
ACAD_LAYOUT
350
32D
  3
ACAD_MLINESTYLE
350
1B
  3
ACAD_PLOTSETTINGS
350
32E
  3
ACAD_PLOTSTYLENAME
350
32B
  3
AcDbVariableDictionary
350
33C
  3
AcmDictionary
350
34F
  3
AMG
350
333
  3
AMGSNAPSETTINGS
350
382
  3
ASE_INDEX_DICTIONARY
350
48C
  3
DWGPROPS
350
4C3
  0
DICTIONARY
  5
48E
330
A
100
AcDbDictionary
280
     1
281
     1
  3
ACAD_INDEX
360
48F
  0
DICTIONARY
  5
1A
102
{ACAD_REACTORS
330
19
102
}
330
19
100
AcDbDictionary
281
     1
  0
DICTIONARY
  5
32D
102
{ACAD_REACTORS
330
19
102
}
330
19
100
AcDbDictionary
281
     1
  3
Layout1
350
330
  3
Model
350
32F
  0
DICTIONARY
  5
1B
102
{ACAD_REACTORS
330
19
102
}
330
19
100
AcDbDictionary
281
     1
  3
STANDARD
350
1C
  0
DICTIONARY
  5
32E
102
{ACAD_REACTORS
330
19
102
}
330
19
100
AcDbDictionary
281
     1
  0
ACDBDICTIONARYWDFLT
  5
32B
102
{ACAD_REACTORS
330
19
102
}
330
19
100
AcDbDictionary
281
     1
  3
Normal
350
32C
100
AcDbDictionaryWithDefault
340
32C
  0
DICTIONARY
  5
33C
102
{ACAD_REACTORS
330
19
102
}
330
19
100
AcDbDictionary
281
     1
  3
INDEXCTL
350
33D
  0
DICTIONARY
  5
34F
102
{ACAD_REACTORS
330
19
102
}
330
19
100
AcDbDictionary
281
     1
  3
AcmBOMDATA
350
350
  3
AcmStdDictionary
350
355
  0
DICTIONARY
  5
333
102
{ACAD_REACTORS
330
19
102
}
330
19
100
AcDbDictionary
281
     1
  3
AcMgSettings
350
334
  3
AMGLAYCFG
350
357
  0
DICTIONARY
  5
382
102
{ACAD_REACTORS
330
19
102
}
330
19
100
AcDbDictionary
281
     1
  3
DIMENSION
350
387
  3
FEA
350
386
  3
HATCH (1)
350
383
  3
HATCH (2)
350
384
  3
SIMPLE WELD
350
388
  3
SYMBOLS
350
385
  0
DICTIONARY
  5
48C
102
{ACAD_REACTORS
330
19
102
}
330
19
100
AcDbDictionary
281
     1
  3
ASEBlockHierarchyIndexRecord
350
48D
1001
DCO15
1040
1455934486.911
  0
XRECORD
  5
4C3
102
{ACAD_REACTORS
330
19
102
}
330
19
100
AcDbXrecord
280
     1
  1
DWGPROPS COOKIE
  2

  3

  4

  6

  7

  8

  9

300
AmdtFileType=84
301
=
302
=
303
=
304
=
305
=
306
=
307
=
308
=
309
=
 40
0.0160136458333333
 41
2311942.580326736
 42
2452654.305450359
  1

 90
        1
  0
DICTIONARY
  5
48F
102
{ACAD_REACTORS
330
48E
102
}
330
48E
100
AcDbDictionary
281
     1
  3
*A1
350
490
  0
LAYOUT
  5
330
102
{ACAD_REACTORS
330
32D
102
}
330
32D
100
AcDbPlotSettings
  1

  2
\\CONTROLSFS1\HP LaserJet 5Si MX
  4

  6

 40
0.0
 41
0.0
 42
0.0
 43
0.0
 44
0.0
 45
0.0
 46
0.0
 47
0.0
 48
0.0
 49
0.0
140
0.0
141
0.0
142
1.0
143
1.0
 70
   688
 72
     0
 73
     0
 74
     5
  7
monochrome.ctb
 75
    16
147
1.0
148
0.0
149
0.0
100
AcDbLayout
  1
Layout1
 70
     1
 71
     1
 10
0.0
 20
0.0
 11
12.0
 21
9.0
 12
0.0
 22
0.0
 32
0.0
 14
1.000000000000000E+20
 24
1.000000000000000E+20
 34
1.000000000000000E+20
 15
-1.000000000000000E+20
 25
-1.000000000000000E+20
 35
-1.000000000000000E+20
146
0.0
 13
0.0
 23
0.0
 33
0.0
 16
1.0
 26
0.0
 36
0.0
 17
0.0
 27
1.0
 37
0.0
 76
     0
330
B
  0
LAYOUT
  5
32F
102
{ACAD_REACTORS
330
32D
102
}
330
32D
100
AcDbPlotSettings
  1

  2
\\Fdlfs06\Engineering - Digital PrintServer 17/600 C
  4
Letter
  6

 40
6.085416793823242
 41
3.630082130432128
 42
6.085418701171875
 43
5.027069091796875
 44
215.8999938964843
 45
279.3999938964843
 46
0.0
 47
3.556
 48
0.0
 49
0.0
140
0.0
141
0.0
142
1.0
143
4.239400480494866
 70
 11956
 72
     0
 73
     1
 74
     1
  7
monochrome.ctb
 75
     0
147
0.235882409458818
148
0.0703889484356353
149
0.0520174172459377
100
AcDbLayout
  1
Model
 70
     1
 71
     0
 10
0.0
 20
0.0
 11
12.0
 21
9.0
 12
0.0
 22
0.0
 32
0.0
 14
0.0
 24
0.0
 34
0.0
 15
0.0
 25
0.0
 35
0.0
146
0.0
 13
0.0
 23
0.0
 33
0.0
 16
1.0
 26
0.0
 36
0.0
 17
0.0
 27
1.0
 37
0.0
 76
     0
330
A
  0
MLINESTYLE
  5
1C
102
{ACAD_REACTORS
330
1B
102
}
330
1B
100
AcDbMlineStyle
  2
STANDARD
 70
     0
  3

 62
     0
 51
90.0
 52
90.0
 71
     2
 49
0.5
 62
   256
  6
BYLAYER
 49
-0.5
 62
   256
  6
BYLAYER
  0
ACDBPLACEHOLDER
  5
32C
102
{ACAD_REACTORS
330
32B
102
}
330
32B
  0
DICTIONARYVAR
  5
33D
102
{ACAD_REACTORS
330
33C
102
}
330
33C
100
DictionaryVariables
280
     0
  1
1
  0
ACMDATADICTIONARY
  5
350
102
{ACAD_REACTORS
330
34F
102
}
330
34F
100
AcDbDictionary
281
     1
  3
*A1
350
351
100
AcmDataDictionary
  0
DICTIONARY
  5
355
102
{ACAD_REACTORS
330
34F
102
}
330
34F
100
AcDbDictionary
281
     1
  3
ANSI
350
356
  0
DICTIONARY
  5
334
102
{ACAD_REACTORS
330
333
102
}
330
333
100
AcDbDictionary
281
     1
  3
DWGSETTINGS
350
335
  3
TRANSSETTINGS
350
336
  0
ACAMGFILTERDAT
  5
387
102
{ACAD_REACTORS
330
382
102
}
330
382
100
AcAmgFilterDat
 70
    15
  1
DIMENSION,AMDT_*_DIM
  2
*
  3
*
  4
*
  5
*
290
     1
  0
ACAMGFILTERDAT
  5
386
102
{ACAD_REACTORS
330
382
102
}
330
382
100
AcAmgFilterDat
 70
    15
  1
*
  2
AM_FEA-AM_*
  3
*
  4
*
  5
*
290
     1
  0
ACAMGFILTERDAT
  5
383
102
{ACAD_REACTORS
330
382
102
}
330
382
100
AcAmgFilterDat
 70
    15
  1
HATCH
  2
*
  3
*
  4
*
  5
*
290
     1
  0
ACAMGFILTERDAT
  5
384
102
{ACAD_REACTORS
330
382
102
}
330
382
100
AcAmgFilterDat
 70
    15
  1
LINE
  2
8,8N,*-8,*-8N,AM_8,AM_8N,*-AM_8,*-AM_8N
  3
*
  4
*
  5
INSERT,STDPART2D
290
     1
  0
ACAMGFILTERDAT
  5
388
102
{ACAD_REACTORS
330
382
102
}
330
382
100
AcAmgFilterDat
 70
    15
  1
ARC
  2
AM_5
  3
*
  4
2
  5
INSERT
290
     0
  0
ACAMGFILTERDAT
  5
385
102
{ACAD_REACTORS
330
382
102
}
330
382
100
AcAmgFilterDat
 70
    15
  1
ACMFCFRAME,ACMDATUMTARGET,ACMDATUMID,ACMWELDSYM,ACMSURFSYM,ACMFEATID,ACMPARTREF,ACMBALLOON,AMDTEDGESYM
  2
*
  3
*
  4
*
  5
*
290
     1
  0
XRECORD
  5
48D
102
{ACAD_REACTORS
330
48C
102
}
330
48C
100
AcDbXrecord
280
     1
330
474
  0
LAYER_INDEX
  5
490
102
{ACAD_REACTORS
330
48F
102
}
330
48F
100
AcDbIndex
 40
2452655.299066493
100
AcDbLayerIndex
  8
0
360
491
 90
        1
  8
DEFPOINTS
360
492
 90
        0
  8
1
360
493
 90
       32
  8
5
360
494
 90
        0
  8
6
360
495
 90
       35
  8
11
360
496
 90
      400
  8
2
360
497
 90
        0
  8
4
360
498
 90
      244
  8
90
360
499
 90
        0
  8
BORDER
360
49A
 90
        0
  8
TITLE BLOCK
360
49B
 90
        0
  0
ACMDATAENTRYBLOCK
  5
351
102
{ACAD_REACTORS
330
350
102
}
330
350
100
AcmDataEntry
100
AcmDataEntryBlock
  0
IDBUFFER
  5
491
330
0
100
AcDbIdBuffer
330
474
  0
IDBUFFER
  5
492
330
0
100
AcDbIdBuffer
  0
IDBUFFER
  5
493
330
0
100
AcDbIdBuffer
330
3F
330
40
330
23B
330
23C
330
23D
330
23E
330
250
330
251
330
252
330
253
330
254
330
255
330
25B
330
29F
330
2A0
330
2A1
330
2A2
330
2F
330
30
330
31
330
32
330
33
330
34
330
35
330
36
330
37
330
3E
330
39
330
3A
330
3B
330
3C
330
3D
  0
IDBUFFER
  5
494
330
0
100
AcDbIdBuffer
  0
IDBUFFER
  5
495
330
0
100
AcDbIdBuffer
330
2F0
330
2F1
330
2F2
330
2F3
330
2F4
330
2F5
330
2F6
330
2F7
330
2F8
330
2F9
330
2FA
330
2FB
330
2FC
330
2FD
330
307
330
308
330
320
330
321
330
322
330
323
330
324
330
326
330
2DF
330
2E0
330
2E1
330
2EF
330
2EE
330
2ED
330
2E6
330
2E7
330
2E8
330
2E9
330
2EA
330
2EB
330
2EC
  0
IDBUFFER
  5
496
330
0
100
AcDbIdBuffer
330
1D9
330
1DA
330
1DB
330
1DC
330
1DD
330
1DE
330
1DF
330
1E0
330
1E1
330
1E2
330
1E3
330
1E4
330
1E5
330
1E6
330
1E7
330
1E8
330
1E9
330
1EA
330
1EB
330
1EC
330
1ED
330
1EE
330
1EF
330
1F0
330
1F1
330
1F2
330
1F3
330
1F4
330
1F5
330
1F6
330
1F7
330
1F8
330
1F9
330
1FA
330
1FB
330
1FC
330
1FD
330
1FE
330
1FF
330
200
330
201
330
202
330
203
330
204
330
205
330
206
330
207
330
208
330
209
330
20A
330
20B
330
20C
330
20D
330
20E
330
20F
330
210
330
211
330
212
330
213
330
214
330
215
330
216
330
217
330
218
330
219
330
21A
330
21B
330
21C
330
21D
330
21E
330
21F
330
220
330
221
330
222
330
223
330
224
330
225
330
226
330
227
330
228
330
229
330
22A
330
22B
330
22C
330
22D
330
22E
330
22F
330
230
330
231
330
232
330
233
330
234
330
235
330
236
330
237
330
238
330
239
330
23A
330
23F
330
240
330
241
330
242
330
243
330
244
330
267
330
268
330
269
330
26A
330
26B
330
26C
330
26D
330
26E
330
26F
330
270
330
271
330
272
330
273
330
274
330
275
330
276
330
277
330
278
330
279
330
27A
330
27B
330
27C
330
27D
330
27E
330
27F
330
280
330
281
330
282
330
283
330
284
330
285
330
286
330
287
330
288
330
289
330
28A
330
28B
330
28C
330
28D
330
28E
330
28F
330
290
330
291
330
292
330
293
330
294
330
295
330
296
330
297
330
298
330
299
330
29A
330
29B
330
29C
330
29D
330
29E
330
43
330
44
330
45
330
46
330
47
330
48
330
49
330
4A
330
4B
330
4C
330
4D
330
4E
330
4F
330
50
330
80
330
81
330
82
330
83
330
84
330
85
330
86
330
87
330
88
330
89
330
8A
330
8B
330
8C
330
8D
330
8E
330
8F
330
90
330
91
330
92
330
93
330
94
330
95
330
96
330
97
330
98
330
99
330
9A
330
9B
330
9C
330
9D
330
9E
330
9F
330
A0
330
A1
330
A2
330
A3
330
A4
330
A5
330
A6
330
A7
330
A8
330
A9
330
AA
330
AB
330
AC
330
AD
330
AE
330
AF
330
B0
330
B1
330
B2
330
B3
330
B4
330
B5
330
B6
330
B7
330
B8
330
B9
330
BA
330
BB
330
BC
330
BD
330
BE
330
BF
330
C0
330
C1
330
C2
330
C3
330
C4
330
C5
330
C6
330
C7
330
C8
330
C9
330
CA
330
CB
330
CC
330
CD
330
CE
330
CF
330
D0
330
D1
330
D2
330
D3
330
D4
330
D5
330
D6
330
D7
330
D8
330
D9
330
DA
330
DB
330
DC
330
DD
330
DE
330
DF
330
E0
330
E1
330
E2
330
E3
330
E4
330
E5
330
E6
330
E7
330
E8
330
E9
330
EA
330
EB
330
EC
330
ED
330
EE
330
EF
330
F0
330
F1
330
F2
330
F3
330
F4
330
F5
330
F6
330
F7
330
F8
330
F9
330
FA
330
FB
330
FC
330
FD
330
FE
330
FF
330
100
330
101
330
102
330
103
330
104
330
105
330
106
330
107
330
108
330
109
330
10A
330
10B
330
117
330
118
330
119
330
11A
330
11B
330
174
330
175
330
176
330
177
330
178
330
179
330
17A
330
17B
330
17C
330
17D
330
17E
330
17F
330
180
330
181
330
182
330
183
330
184
330
185
330
186
330
187
330
188
330
189
330
18A
330
18B
330
18C
330
18D
330
18E
330
18F
330
190
330
191
330
192
330
193
330
194
330
195
330
196
330
197
330
198
330
199
330
19A
330
19B
330
19C
330
1B1
330
1B2
330
1B3
330
1B4
330
1B5
330
1B6
330
1B7
330
1B8
330
1B9
330
1BA
330
1BB
330
1BC
330
1BD
330
1BE
330
1BF
330
1C0
330
1C1
330
1C2
330
1C3
330
1C4
330
1C5
330
1C6
330
1C7
330
1C8
330
1C9
330
1CA
330
1CB
330
1CC
330
1CD
330
1CE
330
1CF
330
1D0
330
1D1
330
1D2
330
1D3
330
1D4
330
1D5
330
1D6
330
1D7
330
1D8
  0
IDBUFFER
  5
497
330
0
100
AcDbIdBuffer
  0
IDBUFFER
  5
498
330
0
100
AcDbIdBuffer
330
31C
330
31D
330
31E
330
31F
330
51
330
52
330
53
330
54
330
55
330
56
330
57
330
58
330
59
330
5A
330
5B
330
5C
330
5D
330
5E
330
5F
330
60
330
61
330
62
330
63
330
64
330
65
330
66
330
67
330
68
330
69
330
6A
330
6B
330
6C
330
6D
330
6E
330
6F
330
70
330
71
330
72
330
73
330
74
330
75
330
76
330
77
330
78
330
79
330
7A
330
7B
330
7C
330
7D
330
7E
330
7F
330
10C
330
10D
330
10E
330
10F
330
110
330
111
330
112
330
113
330
114
330
115
330
116
330
11C
330
11D
330
11E
330
11F
330
120
330
121
330
122
330
123
330
124
330
125
330
126
330
127
330
128
330
129
330
12A
330
12B
330
12C
330
12D
330
12E
330
12F
330
130
330
131
330
132
330
133
330
134
330
135
330
136
330
137
330
138
330
139
330
13A
330
13B
330
13C
330
13D
330
13E
330
13F
330
140
330
141
330
142
330
143
330
144
330
145
330
146
330
147
330
148
330
149
330
14A
330
14B
330
14C
330
14D
330
14E
330
14F
330
150
330
151
330
152
330
153
330
154
330
155
330
156
330
157
330
158
330
159
330
15A
330
15B
330
15C
330
15D
330
15E
330
15F
330
160
330
161
330
162
330
163
330
164
330
165
330
166
330
167
330
168
330
169
330
16A
330
16B
330
16C
330
16D
330
16E
330
16F
330
170
330
171
330
172
330
173
330
19D
330
19E
330
19F
330
1A0
330
1A1
330
1A2
330
1A3
330
1A4
330
1A5
330
1A6
330
1A7
330
1A8
330
1A9
330
1AA
330
1AB
330
1AC
330
1AD
330
1AE
330
1AF
330
1B0
330
2A3
330
2A4
330
2A5
330
2A6
330
2A7
330
2A8
330
2A9
330
2AA
330
2AB
330
2AC
330
2AD
330
2AE
330
2AF
330
2B0
330
2B1
330
2B2
330
2B3
330
2B4
330
2B5
330
2B6
330
2B7
330
2B8
330
2B9
330
2BA
330
2BB
330
2BC
330
2BD
330
2BE
330
2BF
330
2C0
330
2C1
330
2C2
330
2C3
330
2C4
330
2C5
330
2C6
330
2C7
330
2C8
330
2C9
330
2CA
330
2CB
330
2CC
330
2CD
330
2CE
330
2CF
330
2D0
330
2D1
330
2D2
330
2D3
330
2D4
330
2D5
330
2D6
330
2D7
330
2D8
330
2D9
330
2DA
330
2DB
330
2DC
330
2DD
330
30D
330
30E
330
30F
330
310
330
311
330
312
330
313
330
314
330
315
330
316
330
317
330
318
330
319
330
31A
330
31B
  0
IDBUFFER
  5
499
330
0
100
AcDbIdBuffer
  0
IDBUFFER
  5
49A
330
0
100
AcDbIdBuffer
  0
IDBUFFER
  5
49B
330
0
100
AcDbIdBuffer
  0
ENDSEC
  0
EOF
