  0
SECTION
  2
HEADER
  9
$ACADVER
  1
AC1015
  9
$ACADMAINTVER
 70
    10
  9
$DWGCODEPAGE
  3
ANSI_1252
  9
$INSBASE
 10
0.0
 20
0.0
 30
0.0
  9
$EXTMIN
 10
-0.0469215828702545
 20
-0.035416425234871
 30
-0.0000000349181948
  9
$EXTMAX
 10
1117.66503258256
 20
863.6312629434701
 30
0.0000000814935746
  9
$LIMMIN
 10
0.0
 20
0.0
  9
$LIMMAX
 10
0.0
 20
0.0
  9
$ORTHOMODE
 70
     0
  9
$REGENMODE
 70
     1
  9
$FILLMODE
 70
     1
  9
$QTEXTMODE
 70
     0
  9
$MIRRTEXT
 70
     1
  9
$LTSCALE
 40
1.0
  9
$ATTMODE
 70
     1
  9
$TEXTSIZE
 40
0.0
  9
$TRACEWID
 40
0.05
  9
$TEXTSTYLE
  7
STANDARD
  9
$CLAYER
  8
0
  9
$CELTYPE
  6
CONTINUOUS
  9
$CECOLOR
 62
   256
  9
$CELTSCALE
 40
1.0
  9
$DISPSILH
 70
     0
  9
$DIMSCALE
 40
1.0
  9
$DIMASZ
 40
0.18
  9
$DIMEXO
 40
1.0
  9
$DIMDLI
 40
0.38
  9
$DIMRND
 40
0.0
  9
$DIMDLE
 40
1.0
  9
$DIMEXE
 40
0.18
  9
$DIMTP
 40
0.0
  9
$DIMTM
 40
0.0
  9
$DIMTXT
 40
0.18
  9
$DIMCEN
 40
0.09
  9
$DIMTSZ
 40
0.0
  9
$DIMTOL
 70
     0
  9
$DIMLIM
 70
     0
  9
$DIMTIH
 70
     1
  9
$DIMTOH
 70
     1
  9
$DIMSE1
 70
     0
  9
$DIMSE2
 70
     0
  9
$DIMTAD
 70
     1
  9
$DIMZIN
 70
     1
  9
$DIMBLK
  1

  9
$DIMASO
 70
     1
  9
$DIMSHO
 70
     1
  9
$DIMPOST
  1

  9
$DIMAPOST
  1

  9
$DIMALT
 70
     0
  9
$DIMALTD
 70
     2
  9
$DIMALTF
 40
0.0394
  9
$DIMLFAC
 40
1.0
  9
$DIMTOFL
 70
     0
  9
$DIMTVP
 40
0.0
  9
$DIMTIX
 70
     0
  9
$DIMSOXD
 70
     0
  9
$DIMSAH
 70
     0
  9
$DIMBLK1
  1

  9
$DIMBLK2
  1

  9
$DIMSTYLE
  2
STANDARD
  9
$DIMCLRD
 70
     0
  9
$DIMCLRE
 70
     0
  9
$DIMCLRT
 70
     0
  9
$DIMTFAC
 40
1.0
  9
$DIMGAP
 40
1.0
  9
$DIMJUST
 70
     0
  9
$DIMSD1
 70
     0
  9
$DIMSD2
 70
     0
  9
$DIMTOLJ
 70
     1
  9
$DIMTZIN
 70
     1
  9
$DIMALTZ
 70
     0
  9
$DIMALTTZ
 70
     0
  9
$DIMUPT
 70
     0
  9
$DIMDEC
 70
     4
  9
$DIMTDEC
 70
     4
  9
$DIMALTU
 70
     2
  9
$DIMALTTD
 70
     2
  9
$DIMTXSTY
  7
STANDARD
  9
$DIMAUNIT
 70
     0
  9
$DIMADEC
 70
     0
  9
$DIMALTRND
 40
0.0
  9
$DIMAZIN
 70
     0
  9
$DIMDSEP
 70
    46
  9
$DIMATFIT
 70
     3
  9
$DIMFRAC
 70
     0
  9
$DIMLDRBLK
  1

  9
$DIMLUNIT
 70
     2
  9
$DIMLWD
 70
    -2
  9
$DIMLWE
 70
    -2
  9
$DIMTMOVE
 70
     0
  9
$LUNITS
 70
     2
  9
$LUPREC
 70
     2
  9
$SKETCHINC
 40
0.1
  9
$FILLETRAD
 40
0.0
  9
$AUNITS
 70
     0
  9
$AUPREC
 70
     0
  9
$MENU
  1
acad
  9
$ELEVATION
 40
0.0
  9
$PELEVATION
 40
0.0
  9
$THICKNESS
 40
0.0
  9
$LIMCHECK
 70
     0
  9
$CHAMFERA
 40
0.0
  9
$CHAMFERB
 40
0.0
  9
$CHAMFERC
 40
0.0
  9
$CHAMFERD
 40
0.0
  9
$SKPOLY
 70
     0
  9
$TDCREATE
 40
2311942.262181006
  9
$TDUCREATE
 40
2311942.512181007
  9
$TDUPDATE
 40
2452655.373723380
  9
$TDUUPDATE
 40
2452655.623723380
  9
$TDINDWG
 40
0.0054170602
  9
$TDUSRTIMER
 40
0.0054032639
  9
$USRTIMER
 70
     1
  9
$ANGBASE
 50
0.0
  9
$ANGDIR
 70
     0
  9
$PDMODE
 70
     0
  9
$PDSIZE
 40
-1.0
  9
$PLINEWID
 40
0.0
  9
$SPLFRAME
 70
     0
  9
$SPLINETYPE
 70
     6
  9
$SPLINESEGS
 70
     8
  9
$HANDSEED
  5
690
  9
$SURFTAB1
 70
     6
  9
$SURFTAB2
 70
     6
  9
$SURFTYPE
 70
     6
  9
$SURFU
 70
     6
  9
$SURFV
 70
     6
  9
$UCSBASE
  2

  9
$UCSNAME
  2

  9
$UCSORG
 10
0.0
 20
0.0
 30
0.0
  9
$UCSXDIR
 10
1.0
 20
0.0
 30
0.0
  9
$UCSYDIR
 10
0.0
 20
1.0
 30
0.0
  9
$UCSORTHOREF
  2

  9
$UCSORTHOVIEW
 70
     0
  9
$UCSORGTOP
 10
0.0
 20
0.0
 30
0.0
  9
$UCSORGBOTTOM
 10
0.0
 20
0.0
 30
0.0
  9
$UCSORGLEFT
 10
0.0
 20
0.0
 30
0.0
  9
$UCSORGRIGHT
 10
0.0
 20
0.0
 30
0.0
  9
$UCSORGFRONT
 10
0.0
 20
0.0
 30
0.0
  9
$UCSORGBACK
 10
0.0
 20
0.0
 30
0.0
  9
$PUCSBASE
  2

  9
$PUCSNAME
  2

  9
$PUCSORG
 10
0.0
 20
0.0
 30
0.0
  9
$PUCSXDIR
 10
1.0
 20
0.0
 30
0.0
  9
$PUCSYDIR
 10
0.0
 20
1.0
 30
0.0
  9
$PUCSORTHOREF
  2

  9
$PUCSORTHOVIEW
 70
     0
  9
$PUCSORGTOP
 10
0.0
 20
0.0
 30
0.0
  9
$PUCSORGBOTTOM
 10
0.0
 20
0.0
 30
0.0
  9
$PUCSORGLEFT
 10
0.0
 20
0.0
 30
0.0
  9
$PUCSORGRIGHT
 10
0.0
 20
0.0
 30
0.0
  9
$PUCSORGFRONT
 10
0.0
 20
0.0
 30
0.0
  9
$PUCSORGBACK
 10
0.0
 20
0.0
 30
0.0
  9
$USERI1
 70
     0
  9
$USERI2
 70
     0
  9
$USERI3
 70
     0
  9
$USERI4
 70
     0
  9
$USERI5
 70
     0
  9
$USERR1
 40
0.0
  9
$USERR2
 40
0.0
  9
$USERR3
 40
0.0
  9
$USERR4
 40
0.0
  9
$USERR5
 40
0.0
  9
$WORLDVIEW
 70
     1
  9
$SHADEDGE
 70
     3
  9
$SHADEDIF
 70
    70
  9
$TILEMODE
 70
     1
  9
$MAXACTVP
 70
    16
  9
$PINSBASE
 10
0.0
 20
0.0
 30
0.0
  9
$PLIMCHECK
 70
     0
  9
$PEXTMIN
 10
1.000000000000000E+20
 20
1.000000000000000E+20
 30
1.000000000000000E+20
  9
$PEXTMAX
 10
-1.000000000000000E+20
 20
-1.000000000000000E+20
 30
-1.000000000000000E+20
  9
$PLIMMIN
 10
0.0
 20
0.0
  9
$PLIMMAX
 10
12.0
 20
9.0
  9
$UNITMODE
 70
     0
  9
$VISRETAIN
 70
     0
  9
$PLINEGEN
 70
     1
  9
$PSLTSCALE
 70
     1
  9
$TREEDEPTH
 70
  3020
  9
$CMLSTYLE
  2
STANDARD
  9
$CMLJUST
 70
     0
  9
$CMLSCALE
 40
1.0
  9
$PROXYGRAPHICS
 70
     0
  9
$MEASUREMENT
 70
     0
  9
$CELWEIGHT
370
    -1
  9
$ENDCAPS
280
     0
  9
$JOINSTYLE
280
     0
  9
$LWDISPLAY
290
     0
  9
$INSUNITS
 70
     0
  9
$HYPERLINKBASE
  1

  9
$STYLESHEET
  1
monochrome.ctb
  9
$XEDIT
290
     1
  9
$CEPSNTYPE
380
     0
  9
$PSTYLEMODE
290
     1
  9
$FINGERPRINTGUID
  2
{66FA9388-28E9-42B6-8842-B2EFE1FE374E}
  9
$VERSIONGUID
  2
{8BD17C2E-AAB5-4A25-8BC2-269168E62A99}
  9
$EXTNAMES
290
     1
  9
$PSVPSCALE
 40
0.0
  9
$OLESTARTUP
290
     0
  0
ENDSEC
  0
SECTION
  2
CLASSES
  0
CLASS
  1
LWPOLYLINE
  2
AcDbPolyline
  3
AutoCAD 2000
 90
    32768
280
     0
281
     1
  0
CLASS
  1
IMAGE
  2
AcDbRasterImage
  3
ISM
 90
    32895
280
     0
281
     1
  0
CLASS
  1
OLE2FRAME
  2
AcDbOle2Frame
  3
AutoCAD 2000
 90
    32768
280
     0
281
     1
  0
CLASS
  1
HATCH
  2
AcDbHatch
  3
AutoCAD 2000
 90
    32768
280
     0
281
     1
  0
CLASS
  1
DICTIONARYVAR
  2
AcDbDictionaryVar
  3
AutoCAD 2000
 90
        0
280
     0
281
     0
  0
CLASS
  1
RASTERVARIABLES
  2
AcDbRasterVariables
  3
ISM
 90
    32768
280
     0
281
     0
  0
CLASS
  1
IMAGEDEF
  2
AcDbRasterImageDef
  3
ISM
 90
    32768
280
     0
281
     0
  0
CLASS
  1
IMAGEDEF_REACTOR
  2
AcDbRasterImageDefReactor
  3
ISM
 90
    32769
280
     0
281
     0
  0
CLASS
  1
IDBUFFER
  2
AcDbIdBuffer
  3
AutoCAD 2000
 90
        0
280
     0
281
     0
  0
CLASS
  1
SPATIAL_FILTER
  2
AcDbSpatialFilter
  3
AutoCAD 2000
 90
    32768
280
     0
281
     0
  0
CLASS
  1
XRECORD
  2
AcDbXrecord
  3
AutoCAD 2000
 90
    32768
280
     0
281
     0
  0
CLASS
  1
SORTENTSTABLE
  2
AcDbSortentsTable
  3
AutoCAD 2000
 90
    32768
280
     0
281
     0
  0
CLASS
  1
LAYER_INDEX
  2
AcDbLayerIndex
  3
AutoCAD 2000
 90
        0
280
     0
281
     0
  0
CLASS
  1
SPATIAL_INDEX
  2
AcDbSpatialIndex
  3
AutoCAD 2000
 90
    32768
280
     0
281
     0
  0
CLASS
  1
OBJECT_PTR
  2
CAseDLPNTableRecord
  3
ASE-LPNTableRecord
 90
    32769
280
     0
281
     0
  0
CLASS
  1
LAYOUT
  2
AcDbLayout
  3
AutoCAD 2000
 90
        0
280
     0
281
     0
  0
CLASS
  1
PLOTSETTINGS
  2
AcDbPlotSettings
  3
AutoCAD 2000
 90
    32768
280
     0
281
     0
  0
CLASS
  1
ACDBDICTIONARYWDFLT
  2
AcDbDictionaryWithDefault
  3
AutoCAD 2000
 90
        0
280
     0
281
     0
  0
CLASS
  1
ACDBPLACEHOLDER
  2
AcDbPlaceHolder
  3
AutoCAD 2000
 90
        0
280
     0
281
     0
  0
CLASS
  1
VBA_PROJECT
  2
AcDbVbaProject
  3
acadvba
 90
    32768
280
     0
281
     0
  0
CLASS
  1
WIPEOUT
  2
AcDbWipeout
  3
WipeOut|AutoCAD Express Tool|expresstools@autodesk.com
 90
    32895
280
     0
281
     1
  0
CLASS
  1
WIPEOUTVARIABLES
  2
AcDbWipeoutVariables
  3
WipeOut|AutoCAD Express Tool|expresstools@autodesk.com
 90
    32768
280
     0
281
     0
  0
CLASS
  1
RTEXT
  2
RText
  3
RText|AutoCAD Express Tool|expresstools@autodesk.com
 90
    32768
280
     0
281
     1
  0
CLASS
  1
ARCALIGNEDTEXT
  2
AcDbArcAlignedText
  3
ATEXT|AutoCAD Express Tool|expresstools@autodesk.com
 90
    32768
280
     0
281
     1
  0
CLASS
  1
AMGSETTINGSOBJ
  2
AmgSettingsObj
  3
"AcadM|Product Description: AutoCAD Mechanical 2000|Company: Autodesk"
 90
        0
280
     0
281
     0
  0
CLASS
  1
ACME_DOCUMENT
  2
AcMeDbDoc
  3
AcMeServices
 90
        0
280
     0
281
     0
  0
CLASS
  1
ACMESCOPE
  2
AcMeScope
  3
AcMeServices
 90
        0
280
     0
281
     0
  0
CLASS
  1
ACMECOMMANDHISTORY
  2
AcMeCommandHistory
  3
AcMeServices
 90
        0
280
     0
281
     0
  0
CLASS
  1
ACIMSYSVARMAN
  2
AcImSysVarManager
  3
AcMeServices
 90
        0
280
     0
281
     0
  0
CLASS
  1
ACIMREALSYSVAR
  2
AcImRealSysVar
  3
AcMeServices
 90
        0
280
     0
281
     0
  0
CLASS
  1
ACIMINTSYSVAR
  2
AcImIntSysVar
  3
AcMeServices
 90
        0
280
     0
281
     0
  0
CLASS
  1
ACMEDRAWINGMAN
  2
AcMeDrawingMan
  3
AcMeServices
 90
        0
280
     0
281
     0
  0
CLASS
  1
ACMEVIEW
  2
AcMeView
  3
AcMeServices
 90
        0
280
     0
281
     0
  0
CLASS
  1
ACDBENTITYCACHE
  2
AcMeEntityCache
  3
AcMeServices
 90
        0
280
     0
281
     0
  0
CLASS
  1
GSMANAGER
  2
AcMeGSManager
  3
AcMeServices
 90
        0
280
     0
281
     0
  0
CLASS
  1
AmdtInternalReactor
  2
AmdtInternalReactor
  3
AcMeServices
 90
        0
280
     0
281
     0
  0
CLASS
  1
ACMESTATEMGR
  2
AcMeStateMgr
  3
AcMeServices
 90
        0
280
     0
281
     0
  0
CLASS
  1
ACGREFMASTER
  2
AcGrefMaster
  3
AcAttribServices
 90
        0
280
     0
281
     0
  0
CLASS
  1
ACME_DATABASE
  2
AcMeDbDatabase
  3
AcMeServices
 90
        0
280
     0
281
     0
  0
CLASS
  1
ACRFINSADJUSTERMGR
  2
AcRfInsAdjusterMgr
  3
AcMeServices
 90
        0
280
     0
281
     0
  0
CLASS
  1
ACGREFMASTER
  2
AcGrefacadMaster
  3
AcGrefServices
 90
        0
280
     0
281
     0
  0
CLASS
  1
AMIMASTER
  2
AmiMaster
  3
AmiServices
 90
        0
280
     0
281
     0
  0
CLASS
  1
ACMDATADICTIONARY
  2
AcmDataDictionary
  3
"AcmSymBB|Product Description: AutoCAD Mechanical 2000|Company: Autodesk"
 90
        0
280
     0
281
     0
  0
CLASS
  1
ACMDATAENTRYBLOCK
  2
AcmDataEntryBlock
  3
"AcmSymBB|Product Description: AutoCAD Mechanical 2000|Company: Autodesk"
 90
        0
280
     0
281
     0
  0
CLASS
  1
ACIMSTRSYSVAR
  2
AcImStrSysVar
  3
AcMeServices
 90
        0
280
     0
281
     0
  0
CLASS
  1
ACMSTANDARDANSI
  2
AcmStandardANSI
  3
"Amdt_StdImp|Product Description: AutoCAD Mechanical 2000|Company: Autodesk"
 90
        0
280
     0
281
     0
  0
CLASS
  1
AMGOBJPROPCFG
  2
AmgObjPropCfg
  3
"AmgLay|Product Description: AutoCAD Mechanical 2000|Company: Autodesk"
 90
        1
280
     0
281
     0
  0
CLASS
  1
ACMSURFSTANDARDANSI
  2
AcmSurfTextStdANSI
  3
"Amdt_StdImp|Product Description: AutoCAD Mechanical 2000|Company: Autodesk"
 90
        0
280
     0
281
     0
  0
CLASS
  1
ACMFCFSTANDARDANSI
  2
AcmFCFStdANSI
  3
"Amdt_StdImp|Product Description: AutoCAD Mechanical 2000|Company: Autodesk"
 90
        0
280
     0
281
     0
  0
CLASS
  1
ACMWELDSTANDARDANSI
  2
AcmWeldingStdANSI
  3
"Amdt_StdImp|Product Description: AutoCAD Mechanical 2000|Company: Autodesk"
 90
        0
280
     0
281
     0
  0
CLASS
  1
ACMIDSTANDARDANSI
  2
AcmIdStdANSI
  3
"Amdt_StdImp|Product Description: AutoCAD Mechanical 2000|Company: Autodesk"
 90
        0
280
     0
281
     0
  0
CLASS
  1
ACMDATUMSTANDARDANSI
  2
AcmDatumStdANSI
  3
"Amdt_StdImp|Product Description: AutoCAD Mechanical 2000|Company: Autodesk"
 90
        0
280
     0
281
     0
  0
CLASS
  1
ACMBOMSTANDARDANSI
  2
AcmBOMStdANSI
  3
"Amdt_StdImp|Product Description: AutoCAD Mechanical 2000|Company: Autodesk"
 90
        0
280
     0
281
     0
  0
CLASS
  1
ACMDETAILSTANDARDANSI
  2
AmdtDetailSymStdANSI
  3
"Amdt_StdImp|Product Description: AutoCAD Mechanical 2000|Company: Autodesk"
 90
        0
280
     0
281
     0
  0
CLASS
  1
ACMSECTIONSTANDARDANSI
  2
AmdtSectionSymStdANSI
  3
"Amdt_StdImp|Product Description: AutoCAD Mechanical 2000|Company: Autodesk"
 90
        0
280
     0
281
     0
  0
CLASS
  1
ACMCENTERLINESTANDARDANSI
  2
AmdtCenterLineStdANSI
  3
"Amdt_StdImp|Product Description: AutoCAD Mechanical 2000|Company: Autodesk"
 90
        0
280
     0
281
     0
  0
CLASS
  1
ACMThreadLineSTANDARDANSI
  2
AmdtThreadLineStdANSI
  3
"Amdt_StdImp|Product Description: AutoCAD Mechanical 2000|Company: Autodesk"
 90
        0
280
     0
281
     0
  0
CLASS
  1
"AcAmgLayStd"
  2
AcAmgLayStd
  3
"AcAmgLayStd|Product Description: AutoCAD Mechanical 2000|Company: Autodesk"
 90
        0
280
     0
281
     0
  0
CLASS
  1
"AcAmgDimStd"
  2
AcAmgDimStd
  3
"AcAmgDimStd|Product Description: AutoCAD Mechanical 2000|Company: Autodesk"
 90
        0
280
     0
281
     0
  0
CLASS
  1
AcAmgTitleStd
  2
AcAmgTitleStd
  3
"TITLEAPP"
 90
        0
280
     0
281
     0
  0
CLASS
  1
ACAMGFILTERDAT
  2
AcAmgFilterDat
  3
"AcadM|Product Description: AutoCAD Mechanical 2000|Company: Autodesk"
 90
        0
280
     0
281
     0
  0
CLASS
  1
AMDTFORMULAUPDATEDISPATCHER
  2
AmdtFormulaUpdateDispatcher
  3
AcMeServices
 90
        0
280
     0
281
     0
  0
ENDSEC
  0
SECTION
  2
TABLES
  0
TABLE
  2
VPORT
  5
7
330
0
100
AcDbSymbolTable
 70
     4
  0
VPORT
  5
68F
330
7
100
AcDbSymbolTableRecord
100
AcDbViewportTableRecord
  2
*Active
 70
     0
 10
0.0
 20
0.0
 11
1.0
 21
1.0
 12
558.8090554998449
 22
431.7979232591175
 13
0.0
 23
0.0
 14
1.0
 24
1.0
 15
0.0
 25
0.0
 16
0.0
 26
0.0
 36
1.0
 17
0.0
 27
0.0
 37
0.0
 40
873.1401712813415
 41
1.666666666666666
 42
50.0
 43
0.0
 44
0.0
 50
0.0
 51
0.0
 71
     0
 72
  2000
 73
     1
 74
     1
 75
     0
 76
     0
 77
     0
 78
     0
281
     0
 65
     1
110
0.0
120
0.0
130
0.0
111
1.0
121
0.0
131
0.0
112
0.0
122
1.0
132
0.0
 79
     0
146
0.0
  0
ENDTAB
  0
TABLE
  2
LTYPE
  5
4
330
0
100
AcDbSymbolTable
 70
    23
  0
LTYPE
  5
11
330
4
100
AcDbSymbolTableRecord
100
AcDbLinetypeTableRecord
  2
BYBLOCK
 70
     0
  3

 72
    65
 73
     0
 40
0.0
  0
LTYPE
  5
12
330
4
100
AcDbSymbolTableRecord
100
AcDbLinetypeTableRecord
  2
BYLAYER
 70
     0
  3

 72
    65
 73
     0
 40
0.0
  0
LTYPE
  5
13
330
4
100
AcDbSymbolTableRecord
100
AcDbLinetypeTableRecord
  2
CONTINUOUS
 70
     0
  3
Solid line
 72
    65
 73
     0
 40
0.0
  0
LTYPE
  5
1E
330
4
100
AcDbSymbolTableRecord
100
AcDbLinetypeTableRecord
  2
HIDDEN
 70
     0
  3
Hidden __ __ __ __ __ __ __ __ __ __ __ __ __ __
 72
    65
 73
     2
 40
1.905
 49
1.27
 74
     0
 49
-0.635
 74
     0
  0
LTYPE
  5
1F
330
4
100
AcDbSymbolTableRecord
100
AcDbLinetypeTableRecord
  2
PHANTOM
 70
     0
  3
Phantom ______  __  __  ______  __  __  ______
 72
    65
 73
     6
 40
12.7
 49
6.349999999999999
 74
     0
 49
-1.27
 74
     0
 49
1.27
 74
     0
 49
-1.27
 74
     0
 49
1.27
 74
     0
 49
-1.27
 74
     0
  0
LTYPE
  5
20
330
4
100
AcDbSymbolTableRecord
100
AcDbLinetypeTableRecord
  2
CENTER
 70
     0
  3
Center ____ _ ____ _ ____ _ ____ _ ____ _ ____
 72
    65
 73
     4
 40
10.16
 49
6.349999999999999
 74
     0
 49
-1.27
 74
     0
 49
1.27
 74
     0
 49
-1.27
 74
     0
  0
LTYPE
  5
21
330
4
100
AcDbSymbolTableRecord
100
AcDbLinetypeTableRecord
  2
CENTERX2
 70
     0
  3
Center (2x) ________  __  ________  __  _____
 72
    65
 73
     4
 40
20.32
 49
12.7
 74
     0
 49
-2.54
 74
     0
 49
2.54
 74
     0
 49
-2.54
 74
     0
  0
LTYPE
  5
22
330
4
100
AcDbSymbolTableRecord
100
AcDbLinetypeTableRecord
  2
DOT2
 70
     0
  3
Dot (.5x) ........................................
 72
    65
 73
     2
 40
0.635
 49
0.0
 74
     0
 49
-0.635
 74
     0
  0
LTYPE
  5
53C
330
4
100
AcDbSymbolTableRecord
100
AcDbLinetypeTableRecord
  2
AM_ISO02W050
 70
     0
  3
__ __ __ __ __ __ __ __ __ __ __ __ __ __ __
 72
    65
 73
     2
 40
7.5
 49
6.0
 74
     0
 49
-1.5
 74
     0
  0
LTYPE
  5
53D
330
4
100
AcDbSymbolTableRecord
100
AcDbLinetypeTableRecord
  2
AM_ISO08W050
 70
     0
  3
____ . ____ . ____ . ____ . ____ . ____ . ____
 72
    65
 73
     4
 40
18.0
 49
12.0
 74
     0
 49
-1.5
 74
     0
 49
3.0
 74
     0
 49
-1.5
 74
     0
  0
LTYPE
  5
53E
330
4
100
AcDbSymbolTableRecord
100
AcDbLinetypeTableRecord
  2
AM_ISO09W050
 70
     0
  3
_____ . . _____ . . _____ . . ____ .. ____
 72
    65
 73
     6
 40
22.5
 49
12.0
 74
     0
 49
-1.5
 74
     0
 49
3.0
 74
     0
 49
-1.5
 74
     0
 49
3.0
 74
     0
 49
-1.5
 74
     0
  0
LTYPE
  5
53F
330
4
100
AcDbSymbolTableRecord
100
AcDbLinetypeTableRecord
  2
Amconstr
 70
     0
  3
_______________________
 72
    65
 73
     2
 40
9999.0
 49
9999.0
 74
     0
 49
0.0
 74
     0
  0
LTYPE
  5
540
330
4
100
AcDbSymbolTableRecord
100
AcDbLinetypeTableRecord
  2
AM_ISO08W050x2
 70
     0
  3
__ . __ . __ . __ . __ . __
 72
    65
 73
     4
 40
9.0
 49
6.0
 74
     0
 49
-0.75
 74
     0
 49
1.5
 74
     0
 49
-0.75
 74
     0
  0
LTYPE
  5
541
330
4
100
AcDbSymbolTableRecord
100
AcDbLinetypeTableRecord
  2
AM_ISO02W050x2
 70
     0
  3
 _ _ _ _ _ _ _ _ _ _ _ _
 72
    65
 73
     2
 40
3.75
 49
3.0
 74
     0
 49
-0.75
 74
     0
  0
LTYPE
  5
544
330
4
100
AcDbSymbolTableRecord
100
AcDbLinetypeTableRecord
  2
Amzigzag
 70
     0
  3
/\/-/\/-/\/-/\/-/\/-/\/
 72
    65
 73
     2
 40
11.00009999999999
 49
0.0001
 74
     4
 75
   135
340
543
 46
0.04
 50
0.0
 44
0.0
 45
0.0
 49
-11.0
 74
     0
  0
LTYPE
  5
545
330
4
100
AcDbSymbolTableRecord
100
AcDbLinetypeTableRecord
  2
PHANTOM2
 70
     0
  3
Phantom (.5x) ___ _ _ ___ _ _ ___ _ _ ___ _ _
 72
    65
 73
     6
 40
1.25
 49
0.625
 74
     0
 49
-0.125
 74
     0
 49
0.125
 74
     0
 49
-0.125
 74
     0
 49
0.125
 74
     0
 49
-0.125
 74
     0
  0
LTYPE
  5
546
330
4
100
AcDbSymbolTableRecord
100
AcDbLinetypeTableRecord
  2
CENTER2
 70
     0
  3
Center (.5x) ___ _ ___ _ ___ _ ___ _ ___ _ ___
 72
    65
 73
     4
 40
1.125
 49
0.75
 74
     0
 49
-0.125
 74
     0
 49
0.125
 74
     0
 49
-0.125
 74
     0
  0
LTYPE
  5
547
330
4
100
AcDbSymbolTableRecord
100
AcDbLinetypeTableRecord
  2
HIDDEN2
 70
     0
  3
Hidden (.5x) _ _ _ _ _ _ _ _ _ _ _ _ _ _ _ _ _
 72
    65
 73
     2
 40
0.1875
 49
0.125
 74
     0
 49
-0.0625
 74
     0
  0
LTYPE
  5
548
330
4
100
AcDbSymbolTableRecord
100
AcDbLinetypeTableRecord
  2
Amzigzag2
 70
     0
  3
/\/-/\/-/\/-/\/-/\/-/\/
 72
    65
 73
     2
 40
0.4401
 49
0.0001
 74
     4
 75
   135
340
543
 46
0.0016
 50
0.0
 44
0.0
 45
0.0
 49
-0.4400000000000001
 74
     0
  0
LTYPE
  5
555
330
4
100
AcDbSymbolTableRecord
100
AcDbLinetypeTableRecord
  2
ACANSTGB
 70
     0
  3
__ . . __ . .
 72
    65
 73
     6
 40
0.35433070866
 49
0.15748031496
 74
     0
 49
-0.03937007874
 74
     0
 49
0.03937007874
 74
     0
 49
-0.03937007874
 74
     0
 49
0.03937007874
 74
     0
 49
-0.03937007874
 74
     0
  0
LTYPE
  5
556
330
4
100
AcDbSymbolTableRecord
100
AcDbLinetypeTableRecord
  2
ACANSTGL
 70
     0
  3
_ _ _ _ _
 72
    65
 73
     2
 40
0.11811023622
 49
0.07874015748
 74
     0
 49
-0.03937007874
 74
     0
  0
LTYPE
  5
574
330
4
100
AcDbSymbolTableRecord
100
AcDbLinetypeTableRecord
  2
MS
 70
     0
  3
MEDIUM_SOLID
 72
    65
 73
     0
 40
0.0
  0
LTYPE
  5
575
330
4
100
AcDbSymbolTableRecord
100
AcDbLinetypeTableRecord
  2
LS
 70
     0
  3
LIGHT_SOLID
 72
    65
 73
     0
 40
0.0
  0
LTYPE
  5
576
330
4
100
AcDbSymbolTableRecord
100
AcDbLinetypeTableRecord
  2
LP
 70
     0
  3
LIGHT_PHANTOM
 72
    65
 73
     6
 40
1.5
 49
0.75
 74
     0
 49
-0.14999998
 74
     0
 49
0.14999998
 74
     0
 49
-0.14999998
 74
     0
 49
0.14999998
 74
     0
 49
-0.14999998
 74
     0
  0
LTYPE
  5
577
330
4
100
AcDbSymbolTableRecord
100
AcDbLinetypeTableRecord
  2
NC
 70
     0
  3
NUMERIC_CONTROL
 72
    65
 73
     0
 40
0.0
  0
ENDTAB
  0
TABLE
  2
LAYER
  5
2
330
0
100
AcDbSymbolTable
 70
    13
  0
LAYER
  5
14
330
2
100
AcDbSymbolTableRecord
100
AcDbLayerTableRecord
  2
0
 70
     0
 62
     7
  6
CONTINUOUS
370
    -3
390
510
  0
LAYER
  5
26
330
2
100
AcDbSymbolTableRecord
100
AcDbLayerTableRecord
  2
DEFPOINTS
 70
     0
 62
     7
  6
CONTINUOUS
290
     0
370
    -3
390
510
  0
LAYER
  5
29
330
2
100
AcDbSymbolTableRecord
100
AcDbLayerTableRecord
  2
1
 70
     0
 62
     7
  6
CONTINUOUS
370
    -3
390
510
  0
LAYER
  5
2A
330
2
100
AcDbSymbolTableRecord
100
AcDbLayerTableRecord
  2
5
 70
     0
 62
     7
  6
CONTINUOUS
370
    -3
390
510
  0
LAYER
  5
2B
330
2
100
AcDbSymbolTableRecord
100
AcDbLayerTableRecord
  2
6
 70
     0
 62
     7
  6
CONTINUOUS
370
    -3
390
510
  0
LAYER
  5
2C
330
2
100
AcDbSymbolTableRecord
100
AcDbLayerTableRecord
  2
11
 70
     0
 62
     7
  6
CONTINUOUS
370
    -3
390
510
  0
LAYER
  5
2D
330
2
100
AcDbSymbolTableRecord
100
AcDbLayerTableRecord
  2
2
 70
     0
 62
     7
  6
CONTINUOUS
370
    -3
390
510
  0
LAYER
  5
2E
330
2
100
AcDbSymbolTableRecord
100
AcDbLayerTableRecord
  2
4
 70
     0
 62
     7
  6
CONTINUOUS
370
    -3
390
510
  0
LAYER
  5
2F
330
2
100
AcDbSymbolTableRecord
100
AcDbLayerTableRecord
  2
90
 70
     0
 62
     7
  6
CONTINUOUS
370
    -3
390
510
  0
LAYER
  5
30
330
2
100
AcDbSymbolTableRecord
100
AcDbLayerTableRecord
  2
7
 70
     0
 62
     7
  6
CONTINUOUS
370
    -3
390
510
  0
LAYER
  5
31
330
2
100
AcDbSymbolTableRecord
100
AcDbLayerTableRecord
  2
14
 70
     0
 62
     7
  6
CONTINUOUS
370
    -3
390
510
  0
LAYER
  5
578
330
2
100
AcDbSymbolTableRecord
100
AcDbLayerTableRecord
  2
BORDER
 70
     0
 62
    15
  6
CONTINUOUS
370
    -3
390
510
  0
LAYER
  5
579
330
2
100
AcDbSymbolTableRecord
100
AcDbLayerTableRecord
  2
TITLE BLOCK
 70
     0
 62
     2
  6
CONTINUOUS
370
    -3
390
510
  0
ENDTAB
  0
TABLE
  2
STYLE
  5
3
330
0
100
AcDbSymbolTable
 70
     7
  0
STYLE
  5
17
330
3
100
AcDbSymbolTableRecord
100
AcDbTextStyleTableRecord
  2
STANDARD
 70
     0
 40
0.0
 41
1.0
 50
0.0
 71
     0
 42
0.0
  3
txt
  4

  0
STYLE
  5
4BD
330
3
100
AcDbSymbolTableRecord
100
AcDbTextStyleTableRecord
  2
SLDTEXTSTYLE0
 70
     0
 40
0.0
 41
0.675
 50
0.0
 71
     0
 42
0.0
  3
txt
  4

  0
STYLE
  5
543
330
3
100
AcDbSymbolTableRecord
100
AcDbTextStyleTableRecord
  2

 70
     1
 40
0.0
 41
1.0
 50
0.0
 71
     0
 42
3.5
  3
ltypeshp.shx
  4

  0
STYLE
  5
549
330
3
100
AcDbSymbolTableRecord
100
AcDbTextStyleTableRecord
  2
ACANSTS
 70
     0
 40
1.0
 41
1.0
 50
0.0
 71
     0
 42
3.5
  3
romans.shx
  4

  0
STYLE
  5
554
330
3
100
AcDbSymbolTableRecord
100
AcDbTextStyleTableRecord
  2
ACANSGDT
 70
     0
 40
0.0
 41
1.0
 50
0.0
 71
     0
 42
3.5
  3
amgdtans.shx
  4

  0
STYLE
  5
57A
330
3
100
AcDbSymbolTableRecord
100
AcDbTextStyleTableRecord
  2
AE
 70
     0
 40
0.0
 41
1.0
 50
0.0
 71
     0
 42
0.16408998
  3
MIGRATOR
  4

  0
STYLE
  5
57B
330
3
100
AcDbSymbolTableRecord
100
AcDbTextStyleTableRecord
  2

 70
     1
 40
0.0
 41
1.0
 50
0.0
 71
     0
 42
1.0
  3
symtb128
  4

  0
ENDTAB
  0
TABLE
  2
VIEW
  5
5
330
0
100
AcDbSymbolTable
 70
     0
  0
ENDTAB
  0
TABLE
  2
UCS
  5
6
330
0
100
AcDbSymbolTable
 70
     0
  0
ENDTAB
  0
TABLE
  2
APPID
  5
8
330
0
100
AcDbSymbolTable
 70
     7
  0
APPID
  5
16
330
8
100
AcDbSymbolTableRecord
100
AcDbRegAppTableRecord
  2
ACAD
 70
     0
  0
APPID
  5
51C
330
8
100
AcDbSymbolTableRecord
100
AcDbRegAppTableRecord
  2
MCAD_NO_VIS
 70
     0
  0
APPID
  5
51D
330
8
100
AcDbSymbolTableRecord
100
AcDbRegAppTableRecord
  2
ACAD_TEMP_GRAPHIC
 70
     0
  0
APPID
  5
530
330
8
100
AcDbSymbolTableRecord
100
AcDbRegAppTableRecord
  2
ACATTRIBSERVICES
 70
     0
  0
APPID
  5
57D
330
8
100
AcDbSymbolTableRecord
100
AcDbRegAppTableRecord
  2
GENIUS_GENBLLY_14
 70
     0
  0
APPID
  5
57E
330
8
100
AcDbSymbolTableRecord
100
AcDbRegAppTableRecord
  2
GENIUS_GENTRA_14
 70
     0
  0
APPID
  5
669
330
8
100
AcDbSymbolTableRecord
100
AcDbRegAppTableRecord
  2
DCO15
 70
     0
  0
ENDTAB
  0
TABLE
  2
DIMSTYLE
  5
9
330
0
100
AcDbSymbolTable
 70
     8
100
AcDbDimStyleTable
 71
     0
  0
DIMSTYLE
105
18
330
9
100
AcDbSymbolTableRecord
100
AcDbDimStyleTableRecord
  2
STANDARD
 70
     0
340
17
  0
DIMSTYLE
105
55A
330
9
100
AcDbSymbolTableRecord
100
AcDbDimStyleTableRecord
  2
AM_ANSI
 70
     0
  4
mm
 41
0.1
 42
0.05
 43
0.5
 44
0.1
 47
0.1
 48
0.1
 78
     7
 79
     2
140
0.12
141
0.0
146
0.71
147
0.06
176
   256
177
   256
178
     2
274
     4
284
     7
340
17
371
    -1
372
    -1
  0
DIMSTYLE
105
55B
330
9
100
AcDbSymbolTableRecord
100
AcDbDimStyleTableRecord
  2
AM_ANSI$3
 70
     0
  4
mm
 41
0.1
 42
0.05
 43
0.5
 44
0.1
 47
0.1
 48
0.1
 78
     7
 79
     2
140
0.12
141
0.0
146
0.71
147
0.06
176
   256
177
   256
178
     2
274
     4
284
     7
288
     1
289
     0
340
17
371
    -1
372
    -1
  0
DIMSTYLE
105
55C
330
9
100
AcDbSymbolTableRecord
100
AcDbDimStyleTableRecord
  2
AM_ANSI$4
 70
     0
  4
mm
 41
0.1
 42
0.05
 43
0.5
 44
0.1
 47
0.1
 48
0.1
 78
     7
 79
     2
140
0.12
141
0.0
146
0.71
147
0.06
176
   256
177
   256
178
     2
274
     4
284
     7
288
     1
289
     0
340
17
371
    -1
372
    -1
  0
DIMSTYLE
105
55D
330
9
100
AcDbSymbolTableRecord
100
AcDbDimStyleTableRecord
  2
AM_ANSI$7
 70
     0
  4
mm
 41
0.1
 42
0.05
 43
0.5
 44
0.1
 47
0.1
 48
0.1
 78
     7
 79
     2
140
0.24
141
0.0
146
0.71
147
0.06
176
   256
177
   256
178
     2
274
     4
284
     7
340
17
371
    -1
372
    -1
  0
DIMSTYLE
105
55E
330
9
100
AcDbSymbolTableRecord
100
AcDbDimStyleTableRecord
  2
AM_ANSI$SF
 70
     0
  4
mm
 41
0.1
 42
0.05
 43
0.5
 44
0.1
 47
0.1
 48
0.1
 75
     1
 76
     1
 78
     7
 79
     2
140
0.12
141
0.0
146
0.71
147
0.06
176
   256
177
   256
178
     2
274
     4
284
     7
340
17
371
    -1
372
    -1
  0
DIMSTYLE
105
563
330
9
100
AcDbSymbolTableRecord
100
AcDbDimStyleTableRecord
  2
AM_ANSI$SH
 70
     0
  4
mm
 41
0.1
 42
0.05
 43
0.5
 44
0.1
 47
0.1
 48
0.1
 75
     1
 76
     1
 78
     7
 79
     2
140
0.12
141
0.0
146
0.71
147
0.06
173
     1
176
   256
177
   256
178
     2
274
     4
284
     7
340
17
343
55F
371
    -1
372
    -1
  0
DIMSTYLE
105
57C
330
9
100
AcDbSymbolTableRecord
100
AcDbDimStyleTableRecord
  2
GEN-ANSI
 70
     0
  3
<>
  4
mm
 41
0.14
 42
0.125
 43
0.5
 44
0.125
 47
0.1
 48
0.1
 73
     0
 74
     0
 77
     1
 78
     7
140
0.12
141
0.0
146
0.71
147
0.06
176
   256
177
   256
178
     2
274
     4
340
17
  0
ENDTAB
  0
TABLE
  2
BLOCK_RECORD
  5
1
330
0
100
AcDbSymbolTable
 70
     3
  0
BLOCK_RECORD
  5
A
102
{ACAD_XDICTIONARY
360
66B
102
}
330
1
100
AcDbSymbolTableRecord
100
AcDbBlockTableRecord
  2
*MODEL_SPACE
340
513
  0
BLOCK_RECORD
  5
B
330
1
100
AcDbSymbolTableRecord
100
AcDbBlockTableRecord
  2
*PAPER_SPACE
340
514
  0
BLOCK_RECORD
  5
55F
330
1
100
AcDbSymbolTableRecord
100
AcDbBlockTableRecord
  2
GENAXEH
340
0
  0
BLOCK_RECORD
  5
570
330
1
100
AcDbSymbolTableRecord
100
AcDbBlockTableRecord
  2
A$C215E2678
340
0
  0
BLOCK_RECORD
  5
57F
330
1
100
AcDbSymbolTableRecord
100
AcDbBlockTableRecord
  2
BM_Emetric
340
0
102
{BLKREFS
331
658
102
}
  0
ENDTAB
  0
ENDSEC
  0
SECTION
  2
BLOCKS
  0
BLOCK
  5
D
330
A
100
AcDbEntity
  8
0
100
AcDbBlockBegin
  2
*MODEL_SPACE
 70
     0
 10
0.0
 20
0.0
 30
0.0
  3
*MODEL_SPACE
  1

  0
ENDBLK
  5
E
330
A
100
AcDbEntity
  8
0
100
AcDbBlockEnd
  0
BLOCK
  5
F
330
B
100
AcDbEntity
 67
     1
  8
0
100
AcDbBlockBegin
  2
*PAPER_SPACE
 70
     0
 10
0.0
 20
0.0
 30
0.0
  3
*PAPER_SPACE
  1

  0
ENDBLK
  5
10
330
B
100
AcDbEntity
 67
     1
  8
0
100
AcDbBlockEnd
  0
BLOCK
  5
561
330
55F
100
AcDbEntity
  8
0
100
AcDbBlockBegin
  2
GENAXEH
 70
     0
 10
0.0
 20
0.0
 30
0.0
  3
GENAXEH
  1

  0
LINE
  5
560
330
55F
100
AcDbEntity
  8
0
100
AcDbLine
 10
-1.0
 20
0.0
 30
0.0
 11
1.0
 21
0.0
 31
0.0
  0
ENDBLK
  5
562
330
55F
100
AcDbEntity
  8
0
100
AcDbBlockEnd
  0
BLOCK
  5
572
330
570
100
AcDbEntity
  8
0
100
AcDbBlockBegin
  2
A$C215E2678
 70
     0
 10
0.0
 20
0.0
 30
0.0
  3
A$C215E2678
  1

  0
TEXT
  5
571
330
570
100
AcDbEntity
  8
BORDER
100
AcDbText
 10
-0.375
 20
-2.3125
 30
0.0
 40
0.375
  1
2
 72
     1
 11
-0.25
 21
-2.125
 31
0.0
100
AcDbText
 73
     2
  0
ENDBLK
  5
573
330
570
100
AcDbEntity
  8
0
100
AcDbBlockEnd
  0
BLOCK
  5
654
330
57F
100
AcDbEntity
  8
0
100
AcDbBlockBegin
  2
BM_Emetric
 70
     2
 10
0.0
 20
0.0
 30
0.0
  3
BM_Emetric
  1

  0
LINE
  5
580
330
57F
100
AcDbEntity
  8
BORDER
100
AcDbLine
 10
7.620076200000095
 20
434.3399491999999
 30
0.0
 11
12.7
 21
431.7999999999999
 31
0.0
  0
LINE
  5
581
330
57F
100
AcDbEntity
  8
BORDER
100
AcDbLine
 10
7.619695199999974
 20
429.2600761999999
 30
0.0
 11
12.69961899999987
 21
431.8000253999999
 31
0.0
  0
LINE
  5
582
330
57F
100
AcDbEntity
  8
BORDER
100
AcDbLine
 10
2.540152400000012
 20
431.8007365999999
 30
0.0
 11
7.620076200000095
 21
431.8007365999999
 31
0.0
  0
LINE
  5
583
330
57F
100
AcDbEntity
  8
BORDER
100
AcDbLine
 10
7.620076200000095
 20
429.2605841999999
 30
0.0
 11
7.620076200000095
 21
434.340508
 31
0.0
  0
ATTDEF
  5
584
330
57F
100
AcDbEntity
  8
TITLE BLOCK
  6
Continuous
100
AcDbText
 10
897.8899999999997
 20
82.55174299761829
 30
0.0
 40
5.133906008519999
  1

100
AcDbAttributeDefinition
  3
Drawn by
  2
GEN-TITLE-NAME{5}
 70
     0
1001
GENIUS_GENBLLY_14
1000
BOR2
  0
ATTDEF
  5
585
330
57F
100
AcDbEntity
  8
TITLE BLOCK
  6
Continuous
100
AcDbText
 10
897.8899999999997
 20
69.8517429976183
 30
0.0
 40
5.133906008519999
  1

100
AcDbAttributeDefinition
  3
Check by
  2
GEN-TITLE-CHKM{5}
 70
     0
1001
GENIUS_GENBLLY_14
1000
BOR2
  0
ATTDEF
  5
586
330
57F
100
AcDbEntity
  8
TITLE BLOCK
  6
Continuous
100
AcDbText
 10
897.8899999999997
 20
57.1517429976183
 30
0.0
 40
5.133906008519999
  1

100
AcDbAttributeDefinition
  3
Approved by
  2
GEN-TITLE-APPM{5}
 70
     0
1001
GENIUS_GENBLLY_14
1000
BOR2
1001
GENIUS_GENTRA_14
1002
{
1070
     3
1000
GENTRAPR,%s,(GENMSG gentitus 73)
1000
Approved by
1000
gb
1070
     0
1002
}
  0
TEXT
  5
587
330
57F
100
AcDbEntity
  8
TITLE BLOCK
  6
Continuous
100
AcDbText
 10
886.8000972231191
 20
106.4868367359032
 30
0.0
 40
5.133906008519999
  1
  DRAWING
 50
0.09999996
  7
AE
100
AcDbText
  0
TEXT
  5
588
330
57F
100
AcDbEntity
  8
TITLE BLOCK
  6
Continuous
100
AcDbText
 10
886.8000972231191
 20
117.1235071153846
 30
0.0
 40
5.133906008519999
  1
DO NOT SCALE
 50
0.09999996
  7
AE
100
AcDbText
  0
LINE
  5
589
330
57F
100
AcDbEntity
  8
TITLE BLOCK
  6
Continuous
100
AcDbLine
 10
805.1625446281812
 20
53.34174299761829
 30
0.0
 11
1104.899999999999
 21
53.34174299761829
 31
0.0
  0
LINE
  5
58A
330
57F
100
AcDbEntity
  8
TITLE BLOCK
  6
Continuous
100
AcDbLine
 10
880.1196497217985
 20
66.04174299761829
 30
0.0
 11
1104.899999999999
 21
66.04174299761829
 31
0.0
  0
LINE
  5
58B
330
57F
100
AcDbEntity
  8
TITLE BLOCK
  6
Continuous
100
AcDbLine
 10
880.1196497217985
 20
78.74174299761827
 30
0.0
 11
1104.899999999999
 21
78.74174299761827
 31
0.0
  0
LINE
  5
58C
330
57F
100
AcDbEntity
  8
TITLE BLOCK
  6
Continuous
100
AcDbLine
 10
880.1196497217985
 20
91.44174299761827
 30
0.0
 11
1104.899999999999
 21
91.44174299761827
 31
0.0
  0
LINE
  5
58D
330
57F
100
AcDbEntity
  8
TITLE BLOCK
  6
Continuous
100
AcDbLine
 10
660.4
 20
127.0017429976183
 30
0.0
 11
1104.899999999999
 21
127.0017429976183
 31
0.0
  0
LINE
  5
58E
330
57F
100
AcDbEntity
  8
BORDER
100
AcDbLine
 10
558.8
 20
25.399963678
 30
0.0
 11
561.3397714
 21
20.319983744
 31
0.0
  0
LINE
  5
58F
330
57F
100
AcDbEntity
  8
BORDER
100
AcDbLine
 10
556.2598476
 20
20.320009398
 30
0.0
 11
558.8
 21
25.4
 31
0.0
  0
LINE
  5
590
330
57F
100
AcDbEntity
  8
BORDER
100
AcDbLine
 10
556.2598476
 20
20.31999872999999
 30
0.0
 11
561.3397714
 21
20.31999872999999
 31
0.0
  0
LINE
  5
591
330
57F
100
AcDbEntity
  8
BORDER
100
AcDbLine
 10
558.799619
 20
15.23999746
 30
0.0
 11
558.799619
 21
20.31999872999999
 31
0.0
  0
LINE
  5
592
330
57F
100
AcDbEntity
  8
BORDER
100
AcDbLine
 10
558.799619
 20
15.23999746
 30
0.0
 11
558.799619
 21
20.31999872999999
 31
0.0
  0
TEXT
  5
593
330
57F
100
AcDbEntity
  8
TITLE BLOCK
  6
Continuous
100
AcDbText
 10
717.4759883878006
 20
29.97497253251012
 30
0.0
 40
3.857603011244991
  1
REVISION
 50
0.09999996
  7
AE
100
AcDbText
  0
LINE
  5
594
330
57F
100
AcDbEntity
  8
TITLE BLOCK
  6
Continuous
100
AcDbLine
 10
660.4
 20
38.1017429976183
 30
0.0
 11
805.1625446281812
 21
38.1017429976183
 31
0.0
  0
LINE
  5
595
330
57F
100
AcDbEntity
  8
TITLE BLOCK
  6
Continuous
100
AcDbLine
 10
660.4
 20
76.20174299761828
 30
0.0
 11
805.1625446281812
 21
76.20174299761828
 31
0.0
  0
LINE
  5
596
330
57F
100
AcDbEntity
  8
TITLE BLOCK
  6
Continuous
100
AcDbLine
 10
660.4
 20
88.90174299761829
 30
0.0
 11
805.1625446281812
 21
88.90174299761829
 31
0.0
  0
LINE
  5
597
330
57F
100
AcDbEntity
  8
TITLE BLOCK
  6
Continuous
100
AcDbLine
 10
660.4
 20
101.6017429976182
 30
0.0
 11
805.1625446281812
 21
101.6017429976182
 31
0.0
  0
LINE
  5
598
330
57F
100
AcDbEntity
  8
TITLE BLOCK
  6
Continuous
100
AcDbLine
 10
660.4
 20
114.3017429976182
 30
0.0
 11
805.1625446281812
 21
114.3017429976182
 31
0.0
  0
LINE
  5
599
330
57F
100
AcDbEntity
  8
TITLE BLOCK
  6
Continuous
100
AcDbLine
 10
660.4
 20
63.5017429976183
 30
0.0
 11
805.1625446281812
 21
63.5017429976183
 31
0.0
  0
LINE
  5
59A
330
57F
100
AcDbEntity
  8
TITLE BLOCK
  6
Continuous
100
AcDbLine
 10
660.4
 20
50.80174299761829
 30
0.0
 11
805.1625446281812
 21
50.80174299761829
 31
0.0
  0
TEXT
  5
59B
330
57F
100
AcDbEntity
  8
BORDER
100
AcDbText
 10
932.2557173999999
 20
14.80786347480914
 30
0.0
 40
1.016
  1
FULL SIZE   50   02
 50
0.0999999600000001
 41
0.7749084200000001
  7
AE
100
AcDbText
  0
LINE
  5
59C
330
57F
100
AcDbEntity
  8
TITLE BLOCK
  6
Continuous
100
AcDbLine
 10
718.8199999999999
 20
38.1017429976183
 30
0.0
 11
718.8199999999999
 21
127.0017429976183
 31
0.0
  0
TEXT
  5
59D
330
57F
100
AcDbEntity
  8
TITLE BLOCK
  6
Continuous
100
AcDbText
 10
693.4898003352477
 20
42.72241401402765
 30
0.0
 40
3.857603011244991
  1
DATE
 50
0.09999996
  7
AE
100
AcDbText
  0
TEXT
  5
59E
330
57F
100
AcDbEntity
  8
TITLE BLOCK
  6
Continuous
100
AcDbText
 10
664.8827003180477
 20
42.69151355378778
 30
0.0
 40
3.919325545192706
  1
NO.
 50
0.09999996
  7
AE
100
AcDbText
  0
LINE
  5
59F
330
57F
100
AcDbEntity
  8
TITLE BLOCK
  6
Continuous
100
AcDbLine
 10
660.4
 20
25.4
 30
0.0
 11
660.4
 21
127.0017429976183
 31
0.0
  0
LINE
  5
5A0
330
57F
100
AcDbEntity
  8
TITLE BLOCK
  6
Continuous
100
AcDbLine
 10
678.18
 20
38.1017429976183
 30
0.0
 11
678.18
 21
127.0017429976183
 31
0.0
  0
LINE
  5
5A1
330
57F
100
AcDbEntity
  8
BORDER
  6
LS
100
AcDbLine
 10
937.2600380999999
 20
20.57486845080915
 30
0.0
 11
937.2600380999999
 21
24.13086972080915
 31
0.0
  0
LINE
  5
5A2
330
57F
100
AcDbEntity
  8
BORDER
  6
LS
100
AcDbLine
 10
939.8000482599998
 20
20.57486845080915
 30
0.0
 11
939.8000482599998
 21
24.13086972080915
 31
0.0
  0
LINE
  5
5A3
330
57F
100
AcDbEntity
  8
BORDER
  6
LS
100
AcDbLine
 10
936.7520508000001
 20
22.60686972080914
 30
0.0
 11
936.7520508000001
 21
24.13086972080915
 31
0.0
  0
LINE
  5
5A4
330
57F
100
AcDbEntity
  8
BORDER
  6
LS
100
AcDbLine
 10
937.7680508
 20
22.60686972080914
 30
0.0
 11
937.7680508
 21
24.13086972080915
 31
0.0
  0
LINE
  5
5A5
330
57F
100
AcDbEntity
  8
BORDER
  6
LS
100
AcDbLine
 10
938.2760635
 20
21.59086895880915
 30
0.0
 11
938.2760635
 21
24.13086972080915
 31
0.0
  0
LINE
  5
5A6
330
57F
100
AcDbEntity
  8
BORDER
  6
LS
100
AcDbLine
 10
938.7840736600001
 20
21.59086895880915
 30
0.0
 11
938.7840736600001
 21
24.13086972080915
 31
0.0
  0
LINE
  5
5A7
330
57F
100
AcDbEntity
  8
BORDER
  6
LS
100
AcDbLine
 10
939.29206096
 20
22.60686972080914
 30
0.0
 11
939.29206096
 21
24.13086972080915
 31
0.0
  0
LINE
  5
5A8
330
57F
100
AcDbEntity
  8
BORDER
  6
LS
100
AcDbLine
 10
932.18002032
 20
20.57486845080915
 30
0.0
 11
932.18002032
 21
24.13086972080915
 31
0.0
  0
LINE
  5
5A9
330
57F
100
AcDbEntity
  8
BORDER
  6
LS
100
AcDbLine
 10
934.7200304800001
 20
20.57486845080915
 30
0.0
 11
934.7200304800001
 21
24.13086972080915
 31
0.0
  0
LINE
  5
5AA
330
57F
100
AcDbEntity
  8
BORDER
  6
LS
100
AcDbLine
 10
932.6880304800001
 20
22.60686972080914
 30
0.0
 11
932.6880304800001
 21
24.13086972080915
 31
0.0
  0
LINE
  5
5AB
330
57F
100
AcDbEntity
  8
BORDER
  6
LS
100
AcDbLine
 10
933.1960431800002
 20
21.59086895880915
 30
0.0
 11
933.1960431800002
 21
24.13086972080915
 31
0.0
  0
LINE
  5
5AC
330
57F
100
AcDbEntity
  8
BORDER
  6
LS
100
AcDbLine
 10
933.7040533399999
 20
21.59086895880915
 30
0.0
 11
933.7040533399999
 21
24.13086972080915
 31
0.0
  0
LINE
  5
5AD
330
57F
100
AcDbEntity
  8
BORDER
  6
LS
100
AcDbLine
 10
934.2120406400001
 20
22.60686972080914
 30
0.0
 11
934.2120406400001
 21
24.13086972080915
 31
0.0
  0
LINE
  5
5AE
330
57F
100
AcDbEntity
  8
BORDER
  6
LS
100
AcDbLine
 10
935.22804064
 20
22.60686972080914
 30
0.0
 11
935.22804064
 21
24.13086972080915
 31
0.0
  0
LINE
  5
5AF
330
57F
100
AcDbEntity
  8
BORDER
  6
LS
100
AcDbLine
 10
935.7360533400001
 20
21.59086895880915
 30
0.0
 11
935.7360533400001
 21
24.13086972080915
 31
0.0
  0
LINE
  5
5B0
330
57F
100
AcDbEntity
  8
BORDER
  6
LS
100
AcDbLine
 10
936.2440635000002
 20
21.59086895880915
 30
0.0
 11
936.2440635000002
 21
24.13086972080915
 31
0.0
  0
LINE
  5
5B1
330
57F
100
AcDbEntity
  8
BORDER
  6
LS
100
AcDbLine
 10
940.3080609599999
 20
22.60686972080914
 30
0.0
 11
940.3080609599999
 21
24.13086972080915
 31
0.0
  0
LINE
  5
5B2
330
57F
100
AcDbEntity
  8
BORDER
  6
LS
100
AcDbLine
 10
927.0999999999999
 20
19.05086845080915
 30
0.0
 11
927.0999999999999
 21
24.13086972080915
 31
0.0
  0
LINE
  5
5B3
330
57F
100
AcDbEntity
  8
BORDER
  6
LS
100
AcDbLine
 10
927.6080127
 20
22.60686972080914
 30
0.0
 11
927.6080127
 21
24.13086972080915
 31
0.0
  0
LINE
  5
5B4
330
57F
100
AcDbEntity
  8
BORDER
  6
LS
100
AcDbLine
 10
928.1160228600001
 20
21.59086895880915
 30
0.0
 11
928.1160228600001
 21
24.13086972080915
 31
0.0
  0
LINE
  5
5B5
330
57F
100
AcDbEntity
  8
BORDER
  6
LS
100
AcDbLine
 10
929.6400101600001
 20
20.57486845080915
 30
0.0
 11
929.6400101600001
 21
24.13086972080915
 31
0.0
  0
LINE
  5
5B6
330
57F
100
AcDbEntity
  8
BORDER
  6
LS
100
AcDbLine
 10
928.62403556
 20
21.59086895880915
 30
0.0
 11
928.62403556
 21
24.13086972080915
 31
0.0
  0
LINE
  5
5B7
330
57F
100
AcDbEntity
  8
BORDER
  6
LS
100
AcDbLine
 10
929.13202286
 20
22.60686972080914
 30
0.0
 11
929.13202286
 21
24.13086972080915
 31
0.0
  0
LINE
  5
5B8
330
57F
100
AcDbEntity
  8
BORDER
  6
LS
100
AcDbLine
 10
930.1480203199998
 20
22.60686972080914
 30
0.0
 11
930.1480203199998
 21
24.13086972080915
 31
0.0
  0
LINE
  5
5B9
330
57F
100
AcDbEntity
  8
BORDER
  6
LS
100
AcDbLine
 10
930.6560330200001
 20
21.59086895880915
 30
0.0
 11
930.6560330200001
 21
24.13086972080915
 31
0.0
  0
LINE
  5
5BA
330
57F
100
AcDbEntity
  8
BORDER
  6
LS
100
AcDbLine
 10
931.1640457199999
 20
21.59086895880915
 30
0.0
 11
931.1640457199999
 21
24.13086972080915
 31
0.0
  0
LINE
  5
5BB
330
57F
100
AcDbEntity
  8
BORDER
  6
LS
100
AcDbLine
 10
931.6720330199999
 20
22.60686972080914
 30
0.0
 11
931.6720330199999
 21
24.13086972080915
 31
0.0
  0
TEXT
  5
5BC
330
57F
100
AcDbEntity
  8
BORDER
100
AcDbText
 10
926.3760618999999
 20
15.49360175280915
 30
0.0
 40
2.031999491999999
  1
0
 50
0.0999999600000001
  7
AE
100
AcDbText
  0
TEXT
  5
5BD
330
57F
100
AcDbEntity
  8
BORDER
100
AcDbText
 10
936.5361
 20
17.01760175280914
 30
0.0
 40
2.031999491999999
  1
4
 50
0.0999999600000001
  7
AE
100
AcDbText
  0
TEXT
  5
5BE
330
57F
100
AcDbEntity
  8
BORDER
100
AcDbText
 10
931.45608222
 20
17.01760175280914
 30
0.0
 40
2.031999491999999
  1
2
 50
0.0999999600000001
  7
AE
100
AcDbText
  0
TEXT
  5
5BF
330
57F
100
AcDbEntity
  8
TITLE BLOCK
  6
Continuous
100
AcDbText
 10
807.7199999999999
 20
45.72174299761829
 30
0.0
 40
3.857603011244991
  1
DRAWING NAME
 50
0.09999996
  7
AE
100
AcDbText
  0
TEXT
  5
5C0
330
57F
100
AcDbEntity
  8
TITLE BLOCK
  6
Continuous
100
AcDbText
 10
805.9419999999999
 20
119.3817429976183
 30
0.0
 40
3.278962461575079
  1
NOTICE: This drawing or material
 50
0.09999996
 41
0.7005041199999999
  7
AE
100
AcDbText
  0
LINE
  5
5C1
330
57F
100
AcDbEntity
  8
TITLE BLOCK
  6
Continuous
100
AcDbLine
 10
880.1196497217985
 20
55.8817429976183
 30
0.0
 11
880.1196497217985
 21
127.0017429976183
 31
0.0
  0
LINE
  5
5C2
330
57F
100
AcDbEntity
  8
TITLE BLOCK
  6
Continuous
100
AcDbLine
 10
805.1625446281812
 20
25.4
 30
0.0
 11
805.1625446281812
 21
127.0017429976183
 31
0.0
  0
TEXT
  5
5C3
330
57F
100
AcDbEntity
  8
TITLE BLOCK
  6
Continuous
100
AcDbText
 10
806.2619157184524
 20
86.67918267069842
 30
0.0
 40
3.278962461575079
  1
reproduced, will be used only for
 50
0.09999996
 41
0.6799434399999999
  7
AE
100
AcDbText
  0
TEXT
  5
5C4
330
57F
100
AcDbEntity
  8
TITLE BLOCK
  6
Continuous
100
AcDbText
 10
806.9653123507388
 20
60.70973001504532
 30
0.0
 40
3.278962461575079
  1
consent of Sheffield LLC.
 50
0.09999996
 41
0.79688752
  7
AE
100
AcDbText
  0
TEXT
  5
5C5
330
57F
100
AcDbEntity
  8
TITLE BLOCK
  6
Continuous
100
AcDbText
 10
806.1389419495721
 20
67.82226903643513
 30
0.0
 40
3.278962461575079
  1
as authorized by specific written
 50
0.09999996
 41
0.6799434399999999
  7
AE
100
AcDbText
  0
TEXT
  5
5C6
330
57F
100
AcDbEntity
  8
TITLE BLOCK
  6
Continuous
100
AcDbText
 10
806.1411367724243
 20
74.01228187952366
 30
0.0
 40
3.278962461575079
  1
used or disclosed to anyone except
 50
0.09999996
 41
0.6605569100000001
  7
AE
100
AcDbText
  0
TEXT
  5
5C7
330
57F
100
AcDbEntity
  8
TITLE BLOCK
  6
Continuous
100
AcDbText
 10
805.9749475294488
 20
80.53019047885307
 30
0.0
 40
3.278962461575079
  1
your information, and will not be
 50
0.09999996
 41
0.6799434399999999
  7
AE
100
AcDbText
  0
TEXT
  5
5C8
330
57F
100
AcDbEntity
  8
TITLE BLOCK
  6
Continuous
100
AcDbText
 10
806.212297044645
 20
93.34052882252844
 30
0.0
 40
3.278962461575079
  1
will not be copied or otherwise
 50
0.09999996
 41
0.72234601
  7
AE
100
AcDbText
  0
TEXT
  5
5C9
330
57F
100
AcDbEntity
  8
TITLE BLOCK
  6
Continuous
100
AcDbText
 10
805.9156579174404
 20
100.0020562432092
 30
0.0
 40
3.278962461575079
  1
in confidence on condition that it
 50
0.09999996
 41
0.6605569100000001
  7
AE
100
AcDbText
  0
TEXT
  5
5CA
330
57F
100
AcDbEntity
  8
TITLE BLOCK
  6
Continuous
100
AcDbText
 10
805.8279139948613
 20
113.1607982191674
 30
0.0
 40
3.278962461575079
  1
contains proprietary information
 50
0.09999996
 41
0.7005041199999999
  7
AE
100
AcDbText
  0
TEXT
  5
5CB
330
57F
100
AcDbEntity
  8
TITLE BLOCK
  6
Continuous
100
AcDbText
 10
806.1184291743698
 20
106.4788951997148
 30
0.0
 40
3.278962461575079
  1
of Sheffield LLC, is submitted
 50
0.09999996
 41
0.6799434399999999
  7
AE
100
AcDbText
  0
TEXT
  5
5CC
330
57F
100
AcDbEntity
  8
TITLE BLOCK
  6
Continuous
100
AcDbText
 10
881.38
 20
86.3617429976183
 30
0.0
 40
3.857603011244991
  1
DR
 50
0.09999996
  7
AE
100
AcDbText
  0
TEXT
  5
5CD
330
57F
100
AcDbEntity
  8
TITLE BLOCK
  6
Continuous
100
AcDbText
 10
881.38
 20
80.0117429976183
 30
0.0
 40
3.857603011244991
  1
BY
 50
0.09999996
  7
AE
100
AcDbText
  0
TEXT
  5
5CE
330
57F
100
AcDbEntity
  8
TITLE BLOCK
  6
Continuous
100
AcDbText
 10
881.6949789261077
 20
67.31174299761828
 30
0.0
 40
3.857603011244991
  1
BY
 50
0.09999996
  7
AE
100
AcDbText
  0
TEXT
  5
5CF
330
57F
100
AcDbEntity
  8
TITLE BLOCK
  6
Continuous
100
AcDbText
 10
881.38
 20
73.66174299761829
 30
0.0
 40
3.857603011244991
  1
CHK
 50
0.09999996
  7
AE
100
AcDbText
  0
TEXT
  5
5D0
330
57F
100
AcDbEntity
  8
TITLE BLOCK
  6
Continuous
100
AcDbText
 10
881.888
 20
60.9617429976183
 30
0.0
 40
3.857603011244991
  1
APPD
 50
0.09999996
  7
AE
100
AcDbText
  0
TEXT
  5
5D1
330
57F
100
AcDbEntity
  8
TITLE BLOCK
  6
Continuous
100
AcDbText
 10
881.38
 20
54.61174299761831
 30
0.0
 40
3.857603011244991
  1
BY
 50
0.09999996
  7
AE
100
AcDbText
  0
ATTDEF
  5
5D2
330
57F
100
AcDbEntity
  8
TITLE BLOCK
  6
Continuous
100
AcDbText
 10
812.8
 20
31.75
 30
0.0
 40
7.62
  1

 41
0.8
100
AcDbAttributeDefinition
  3
Drawing Name
  2
GEN-TITLE-DES1{15.54}
 70
     0
1001
GENIUS_GENBLLY_14
1000
BOR5
  0
LINE
  5
5D3
330
57F
100
AcDbEntity
  8
BORDER
  6
LS
100
AcDbLine
 10
1003.3
 20
19.05086845080915
 30
0.0
 11
1003.3
 21
24.13086972080915
 31
0.0
  0
TEXT
  5
5D4
330
57F
100
AcDbEntity
  8
BORDER
100
AcDbText
 10
1002.576061899999
 20
15.49360175280915
 30
0.0
 40
2.031999491999999
  1
3
 50
0.0999999600000001
  7
AE
100
AcDbText
  0
LINE
  5
5D5
330
57F
100
AcDbEntity
  8
BORDER
  6
LS
100
AcDbLine
 10
977.8999999999999
 20
19.05086845080915
 30
0.0
 11
977.8999999999999
 21
24.13086972080915
 31
0.0
  0
LINE
  5
5D6
330
57F
100
AcDbEntity
  8
BORDER
  6
LS
100
AcDbLine
 10
972.82014986
 20
20.57486845080915
 30
0.0
 11
972.82014986
 21
24.13086972080915
 31
0.0
  0
LINE
  5
5D7
330
57F
100
AcDbEntity
  8
BORDER
  6
LS
100
AcDbLine
 10
967.7401320800001
 20
20.57486845080915
 30
0.0
 11
967.7401320800001
 21
24.13086972080915
 31
0.0
  0
TEXT
  5
5D8
330
57F
100
AcDbEntity
  8
BORDER
100
AcDbText
 10
977.1760619
 20
15.49360175280915
 30
0.0
 40
2.031999491999999
  1
2
 50
0.0999999600000001
  7
AE
100
AcDbText
  0
TEXT
  5
5D9
330
57F
100
AcDbEntity
  8
BORDER
100
AcDbText
 10
972.09621176
 20
17.01760175280914
 30
0.0
 40
2.031999491999999
  1
8
 50
0.0999999600000001
  7
AE
100
AcDbText
  0
TEXT
  5
5DA
330
57F
100
AcDbEntity
  8
BORDER
100
AcDbText
 10
967.0161914399999
 20
17.01760175280914
 30
0.0
 40
2.031999491999999
  1
6
 50
0.0999999600000001
  7
AE
100
AcDbText
  0
LINE
  5
5DB
330
57F
100
AcDbEntity
  8
BORDER
  6
LS
100
AcDbLine
 10
962.6601117599999
 20
20.57486845080915
 30
0.0
 11
962.6601117599999
 21
24.13086972080915
 31
0.0
  0
LINE
  5
5DC
330
57F
100
AcDbEntity
  8
BORDER
  6
LS
100
AcDbLine
 10
957.5801168399999
 20
20.57486845080915
 30
0.0
 11
957.5801168399999
 21
24.13086972080915
 31
0.0
  0
LINE
  5
5DD
330
57F
100
AcDbEntity
  8
BORDER
  6
LS
100
AcDbLine
 10
949.9600863599999
 20
20.57486845080915
 30
0.0
 11
949.9600863599999
 21
24.13086972080915
 31
0.0
  0
LINE
  5
5DE
330
57F
100
AcDbEntity
  8
BORDER
  6
LS
100
AcDbLine
 10
950.46809906
 20
22.60686972080914
 30
0.0
 11
950.46809906
 21
24.13086972080915
 31
0.0
  0
LINE
  5
5DF
330
57F
100
AcDbEntity
  8
BORDER
  6
LS
100
AcDbLine
 10
950.9761117600001
 20
21.59086895880915
 30
0.0
 11
950.9761117600001
 21
24.13086972080915
 31
0.0
  0
LINE
  5
5E0
330
57F
100
AcDbEntity
  8
BORDER
  6
LS
100
AcDbLine
 10
947.9280888999999
 20
22.60686972080914
 30
0.0
 11
947.9280888999999
 21
24.13086972080915
 31
0.0
  0
LINE
  5
5E1
330
57F
100
AcDbEntity
  8
BORDER
  6
LS
100
AcDbLine
 10
948.4361016000001
 20
21.59086895880915
 30
0.0
 11
948.4361016000001
 21
24.13086972080915
 31
0.0
  0
LINE
  5
5E2
330
57F
100
AcDbEntity
  8
BORDER
  6
LS
100
AcDbLine
 10
948.94411176
 20
21.59086895880915
 30
0.0
 11
948.94411176
 21
24.13086972080915
 31
0.0
  0
LINE
  5
5E3
330
57F
100
AcDbEntity
  8
BORDER
  6
LS
100
AcDbLine
 10
949.4520990600001
 20
22.60686972080914
 30
0.0
 11
949.4520990600001
 21
24.13086972080915
 31
0.0
  0
LINE
  5
5E4
330
57F
100
AcDbEntity
  8
BORDER
  6
LS
100
AcDbLine
 10
944.88006858
 20
20.57486845080915
 30
0.0
 11
944.88006858
 21
24.13086972080915
 31
0.0
  0
LINE
  5
5E5
330
57F
100
AcDbEntity
  8
BORDER
  6
LS
100
AcDbLine
 10
947.42007874
 20
20.57486845080915
 30
0.0
 11
947.42007874
 21
24.13086972080915
 31
0.0
  0
LINE
  5
5E6
330
57F
100
AcDbEntity
  8
BORDER
  6
LS
100
AcDbLine
 10
943.86409398
 20
21.59086895880915
 30
0.0
 11
943.86409398
 21
24.13086972080915
 31
0.0
  0
LINE
  5
5E7
330
57F
100
AcDbEntity
  8
BORDER
  6
LS
100
AcDbLine
 10
944.37208128
 20
22.60686972080914
 30
0.0
 11
944.37208128
 21
24.13086972080915
 31
0.0
  0
LINE
  5
5E8
330
57F
100
AcDbEntity
  8
BORDER
  6
LS
100
AcDbLine
 10
945.3880787399999
 20
22.60686972080914
 30
0.0
 11
945.3880787399999
 21
24.13086972080915
 31
0.0
  0
LINE
  5
5E9
330
57F
100
AcDbEntity
  8
BORDER
  6
LS
100
AcDbLine
 10
945.89609144
 20
21.59086895880915
 30
0.0
 11
945.89609144
 21
24.13086972080915
 31
0.0
  0
LINE
  5
5EA
330
57F
100
AcDbEntity
  8
BORDER
  6
LS
100
AcDbLine
 10
946.4041041400001
 20
21.59086895880915
 30
0.0
 11
946.4041041400001
 21
24.13086972080915
 31
0.0
  0
LINE
  5
5EB
330
57F
100
AcDbEntity
  8
BORDER
  6
LS
100
AcDbLine
 10
946.9120914399999
 20
22.60686972080914
 30
0.0
 11
946.9120914399999
 21
24.13086972080915
 31
0.0
  0
LINE
  5
5EC
330
57F
100
AcDbEntity
  8
BORDER
  6
LS
100
AcDbLine
 10
952.5
 20
19.05086845080915
 30
0.0
 11
952.5
 21
24.13086972080915
 31
0.0
  0
LINE
  5
5ED
330
57F
100
AcDbEntity
  8
BORDER
  6
LS
100
AcDbLine
 10
951.48412192
 20
21.59086895880915
 30
0.0
 11
951.48412192
 21
24.13086972080915
 31
0.0
  0
LINE
  5
5EE
330
57F
100
AcDbEntity
  8
BORDER
  6
LS
100
AcDbLine
 10
951.99210922
 20
22.60686972080914
 30
0.0
 11
951.99210922
 21
24.13086972080915
 31
0.0
  0
TEXT
  5
5EF
330
57F
100
AcDbEntity
  8
BORDER
100
AcDbText
 10
951.7760619
 20
15.49360175280915
 30
0.0
 40
2.031999491999999
  1
1
 50
0.0999999600000001
  7
AE
100
AcDbText
  0
TEXT
  5
5F0
330
57F
100
AcDbEntity
  8
BORDER
100
AcDbText
 10
946.6961406400001
 20
17.01760175280914
 30
0.0
 40
2.031999491999999
  1
8
 50
0.0999999600000001
  7
AE
100
AcDbText
  0
TEXT
  5
5F1
330
57F
100
AcDbEntity
  8
BORDER
100
AcDbText
 10
961.93617366
 20
17.01760175280914
 30
0.0
 40
2.031999491999999
  1
4
 50
0.0999999600000001
  7
AE
100
AcDbText
  0
TEXT
  5
5F2
330
57F
100
AcDbEntity
  8
BORDER
100
AcDbText
 10
956.85617874
 20
17.01760175280914
 30
0.0
 40
2.031999491999999
  1
2
 50
0.0999999600000001
  7
AE
100
AcDbText
  0
LINE
  5
5F3
330
57F
100
AcDbEntity
  8
BORDER
  6
LS
100
AcDbLine
 10
942.3400584199999
 20
20.57486845080915
 30
0.0
 11
942.3400584199999
 21
24.13086972080915
 31
0.0
  0
LINE
  5
5F4
330
57F
100
AcDbEntity
  8
BORDER
  6
LS
100
AcDbLine
 10
940.81607112
 20
21.59086895880915
 30
0.0
 11
940.81607112
 21
24.13086972080915
 31
0.0
  0
LINE
  5
5F5
330
57F
100
AcDbEntity
  8
BORDER
  6
LS
100
AcDbLine
 10
941.32408382
 20
21.59086895880915
 30
0.0
 11
941.32408382
 21
24.13086972080915
 31
0.0
  0
LINE
  5
5F6
330
57F
100
AcDbEntity
  8
BORDER
  6
LS
100
AcDbLine
 10
941.8320711199999
 20
22.60686972080914
 30
0.0
 11
941.8320711199999
 21
24.13086972080915
 31
0.0
  0
LINE
  5
5F7
330
57F
100
AcDbEntity
  8
BORDER
  6
LS
100
AcDbLine
 10
942.84807112
 20
22.60686972080914
 30
0.0
 11
942.84807112
 21
24.13086972080915
 31
0.0
  0
LINE
  5
5F8
330
57F
100
AcDbEntity
  8
BORDER
  6
LS
100
AcDbLine
 10
943.3560812799999
 20
21.59086895880915
 30
0.0
 11
943.3560812799999
 21
24.13086972080915
 31
0.0
  0
TEXT
  5
5F9
330
57F
100
AcDbEntity
  8
BORDER
100
AcDbText
 10
941.6161203200001
 20
17.01760175280914
 30
0.0
 40
2.031999491999999
  1
6
 50
0.0999999600000001
  7
AE
100
AcDbText
  0
ATTDEF
  5
5FA
330
57F
100
AcDbEntity
  8
TITLE BLOCK
  6
Continuous
100
AcDbText
 10
1074.42
 20
57.15174299761829
 30
0.0
 40
5.998969170955619
  1

 41
0.8
100
AcDbAttributeDefinition
  3
Sheet of
  2
GEN-TITLE-SHEET-OF{2.62}
 70
     0
1001
GENIUS_GENBLLY_14
1000
BOR3
  0
ATTDEF
  5
5FB
330
57F
100
AcDbEntity
  8
TITLE BLOCK
  6
Continuous
100
AcDbText
 10
1054.099999999999
 20
57.15174299761829
 30
0.0
 40
5.998969170955619
  1

 41
0.8
100
AcDbAttributeDefinition
  3
Sheet
  2
GEN-TITLE-SHEET{2.62}
 70
     0
1001
GENIUS_GENBLLY_14
1000
BOR3
  0
TEXT
  5
5FC
330
57F
100
AcDbEntity
  8
TITLE BLOCK
  6
Continuous
100
AcDbText
 10
1032.51
 20
73.66174299761829
 30
0.0
 40
3.857603011244991
  1
DATE
 50
0.09999996
  7
AE
100
AcDbText
  0
TEXT
  5
5FD
330
57F
100
AcDbEntity
  8
TITLE BLOCK
  6
Continuous
100
AcDbText
 10
1032.51
 20
60.9617429976183
 30
0.0
 40
3.857603011244991
  1
SHEET   OF
 50
0.09999996
  7
AE
100
AcDbText
  0
ATTDEF
  5
5FE
330
57F
100
AcDbEntity
  8
TITLE BLOCK
  6
Continuous
100
AcDbText
 10
975.3600000000002
 20
57.1517429976183
 30
0.0
 40
5.133906008519999
  1

 41
0.8
100
AcDbAttributeDefinition
  3
Material
  2
GEN-TITLE-MAT{11.15}
 70
     0
1001
GENIUS_GENBLLY_14
1000
BOR3
  0
ATTDEF
  5
5FF
330
57F
100
AcDbEntity
  8
TITLE BLOCK
  6
Continuous
100
AcDbText
 10
975.3600000000002
 20
69.8517429976183
 30
0.0
 40
5.133906008519999
  1

100
AcDbAttributeDefinition
  3
Machine
  2
GEN-TITLE-MACH{5}
 70
     0
1001
GENIUS_GENBLLY_14
1000
BOR2
  0
ATTDEF
  5
600
330
57F
100
AcDbEntity
  8
TITLE BLOCK
  6
Continuous
100
AcDbText
 10
975.3600000000002
 20
82.55174299761829
 30
0.0
 40
5.133906008519999
  1

100
AcDbAttributeDefinition
  3
Ref. No.
  2
GEN-TITLE-REF{5}
 70
     0
1001
GENIUS_GENBLLY_14
1000
BOR2
  0
TEXT
  5
601
330
57F
100
AcDbEntity
  8
TITLE BLOCK
  6
Continuous
100
AcDbText
 10
957.58
 20
60.9617429976183
 30
0.0
 40
3.857603011244991
  1
MATL
 50
0.09999996
  7
AE
100
AcDbText
  0
TEXT
  5
602
330
57F
100
AcDbEntity
  8
TITLE BLOCK
  6
Continuous
100
AcDbText
 10
957.58
 20
73.66174299761829
 30
0.0
 40
3.857603011244991
  1
MACH
 50
0.09999996
  7
AE
100
AcDbText
  0
TEXT
  5
603
330
57F
100
AcDbEntity
  8
TITLE BLOCK
  6
Continuous
100
AcDbText
 10
957.58
 20
86.3617429976183
 30
0.0
 40
3.857603011244991
  1
REF
 50
0.09999996
  7
AE
100
AcDbText
  0
TEXT
  5
604
330
57F
100
AcDbEntity
  8
TITLE BLOCK
  6
Continuous
100
AcDbText
 10
957.58
 20
45.72174299761829
 30
0.0
 40
3.857603011244991
  1
DRAWING NUMBER
 50
0.09999996
  7
AE
100
AcDbText
  0
LINE
  5
605
330
57F
100
AcDbEntity
  8
TITLE BLOCK
  6
Continuous
100
AcDbLine
 10
955.0399999999998
 20
25.4
 30
0.0
 11
955.0399999999998
 21
127.0017429976183
 31
0.0
  0
LINE
  5
606
330
57F
100
AcDbEntity
  8
TITLE BLOCK
  6
Continuous
100
AcDbLine
 10
1030.033864808189
 20
53.34174299761829
 30
0.0
 11
1030.033864808187
 21
78.74174299761827
 31
0.0
  0
ATTDEF
  5
607
330
57F
100
AcDbEntity
  8
TITLE BLOCK
  6
Continuous
100
AcDbText
 10
1049.39
 20
69.85174299761829
 30
0.0
 40
5.133906008519999
  1

100
AcDbAttributeDefinition
  3
Date
  2
GEN-TITLE-PLOT{5}
 70
     0
1001
GENIUS_GENBLLY_14
1000
BOR2
  0
ATTDEF
  5
608
330
57F
100
AcDbEntity
  8
TITLE BLOCK
  6
Continuous
100
AcDbText
 10
965.2000000000001
 20
31.75
 30
0.0
 40
7.62
  1

 41
0.8
100
AcDbAttributeDefinition
  3
Drawing Number
  2
GEN-TITLE-NR{13.37}
 70
     0
1001
GENIUS_GENBLLY_14
1000
BOR5
  0
LINE
  5
609
330
57F
100
AcDbEntity
  8
BORDER
100
AcDbLine
 10
558.7988316
 20
843.2799237999999
 30
0.0
 11
558.7988316
 21
848.3598475999999
 31
0.0
  0
LINE
  5
60A
330
57F
100
AcDbEntity
  8
BORDER
100
AcDbLine
 10
556.2590602
 20
843.2799237999999
 30
0.0
 11
561.338984
 21
843.2799237999999
 31
0.0
  0
LINE
  5
60B
330
57F
100
AcDbEntity
  8
BORDER
100
AcDbLine
 10
556.2598476
 20
843.2799237999999
 30
0.0
 11
558.8
 21
838.1999999999999
 31
0.0
  0
LINE
  5
60C
330
57F
100
AcDbEntity
  8
BORDER
100
AcDbLine
 10
558.7995935999999
 20
838.2003809999998
 30
0.0
 11
561.3397714
 21
843.2803048
 31
0.0
  0
LINE
  5
60D
330
57F
100
AcDbEntity
  8
BORDER
100
AcDbLine
 10
1109.980105409999
 20
431.8004571999999
 30
0.0
 11
1115.06002794
 21
431.8004571999999
 31
0.0
  0
LINE
  5
60E
330
57F
100
AcDbEntity
  8
BORDER
100
AcDbLine
 10
1104.899999999999
 20
431.7999999999999
 30
0.0
 11
1109.979893319999
 21
434.3399237999999
 31
0.0
  0
LINE
  5
60F
330
57F
100
AcDbEntity
  8
BORDER
100
AcDbLine
 10
1109.980105409999
 20
429.2603047999999
 30
0.0
 11
1109.980105409999
 21
434.3402285999999
 31
0.0
  0
LINE
  5
610
330
57F
100
AcDbEntity
  8
BORDER
100
AcDbLine
 10
1104.900331215999
 20
431.7999491999999
 30
0.0
 11
1109.980225043999
 21
429.2600253999999
 31
0.0
  0
LINE
  5
611
330
57F
100
AcDbEntity
  8
BORDER
  6
Continuous
100
AcDbLine
 10
1117.6
 20
558.8
 30
0.0
 11
1117.6
 21
0.0
 31
0.0
  0
LINE
  5
612
330
57F
100
AcDbEntity
  8
BORDER
  6
Continuous
100
AcDbLine
 10
1117.6
 20
0.0
 30
0.0
 11
0.0
 21
0.0
 31
0.0
  0
LINE
  5
613
330
57F
100
AcDbEntity
  8
BORDER
100
AcDbLine
 10
254.0
 20
0.0
 30
0.0
 11
254.0
 21
0.0
 31
0.0
  0
MTEXT
  5
614
330
57F
100
AcDbEntity
  8
BORDER
  6
Continuous
100
AcDbMText
 10
1028.856961502622
 20
119.3817429976183
 30
0.0
 40
6.349999999999999
 41
135.2804
 71
     2
 72
     5
  1
{\fArial|b0|i0|c0|p34;\C1;SHEFFIELD AUTOMATION, LLC}
 73
     1
 44
1.0
  0
MTEXT
  5
615
330
57F
100
AcDbEntity
  8
BORDER
  6
Continuous
100
AcDbMText
 10
1028.909731744085
 20
103.0375967327382
 30
0.0
 40
3.999992
 41
145.3896
 71
     5
 72
     1
  1
{\Fromans.shx;\C9;660 South Military Road\PFond du Lac, Wisconsin 54936 U.S.A.}
 73
     1
 44
1.0
  0
LINE
  5
616
330
57F
100
AcDbEntity
  8
BORDER
100
AcDbLine
 10
1117.6
 20
863.5999999999999
 30
0.0
 11
1117.6
 21
0.0
 31
0.0
  0
LINE
  5
617
330
57F
100
AcDbEntity
  8
BORDER
100
AcDbLine
 10
1117.6
 20
863.5999999999999
 30
0.0
 11
0.0
 21
863.5999999999999
 31
0.0
  0
LINE
  5
618
330
57F
100
AcDbEntity
  8
BORDER
100
AcDbLine
 10
0.0
 20
863.5999999999999
 30
0.0
 11
0.0
 21
0.0
 31
0.0
  0
LINE
  5
619
330
57F
100
AcDbEntity
  8
BORDER
100
AcDbLine
 10
12.7
 20
25.4
 30
0.0
 11
12.7
 21
838.1999999999999
 31
0.0
  0
LINE
  5
61A
330
57F
100
AcDbEntity
  8
BORDER
100
AcDbLine
 10
1104.899999999999
 20
25.4
 30
0.0
 11
1104.899999999999
 21
838.1999999999999
 31
0.0
  0
LINE
  5
61B
330
57F
100
AcDbEntity
  8
BORDER
100
AcDbLine
 10
12.7
 20
838.1999999999999
 30
0.0
 11
1104.899999999999
 21
838.1999999999999
 31
0.0
  0
LINE
  5
61C
330
57F
100
AcDbEntity
  8
BORDER
100
AcDbLine
 10
12.7
 20
25.4
 30
0.0
 11
1104.899999999999
 21
25.4
 31
0.0
  0
LINE
  5
61D
330
57F
100
AcDbEntity
  8
BORDER
100
AcDbLine
 10
977.8999999999999
 20
850.9
 30
0.0
 11
977.8999999999999
 21
838.1999999999999
 31
0.0
  0
LINE
  5
61E
330
57F
100
AcDbEntity
  8
BORDER
100
AcDbLine
 10
838.1999999999999
 20
850.9
 30
0.0
 11
838.1999999999999
 21
838.1999999999999
 31
0.0
  0
LINE
  5
61F
330
57F
100
AcDbEntity
  8
BORDER
100
AcDbLine
 10
698.5
 20
850.9
 30
0.0
 11
698.5
 21
838.1999999999999
 31
0.0
  0
LINE
  5
620
330
57F
100
AcDbEntity
  8
BORDER
100
AcDbLine
 10
419.0999999999999
 20
850.9
 30
0.0
 11
419.0999999999999
 21
838.1999999999999
 31
0.0
  0
LINE
  5
621
330
57F
100
AcDbEntity
  8
BORDER
100
AcDbLine
 10
279.4
 20
850.9
 30
0.0
 11
279.4
 21
838.1999999999999
 31
0.0
  0
LINE
  5
622
330
57F
100
AcDbEntity
  8
BORDER
100
AcDbLine
 10
139.7
 20
850.9
 30
0.0
 11
139.7
 21
838.1999999999999
 31
0.0
  0
LINE
  5
623
330
57F
100
AcDbEntity
  8
BORDER
100
AcDbLine
 10
1117.6
 20
755.6499999999999
 30
0.0
 11
1104.899999999999
 21
755.6499999999999
 31
0.0
  0
LINE
  5
624
330
57F
100
AcDbEntity
  8
BORDER
100
AcDbLine
 10
1117.6
 20
647.6999999999999
 30
0.0
 11
1104.899999999999
 21
647.6999999999999
 31
0.0
  0
LINE
  5
625
330
57F
100
AcDbEntity
  8
BORDER
100
AcDbLine
 10
1117.6
 20
539.7499999999999
 30
0.0
 11
1104.899999999999
 21
539.7499999999999
 31
0.0
  0
LINE
  5
626
330
57F
100
AcDbEntity
  8
BORDER
100
AcDbLine
 10
1117.6
 20
323.8499999999999
 30
0.0
 11
1104.899999999999
 21
323.8499999999999
 31
0.0
  0
LINE
  5
627
330
57F
100
AcDbEntity
  8
BORDER
100
AcDbLine
 10
1117.6
 20
215.8999999999999
 30
0.0
 11
1104.899999999999
 21
215.8999999999999
 31
0.0
  0
LINE
  5
628
330
57F
100
AcDbEntity
  8
BORDER
100
AcDbLine
 10
1117.6
 20
107.9499999999999
 30
0.0
 11
1104.899999999999
 21
107.9499999999999
 31
0.0
  0
LINE
  5
629
330
57F
100
AcDbEntity
  8
BORDER
100
AcDbLine
 10
12.7
 20
755.6499999999999
 30
0.0
 11
0.0
 21
755.6499999999999
 31
0.0
  0
LINE
  5
62A
330
57F
100
AcDbEntity
  8
BORDER
100
AcDbLine
 10
12.7
 20
647.6999999999999
 30
0.0
 11
0.0
 21
647.6999999999999
 31
0.0
  0
LINE
  5
62B
330
57F
100
AcDbEntity
  8
BORDER
100
AcDbLine
 10
12.7
 20
539.7499999999999
 30
0.0
 11
0.0
 21
539.7499999999999
 31
0.0
  0
LINE
  5
62C
330
57F
100
AcDbEntity
  8
BORDER
100
AcDbLine
 10
12.7
 20
323.8499999999999
 30
0.0
 11
0.0
 21
323.8499999999999
 31
0.0
  0
LINE
  5
62D
330
57F
100
AcDbEntity
  8
BORDER
100
AcDbLine
 10
12.7
 20
215.8999999999999
 30
0.0
 11
0.0
 21
215.8999999999999
 31
0.0
  0
LINE
  5
62E
330
57F
100
AcDbEntity
  8
BORDER
100
AcDbLine
 10
12.7
 20
107.9499999999999
 30
0.0
 11
0.0
 21
107.9499999999999
 31
0.0
  0
LINE
  5
62F
330
57F
100
AcDbEntity
  8
BORDER
100
AcDbLine
 10
139.7
 20
25.4
 30
0.0
 11
139.7
 21
12.7
 31
0.0
  0
LINE
  5
630
330
57F
100
AcDbEntity
  8
BORDER
100
AcDbLine
 10
279.4
 20
25.4
 30
0.0
 11
279.4
 21
12.7
 31
0.0
  0
LINE
  5
631
330
57F
100
AcDbEntity
  8
BORDER
100
AcDbLine
 10
419.0999999999999
 20
25.4
 30
0.0
 11
419.0999999999999
 21
12.7
 31
0.0
  0
LINE
  5
632
330
57F
100
AcDbEntity
  8
BORDER
100
AcDbLine
 10
698.5
 20
25.4
 30
0.0
 11
698.5
 21
12.7
 31
0.0
  0
LINE
  5
633
330
57F
100
AcDbEntity
  8
BORDER
100
AcDbLine
 10
838.1999999999999
 20
25.4
 30
0.0
 11
838.1999999999999
 21
12.7
 31
0.0
  0
TEXT
  5
634
330
57F
100
AcDbEntity
  8
BORDER
100
AcDbText
 10
904.875
 20
846.1375
 30
0.0
 40
9.524999999999998
  1
2
 72
     1
 11
908.0499999999998
 21
850.9
 31
0.0
100
AcDbText
 73
     2
  0
TEXT
  5
635
330
57F
100
AcDbEntity
  8
BORDER
100
AcDbText
 10
1046.1625
 20
846.1375
 30
0.0
 40
9.524999999999998
  1
1
 72
     1
 11
1047.75
 21
850.9
 31
0.0
100
AcDbText
 73
     2
  0
TEXT
  5
636
330
57F
100
AcDbEntity
  8
BORDER
100
AcDbText
 10
765.1749999999999
 20
846.1375
 30
0.0
 40
9.524999999999998
  1
3
 72
     1
 11
768.3499999999999
 21
850.9
 31
0.0
100
AcDbText
 73
     2
  0
TEXT
  5
637
330
57F
100
AcDbEntity
  8
BORDER
100
AcDbText
 10
206.3749999999999
 20
846.1375
 30
0.0
 40
9.524999999999998
  1
7
 72
     1
 11
209.5499999999999
 21
850.9
 31
0.0
100
AcDbText
 73
     2
  0
TEXT
  5
638
330
57F
100
AcDbEntity
  8
BORDER
100
AcDbText
 10
346.0749999999999
 20
846.1375
 30
0.0
 40
9.524999999999998
  1
6
 72
     1
 11
349.25
 21
850.9
 31
0.0
100
AcDbText
 73
     2
  0
TEXT
  5
639
330
57F
100
AcDbEntity
  8
BORDER
100
AcDbText
 10
485.775
 20
846.1375
 30
0.0
 40
9.524999999999998
  1
5
 72
     1
 11
488.9499999999999
 21
850.9
 31
0.0
100
AcDbText
 73
     2
  0
TEXT
  5
63A
330
57F
100
AcDbEntity
  8
BORDER
100
AcDbText
 10
66.675
 20
846.1375
 30
0.0
 40
9.524999999999998
  1
8
 72
     1
 11
69.84999999999999
 21
850.9
 31
0.0
100
AcDbText
 73
     2
  0
TEXT
  5
63B
330
57F
100
AcDbEntity
  8
BORDER
100
AcDbText
 10
625.475
 20
846.1375
 30
0.0
 40
9.524999999999998
  1
4
 72
     1
 11
628.65
 21
850.9
 31
0.0
100
AcDbText
 73
     2
  0
TEXT
  5
63C
330
57F
100
AcDbEntity
  8
BORDER
100
AcDbText
 10
1108.075
 20
696.9124999999999
 30
0.0
 40
9.524999999999998
  1
G
 72
     1
 11
1111.25
 21
701.675
 31
0.0
100
AcDbText
 73
     2
  0
TEXT
  5
63D
330
57F
100
AcDbEntity
  8
BORDER
100
AcDbText
 10
1108.075
 20
804.8624999999999
 30
0.0
 40
9.524999999999998
  1
H
 72
     1
 11
1111.25
 21
809.6249999999999
 31
0.0
100
AcDbText
 73
     2
  0
TEXT
  5
63E
330
57F
100
AcDbEntity
  8
BORDER
100
AcDbText
 10
1108.075
 20
588.9624999999999
 30
0.0
 40
9.524999999999998
  1
F
 72
     1
 11
1111.25
 21
593.725
 31
0.0
100
AcDbText
 73
     2
  0
TEXT
  5
63F
330
57F
100
AcDbEntity
  8
BORDER
100
AcDbText
 10
1108.075
 20
373.0624999999999
 30
0.0
 40
9.524999999999998
  1
D
 72
     1
 11
1111.25
 21
377.8249999999999
 31
0.0
100
AcDbText
 73
     2
  0
TEXT
  5
640
330
57F
100
AcDbEntity
  8
BORDER
100
AcDbText
 10
1108.075
 20
49.21249999999999
 30
0.0
 40
9.524999999999998
  1
A
 72
     1
 11
1111.25
 21
53.97499999999999
 31
0.0
100
AcDbText
 73
     2
  0
TEXT
  5
641
330
57F
100
AcDbEntity
  8
BORDER
100
AcDbText
 10
1108.075
 20
157.1625
 30
0.0
 40
9.524999999999998
  1
B
 72
     1
 11
1111.25
 21
161.9249999999999
 31
0.0
100
AcDbText
 73
     2
  0
TEXT
  5
642
330
57F
100
AcDbEntity
  8
BORDER
100
AcDbText
 10
1108.075
 20
265.1124999999999
 30
0.0
 40
9.524999999999998
  1
C
 72
     1
 11
1111.25
 21
269.8749999999999
 31
0.0
100
AcDbText
 73
     2
  0
TEXT
  5
643
330
57F
100
AcDbEntity
  8
BORDER
100
AcDbText
 10
1108.075
 20
481.0125
 30
0.0
 40
9.524999999999998
  1
E
 72
     1
 11
1111.25
 21
485.775
 31
0.0
100
AcDbText
 73
     2
  0
TEXT
  5
644
330
57F
100
AcDbEntity
  8
BORDER
100
AcDbText
 10
3.174999999999999
 20
49.21249999999999
 30
0.0
 40
9.524999999999998
  1
A
 72
     1
 11
6.349999999999999
 21
53.97499999999999
 31
0.0
100
AcDbText
 73
     2
  0
TEXT
  5
645
330
57F
100
AcDbEntity
  8
BORDER
100
AcDbText
 10
3.174999999999999
 20
157.1625
 30
0.0
 40
9.524999999999998
  1
B
 72
     1
 11
6.349999999999999
 21
161.9249999999999
 31
0.0
100
AcDbText
 73
     2
  0
TEXT
  5
646
330
57F
100
AcDbEntity
  8
BORDER
100
AcDbText
 10
3.174999999999999
 20
265.1124999999999
 30
0.0
 40
9.524999999999998
  1
C
 72
     1
 11
6.349999999999999
 21
269.8749999999999
 31
0.0
100
AcDbText
 73
     2
  0
TEXT
  5
647
330
57F
100
AcDbEntity
  8
BORDER
100
AcDbText
 10
3.174999999999999
 20
373.0624999999999
 30
0.0
 40
9.524999999999998
  1
D
 72
     1
 11
6.349999999999999
 21
377.8249999999999
 31
0.0
100
AcDbText
 73
     2
  0
TEXT
  5
648
330
57F
100
AcDbEntity
  8
BORDER
100
AcDbText
 10
3.174999999999999
 20
481.0125
 30
0.0
 40
9.524999999999998
  1
E
 72
     1
 11
6.349999999999999
 21
485.775
 31
0.0
100
AcDbText
 73
     2
  0
TEXT
  5
649
330
57F
100
AcDbEntity
  8
BORDER
100
AcDbText
 10
3.174999999999999
 20
588.9624999999999
 30
0.0
 40
9.524999999999998
  1
F
 72
     1
 11
6.349999999999999
 21
593.725
 31
0.0
100
AcDbText
 73
     2
  0
TEXT
  5
64A
330
57F
100
AcDbEntity
  8
BORDER
100
AcDbText
 10
3.174999999999999
 20
696.9124999999999
 30
0.0
 40
9.524999999999998
  1
G
 72
     1
 11
6.349999999999999
 21
701.675
 31
0.0
100
AcDbText
 73
     2
  0
TEXT
  5
64B
330
57F
100
AcDbEntity
  8
BORDER
100
AcDbText
 10
3.174999999999999
 20
804.8624999999999
 30
0.0
 40
9.524999999999998
  1
H
 72
     1
 11
6.349999999999999
 21
809.6249999999999
 31
0.0
100
AcDbText
 73
     2
  0
TEXT
  5
64C
330
57F
100
AcDbEntity
  8
BORDER
100
AcDbText
 10
1046.1625
 20
7.9375
 30
0.0
 40
9.524999999999998
  1
1
 72
     1
 11
1047.75
 21
12.7
 31
0.0
100
AcDbText
 73
     2
  0
TEXT
  5
64D
330
57F
100
AcDbEntity
  8
BORDER
100
AcDbText
 10
904.875
 20
7.9375
 30
0.0
 40
9.524999999999998
  1
2
 72
     1
 11
908.0499999999998
 21
12.7
 31
0.0
100
AcDbText
 73
     2
  0
TEXT
  5
64E
330
57F
100
AcDbEntity
  8
BORDER
100
AcDbText
 10
765.1749999999999
 20
7.9375
 30
0.0
 40
9.524999999999998
  1
3
 72
     1
 11
768.3499999999999
 21
12.7
 31
0.0
100
AcDbText
 73
     2
  0
TEXT
  5
64F
330
57F
100
AcDbEntity
  8
BORDER
100
AcDbText
 10
625.475
 20
7.9375
 30
0.0
 40
9.524999999999998
  1
4
 72
     1
 11
628.65
 21
12.7
 31
0.0
100
AcDbText
 73
     2
  0
TEXT
  5
650
330
57F
100
AcDbEntity
  8
BORDER
100
AcDbText
 10
485.775
 20
7.9375
 30
0.0
 40
9.524999999999998
  1
5
 72
     1
 11
488.9499999999999
 21
12.7
 31
0.0
100
AcDbText
 73
     2
  0
TEXT
  5
651
330
57F
100
AcDbEntity
  8
BORDER
100
AcDbText
 10
346.0749999999999
 20
7.9375
 30
0.0
 40
9.524999999999998
  1
6
 72
     1
 11
349.25
 21
12.7
 31
0.0
100
AcDbText
 73
     2
  0
TEXT
  5
652
330
57F
100
AcDbEntity
  8
BORDER
100
AcDbText
 10
206.3749999999999
 20
7.9375
 30
0.0
 40
9.524999999999998
  1
7
 72
     1
 11
209.5499999999999
 21
12.7
 31
0.0
100
AcDbText
 73
     2
  0
TEXT
  5
653
330
57F
100
AcDbEntity
  8
BORDER
100
AcDbText
 10
66.675
 20
7.9375
 30
0.0
 40
9.524999999999998
  1
8
 72
     1
 11
69.84999999999999
 21
12.7
 31
0.0
100
AcDbText
 73
     2
  0
ENDBLK
  5
655
330
57F
100
AcDbEntity
  8
0
100
AcDbBlockEnd
  0
ENDSEC
  0
SECTION
  2
ENTITIES
  0
LINE
  5
32
330
A
100
AcDbEntity
  8
1
  6
Continuous
 62
    92
100
AcDbLine
 10
233.4840589228041
 20
220.7873733171597
 30
0.0
 11
567.8659253778041
 21
220.7873733171597
 31
0.0
  0
LINE
  5
33
330
A
100
AcDbEntity
  8
1
  6
Continuous
 62
    92
100
AcDbLine
 10
233.4840589228041
 20
204.1211326250348
 30
0.0
 11
567.8659253778041
 21
204.1211326250347
 31
0.0
  0
LINE
  5
34
330
A
100
AcDbEntity
  8
1
  6
Continuous
 62
    92
100
AcDbLine
 10
233.4840589228041
 20
187.4536330827847
 30
0.0
 11
567.8659253778041
 21
187.4536330827847
 31
0.0
  0
LINE
  5
35
330
A
100
AcDbEntity
  8
1
  6
Continuous
 62
    92
100
AcDbLine
 10
233.4840589228041
 20
170.7873733171597
 30
0.0
 11
567.8659253778041
 21
170.7873733171597
 31
0.0
  0
LINE
  5
36
330
A
100
AcDbEntity
  8
1
  6
Continuous
 62
    92
100
AcDbLine
 10
233.4840589228041
 20
154.1211230882847
 30
0.0
 11
567.8659253778041
 21
154.1211230882847
 31
0.0
  0
LINE
  5
37
330
A
100
AcDbEntity
  8
1
  6
Continuous
 62
    92
100
AcDbLine
 10
233.4840589228041
 20
220.7873733171597
 30
0.0
 11
233.4840589228041
 21
154.1211230882847
 31
0.0
  0
LINE
  5
39
330
A
100
AcDbEntity
  8
1
  6
Continuous
 62
    92
100
AcDbLine
 10
379.4734388055541
 20
220.7871253619097
 30
0.0
 11
379.4734388055541
 21
154.1211230882847
 31
0.0
  0
LINE
  5
3A
330
A
100
AcDbEntity
  8
1
  6
Continuous
 62
    92
100
AcDbLine
 10
442.2709088983041
 20
220.7871253619097
 30
0.0
 11
442.2709088983041
 21
154.1211230882847
 31
0.0
  0
LINE
  5
3B
330
A
100
AcDbEntity
  8
1
  6
Continuous
 62
    92
100
AcDbLine
 10
505.0684171380541
 20
220.7871253619097
 30
0.0
 11
505.0684171380541
 21
154.1211230882847
 31
0.0
  0
LINE
  5
3C
330
A
100
AcDbEntity
  8
1
  6
Continuous
 62
    92
100
AcDbLine
 10
567.8659253778041
 20
220.7871253619097
 30
0.0
 11
567.8659253778041
 21
154.1211230882847
 31
0.0
  0
LINE
  5
3D
330
A
100
AcDbEntity
  8
11
  6
Continuous
 62
    92
100
AcDbLine
 10
134.9449811639041
 20
578.4984805712347
 30
0.0
 11
253.3449445428041
 21
578.4984805712347
 31
0.0
  0
LINE
  5
3E
330
A
100
AcDbEntity
  8
11
  6
Continuous
 62
    92
100
AcDbLine
 10
253.3449445428041
 20
578.4984805712347
 30
0.0
 11
253.3449445428041
 21
527.2984988817348
 31
0.0
  0
LINE
  5
3F
330
A
100
AcDbEntity
  8
11
  6
Continuous
 62
    92
100
AcDbLine
 10
253.3449445428041
 20
527.2984988817348
 30
0.0
 11
134.9449811639041
 21
527.2984988817348
 31
0.0
  0
LINE
  5
40
330
A
100
AcDbEntity
  8
11
  6
Continuous
 62
    92
100
AcDbLine
 10
134.9449811639041
 20
527.2984988817348
 30
0.0
 11
134.9449811639041
 21
578.4984805712347
 31
0.0
  0
LINE
  5
41
330
A
100
AcDbEntity
  8
11
  6
Continuous
 62
    92
100
AcDbLine
 10
134.9449811639041
 20
552.8985049852346
 30
0.0
 11
253.3449445428041
 21
552.8985049852346
 31
0.0
  0
LINE
  5
42
330
A
100
AcDbEntity
  8
11
  6
Continuous
 62
    92
100
AcDbLine
 10
211.7449689569041
 20
578.4984805712347
 30
0.0
 11
211.7449689569041
 21
527.2984988817348
 31
0.0
  0
LINE
  5
43
330
A
100
AcDbEntity
  8
11
  6
CENTERX2
 62
    92
100
AcDbLine
 10
903.5857282342041
 20
190.2518527635848
 30
0.0
 11
945.4573102655041
 21
190.2518527635848
 31
0.0
  0
LINE
  5
44
330
A
100
AcDbEntity
  8
11
  6
CENTERX2
 62
    92
100
AcDbLine
 10
935.745274132704
 20
200.3152530321847
 30
0.0
 11
935.745274132704
 21
180.1991565355848
 31
0.0
  0
LINE
  5
45
330
A
100
AcDbEntity
  8
11
  6
Continuous
 62
    92
100
AcDbLine
 10
922.545322960804
 20
190.2518527635848
 30
0.0
 11
922.545322960804
 21
199.0518558153847
 31
0.0
  0
LINE
  5
46
330
A
100
AcDbEntity
  8
11
  6
Continuous
 62
    92
100
AcDbLine
 10
922.545322960804
 20
199.0518558153847
 30
0.0
 11
904.9447980584041
 21
194.6518542894848
 31
0.0
  0
LINE
  5
47
330
A
100
AcDbEntity
  8
11
  6
Continuous
 62
    92
100
AcDbLine
 10
904.9447980584041
 20
194.6518542894848
 30
0.0
 11
904.9447980584041
 21
190.2518527635848
 31
0.0
  0
LINE
  5
48
330
A
100
AcDbEntity
  8
11
  6
Continuous
 62
    92
100
AcDbLine
 10
922.545322960804
 20
190.2518527635848
 30
0.0
 11
922.545322960804
 21
181.4518497118847
 31
0.0
  0
LINE
  5
49
330
A
100
AcDbEntity
  8
11
  6
Continuous
 62
    92
100
AcDbLine
 10
922.545322960804
 20
181.4518497118847
 30
0.0
 11
904.9447980584041
 21
185.8518588670848
 31
0.0
  0
LINE
  5
4A
330
A
100
AcDbEntity
  8
11
  6
Continuous
 62
    92
100
AcDbLine
 10
904.9447980584041
 20
185.8518588670848
 30
0.0
 11
904.9447980584041
 21
190.2518527635848
 31
0.0
  0
LINE
  5
4B
330
A
100
AcDbEntity
  8
1
  6
Continuous
 62
    92
100
AcDbLine
 10
521.3338666619041
 20
529.7121799119848
 30
0.0
 11
521.3338666619041
 21
592.0781772264847
 31
0.0
  0
LINE
  5
4C
330
A
100
AcDbEntity
  8
11
  6
CENTERX2
 62
    92
100
AcDbLine
 10
564.3339276971041
 20
533.0951755174847
 30
0.0
 11
564.3339276971041
 21
498.1061923631847
 31
0.0
  0
LINE
  5
4D
330
A
100
AcDbEntity
  8
11
  6
CENTERX2
 62
    92
100
AcDbLine
 10
564.3339276971041
 20
498.1061923631847
 30
0.0
 11
564.3339276971041
 21
492.1581943162848
 31
0.0
  0
LINE
  5
4E
330
A
100
AcDbEntity
  8
11
  6
Continuous
 62
    92
100
AcDbLine
 10
576.8339276971041
 20
499.4901950487848
 30
0.0
 11
552.3339276971041
 21
499.4901950487848
 31
0.0
  0
LINE
  5
4F
330
A
100
AcDbEntity
  8
11
  6
Continuous
 62
    92
100
AcDbLine
 10
552.3339276971041
 20
499.4901950487848
 30
0.0
 11
551.8339276971041
 21
499.9901950487847
 31
0.0
  0
LINE
  5
50
330
A
100
AcDbEntity
  8
11
  6
Continuous
 62
    92
100
AcDbLine
 10
551.8339276971041
 20
499.9901950487847
 30
0.0
 11
551.8339276971041
 21
501.8901889452847
 31
0.0
  0
LINE
  5
51
330
A
100
AcDbEntity
  8
11
  6
Continuous
 62
    92
100
AcDbLine
 10
551.8339276971041
 20
501.8901889452847
 30
0.0
 11
576.8339276971041
 21
501.8901889452847
 31
0.0
  0
LINE
  5
52
330
A
100
AcDbEntity
  8
11
  6
Continuous
 62
    92
100
AcDbLine
 10
576.8339276971041
 20
501.8901889452847
 30
0.0
 11
576.8339276971041
 21
499.4901950487848
 31
0.0
  0
LINE
  5
53
330
A
100
AcDbEntity
  8
11
  6
Continuous
 62
    92
100
AcDbLine
 10
553.3339276971041
 20
501.8901889452847
 30
0.0
 11
553.3339276971041
 21
531.4901950487848
 31
0.0
  0
LINE
  5
54
330
A
100
AcDbEntity
  8
11
  6
Continuous
 62
    92
100
AcDbLine
 10
553.3339276971041
 20
531.4901950487848
 30
0.0
 11
575.3339276971042
 21
531.4901950487848
 31
0.0
  0
LINE
  5
55
330
A
100
AcDbEntity
  8
11
  6
Continuous
 62
    92
100
AcDbLine
 10
575.3339276971042
 20
531.4901950487848
 30
0.0
 11
589.3339276971041
 21
531.4901950487848
 31
0.0
  0
LINE
  5
56
330
A
100
AcDbEntity
  8
11
  6
Continuous
 62
    92
100
AcDbLine
 10
575.3339276971042
 20
506.4901950487848
 30
0.0
 11
589.3339276971041
 21
506.4901950487848
 31
0.0
  0
LINE
  5
57
330
A
100
AcDbEntity
  8
11
  6
Continuous
 62
    92
100
AcDbLine
 10
553.3339276971041
 20
531.4901950487848
 30
0.0
 11
554.3389325799041
 21
530.3161838182847
 31
0.0
  0
LINE
  5
58
330
A
100
AcDbEntity
  8
11
  6
Continuous
 62
    92
100
AcDbLine
 10
554.3389325799041
 20
530.3161838182847
 30
0.0
 11
555.8341157836041
 21
528.3842298113848
 31
0.0
  0
LINE
  5
59
330
A
100
AcDbEntity
  8
11
  6
Continuous
 62
    92
100
AcDbLine
 10
555.8341157836041
 20
528.3842298113848
 30
0.0
 11
557.1102358752041
 21
526.1957458837848
 31
0.0
  0
LINE
  5
5A
330
A
100
AcDbEntity
  8
11
  6
Continuous
 62
    92
100
AcDbLine
 10
557.1102358752041
 20
526.1957458837848
 30
0.0
 11
558.1116988019041
 21
523.7858553311848
 31
0.0
  0
LINE
  5
5B
330
A
100
AcDbEntity
  8
11
  6
Continuous
 62
    92
100
AcDbLine
 10
558.1116988019041
 20
523.7858553311848
 30
0.0
 11
558.7919305694041
 21
521.2057745817848
 31
0.0
  0
LINE
  5
5C
330
A
100
AcDbEntity
  8
11
  6
Continuous
 62
    92
100
AcDbLine
 10
558.7919305694041
 20
521.2057745817848
 30
0.0
 11
559.1187219079041
 21
518.5199398711847
 31
0.0
  0
LINE
  5
5D
330
A
100
AcDbEntity
  8
11
  6
Continuous
 62
    92
100
AcDbLine
 10
559.1187219079041
 20
518.5199398711847
 30
0.0
 11
559.078181186004
 21
515.8009931835847
 31
0.0
  0
LINE
  5
5E
330
A
100
AcDbEntity
  8
11
  6
Continuous
 62
    92
100
AcDbLine
 10
559.078181186004
 20
515.8009931835847
 30
0.0
 11
558.6764099857041
 21
513.1233787278847
 31
0.0
  0
LINE
  5
5F
330
A
100
AcDbEntity
  8
11
  6
Continuous
 62
    92
100
AcDbLine
 10
558.6764099857041
 20
513.1233787278847
 30
0.0
 11
557.9385185207041
 21
510.5566996214847
 31
0.0
  0
LINE
  5
60
330
A
100
AcDbEntity
  8
11
  6
Continuous
 62
    92
100
AcDbLine
 10
557.9385185207041
 20
510.5566996214847
 30
0.0
 11
556.9052388763041
 21
508.1600422206848
 31
0.0
  0
LINE
  5
61
330
A
100
AcDbEntity
  8
11
  6
Continuous
 62
    92
100
AcDbLine
 10
556.9052388763041
 20
508.1600422206848
 30
0.0
 11
555.6279340448041
 21
505.9781711229848
 31
0.0
  0
LINE
  5
62
330
A
100
AcDbEntity
  8
11
  6
Continuous
 62
    92
100
AcDbLine
 10
555.6279340448041
 20
505.9781711229848
 30
0.0
 11
553.3339276971041
 21
502.6421725877847
 31
0.0
  0
LINE
  5
63
330
A
100
AcDbEntity
  8
11
  6
Continuous
 62
    92
100
AcDbLine
 10
575.3339276971042
 20
501.8901889452847
 30
0.0
 11
575.3339276971042
 21
506.4901950487848
 31
0.0
  0
LINE
  5
64
330
A
100
AcDbEntity
  8
11
  6
Continuous
 62
    92
100
AcDbLine
 10
553.3339276971041
 20
501.8901889452847
 30
0.0
 11
564.3339276971041
 21
518.9901950487848
 31
0.0
  0
LINE
  5
65
330
A
100
AcDbEntity
  8
11
  6
Continuous
 62
    92
100
AcDbLine
 10
564.3339276971041
 20
518.9901950487848
 30
0.0
 11
589.3339276971041
 21
518.9901950487848
 31
0.0
  0
LINE
  5
66
330
A
100
AcDbEntity
  8
11
  6
Continuous
 62
    92
100
AcDbLine
 10
604.8339276971042
 20
529.7401950487848
 30
0.0
 11
604.8339276971042
 21
508.2401950487848
 31
0.0
  0
LINE
  5
67
330
A
100
AcDbEntity
  8
11
  6
Continuous
 62
    92
100
AcDbLine
 10
604.8339276971042
 20
508.2401950487848
 30
0.0
 11
603.8339276971042
 21
507.4901950487848
 31
0.0
  0
LINE
  5
68
330
A
100
AcDbEntity
  8
11
  6
Continuous
 62
    92
100
AcDbLine
 10
603.8339276971042
 20
507.4901950487848
 30
0.0
 11
596.8339276971041
 21
507.4901950487848
 31
0.0
  0
LINE
  5
69
330
A
100
AcDbEntity
  8
11
  6
Continuous
 62
    92
100
AcDbLine
 10
596.8339276971041
 20
507.4901950487848
 30
0.0
 11
595.8339276971042
 21
508.2401950487848
 31
0.0
  0
LINE
  5
6A
330
A
100
AcDbEntity
  8
11
  6
Continuous
 62
    92
100
AcDbLine
 10
595.8339276971042
 20
508.2401950487848
 30
0.0
 11
595.8339276971042
 21
529.7401950487848
 31
0.0
  0
LINE
  5
6B
330
A
100
AcDbEntity
  8
11
  6
Continuous
 62
    92
100
AcDbLine
 10
595.8339276971042
 20
529.7401950487848
 30
0.0
 11
596.8339276971041
 21
530.4901950487848
 31
0.0
  0
LINE
  5
6C
330
A
100
AcDbEntity
  8
11
  6
Continuous
 62
    92
100
AcDbLine
 10
596.8339276971041
 20
530.4901950487848
 30
0.0
 11
603.8339276971042
 21
530.4901950487848
 31
0.0
  0
LINE
  5
6D
330
A
100
AcDbEntity
  8
11
  6
Continuous
 62
    92
100
AcDbLine
 10
603.8339276971042
 20
530.4901950487848
 30
0.0
 11
604.8339276971042
 21
529.7401950487848
 31
0.0
  0
LINE
  5
6E
330
A
100
AcDbEntity
  8
11
  6
Continuous
 62
    92
100
AcDbLine
 10
595.8339276971042
 20
529.7401950487848
 30
0.0
 11
604.8339276971042
 21
529.7401950487848
 31
0.0
  0
LINE
  5
6F
330
A
100
AcDbEntity
  8
11
  6
Continuous
 62
    92
100
AcDbLine
 10
595.8339276971042
 20
508.2401950487848
 30
0.0
 11
604.8339276971042
 21
508.2401950487848
 31
0.0
  0
LINE
  5
70
330
A
100
AcDbEntity
  8
11
  6
Continuous
 62
    92
100
AcDbLine
 10
593.3339276971041
 20
529.4901950487847
 30
0.0
 11
593.3339276971041
 21
508.4901950487847
 31
0.0
  0
LINE
  5
71
330
A
100
AcDbEntity
  8
11
  6
Continuous
 62
    92
100
AcDbLine
 10
593.3339276971041
 20
508.4901950487847
 30
0.0
 11
591.3339276971042
 21
508.4901950487847
 31
0.0
  0
LINE
  5
72
330
A
100
AcDbEntity
  8
11
  6
Continuous
 62
    92
100
AcDbLine
 10
591.3339276971042
 20
508.4901950487847
 30
0.0
 11
591.3339276971042
 21
529.4901950487847
 31
0.0
  0
LINE
  5
73
330
A
100
AcDbEntity
  8
11
  6
Continuous
 62
    92
100
AcDbLine
 10
591.3339276971042
 20
529.4901950487847
 30
0.0
 11
593.3339276971041
 21
529.4901950487847
 31
0.0
  0
LINE
  5
74
330
A
100
AcDbEntity
  8
11
  6
Continuous
 62
    92
100
AcDbLine
 10
593.3339276971041
 20
529.4901950487847
 30
0.0
 11
593.3339276971041
 21
530.4901950487848
 31
0.0
  0
LINE
  5
75
330
A
100
AcDbEntity
  8
11
  6
Continuous
 62
    92
100
AcDbLine
 10
593.3339276971041
 20
530.4901950487848
 30
0.0
 11
593.8339276971041
 21
530.4901950487848
 31
0.0
  0
LINE
  5
76
330
A
100
AcDbEntity
  8
11
  6
Continuous
 62
    92
100
AcDbLine
 10
593.8339276971041
 20
530.4901950487848
 30
0.0
 11
595.1339154901041
 21
529.7401950487848
 31
0.0
  0
LINE
  5
77
330
A
100
AcDbEntity
  8
11
  6
Continuous
 62
    92
100
AcDbLine
 10
595.1339154901041
 20
529.7401950487848
 30
0.0
 11
595.8339276971042
 21
529.7401950487848
 31
0.0
  0
LINE
  5
78
330
A
100
AcDbEntity
  8
11
  6
Continuous
 62
    92
100
AcDbLine
 10
593.8339276971041
 20
507.4901950487848
 30
0.0
 11
593.8339276971041
 21
530.4901950487848
 31
0.0
  0
LINE
  5
79
330
A
100
AcDbEntity
  8
11
  6
Continuous
 62
    92
100
AcDbLine
 10
603.8339276971042
 20
507.4901950487848
 30
0.0
 11
603.8339276971042
 21
530.4901950487848
 31
0.0
  0
LINE
  5
7A
330
A
100
AcDbEntity
  8
11
  6
Continuous
 62
    92
100
AcDbLine
 10
596.8339276971041
 20
507.4901950487848
 30
0.0
 11
596.8339276971041
 21
530.4901950487848
 31
0.0
  0
LINE
  5
7B
330
A
100
AcDbEntity
  8
11
  6
Continuous
 62
    92
100
AcDbLine
 10
593.3339276971041
 20
508.4901950487847
 30
0.0
 11
593.3339276971041
 21
507.4901950487848
 31
0.0
  0
LINE
  5
7C
330
A
100
AcDbEntity
  8
11
  6
Continuous
 62
    92
100
AcDbLine
 10
593.3339276971041
 20
507.4901950487848
 30
0.0
 11
593.8339276971041
 21
507.4901950487848
 31
0.0
  0
LINE
  5
7D
330
A
100
AcDbEntity
  8
11
  6
Continuous
 62
    92
100
AcDbLine
 10
593.8339276971041
 20
507.4901950487848
 30
0.0
 11
595.1339154901041
 21
508.2401950487848
 31
0.0
  0
LINE
  5
7E
330
A
100
AcDbEntity
  8
11
  6
Continuous
 62
    92
100
AcDbLine
 10
595.1339154901041
 20
508.2401950487848
 30
0.0
 11
595.8339276971042
 21
508.2401950487848
 31
0.0
  0
LINE
  5
7F
330
A
100
AcDbEntity
  8
11
  6
Continuous
 62
    92
100
AcDbLine
 10
591.3339276971042
 20
530.4901950487848
 30
0.0
 11
591.3339276971042
 21
507.4901950487848
 31
0.0
  0
LINE
  5
80
330
A
100
AcDbEntity
  8
11
  6
Continuous
 62
    92
100
AcDbLine
 10
591.3339276971042
 20
507.4901950487848
 30
0.0
 11
590.3339276971041
 21
507.4901950487848
 31
0.0
  0
LINE
  5
81
330
A
100
AcDbEntity
  8
11
  6
Continuous
 62
    92
100
AcDbLine
 10
590.3339276971041
 20
507.4901950487848
 30
0.0
 11
590.3339276971041
 21
530.4901950487848
 31
0.0
  0
LINE
  5
82
330
A
100
AcDbEntity
  8
11
  6
Continuous
 62
    92
100
AcDbLine
 10
590.3339276971041
 20
530.4901950487848
 30
0.0
 11
591.3339276971042
 21
530.4901950487848
 31
0.0
  0
LINE
  5
83
330
A
100
AcDbEntity
  8
11
  6
Continuous
 62
    92
100
AcDbLine
 10
590.3339276971041
 20
529.4901950487847
 30
0.0
 11
590.3339276971041
 21
508.4901950487847
 31
0.0
  0
LINE
  5
84
330
A
100
AcDbEntity
  8
11
  6
Continuous
 62
    92
100
AcDbLine
 10
590.3339276971041
 20
508.4901950487847
 30
0.0
 11
589.3339276971041
 21
508.4901950487847
 31
0.0
  0
LINE
  5
85
330
A
100
AcDbEntity
  8
11
  6
Continuous
 62
    92
100
AcDbLine
 10
589.3339276971041
 20
508.4901950487847
 30
0.0
 11
589.3339276971041
 21
529.4901950487847
 31
0.0
  0
LINE
  5
86
330
A
100
AcDbEntity
  8
11
  6
Continuous
 62
    92
100
AcDbLine
 10
589.3339276971041
 20
529.4901950487847
 30
0.0
 11
590.3339276971041
 21
529.4901950487847
 31
0.0
  0
LINE
  5
87
330
A
100
AcDbEntity
  8
11
  6
Continuous
 62
    92
100
AcDbLine
 10
589.3339276971041
 20
506.4901950487848
 30
0.0
 11
589.3339276971041
 21
531.4901950487848
 31
0.0
  0
LINE
  5
88
330
A
100
AcDbEntity
  8
11
  6
Continuous
 62
    92
100
AcDbLine
 10
564.3339276971041
 20
518.9901950487848
 30
0.0
 11
575.3339276971042
 21
506.4901950487848
 31
0.0
  0
LINE
  5
89
330
A
100
AcDbEntity
  8
11
  6
CENTERX2
 62
    92
100
AcDbLine
 10
521.3338666619041
 20
526.0951755174848
 30
0.0
 11
521.3338666619041
 21
491.1061923631847
 31
0.0
  0
LINE
  5
8A
330
A
100
AcDbEntity
  8
11
  6
CENTERX2
 62
    92
100
AcDbLine
 10
521.3338666619041
 20
491.1061923631847
 30
0.0
 11
521.3338666619041
 21
485.1581943162848
 31
0.0
  0
LINE
  5
8B
330
A
100
AcDbEntity
  8
11
  6
Continuous
 62
    92
100
AcDbLine
 10
508.8338666619041
 20
492.4901950487848
 30
0.0
 11
533.3338666619041
 21
492.4901950487848
 31
0.0
  0
LINE
  5
8C
330
A
100
AcDbEntity
  8
11
  6
Continuous
 62
    92
100
AcDbLine
 10
533.3338666619041
 20
492.4901950487848
 30
0.0
 11
533.8338666619041
 21
492.9901950487848
 31
0.0
  0
LINE
  5
8D
330
A
100
AcDbEntity
  8
11
  6
Continuous
 62
    92
100
AcDbLine
 10
533.8338666619041
 20
492.9901950487848
 30
0.0
 11
533.8338666619041
 21
494.8901889452847
 31
0.0
  0
LINE
  5
8E
330
A
100
AcDbEntity
  8
11
  6
Continuous
 62
    92
100
AcDbLine
 10
533.8338666619041
 20
494.8901889452847
 30
0.0
 11
508.8338666619041
 21
494.8901889452847
 31
0.0
  0
LINE
  5
8F
330
A
100
AcDbEntity
  8
11
  6
Continuous
 62
    92
100
AcDbLine
 10
508.8338666619041
 20
494.8901889452847
 30
0.0
 11
508.8338666619041
 21
492.4901950487848
 31
0.0
  0
LINE
  5
90
330
A
100
AcDbEntity
  8
11
  6
Continuous
 62
    92
100
AcDbLine
 10
532.3338666619041
 20
494.8901889452847
 30
0.0
 11
532.3338666619041
 21
524.4901950487848
 31
0.0
  0
LINE
  5
91
330
A
100
AcDbEntity
  8
11
  6
Continuous
 62
    92
100
AcDbLine
 10
532.3338666619041
 20
524.4901950487848
 30
0.0
 11
510.3338666619041
 21
524.4901950487848
 31
0.0
  0
LINE
  5
92
330
A
100
AcDbEntity
  8
11
  6
Continuous
 62
    92
100
AcDbLine
 10
510.3338666619041
 20
524.4901950487848
 30
0.0
 11
496.3338666619041
 21
524.4901950487848
 31
0.0
  0
LINE
  5
93
330
A
100
AcDbEntity
  8
11
  6
Continuous
 62
    92
100
AcDbLine
 10
510.3338666619041
 20
499.4901950487848
 30
0.0
 11
496.3338666619041
 21
499.4901950487848
 31
0.0
  0
LINE
  5
94
330
A
100
AcDbEntity
  8
11
  6
Continuous
 62
    92
100
AcDbLine
 10
532.3338666619041
 20
524.4901950487848
 30
0.0
 11
531.328861779104
 21
523.3161838182848
 31
0.0
  0
LINE
  5
95
330
A
100
AcDbEntity
  8
11
  6
Continuous
 62
    92
100
AcDbLine
 10
531.328861779104
 20
523.3161838182848
 30
0.0
 11
529.8336528412042
 21
521.3843338718848
 31
0.0
  0
LINE
  5
96
330
A
100
AcDbEntity
  8
11
  6
Continuous
 62
    92
100
AcDbLine
 10
529.8336528412042
 20
521.3843338718848
 30
0.0
 11
528.5575352813041
 21
519.1959366234848
 31
0.0
  0
LINE
  5
97
330
A
100
AcDbEntity
  8
11
  6
Continuous
 62
    92
100
AcDbLine
 10
528.5575352813041
 20
519.1959366234848
 30
0.0
 11
527.5561057759041
 21
516.7861113545848
 31
0.0
  0
LINE
  5
98
330
A
100
AcDbEntity
  8
11
  6
Continuous
 62
    92
100
AcDbLine
 10
527.5561057759041
 20
516.7861113545848
 30
0.0
 11
526.8759395275041
 21
514.2060712162848
 31
0.0
  0
LINE
  5
99
330
A
100
AcDbEntity
  8
11
  6
Continuous
 62
    92
100
AcDbLine
 10
526.8759395275041
 20
514.2060712162848
 30
0.0
 11
526.549245324604
 21
511.5202502927847
 31
0.0
  0
LINE
  5
9A
330
A
100
AcDbEntity
  8
11
  6
Continuous
 62
    92
100
AcDbLine
 10
526.549245324604
 20
511.5202502927847
 30
0.0
 11
526.5899125549041
 21
508.8012898180848
 31
0.0
  0
LINE
  5
9B
330
A
100
AcDbEntity
  8
11
  6
Continuous
 62
    92
100
AcDbLine
 10
526.5899125549041
 20
508.8012898180848
 30
0.0
 11
526.9918357936042
 21
506.1236347512848
 31
0.0
  0
LINE
  5
9C
330
A
100
AcDbEntity
  8
11
  6
Continuous
 62
    92
100
AcDbLine
 10
526.9918357936042
 20
506.1236347512848
 30
0.0
 11
527.7298997623041
 21
503.5568903612848
 31
0.0
  0
LINE
  5
9D
330
A
100
AcDbEntity
  8
11
  6
Continuous
 62
    92
100
AcDbLine
 10
527.7298997623041
 20
503.5568903612848
 30
0.0
 11
528.7633666030042
 21
501.1601462811848
 31
0.0
  0
LINE
  5
9E
330
A
100
AcDbEntity
  8
11
  6
Continuous
 62
    92
100
AcDbLine
 10
528.7633666030042
 20
501.1601462811848
 30
0.0
 11
530.0408673944041
 21
498.9781711229848
 31
0.0
  0
LINE
  5
9F
330
A
100
AcDbEntity
  8
11
  6
Continuous
 62
    92
100
AcDbLine
 10
530.0408673944041
 20
498.9781711229848
 30
0.0
 11
532.3338666619041
 21
495.6421725877848
 31
0.0
  0
LINE
  5
A0
330
A
100
AcDbEntity
  8
11
  6
Continuous
 62
    92
100
AcDbLine
 10
510.3338666619041
 20
494.8901889452847
 30
0.0
 11
510.3338666619041
 21
499.4901950487848
 31
0.0
  0
LINE
  5
A1
330
A
100
AcDbEntity
  8
11
  6
Continuous
 62
    92
100
AcDbLine
 10
532.3338666619041
 20
494.8901889452847
 30
0.0
 11
521.3338666619041
 21
511.9901950487848
 31
0.0
  0
LINE
  5
A2
330
A
100
AcDbEntity
  8
11
  6
Continuous
 62
    92
100
AcDbLine
 10
521.3338666619041
 20
511.9901950487848
 30
0.0
 11
496.3338666619041
 21
511.9901950487848
 31
0.0
  0
LINE
  5
A3
330
A
100
AcDbEntity
  8
11
  6
Continuous
 62
    92
100
AcDbLine
 10
480.8338666619041
 20
522.7401950487847
 30
0.0
 11
480.8338666619041
 21
501.2401950487848
 31
0.0
  0
LINE
  5
A4
330
A
100
AcDbEntity
  8
11
  6
Continuous
 62
    92
100
AcDbLine
 10
480.8338666619041
 20
501.2401950487848
 30
0.0
 11
481.8338666619041
 21
500.4901950487847
 31
0.0
  0
LINE
  5
A5
330
A
100
AcDbEntity
  8
11
  6
Continuous
 62
    92
100
AcDbLine
 10
481.8338666619041
 20
500.4901950487847
 30
0.0
 11
488.8338666619041
 21
500.4901950487847
 31
0.0
  0
LINE
  5
A6
330
A
100
AcDbEntity
  8
11
  6
Continuous
 62
    92
100
AcDbLine
 10
488.8338666619041
 20
500.4901950487847
 30
0.0
 11
489.8338666619041
 21
501.2401950487848
 31
0.0
  0
LINE
  5
A7
330
A
100
AcDbEntity
  8
11
  6
Continuous
 62
    92
100
AcDbLine
 10
489.8338666619041
 20
501.2401950487848
 30
0.0
 11
489.8338666619041
 21
522.7401950487847
 31
0.0
  0
LINE
  5
A8
330
A
100
AcDbEntity
  8
11
  6
Continuous
 62
    92
100
AcDbLine
 10
489.8338666619041
 20
522.7401950487847
 30
0.0
 11
488.8338666619041
 21
523.4901950487848
 31
0.0
  0
LINE
  5
A9
330
A
100
AcDbEntity
  8
11
  6
Continuous
 62
    92
100
AcDbLine
 10
488.8338666619041
 20
523.4901950487848
 30
0.0
 11
481.8338666619041
 21
523.4901950487848
 31
0.0
  0
LINE
  5
AA
330
A
100
AcDbEntity
  8
11
  6
Continuous
 62
    92
100
AcDbLine
 10
481.8338666619041
 20
523.4901950487848
 30
0.0
 11
480.8338666619041
 21
522.7401950487847
 31
0.0
  0
LINE
  5
AB
330
A
100
AcDbEntity
  8
11
  6
Continuous
 62
    92
100
AcDbLine
 10
489.8338666619041
 20
522.7401950487847
 30
0.0
 11
480.8338666619041
 21
522.7401950487847
 31
0.0
  0
LINE
  5
AC
330
A
100
AcDbEntity
  8
11
  6
Continuous
 62
    92
100
AcDbLine
 10
489.8338666619041
 20
501.2401950487848
 30
0.0
 11
480.8338666619041
 21
501.2401950487848
 31
0.0
  0
LINE
  5
AD
330
A
100
AcDbEntity
  8
11
  6
Continuous
 62
    92
100
AcDbLine
 10
492.3338666619041
 20
522.4901950487848
 30
0.0
 11
492.3338666619041
 21
501.4901950487848
 31
0.0
  0
LINE
  5
AE
330
A
100
AcDbEntity
  8
11
  6
Continuous
 62
    92
100
AcDbLine
 10
492.3338666619041
 20
501.4901950487848
 30
0.0
 11
494.3338666619041
 21
501.4901950487848
 31
0.0
  0
LINE
  5
AF
330
A
100
AcDbEntity
  8
11
  6
Continuous
 62
    92
100
AcDbLine
 10
494.3338666619041
 20
501.4901950487848
 30
0.0
 11
494.3338666619041
 21
522.4901950487848
 31
0.0
  0
LINE
  5
B0
330
A
100
AcDbEntity
  8
11
  6
Continuous
 62
    92
100
AcDbLine
 10
494.3338666619041
 20
522.4901950487848
 30
0.0
 11
492.3338666619041
 21
522.4901950487848
 31
0.0
  0
LINE
  5
B1
330
A
100
AcDbEntity
  8
11
  6
Continuous
 62
    92
100
AcDbLine
 10
492.3338666619041
 20
522.4901950487848
 30
0.0
 11
492.3338666619041
 21
523.4901950487848
 31
0.0
  0
LINE
  5
B2
330
A
100
AcDbEntity
  8
11
  6
Continuous
 62
    92
100
AcDbLine
 10
492.3338666619041
 20
523.4901950487848
 30
0.0
 11
491.8338666619042
 21
523.4901950487848
 31
0.0
  0
LINE
  5
B3
330
A
100
AcDbEntity
  8
11
  6
Continuous
 62
    92
100
AcDbLine
 10
491.8338666619042
 20
523.4901950487848
 30
0.0
 11
490.5348554315041
 21
522.7401950487847
 31
0.0
  0
LINE
  5
B4
330
A
100
AcDbEntity
  8
11
  6
Continuous
 62
    92
100
AcDbLine
 10
490.5348554315041
 20
522.7401950487847
 30
0.0
 11
489.8338666619041
 21
522.7401950487847
 31
0.0
  0
LINE
  5
B5
330
A
100
AcDbEntity
  8
11
  6
Continuous
 62
    92
100
AcDbLine
 10
491.8338666619042
 20
500.4901950487847
 30
0.0
 11
491.8338666619042
 21
523.4901950487848
 31
0.0
  0
LINE
  5
B6
330
A
100
AcDbEntity
  8
11
  6
Continuous
 62
    92
100
AcDbLine
 10
481.8338666619041
 20
500.4901950487847
 30
0.0
 11
481.8338666619041
 21
523.4901950487848
 31
0.0
  0
LINE
  5
B7
330
A
100
AcDbEntity
  8
11
  6
Continuous
 62
    92
100
AcDbLine
 10
488.8338666619041
 20
500.4901950487847
 30
0.0
 11
488.8338666619041
 21
523.4901950487848
 31
0.0
  0
LINE
  5
B8
330
A
100
AcDbEntity
  8
11
  6
Continuous
 62
    92
100
AcDbLine
 10
492.3338666619041
 20
501.4901950487848
 30
0.0
 11
492.3338666619041
 21
500.4901950487847
 31
0.0
  0
LINE
  5
B9
330
A
100
AcDbEntity
  8
11
  6
Continuous
 62
    92
100
AcDbLine
 10
492.3338666619041
 20
500.4901950487847
 30
0.0
 11
491.8338666619042
 21
500.4901950487847
 31
0.0
  0
LINE
  5
BA
330
A
100
AcDbEntity
  8
11
  6
Continuous
 62
    92
100
AcDbLine
 10
491.8338666619042
 20
500.4901950487847
 30
0.0
 11
490.5348554315041
 21
501.2401950487848
 31
0.0
  0
LINE
  5
BB
330
A
100
AcDbEntity
  8
11
  6
Continuous
 62
    92
100
AcDbLine
 10
490.5348554315041
 20
501.2401950487848
 30
0.0
 11
489.8338666619041
 21
501.2401950487848
 31
0.0
  0
LINE
  5
BC
330
A
100
AcDbEntity
  8
11
  6
Continuous
 62
    92
100
AcDbLine
 10
494.3338666619041
 20
523.4901950487848
 30
0.0
 11
494.3338666619041
 21
500.4901950487847
 31
0.0
  0
LINE
  5
BD
330
A
100
AcDbEntity
  8
11
  6
Continuous
 62
    92
100
AcDbLine
 10
494.3338666619041
 20
500.4901950487847
 30
0.0
 11
495.3338666619041
 21
500.4901950487847
 31
0.0
  0
LINE
  5
BE
330
A
100
AcDbEntity
  8
11
  6
Continuous
 62
    92
100
AcDbLine
 10
495.3338666619041
 20
500.4901950487847
 30
0.0
 11
495.3338666619041
 21
523.4901950487848
 31
0.0
  0
LINE
  5
BF
330
A
100
AcDbEntity
  8
11
  6
Continuous
 62
    92
100
AcDbLine
 10
495.3338666619041
 20
523.4901950487848
 30
0.0
 11
494.3338666619041
 21
523.4901950487848
 31
0.0
  0
LINE
  5
C0
330
A
100
AcDbEntity
  8
11
  6
Continuous
 62
    92
100
AcDbLine
 10
495.3338666619041
 20
522.4901950487848
 30
0.0
 11
495.3338666619041
 21
501.4901950487848
 31
0.0
  0
LINE
  5
C1
330
A
100
AcDbEntity
  8
11
  6
Continuous
 62
    92
100
AcDbLine
 10
495.3338666619041
 20
501.4901950487848
 30
0.0
 11
496.3338666619041
 21
501.4901950487848
 31
0.0
  0
LINE
  5
C2
330
A
100
AcDbEntity
  8
11
  6
Continuous
 62
    92
100
AcDbLine
 10
496.3338666619041
 20
501.4901950487848
 30
0.0
 11
496.3338666619041
 21
522.4901950487848
 31
0.0
  0
LINE
  5
C3
330
A
100
AcDbEntity
  8
11
  6
Continuous
 62
    92
100
AcDbLine
 10
496.3338666619041
 20
522.4901950487848
 30
0.0
 11
495.3338666619041
 21
522.4901950487848
 31
0.0
  0
LINE
  5
C4
330
A
100
AcDbEntity
  8
11
  6
Continuous
 62
    92
100
AcDbLine
 10
496.3338666619041
 20
499.4901950487848
 30
0.0
 11
496.3338666619041
 21
524.4901950487848
 31
0.0
  0
LINE
  5
C5
330
A
100
AcDbEntity
  8
11
  6
Continuous
 62
    92
100
AcDbLine
 10
521.3338666619041
 20
511.9901950487848
 30
0.0
 11
510.3338666619041
 21
499.4901950487848
 31
0.0
  0
LINE
  5
C6
330
A
100
AcDbEntity
  8
1
  6
Continuous
 62
    92
100
AcDbLine
 10
419.9679303827041
 20
265.3701846727848
 30
0.0
 11
242.8549390496041
 21
265.3701846727848
 31
0.0
  0
LINE
  5
C7
330
A
100
AcDbEntity
  8
1
  6
Continuous
 62
    92
100
AcDbLine
 10
242.8549390496041
 20
265.3701846727848
 30
0.0
 11
284.7169385614041
 21
383.5331943162847
 31
0.0
  0
LINE
  5
C8
330
A
100
AcDbEntity
  8
1
  6
Continuous
 62
    92
100
AcDbLine
 10
286.512928551604
 20
391.4901950487848
 30
0.0
 11
296.3339429559041
 21
434.9901950487848
 31
0.0
  0
LINE
  5
C9
330
A
100
AcDbEntity
  8
1
  6
Continuous
 62
    92
100
AcDbLine
 10
296.3339429559041
 20
434.9901950487848
 30
0.0
 11
289.262928551604
 21
442.0611789354848
 31
0.0
  0
LINE
  5
CA
330
A
100
AcDbEntity
  8
4
  6
Continuous
 62
    92
100
AcDbLine
 10
280.3949323358041
 20
500.4901950487847
 30
0.0
 11
296.3339429559041
 21
500.4901950487847
 31
0.0
  0
LINE
  5
CB
330
A
100
AcDbEntity
  8
4
 62
    92
100
AcDbLine
 10
296.3339429559041
 20
500.4901950487847
 30
0.0
 11
293.9339429559041
 21
501.2901950487848
 31
0.0
  0
LINE
  5
CC
330
A
100
AcDbEntity
  8
4
 62
    92
100
AcDbLine
 10
293.9339429559041
 20
501.2901950487848
 30
0.0
 11
293.9339429559041
 21
499.6901950487848
 31
0.0
  0
LINE
  5
CD
330
A
100
AcDbEntity
  8
4
 62
    92
100
AcDbLine
 10
293.9339429559041
 20
499.6901950487848
 30
0.0
 11
296.3339429559041
 21
500.4901950487847
 31
0.0
  0
LINE
  5
CE
330
A
100
AcDbEntity
  8
4
  6
Continuous
 62
    92
100
AcDbLine
 10
296.3339429559041
 20
500.4901950487847
 30
0.0
 11
299.3339429559041
 21
500.4901950487847
 31
0.0
  0
LINE
  5
CF
330
A
100
AcDbEntity
  8
4
 62
    92
100
AcDbLine
 10
299.3339429559041
 20
500.4901950487847
 30
0.0
 11
301.7339429559041
 21
499.6901950487848
 31
0.0
  0
LINE
  5
D0
330
A
100
AcDbEntity
  8
4
 62
    92
100
AcDbLine
 10
301.7339429559041
 20
499.6901950487848
 30
0.0
 11
301.7339429559041
 21
501.2901950487848
 31
0.0
  0
LINE
  5
D1
330
A
100
AcDbEntity
  8
4
 62
    92
100
AcDbLine
 10
301.7339429559041
 20
501.2901950487848
 30
0.0
 11
299.3339429559041
 21
500.4901950487847
 31
0.0
  0
LINE
  5
D2
330
A
100
AcDbEntity
  8
4
  6
Continuous
 62
    92
100
AcDbLine
 10
299.3339429559041
 20
500.4901950487847
 30
0.0
 11
306.3339429559041
 21
500.4901950487847
 31
0.0
  0
LINE
  5
D3
330
A
100
AcDbEntity
  8
4
  6
Continuous
 62
    92
100
AcDbLine
 10
296.3339429559041
 20
443.4901950487848
 30
0.0
 11
296.3339429559041
 21
500.4901950487847
 31
0.0
  0
LINE
  5
D4
330
A
100
AcDbEntity
  8
4
  6
Continuous
 62
    92
100
AcDbLine
 10
299.3339429559041
 20
434.9901950487848
 30
0.0
 11
299.3339429559041
 21
500.4901950487847
 31
0.0
  0
LINE
  5
D5
330
A
100
AcDbEntity
  8
4
 62
    92
100
AcDbLine
 10
299.3339429559041
 20
518.4901950487848
 30
0.0
 11
301.7339429559041
 21
517.6901950487848
 31
0.0
  0
LINE
  5
D6
330
A
100
AcDbEntity
  8
4
 62
    92
100
AcDbLine
 10
301.7339429559041
 20
517.6901950487848
 30
0.0
 11
301.7339429559041
 21
519.2901950487849
 31
0.0
  0
LINE
  5
D7
330
A
100
AcDbEntity
  8
4
 62
    92
100
AcDbLine
 10
301.7339429559041
 20
519.2901950487849
 30
0.0
 11
299.3339429559041
 21
518.4901950487848
 31
0.0
  0
LINE
  5
D8
330
A
100
AcDbEntity
  8
4
  6
Continuous
 62
    92
100
AcDbLine
 10
299.3339429559041
 20
518.4901950487848
 30
0.0
 11
331.3339429559041
 21
518.4901950487848
 31
0.0
  0
LINE
  5
D9
330
A
100
AcDbEntity
  8
4
 62
    92
100
AcDbLine
 10
331.3339429559041
 20
518.4901950487848
 30
0.0
 11
328.9339429559041
 21
519.2901950487849
 31
0.0
  0
LINE
  5
DA
330
A
100
AcDbEntity
  8
4
 62
    92
100
AcDbLine
 10
328.9339429559041
 20
519.2901950487849
 30
0.0
 11
328.9339429559041
 21
517.6901950487848
 31
0.0
  0
LINE
  5
DB
330
A
100
AcDbEntity
  8
4
 62
    92
100
AcDbLine
 10
328.9339429559041
 20
517.6901950487848
 30
0.0
 11
331.3339429559041
 21
518.4901950487848
 31
0.0
  0
LINE
  5
DC
330
A
100
AcDbEntity
  8
4
  6
Continuous
 62
    92
100
AcDbLine
 10
299.3339429559041
 20
500.4901950487847
 30
0.0
 11
299.3339429559041
 21
518.4901950487848
 31
0.0
  0
LINE
  5
DD
330
A
100
AcDbEntity
  8
4
  6
Continuous
 62
    92
100
AcDbLine
 10
331.3339429559041
 20
434.9901950487848
 30
0.0
 11
331.3339429559041
 21
500.4901950487847
 31
0.0
  0
LINE
  5
DE
330
A
100
AcDbEntity
  8
4
  6
Continuous
 62
    92
100
AcDbLine
 10
331.3339429559041
 20
500.4901950487847
 30
0.0
 11
331.3339429559041
 21
518.4901950487848
 31
0.0
  0
LINE
  5
DF
330
A
100
AcDbEntity
  8
4
 62
    92
100
AcDbLine
 10
296.3339429559041
 20
302.4901797899847
 30
0.0
 11
298.7339429559041
 21
301.6901797899847
 31
0.0
  0
LINE
  5
E0
330
A
100
AcDbEntity
  8
4
 62
    92
100
AcDbLine
 10
298.7339429559041
 20
301.6901797899847
 30
0.0
 11
298.7339429559041
 21
303.2901797899847
 31
0.0
  0
LINE
  5
E1
330
A
100
AcDbEntity
  8
4
 62
    92
100
AcDbLine
 10
298.7339429559041
 20
303.2901797899847
 30
0.0
 11
296.3339429559041
 21
302.4901797899847
 31
0.0
  0
LINE
  5
E2
330
A
100
AcDbEntity
  8
4
  6
Continuous
 62
    92
100
AcDbLine
 10
296.3339429559041
 20
302.4901797899847
 30
0.0
 11
613.3339276971041
 21
302.4901797899847
 31
0.0
  0
LINE
  5
E3
330
A
100
AcDbEntity
  8
4
 62
    92
100
AcDbLine
 10
613.3339276971041
 20
302.4901797899847
 30
0.0
 11
610.9339276971041
 21
303.2901797899847
 31
0.0
  0
LINE
  5
E4
330
A
100
AcDbEntity
  8
4
 62
    92
100
AcDbLine
 10
610.9339276971041
 20
303.2901797899847
 30
0.0
 11
610.9339276971041
 21
301.6901797899847
 31
0.0
  0
LINE
  5
E5
330
A
100
AcDbEntity
  8
4
 62
    92
100
AcDbLine
 10
610.9339276971041
 20
301.6901797899847
 30
0.0
 11
613.3339276971041
 21
302.4901797899847
 31
0.0
  0
LINE
  5
E6
330
A
100
AcDbEntity
  8
4
  6
Continuous
 62
    92
100
AcDbLine
 10
296.3339429559041
 20
426.4901950487848
 30
0.0
 11
296.3339429559041
 21
302.4901797899847
 31
0.0
  0
LINE
  5
E7
330
A
100
AcDbEntity
  8
4
  6
Continuous
 62
    92
100
AcDbLine
 10
613.3339276971041
 20
408.1635043748847
 30
0.0
 11
613.3339276971041
 21
302.4901797899847
 31
0.0
  0
LINE
  5
E8
330
A
100
AcDbEntity
  8
4
  6
Continuous
 62
    92
100
AcDbLine
 10
360.2739301385041
 20
500.4901950487847
 30
0.0
 11
344.3349347772041
 21
500.4901950487847
 31
0.0
  0
LINE
  5
E9
330
A
100
AcDbEntity
  8
4
 62
    92
100
AcDbLine
 10
344.3349347772041
 20
500.4901950487847
 30
0.0
 11
346.734934777204
 21
499.6901950487848
 31
0.0
  0
LINE
  5
EA
330
A
100
AcDbEntity
  8
4
 62
    92
100
AcDbLine
 10
346.734934777204
 20
499.6901950487848
 30
0.0
 11
346.734934777204
 21
501.2901950487848
 31
0.0
  0
LINE
  5
EB
330
A
100
AcDbEntity
  8
4
 62
    92
100
AcDbLine
 10
346.734934777204
 20
501.2901950487848
 30
0.0
 11
344.3349347772041
 21
500.4901950487847
 31
0.0
  0
LINE
  5
EC
330
A
100
AcDbEntity
  8
4
  6
Continuous
 62
    92
100
AcDbLine
 10
344.3349347772041
 20
500.4901950487847
 30
0.0
 11
336.3339429559041
 21
500.4901950487847
 31
0.0
  0
LINE
  5
ED
330
A
100
AcDbEntity
  8
4
 62
    92
100
AcDbLine
 10
336.3339429559041
 20
500.4901950487847
 30
0.0
 11
333.9339429559041
 21
501.2901950487848
 31
0.0
  0
LINE
  5
EE
330
A
100
AcDbEntity
  8
4
 62
    92
100
AcDbLine
 10
333.9339429559041
 20
501.2901950487848
 30
0.0
 11
333.9339429559041
 21
499.6901950487848
 31
0.0
  0
LINE
  5
EF
330
A
100
AcDbEntity
  8
4
 62
    92
100
AcDbLine
 10
333.9339429559041
 20
499.6901950487848
 30
0.0
 11
336.3339429559041
 21
500.4901950487847
 31
0.0
  0
LINE
  5
F0
330
A
100
AcDbEntity
  8
4
  6
Continuous
 62
    92
100
AcDbLine
 10
336.3339429559041
 20
500.4901950487847
 30
0.0
 11
329.3339429559041
 21
500.4901950487847
 31
0.0
  0
LINE
  5
F1
330
A
100
AcDbEntity
  8
4
  6
Continuous
 62
    92
100
AcDbLine
 10
336.3339429559041
 20
487.4901950487847
 30
0.0
 11
336.3339429559041
 21
500.4901950487847
 31
0.0
  0
LINE
  5
F2
330
A
100
AcDbEntity
  8
4
  6
Continuous
 62
    92
100
AcDbLine
 10
246.3339429559041
 20
488.9691989549848
 30
0.0
 11
246.3339429559041
 21
444.4901950487848
 31
0.0
  0
LINE
  5
F3
330
A
100
AcDbEntity
  8
4
 62
    92
100
AcDbLine
 10
246.3339429559041
 20
444.4901950487848
 30
0.0
 11
247.1339429559041
 21
446.8901950487848
 31
0.0
  0
LINE
  5
F4
330
A
100
AcDbEntity
  8
4
 62
    92
100
AcDbLine
 10
247.1339429559041
 20
446.8901950487848
 30
0.0
 11
245.5339429559041
 21
446.8901950487848
 31
0.0
  0
LINE
  5
F5
330
A
100
AcDbEntity
  8
4
 62
    92
100
AcDbLine
 10
245.5339429559041
 20
446.8901950487848
 30
0.0
 11
246.3339429559041
 21
444.4901950487848
 31
0.0
  0
LINE
  5
F6
330
A
100
AcDbEntity
  8
4
  6
Continuous
 62
    92
100
AcDbLine
 10
246.3339429559041
 20
444.4901950487848
 30
0.0
 11
246.3339429559041
 21
425.4901950487847
 31
0.0
  0
LINE
  5
F7
330
A
100
AcDbEntity
  8
4
 62
    92
100
AcDbLine
 10
246.3339429559041
 20
425.4901950487847
 30
0.0
 11
245.5339429559041
 21
423.0901950487847
 31
0.0
  0
LINE
  5
F8
330
A
100
AcDbEntity
  8
4
 62
    92
100
AcDbLine
 10
245.5339429559041
 20
423.0901950487847
 30
0.0
 11
247.1339429559041
 21
423.0901950487847
 31
0.0
  0
LINE
  5
F9
330
A
100
AcDbEntity
  8
4
 62
    92
100
AcDbLine
 10
247.1339429559041
 20
423.0901950487847
 30
0.0
 11
246.3339429559041
 21
425.4901950487847
 31
0.0
  0
LINE
  5
FA
330
A
100
AcDbEntity
  8
4
  6
Continuous
 62
    92
100
AcDbLine
 10
246.3339429559041
 20
425.4901950487847
 30
0.0
 11
246.3339429559041
 21
410.0901706346848
 31
0.0
  0
LINE
  5
FB
330
A
100
AcDbEntity
  8
4
  6
Continuous
 62
    92
100
AcDbLine
 10
297.3339429559041
 20
444.4901950487848
 30
0.0
 11
246.3339429559041
 21
444.4901950487848
 31
0.0
  0
LINE
  5
FC
330
A
100
AcDbEntity
  8
4
  6
Continuous
 62
    92
100
AcDbLine
 10
297.3339429559041
 20
425.4901950487847
 30
0.0
 11
246.3339429559041
 21
425.4901950487847
 31
0.0
  0
LINE
  5
FD
330
A
100
AcDbEntity
  8
4
 62
    92
100
AcDbLine
 10
221.3339276971041
 20
387.4901950487848
 30
0.0
 11
222.1339276971041
 21
389.8901950487847
 31
0.0
  0
LINE
  5
FE
330
A
100
AcDbEntity
  8
4
 62
    92
100
AcDbLine
 10
222.1339276971041
 20
389.8901950487847
 30
0.0
 11
220.5339276971041
 21
389.8901950487847
 31
0.0
  0
LINE
  5
FF
330
A
100
AcDbEntity
  8
4
 62
    92
100
AcDbLine
 10
220.5339276971041
 20
389.8901950487847
 30
0.0
 11
221.3339276971041
 21
387.4901950487848
 31
0.0
  0
LINE
  5
100
330
A
100
AcDbEntity
  8
4
  6
Continuous
 62
    92
100
AcDbLine
 10
221.3339276971041
 20
387.4901950487848
 30
0.0
 11
221.3339276971041
 21
482.4901950487848
 31
0.0
  0
LINE
  5
101
330
A
100
AcDbEntity
  8
4
 62
    92
100
AcDbLine
 10
221.3339276971041
 20
482.4901950487848
 30
0.0
 11
220.5339276971041
 21
480.0901950487848
 31
0.0
  0
LINE
  5
102
330
A
100
AcDbEntity
  8
4
 62
    92
100
AcDbLine
 10
220.5339276971041
 20
480.0901950487848
 30
0.0
 11
222.1339276971041
 21
480.0901950487848
 31
0.0
  0
LINE
  5
103
330
A
100
AcDbEntity
  8
4
 62
    92
100
AcDbLine
 10
222.1339276971041
 20
480.0901950487848
 30
0.0
 11
221.3339276971041
 21
482.4901950487848
 31
0.0
  0
LINE
  5
104
330
A
100
AcDbEntity
  8
4
  6
Continuous
 62
    92
100
AcDbLine
 10
333.3339429559041
 20
387.4901950487848
 30
0.0
 11
221.3339276971041
 21
387.4901950487848
 31
0.0
  0
LINE
  5
105
330
A
100
AcDbEntity
  8
4
  6
Continuous
 62
    92
100
AcDbLine
 10
333.3339429559041
 20
482.4901950487848
 30
0.0
 11
249.9289289178041
 21
482.4901950487848
 31
0.0
  0
LINE
  5
106
330
A
100
AcDbEntity
  8
4
  6
Continuous
 62
    92
100
AcDbLine
 10
237.4309278192041
 20
482.4901950487848
 30
0.0
 11
221.3339276971041
 21
482.4901950487848
 31
0.0
  0
LINE
  5
107
330
A
100
AcDbEntity
  8
7
 62
    92
100
AcDbLine
 10
521.3338666619041
 20
592.0781772264847
 30
0.0
 11
518.9338666619041
 21
592.8781772264848
 31
0.0
  0
LINE
  5
108
330
A
100
AcDbEntity
  8
7
 62
    92
100
AcDbLine
 10
518.9338666619041
 20
592.8781772264848
 30
0.0
 11
518.9338666619041
 21
591.2781772264848
 31
0.0
  0
LINE
  5
109
330
A
100
AcDbEntity
  8
7
 62
    92
100
AcDbLine
 10
518.9338666619041
 20
591.2781772264848
 30
0.0
 11
521.3338666619041
 21
592.0781772264847
 31
0.0
  0
LINE
  5
10A
330
A
100
AcDbEntity
  8
7
  6
Continuous
 62
    92
100
AcDbLine
 10
521.3338666619041
 20
592.0781772264847
 30
0.0
 11
296.3339429559041
 21
592.0781772264847
 31
0.0
  0
LINE
  5
10B
330
A
100
AcDbEntity
  8
7
 62
    92
100
AcDbLine
 10
296.3339429559041
 20
592.0781772264847
 30
0.0
 11
298.7339429559041
 21
591.2781772264848
 31
0.0
  0
LINE
  5
10C
330
A
100
AcDbEntity
  8
7
 62
    92
100
AcDbLine
 10
298.7339429559041
 20
591.2781772264848
 30
0.0
 11
298.7339429559041
 21
592.8781772264848
 31
0.0
  0
LINE
  5
10D
330
A
100
AcDbEntity
  8
7
 62
    92
100
AcDbLine
 10
298.7339429559041
 20
592.8781772264848
 30
0.0
 11
296.3339429559041
 21
592.0781772264847
 31
0.0
  0
LINE
  5
10E
330
A
100
AcDbEntity
  8
7
 62
    92
100
AcDbLine
 10
564.3339276971041
 20
617.0781772264847
 30
0.0
 11
561.933927697104
 21
617.8781772264848
 31
0.0
  0
LINE
  5
10F
330
A
100
AcDbEntity
  8
7
 62
    92
100
AcDbLine
 10
561.933927697104
 20
617.8781772264848
 30
0.0
 11
561.933927697104
 21
616.2781772264848
 31
0.0
  0
LINE
  5
110
330
A
100
AcDbEntity
  8
7
 62
    92
100
AcDbLine
 10
561.933927697104
 20
616.2781772264848
 30
0.0
 11
564.3339276971041
 21
617.0781772264847
 31
0.0
  0
LINE
  5
111
330
A
100
AcDbEntity
  8
7
  6
Continuous
 62
    92
100
AcDbLine
 10
564.3339276971041
 20
617.0781772264847
 30
0.0
 11
296.3339429559041
 21
617.0781772264847
 31
0.0
  0
LINE
  5
112
330
A
100
AcDbEntity
  8
7
 62
    92
100
AcDbLine
 10
296.3339429559041
 20
617.0781772264847
 30
0.0
 11
298.7339429559041
 21
616.2781772264848
 31
0.0
  0
LINE
  5
113
330
A
100
AcDbEntity
  8
7
 62
    92
100
AcDbLine
 10
298.7339429559041
 20
616.2781772264848
 30
0.0
 11
298.7339429559041
 21
617.8781772264848
 31
0.0
  0
LINE
  5
114
330
A
100
AcDbEntity
  8
7
 62
    92
100
AcDbLine
 10
298.7339429559041
 20
617.8781772264848
 30
0.0
 11
296.3339429559041
 21
617.0781772264847
 31
0.0
  0
LINE
  5
115
330
A
100
AcDbEntity
  8
7
  6
Continuous
 62
    92
100
AcDbLine
 10
564.3339276971041
 20
536.9901950487848
 30
0.0
 11
564.3339276971041
 21
617.0781772264847
 31
0.0
  0
LINE
  5
116
330
A
100
AcDbEntity
  8
7
  6
Continuous
 62
    92
100
AcDbLine
 10
296.3339429559041
 20
443.4901950487848
 30
0.0
 11
296.3339429559041
 21
617.0781772264847
 31
0.0
  0
LINE
  5
117
330
A
100
AcDbEntity
  8
4
 62
    92
100
AcDbLine
 10
344.3349347772041
 20
541.3371799119848
 30
0.0
 11
346.734934777204
 21
540.5371799119848
 31
0.0
  0
LINE
  5
118
330
A
100
AcDbEntity
  8
4
 62
    92
100
AcDbLine
 10
346.734934777204
 20
540.5371799119848
 30
0.0
 11
346.734934777204
 21
542.1371799119848
 31
0.0
  0
LINE
  5
119
330
A
100
AcDbEntity
  8
4
 62
    92
100
AcDbLine
 10
346.734934777204
 20
542.1371799119848
 30
0.0
 11
344.3349347772041
 21
541.3371799119848
 31
0.0
  0
LINE
  5
11A
330
A
100
AcDbEntity
  8
4
  6
Continuous
 62
    92
100
AcDbLine
 10
344.3349347772041
 20
541.3371799119848
 30
0.0
 11
379.3349347772041
 21
541.3371799119848
 31
0.0
  0
LINE
  5
11B
330
A
100
AcDbEntity
  8
4
 62
    92
100
AcDbLine
 10
379.3349347772041
 20
541.3371799119848
 30
0.0
 11
376.9349347772041
 21
542.1371799119848
 31
0.0
  0
LINE
  5
11C
330
A
100
AcDbEntity
  8
4
 62
    92
100
AcDbLine
 10
376.9349347772041
 20
542.1371799119848
 30
0.0
 11
376.9349347772041
 21
540.5371799119848
 31
0.0
  0
LINE
  5
11D
330
A
100
AcDbEntity
  8
4
 62
    92
100
AcDbLine
 10
376.9349347772041
 20
540.5371799119848
 30
0.0
 11
379.3349347772041
 21
541.3371799119848
 31
0.0
  0
LINE
  5
11E
330
A
100
AcDbEntity
  8
4
  6
Continuous
 62
    92
100
AcDbLine
 10
344.3349347772041
 20
541.3371799119848
 30
0.0
 11
344.3349347772041
 21
516.3381869920847
 31
0.0
  0
LINE
  5
11F
330
A
100
AcDbEntity
  8
4
  6
Continuous
 62
    92
100
AcDbLine
 10
344.3349347772041
 20
516.3381869920847
 30
0.0
 11
344.3349347772041
 21
487.4901950487847
 31
0.0
  0
LINE
  5
120
330
A
100
AcDbEntity
  8
4
  6
Continuous
 62
    92
100
AcDbLine
 10
379.3349347772041
 20
492.4901950487848
 30
0.0
 11
379.3349347772041
 21
541.3371799119848
 31
0.0
  0
LINE
  5
121
330
A
100
AcDbEntity
  8
4
  6
Continuous
 62
    92
100
AcDbLine
 10
363.599918908004
 20
352.4901797899847
 30
0.0
 11
336.3339429559041
 21
352.4901797899847
 31
0.0
  0
LINE
  5
122
330
A
100
AcDbEntity
  8
4
 62
    92
100
AcDbLine
 10
336.3339429559041
 20
352.4901797899847
 30
0.0
 11
338.7339429559041
 21
351.6901797899847
 31
0.0
  0
LINE
  5
123
330
A
100
AcDbEntity
  8
4
 62
    92
100
AcDbLine
 10
338.7339429559041
 20
351.6901797899847
 30
0.0
 11
338.7339429559041
 21
353.2901797899847
 31
0.0
  0
LINE
  5
124
330
A
100
AcDbEntity
  8
4
 62
    92
100
AcDbLine
 10
338.7339429559041
 20
353.2901797899847
 30
0.0
 11
336.3339429559041
 21
352.4901797899847
 31
0.0
  0
LINE
  5
125
330
A
100
AcDbEntity
  8
4
  6
Continuous
 62
    92
100
AcDbLine
 10
336.3339429559041
 20
352.4901797899847
 30
0.0
 11
333.3339429559041
 21
352.4901797899847
 31
0.0
  0
LINE
  5
126
330
A
100
AcDbEntity
  8
4
 62
    92
100
AcDbLine
 10
333.3339429559041
 20
352.4901797899847
 30
0.0
 11
330.9339429559041
 21
353.2901797899847
 31
0.0
  0
LINE
  5
127
330
A
100
AcDbEntity
  8
4
 62
    92
100
AcDbLine
 10
330.9339429559041
 20
353.2901797899847
 30
0.0
 11
330.9339429559041
 21
351.6901797899847
 31
0.0
  0
LINE
  5
128
330
A
100
AcDbEntity
  8
4
 62
    92
100
AcDbLine
 10
330.9339429559041
 20
351.6901797899847
 30
0.0
 11
333.3339429559041
 21
352.4901797899847
 31
0.0
  0
LINE
  5
129
330
A
100
AcDbEntity
  8
4
  6
Continuous
 62
    92
100
AcDbLine
 10
333.3339429559041
 20
352.4901797899847
 30
0.0
 11
315.8339429559041
 21
352.4901797899847
 31
0.0
  0
LINE
  5
12A
330
A
100
AcDbEntity
  8
4
  6
Continuous
 62
    92
100
AcDbLine
 10
336.3339429559041
 20
382.4901950487848
 30
0.0
 11
336.3339429559041
 21
352.4901797899847
 31
0.0
  0
LINE
  5
12B
330
A
100
AcDbEntity
  8
4
  6
Continuous
 62
    92
100
AcDbLine
 10
333.3339429559041
 20
387.4901950487848
 30
0.0
 11
333.3339429559041
 21
352.4901797899847
 31
0.0
  0
LINE
  5
12C
330
A
100
AcDbEntity
  8
4
 62
    92
100
AcDbLine
 10
336.3339429559041
 20
327.4901797899847
 30
0.0
 11
333.9339429559041
 21
328.2901797899847
 31
0.0
  0
LINE
  5
12D
330
A
100
AcDbEntity
  8
4
 62
    92
100
AcDbLine
 10
333.9339429559041
 20
328.2901797899847
 30
0.0
 11
333.9339429559041
 21
326.6901797899847
 31
0.0
  0
LINE
  5
12E
330
A
100
AcDbEntity
  8
4
 62
    92
100
AcDbLine
 10
333.9339429559041
 20
326.6901797899847
 30
0.0
 11
336.3339429559041
 21
327.4901797899847
 31
0.0
  0
LINE
  5
12F
330
A
100
AcDbEntity
  8
4
  6
Continuous
 62
    92
100
AcDbLine
 10
336.3339429559041
 20
327.4901797899847
 30
0.0
 11
296.3339429559041
 21
327.4901797899847
 31
0.0
  0
LINE
  5
130
330
A
100
AcDbEntity
  8
4
 62
    92
100
AcDbLine
 10
296.3339429559041
 20
327.4901797899847
 30
0.0
 11
298.7339429559041
 21
326.6901797899847
 31
0.0
  0
LINE
  5
131
330
A
100
AcDbEntity
  8
4
 62
    92
100
AcDbLine
 10
298.7339429559041
 20
326.6901797899847
 30
0.0
 11
298.7339429559041
 21
328.2901797899847
 31
0.0
  0
LINE
  5
132
330
A
100
AcDbEntity
  8
4
 62
    92
100
AcDbLine
 10
298.7339429559041
 20
328.2901797899847
 30
0.0
 11
296.3339429559041
 21
327.4901797899847
 31
0.0
  0
LINE
  5
133
330
A
100
AcDbEntity
  8
4
  6
Continuous
 62
    92
100
AcDbLine
 10
336.3339429559041
 20
352.4901797899847
 30
0.0
 11
336.3339429559041
 21
327.4901797899847
 31
0.0
  0
LINE
  5
134
330
A
100
AcDbEntity
  8
4
  6
Continuous
 62
    92
100
AcDbLine
 10
296.3339429559041
 20
426.4901950487848
 30
0.0
 11
296.3339429559041
 21
327.4901797899847
 31
0.0
  0
LINE
  5
135
330
A
100
AcDbEntity
  8
11
  6
Continuous
 62
    92
100
AcDbLine
 10
336.0329328241041
 20
457.6001804002848
 30
0.0
 11
336.177816398504
 21
457.6035743162847
 31
0.0
  0
LINE
  5
136
330
A
100
AcDbEntity
  8
11
  6
Continuous
 62
    92
100
AcDbLine
 10
336.177816398504
 20
457.6035743162847
 30
0.0
 11
336.3116660785041
 21
457.6031088878847
 31
0.0
  0
LINE
  5
137
330
A
100
AcDbEntity
  8
11
  6
Continuous
 62
    92
100
AcDbLine
 10
336.3116660785041
 20
457.6031088878847
 30
0.0
 11
336.4352503063041
 21
457.5988422255847
 31
0.0
  0
LINE
  5
138
330
A
100
AcDbEntity
  8
11
  6
Continuous
 62
    92
100
AcDbLine
 10
336.4352503063041
 20
457.5988422255847
 30
0.0
 11
336.5492325858041
 21
457.5907976087847
 31
0.0
  0
LINE
  5
139
330
A
100
AcDbEntity
  8
11
  6
Continuous
 62
    92
100
AcDbLine
 10
336.5492325858041
 20
457.5907976087847
 30
0.0
 11
336.6541832504041
 21
457.5789644749847
 31
0.0
  0
LINE
  5
13A
330
A
100
AcDbEntity
  8
11
  6
Continuous
 62
    92
100
AcDbLine
 10
336.6541832504041
 20
457.5789644749847
 30
0.0
 11
336.7505889498041
 21
457.5632986391847
 31
0.0
  0
LINE
  5
13B
330
A
100
AcDbEntity
  8
11
  6
Continuous
 62
    92
100
AcDbLine
 10
336.7505889498041
 20
457.5632986391847
 30
0.0
 11
336.8388601888041
 21
457.5437217631848
 31
0.0
  0
LINE
  5
13C
330
A
100
AcDbEntity
  8
11
  6
Continuous
 62
    92
100
AcDbLine
 10
336.8388601888041
 20
457.5437217631848
 30
0.0
 11
336.9193371627041
 21
457.5201200597848
 31
0.0
  0
LINE
  5
13D
330
A
100
AcDbEntity
  8
11
  6
Continuous
 62
    92
100
AcDbLine
 10
336.9193371627041
 20
457.5201200597848
 30
0.0
 11
336.9922940649041
 21
457.4923421895848
 31
0.0
  0
LINE
  5
13E
330
A
100
AcDbEntity
  8
11
  6
Continuous
 62
    92
100
AcDbLine
 10
336.9922940649041
 20
457.4923421895848
 30
0.0
 11
337.0579419793041
 21
457.4601962694848
 31
0.0
  0
LINE
  5
13F
330
A
100
AcDbEntity
  8
11
  6
Continuous
 62
    92
100
AcDbLine
 10
337.0579419793041
 20
457.4601962694848
 30
0.0
 11
337.145859818304
 21
457.4069571199848
 31
0.0
  0
LINE
  5
140
330
A
100
AcDbEntity
  8
11
  6
Continuous
 62
    92
100
AcDbLine
 10
337.145859818304
 20
457.4069571199848
 30
0.0
 11
337.2307995239041
 21
457.3464119869847
 31
0.0
  0
LINE
  5
141
330
A
100
AcDbEntity
  8
11
  6
Continuous
 62
    92
100
AcDbLine
 10
337.2307995239041
 20
457.3464119869847
 30
0.0
 11
337.3119898042041
 21
457.2788437396848
 31
0.0
  0
LINE
  5
142
330
A
100
AcDbEntity
  8
11
  6
Continuous
 62
    92
100
AcDbLine
 10
337.3119898042041
 20
457.2788437396848
 30
0.0
 11
337.3886952097041
 21
457.2046585022848
 31
0.0
  0
LINE
  5
143
330
A
100
AcDbEntity
  8
11
  6
Continuous
 62
    92
100
AcDbLine
 10
337.3886952097041
 20
457.2046585022848
 30
0.0
 11
337.460237282804
 21
457.1243788216848
 31
0.0
  0
LINE
  5
144
330
A
100
AcDbEntity
  8
11
  6
Continuous
 62
    92
100
AcDbLine
 10
337.460237282804
 20
457.1243788216848
 30
0.0
 11
337.5260140808041
 21
457.0386318860848
 31
0.0
  0
LINE
  5
145
330
A
100
AcDbEntity
  8
11
  6
Continuous
 62
    92
100
AcDbLine
 10
337.5260140808041
 20
457.0386318860848
 30
0.0
 11
337.5855169191041
 21
456.9481333213848
 31
0.0
  0
LINE
  5
146
330
A
100
AcDbEntity
  8
11
  6
Continuous
 62
    92
100
AcDbLine
 10
337.5855169191041
 20
456.9481333213848
 30
0.0
 11
337.6383433696041
 21
456.8536674350847
 31
0.0
  0
LINE
  5
147
330
A
100
AcDbEntity
  8
11
  6
Continuous
 62
    92
100
AcDbLine
 10
337.6383433696041
 20
456.8536674350847
 30
0.0
 11
337.6842058227041
 21
456.7560650416847
 31
0.0
  0
LINE
  5
148
330
A
100
AcDbEntity
  8
11
  6
Continuous
 62
    92
100
AcDbLine
 10
337.6842058227041
 20
456.7560650416847
 30
0.0
 11
337.7229352655041
 21
456.6561801561848
 31
0.0
  0
LINE
  5
149
330
A
100
AcDbEntity
  8
11
  6
Continuous
 62
    92
100
AcDbLine
 10
339.4679303827041
 20
455.6891696580847
 30
0.0
 11
339.583216748404
 21
455.7112325761847
 31
0.0
  0
LINE
  5
14A
330
A
100
AcDbEntity
  8
11
  6
Continuous
 62
    92
100
AcDbLine
 10
339.583216748404
 20
455.7112325761847
 30
0.0
 11
339.6997857522041
 21
455.7251161340848
 31
0.0
  0
LINE
  5
14B
330
A
100
AcDbEntity
  8
11
  6
Continuous
 62
    92
100
AcDbLine
 10
339.6997857522041
 20
455.7251161340848
 30
0.0
 11
339.8165557912041
 21
455.7304100848847
 31
0.0
  0
LINE
  5
14C
330
A
100
AcDbEntity
  8
11
  6
Continuous
 62
    92
100
AcDbLine
 10
339.8165557912041
 20
455.7304100848847
 30
0.0
 11
339.932399410104
 21
455.7268548574848
 31
0.0
  0
LINE
  5
14D
330
A
100
AcDbEntity
  8
11
  6
Continuous
 62
    92
100
AcDbLine
 10
339.932399410104
 20
455.7268548574848
 30
0.0
 11
340.0461779479041
 21
455.7143560576847
 31
0.0
  0
LINE
  5
14E
330
A
100
AcDbEntity
  8
11
  6
Continuous
 62
    92
100
AcDbLine
 10
340.0461779479041
 20
455.7143560576847
 30
0.0
 11
340.1567780717041
 21
455.6929915241847
 31
0.0
  0
LINE
  5
14F
330
A
100
AcDbEntity
  8
11
  6
Continuous
 62
    92
100
AcDbLine
 10
340.1567780717041
 20
455.6929915241847
 30
0.0
 11
340.2631477942041
 21
455.6630102095848
 31
0.0
  0
LINE
  5
150
330
A
100
AcDbEntity
  8
11
  6
Continuous
 62
    92
100
AcDbLine
 10
340.2631477942041
 20
455.6630102095848
 30
0.0
 11
340.3643295537041
 21
455.6248228706848
 31
0.0
  0
LINE
  5
151
330
A
100
AcDbEntity
  8
11
  6
Continuous
 62
    92
100
AcDbLine
 10
340.3643295537041
 20
455.6248228706848
 30
0.0
 11
340.4594881986041
 21
455.5789852763847
 31
0.0
  0
LINE
  5
152
330
A
100
AcDbEntity
  8
11
  6
Continuous
 62
    92
100
AcDbLine
 10
340.4594881986041
 20
455.5789852763847
 30
0.0
 11
340.5479322137041
 21
455.5261752733848
 31
0.0
  0
LINE
  5
153
330
A
100
AcDbEntity
  8
11
  6
Continuous
 62
    92
100
AcDbLine
 10
340.5479322137041
 20
455.5261752733848
 30
0.0
 11
340.6137232976041
 21
455.4797230286848
 31
0.0
  0
LINE
  5
154
330
A
100
AcDbEntity
  8
11
  6
Continuous
 62
    92
100
AcDbLine
 10
340.6137232976041
 20
455.4797230286848
 30
0.0
 11
340.6770799955041
 21
455.4286205016848
 31
0.0
  0
LINE
  5
155
330
A
100
AcDbEntity
  8
11
  6
Continuous
 62
    92
100
AcDbLine
 10
340.6770799955041
 20
455.4286205016848
 30
0.0
 11
340.7375741286041
 21
455.3730751577847
 31
0.0
  0
LINE
  5
156
330
A
100
AcDbEntity
  8
11
  6
Continuous
 62
    92
100
AcDbLine
 10
340.7375741286041
 20
455.3730751577847
 30
0.0
 11
340.794801491404
 21
455.3133525113848
 31
0.0
  0
LINE
  5
157
330
A
100
AcDbEntity
  8
11
  6
Continuous
 62
    92
100
AcDbLine
 10
340.794801491404
 20
455.3133525113848
 30
0.0
 11
340.8483905084041
 21
455.2497722791848
 31
0.0
  0
LINE
  5
158
330
A
100
AcDbEntity
  8
11
  6
Continuous
 62
    92
100
AcDbLine
 10
340.8483905084041
 20
455.2497722791848
 30
0.0
 11
340.8980101211041
 21
455.1827028224847
 31
0.0
  0
LINE
  5
159
330
A
100
AcDbEntity
  8
11
  6
Continuous
 62
    92
100
AcDbLine
 10
340.8980101211041
 20
455.1827028224847
 30
0.0
 11
340.9433765635041
 21
455.1125540736848
 31
0.0
  0
LINE
  5
15A
330
A
100
AcDbEntity
  8
11
  6
Continuous
 62
    92
100
AcDbLine
 10
340.9433765635041
 20
455.1125540736848
 30
0.0
 11
340.9842587350041
 21
455.0397692314848
 31
0.0
  0
LINE
  5
15B
330
A
100
AcDbEntity
  8
11
  6
Continuous
 62
    92
100
AcDbLine
 10
340.9842587350041
 20
455.0397692314848
 30
0.0
 11
341.0204819606041
 21
454.9648155742848
 31
0.0
  0
LINE
  5
15C
330
A
100
AcDbEntity
  8
11
  6
Continuous
 62
    92
100
AcDbLine
 10
341.0204819606041
 20
454.9648155742848
 30
0.0
 11
341.0519300164041
 21
454.8881747850848
 31
0.0
  0
LINE
  5
15D
330
A
100
AcDbEntity
  8
11
  6
Continuous
 62
    92
100
AcDbLine
 10
341.5559374827041
 20
454.2501669146847
 30
0.0
 11
341.6174665380041
 21
454.2126774976848
 31
0.0
  0
LINE
  5
15E
330
A
100
AcDbEntity
  8
11
  6
Continuous
 62
    92
100
AcDbLine
 10
341.6174665380041
 20
454.2126774976848
 30
0.0
 11
341.6854360541041
 21
454.1786938799847
 31
0.0
  0
LINE
  5
15F
330
A
100
AcDbEntity
  8
11
  6
Continuous
 62
    92
100
AcDbLine
 10
341.6854360541041
 20
454.1786938799847
 30
0.0
 11
341.7598599507041
 21
454.1481994362848
 31
0.0
  0
LINE
  5
160
330
A
100
AcDbEntity
  8
11
  6
Continuous
 62
    92
100
AcDbLine
 10
341.7598599507041
 20
454.1481994362848
 30
0.0
 11
341.8407684566041
 21
454.1211738279848
 31
0.0
  0
LINE
  5
161
330
A
100
AcDbEntity
  8
11
  6
Continuous
 62
    92
100
AcDbLine
 10
341.8407684566041
 20
454.1211738279848
 30
0.0
 11
341.9281984842041
 21
454.0976003421848
 31
0.0
  0
LINE
  5
162
330
A
100
AcDbEntity
  8
11
  6
Continuous
 62
    92
100
AcDbLine
 10
341.9281984842041
 20
454.0976003421848
 30
0.0
 11
342.0221936849041
 21
454.0774658582848
 31
0.0
  0
LINE
  5
163
330
A
100
AcDbEntity
  8
11
  6
Continuous
 62
    92
100
AcDbLine
 10
342.0221936849041
 20
454.0774658582848
 30
0.0
 11
342.1228045210041
 21
454.0607608235847
 31
0.0
  0
LINE
  5
164
330
A
100
AcDbEntity
  8
11
  6
Continuous
 62
    92
100
AcDbLine
 10
342.1228045210041
 20
454.0607608235847
 30
0.0
 11
342.230088356904
 21
454.0474792382847
 31
0.0
  0
LINE
  5
165
330
A
100
AcDbEntity
  8
11
  6
Continuous
 62
    92
100
AcDbLine
 10
342.230088356904
 20
454.0474792382847
 30
0.0
 11
342.3441095664041
 21
454.0376186497848
 31
0.0
  0
LINE
  5
166
330
A
100
AcDbEntity
  8
11
  6
Continuous
 62
    92
100
AcDbLine
 10
342.3441095664041
 20
454.0376186497848
 30
0.0
 11
342.4649396600041
 21
454.0311801561847
 31
0.0
  0
LINE
  5
167
330
A
100
AcDbEntity
  8
11
  6
Continuous
 62
    92
100
AcDbLine
 10
344.387928551604
 20
452.9141757616848
 30
0.0
 11
344.4638044383041
 21
452.7991811601848
 31
0.0
  0
LINE
  5
168
330
A
100
AcDbEntity
  8
11
  6
Continuous
 62
    92
100
AcDbLine
 10
344.4638044383041
 20
452.7991811601848
 30
0.0
 11
344.546488151504
 21
452.6882396857848
 31
0.0
  0
LINE
  5
169
330
A
100
AcDbEntity
  8
11
  6
Continuous
 62
    92
100
AcDbLine
 10
344.546488151504
 20
452.6882396857848
 30
0.0
 11
344.635670986704
 21
452.5820076380847
 31
0.0
  0
LINE
  5
16A
330
A
100
AcDbEntity
  8
11
  6
Continuous
 62
    92
100
AcDbLine
 10
344.635670986704
 20
452.5820076380847
 30
0.0
 11
344.7309693903041
 21
452.4811055900848
 31
0.0
  0
LINE
  5
16B
330
A
100
AcDbEntity
  8
11
  6
Continuous
 62
    92
100
AcDbLine
 10
344.7309693903041
 20
452.4811055900848
 30
0.0
 11
344.8319300467041
 21
452.3861067163847
 31
0.0
  0
LINE
  5
16C
330
A
100
AcDbEntity
  8
11
  6
Continuous
 62
    92
100
AcDbLine
 10
344.8319300467041
 20
452.3861067163847
 30
0.0
 11
344.9380369084041
 21
452.2975261230848
 31
0.0
  0
LINE
  5
16D
330
A
100
AcDbEntity
  8
11
  6
Continuous
 62
    92
100
AcDbLine
 10
344.9380369084041
 20
452.2975261230848
 30
0.0
 11
345.0487199434041
 21
452.2158115876847
 31
0.0
  0
LINE
  5
16E
330
A
100
AcDbEntity
  8
11
  6
Continuous
 62
    92
100
AcDbLine
 10
345.0487199434041
 20
452.2158115876847
 30
0.0
 11
345.163365293304
 21
452.1413360577848
 31
0.0
  0
LINE
  5
16F
330
A
100
AcDbEntity
  8
11
  6
Continuous
 62
    92
100
AcDbLine
 10
345.163365293304
 20
452.1413360577848
 30
0.0
 11
345.2813264630041
 21
452.0743921691848
 31
0.0
  0
LINE
  5
170
330
A
100
AcDbEntity
  8
11
  6
Continuous
 62
    92
100
AcDbLine
 10
345.2813264630041
 20
452.0743921691848
 30
0.0
 11
345.4019361200041
 21
452.0151889452848
 31
0.0
  0
LINE
  5
171
330
A
100
AcDbEntity
  8
11
  6
Continuous
 62
    92
100
AcDbLine
 10
345.4019361200041
 20
452.0151889452848
 30
0.0
 11
345.4851207758041
 21
451.9797043500848
 31
0.0
  0
LINE
  5
172
330
A
100
AcDbEntity
  8
11
  6
Continuous
 62
    92
100
AcDbLine
 10
345.4851207758041
 20
451.9797043500848
 30
0.0
 11
345.5721901524041
 21
451.9474149884848
 31
0.0
  0
LINE
  5
173
330
A
100
AcDbEntity
  8
11
  6
Continuous
 62
    92
100
AcDbLine
 10
345.5721901524041
 20
451.9474149884848
 30
0.0
 11
345.6630477309041
 21
451.9183779689847
 31
0.0
  0
LINE
  5
174
330
A
100
AcDbEntity
  8
11
  6
Continuous
 62
    92
100
AcDbLine
 10
345.6630477309041
 20
451.9183779689847
 30
0.0
 11
345.7575865259041
 21
451.8926421496847
 31
0.0
  0
LINE
  5
175
330
A
100
AcDbEntity
  8
11
  6
Continuous
 62
    92
100
AcDbLine
 10
345.7575865259041
 20
451.8926421496847
 30
0.0
 11
345.8556894964041
 21
451.8702478791848
 31
0.0
  0
LINE
  5
176
330
A
100
AcDbEntity
  8
11
  6
Continuous
 62
    92
100
AcDbLine
 10
345.8556894964041
 20
451.8702478791848
 30
0.0
 11
345.9572300260041
 21
451.8512267916848
 31
0.0
  0
LINE
  5
177
330
A
100
AcDbEntity
  8
11
  6
Continuous
 62
    92
100
AcDbLine
 10
345.9572300260041
 20
451.8512267916848
 30
0.0
 11
346.0620724665041
 21
451.8356016588848
 31
0.0
  0
LINE
  5
178
330
A
100
AcDbEntity
  8
11
  6
Continuous
 62
    92
100
AcDbLine
 10
346.0620724665041
 20
451.8356016588848
 30
0.0
 11
346.1700727415041
 21
451.8233863001848
 31
0.0
  0
LINE
  5
179
330
A
100
AcDbEntity
  8
11
  6
Continuous
 62
    92
100
AcDbLine
 10
346.1700727415041
 20
451.8233863001848
 30
0.0
 11
346.2810790030041
 21
451.8145855513848
 31
0.0
  0
LINE
  5
17A
330
A
100
AcDbEntity
  8
11
  6
Continuous
 62
    92
100
AcDbLine
 10
346.2810790030041
 20
451.8145855513848
 30
0.0
 11
346.3949323358041
 21
451.8091952928847
 31
0.0
  0
LINE
  5
17B
330
A
100
AcDbEntity
  8
11
  6
Continuous
 62
    92
100
AcDbLine
 10
349.199940270304
 20
447.8261935838848
 30
0.0
 11
349.2652047561041
 21
447.7131484232848
 31
0.0
  0
LINE
  5
17C
330
A
100
AcDbEntity
  8
11
  6
Continuous
 62
    92
100
AcDbLine
 10
349.2652047561041
 20
447.7131484232848
 30
0.0
 11
349.3228693381041
 21
447.6088524718847
 31
0.0
  0
LINE
  5
17D
330
A
100
AcDbEntity
  8
11
  6
Continuous
 62
    92
100
AcDbLine
 10
349.3228693381041
 20
447.6088524718847
 30
0.0
 11
349.3735780450041
 21
447.5122745548848
 31
0.0
  0
LINE
  5
17E
330
A
100
AcDbEntity
  8
11
  6
Continuous
 62
    92
100
AcDbLine
 10
349.3735780450041
 20
447.5122745548848
 30
0.0
 11
349.4178493690041
 21
447.4225324305847
 31
0.0
  0
LINE
  5
17F
330
A
100
AcDbEntity
  8
11
  6
Continuous
 62
    92
100
AcDbLine
 10
349.4178493690041
 20
447.4225324305847
 30
0.0
 11
349.4560933858041
 21
447.3388657088848
 31
0.0
  0
LINE
  5
180
330
A
100
AcDbEntity
  8
11
  6
Continuous
 62
    92
100
AcDbLine
 10
349.4560933858041
 20
447.3388657088848
 30
0.0
 11
349.4886242259041
 21
447.2606142336847
 31
0.0
  0
LINE
  5
181
330
A
100
AcDbEntity
  8
11
  6
Continuous
 62
    92
100
AcDbLine
 10
349.4886242259041
 20
447.2606142336847
 30
0.0
 11
349.515668688504
 21
447.1872006261848
 31
0.0
  0
LINE
  5
182
330
A
100
AcDbEntity
  8
11
  6
Continuous
 62
    92
100
AcDbLine
 10
349.515668688504
 20
447.1872006261848
 30
0.0
 11
349.5373714969041
 21
447.1181160111847
 31
0.0
  0
LINE
  5
183
330
A
100
AcDbEntity
  8
11
  6
Continuous
 62
    92
100
AcDbLine
 10
349.5373714969041
 20
447.1181160111847
 30
0.0
 11
349.5537974504041
 21
447.0529081806847
 31
0.0
  0
LINE
  5
184
330
A
100
AcDbEntity
  8
11
  6
Continuous
 62
    92
100
AcDbLine
 10
349.5537974504041
 20
447.0529081806847
 30
0.0
 11
349.5649305047041
 21
446.9911716112847
 31
0.0
  0
LINE
  5
185
330
A
100
AcDbEntity
  8
11
  6
Continuous
 62
    92
100
AcDbLine
 10
349.447941369004
 20
446.1081760057847
 30
0.0
 11
349.4132661161041
 21
446.0201096032847
 31
0.0
  0
LINE
  5
186
330
A
100
AcDbEntity
  8
11
  6
Continuous
 62
    92
100
AcDbLine
 10
349.4132661161041
 20
446.0201096032847
 30
0.0
 11
349.383323328304
 21
445.9308796970848
 31
0.0
  0
LINE
  5
187
330
A
100
AcDbEntity
  8
11
  6
Continuous
 62
    92
100
AcDbLine
 10
349.383323328304
 20
445.9308796970848
 30
0.0
 11
349.3583338967041
 21
445.8408907594848
 31
0.0
  0
LINE
  5
188
330
A
100
AcDbEntity
  8
11
  6
Continuous
 62
    92
100
AcDbLine
 10
349.3583338967041
 20
445.8408907594848
 30
0.0
 11
349.338475753104
 21
445.7505621929848
 31
0.0
  0
LINE
  5
189
330
A
100
AcDbEntity
  8
11
  6
Continuous
 62
    92
100
AcDbLine
 10
349.338475753104
 20
445.7505621929848
 30
0.0
 11
349.3238801913041
 21
445.6603219656847
 31
0.0
  0
LINE
  5
18A
330
A
100
AcDbEntity
  8
11
  6
Continuous
 62
    92
100
AcDbLine
 10
349.3238801913041
 20
445.6603219656847
 30
0.0
 11
349.3146292283041
 21
445.5705999211848
 31
0.0
  0
LINE
  5
18B
330
A
100
AcDbEntity
  8
11
  6
Continuous
 62
    92
100
AcDbLine
 10
349.3146292283041
 20
445.5705999211848
 30
0.0
 11
349.3107541106041
 21
445.4818209807847
 31
0.0
  0
LINE
  5
18C
330
A
100
AcDbEntity
  8
11
  6
Continuous
 62
    92
100
AcDbLine
 10
349.3107541106041
 20
445.4818209807847
 30
0.0
 11
349.3122350219041
 21
445.3943984616848
 31
0.0
  0
LINE
  5
18D
330
A
100
AcDbEntity
  8
11
  6
Continuous
 62
    92
100
AcDbLine
 10
349.3122350219041
 20
445.3943984616848
 30
0.0
 11
349.3190019944041
 21
445.3087277314848
 31
0.0
  0
LINE
  5
18E
330
A
100
AcDbEntity
  8
11
  6
Continuous
 62
    92
100
AcDbLine
 10
349.3190019944041
 20
445.3087277314848
 30
0.0
 11
349.3309369744041
 21
445.2251804002847
 31
0.0
  0
LINE
  5
18F
330
A
100
AcDbEntity
  8
11
  6
Continuous
 62
    92
100
AcDbLine
 10
349.798942053204
 20
444.3801721664847
 30
0.0
 11
349.8778226522041
 21
444.3048210029847
 31
0.0
  0
LINE
  5
190
330
A
100
AcDbEntity
  8
11
  6
Continuous
 62
    92
100
AcDbLine
 10
349.8778226522041
 20
444.3048210029847
 30
0.0
 11
349.9510695510041
 21
444.2257980354847
 31
0.0
  0
LINE
  5
191
330
A
100
AcDbEntity
  8
11
  6
Continuous
 62
    92
100
AcDbLine
 10
349.9510695510041
 20
444.2257980354847
 30
0.0
 11
350.0179497264041
 21
444.1436302115847
 31
0.0
  0
LINE
  5
192
330
A
100
AcDbEntity
  8
11
  6
Continuous
 62
    92
100
AcDbLine
 10
350.0179497264041
 20
444.1436302115847
 30
0.0
 11
350.0778102899041
 21
444.0589034626848
 31
0.0
  0
LINE
  5
193
330
A
100
AcDbEntity
  8
11
  6
Continuous
 62
    92
100
AcDbLine
 10
350.0778102899041
 20
444.0589034626848
 30
0.0
 11
350.1300954565041
 21
443.9722564665848
 31
0.0
  0
LINE
  5
194
330
A
100
AcDbEntity
  8
11
  6
Continuous
 62
    92
100
AcDbLine
 10
350.1300954565041
 20
443.9722564665848
 30
0.0
 11
350.174363068404
 21
443.8843648999847
 31
0.0
  0
LINE
  5
195
330
A
100
AcDbEntity
  8
11
  6
Continuous
 62
    92
100
AcDbLine
 10
350.174363068404
 20
443.8843648999847
 30
0.0
 11
350.2102969147041
 21
443.7959239904848
 31
0.0
  0
LINE
  5
196
330
A
100
AcDbEntity
  8
11
  6
Continuous
 62
    92
100
AcDbLine
 10
350.2102969147041
 20
443.7959239904848
 30
0.0
 11
350.2377141373041
 21
443.7076303054848
 31
0.0
  0
LINE
  5
197
330
A
100
AcDbEntity
  8
11
  6
Continuous
 62
    92
100
AcDbLine
 10
350.2377141373041
 20
443.7076303054848
 30
0.0
 11
350.256567366704
 21
443.6201637715847
 31
0.0
  0
LINE
  5
198
330
A
100
AcDbEntity
  8
11
  6
Continuous
 62
    92
100
AcDbLine
 10
350.256567366704
 20
443.6201637715847
 30
0.0
 11
350.2669416131041
 21
443.5341708787848
 31
0.0
  0
LINE
  5
199
330
A
100
AcDbEntity
  8
11
  6
Continuous
 62
    92
100
AcDbLine
 10
350.2669416131041
 20
443.5341708787848
 30
0.0
 11
350.2697215973041
 21
443.4606665640847
 31
0.0
  0
LINE
  5
19A
330
A
100
AcDbEntity
  8
11
  6
Continuous
 62
    92
100
AcDbLine
 10
350.2697215973041
 20
443.4606665640847
 30
0.0
 11
350.2674465748041
 21
443.3859504615847
 31
0.0
  0
LINE
  5
19B
330
A
100
AcDbEntity
  8
11
  6
Continuous
 62
    92
100
AcDbLine
 10
350.2674465748041
 20
443.3859504615847
 30
0.0
 11
350.2600206338041
 21
443.3104609933847
 31
0.0
  0
LINE
  5
19C
330
A
100
AcDbEntity
  8
11
  6
Continuous
 62
    92
100
AcDbLine
 10
350.2600206338041
 20
443.3104609933847
 30
0.0
 11
350.2474097558041
 21
443.2346571773847
 31
0.0
  0
LINE
  5
19D
330
A
100
AcDbEntity
  8
11
  6
Continuous
 62
    92
100
AcDbLine
 10
350.2474097558041
 20
443.2346571773847
 30
0.0
 11
350.2296441349041
 21
443.1590096054848
 31
0.0
  0
LINE
  5
19E
330
A
100
AcDbEntity
  8
11
  6
Continuous
 62
    92
100
AcDbLine
 10
350.2296441349041
 20
443.1590096054848
 30
0.0
 11
350.2068185516041
 21
443.0839908349847
 31
0.0
  0
LINE
  5
19F
330
A
100
AcDbEntity
  8
11
  6
Continuous
 62
    92
100
AcDbLine
 10
350.2068185516041
 20
443.0839908349847
 30
0.0
 11
350.1790907421041
 21
443.0100655997848
 31
0.0
  0
LINE
  5
1A0
330
A
100
AcDbEntity
  8
11
  6
Continuous
 62
    92
100
AcDbLine
 10
350.1790907421041
 20
443.0100655997848
 30
0.0
 11
350.1466778198041
 21
442.9376812630848
 31
0.0
  0
LINE
  5
1A1
330
A
100
AcDbEntity
  8
11
  6
Continuous
 62
    92
100
AcDbLine
 10
350.1466778198041
 20
442.9376812630848
 30
0.0
 11
350.1098509161041
 21
442.8672589219847
 31
0.0
  0
LINE
  5
1A2
330
A
100
AcDbEntity
  8
11
  6
Continuous
 62
    92
100
AcDbLine
 10
350.1098509161041
 20
442.8672589219847
 30
0.0
 11
350.0689283075041
 21
442.7991855272848
 31
0.0
  0
LINE
  5
1A3
330
A
100
AcDbEntity
  8
11
  6
Continuous
 62
    92
100
AcDbLine
 10
349.870930260604
 20
442.0641696580847
 30
0.0
 11
349.8774946518041
 21
441.9922219282847
 31
0.0
  0
LINE
  5
1A4
330
A
100
AcDbEntity
  8
11
  6
Continuous
 62
    92
100
AcDbLine
 10
349.8774946518041
 20
441.9922219282847
 30
0.0
 11
349.8905335465041
 21
441.9177723729847
 31
0.0
  0
LINE
  5
1A5
330
A
100
AcDbEntity
  8
11
  6
Continuous
 62
    92
100
AcDbLine
 10
349.8905335465041
 20
441.9177723729847
 30
0.0
 11
349.9100654720041
 21
441.8409474870848
 31
0.0
  0
LINE
  5
1A6
330
A
100
AcDbEntity
  8
11
  6
Continuous
 62
    92
100
AcDbLine
 10
349.9100654720041
 20
441.8409474870848
 30
0.0
 11
349.9360840691041
 21
441.7618838969848
 31
0.0
  0
LINE
  5
1A7
330
A
100
AcDbEntity
  8
11
  6
Continuous
 62
    92
100
AcDbLine
 10
349.9360840691041
 20
441.7618838969848
 30
0.0
 11
349.9685579332041
 21
441.6807275643848
 31
0.0
  0
LINE
  5
1A8
330
A
100
AcDbEntity
  8
11
  6
Continuous
 62
    92
100
AcDbLine
 10
349.9685579332041
 20
441.6807275643848
 30
0.0
 11
350.0074306952041
 21
441.5976328927848
 31
0.0
  0
LINE
  5
1A9
330
A
100
AcDbEntity
  8
11
  6
Continuous
 62
    92
100
AcDbLine
 10
350.0074306952041
 20
441.5976328927848
 30
0.0
 11
350.0526213432041
 21
441.5127617506847
 31
0.0
  0
LINE
  5
1AA
330
A
100
AcDbEntity
  8
11
  6
Continuous
 62
    92
100
AcDbLine
 10
350.0526213432041
 20
441.5127617506847
 30
0.0
 11
350.1040247816041
 21
441.4262824219847
 31
0.0
  0
LINE
  5
1AB
330
A
100
AcDbEntity
  8
11
  6
Continuous
 62
    92
100
AcDbLine
 10
350.1040247816041
 20
441.4262824219847
 30
0.0
 11
350.1615126177041
 21
441.3383684990847
 31
0.0
  0
LINE
  5
1AC
330
A
100
AcDbEntity
  8
11
  6
Continuous
 62
    92
100
AcDbLine
 10
350.1615126177041
 20
441.3383684990847
 30
0.0
 11
350.2249341668041
 21
441.2491977342847
 31
0.0
  0
LINE
  5
1AD
330
A
100
AcDbEntity
  8
11
  6
Continuous
 62
    92
100
AcDbLine
 10
350.4759412469041
 20
439.3551852830848
 30
0.0
 11
350.4388089330041
 21
439.2519037377848
 31
0.0
  0
LINE
  5
1AE
330
A
100
AcDbEntity
  8
11
  6
Continuous
 62
    92
100
AcDbLine
 10
350.4388089330041
 20
439.2519037377848
 30
0.0
 11
350.407242601004
 21
439.1463141578848
 31
0.0
  0
LINE
  5
1AF
330
A
100
AcDbEntity
  8
11
  6
Continuous
 62
    92
100
AcDbLine
 10
350.407242601004
 20
439.1463141578848
 30
0.0
 11
350.381486721504
 21
439.0388835358847
 31
0.0
  0
LINE
  5
1B0
330
A
100
AcDbEntity
  8
11
  6
Continuous
 62
    92
100
AcDbLine
 10
350.381486721504
 20
439.0388835358847
 30
0.0
 11
350.3617346724041
 21
438.9301055077847
 31
0.0
  0
LINE
  5
1B1
330
A
100
AcDbEntity
  8
11
  6
Continuous
 62
    92
100
AcDbLine
 10
350.3617346724041
 20
438.9301055077847
 30
0.0
 11
350.3481246188041
 21
438.8204929809847
 31
0.0
  0
LINE
  5
1B2
330
A
100
AcDbEntity
  8
11
  6
Continuous
 62
    92
100
AcDbLine
 10
350.3481246188041
 20
438.8204929809847
 30
0.0
 11
350.3407366397041
 21
438.7105701582847
 31
0.0
  0
LINE
  5
1B3
330
A
100
AcDbEntity
  8
11
  6
Continuous
 62
    92
100
AcDbLine
 10
350.3407366397041
 20
438.7105701582847
 30
0.0
 11
350.3395912179041
 21
438.6008642142847
 31
0.0
  0
LINE
  5
1B4
330
A
100
AcDbEntity
  8
11
  6
Continuous
 62
    92
100
AcDbLine
 10
350.3395912179041
 20
438.6008642142847
 30
0.0
 11
350.3446491509041
 21
438.4918969018848
 31
0.0
  0
LINE
  5
1B5
330
A
100
AcDbEntity
  8
11
  6
Continuous
 62
    92
100
AcDbLine
 10
350.3446491509041
 20
438.4918969018848
 30
0.0
 11
350.3558128789041
 21
438.3841763661847
 31
0.0
  0
LINE
  5
1B6
330
A
100
AcDbEntity
  8
11
  6
Continuous
 62
    92
100
AcDbLine
 10
350.3558128789041
 20
438.3841763661847
 30
0.0
 11
350.3729291619041
 21
438.2781894334847
 31
0.0
  0
LINE
  5
1B7
330
A
100
AcDbEntity
  8
11
  6
Continuous
 62
    92
100
AcDbLine
 10
350.3729291619041
 20
438.2781894334847
 30
0.0
 11
350.3897336987041
 21
438.2032027448848
 31
0.0
  0
LINE
  5
1B8
330
A
100
AcDbEntity
  8
11
  6
Continuous
 62
    92
100
AcDbLine
 10
350.3897336987041
 20
438.2032027448848
 30
0.0
 11
350.4116318149041
 21
438.1260609341848
 31
0.0
  0
LINE
  5
1B9
330
A
100
AcDbEntity
  8
11
  6
Continuous
 62
    92
100
AcDbLine
 10
350.4116318149041
 20
438.1260609341848
 30
0.0
 11
350.438626208304
 21
438.0467178739848
 31
0.0
  0
LINE
  5
1BA
330
A
100
AcDbEntity
  8
11
  6
Continuous
 62
    92
100
AcDbLine
 10
350.438626208304
 20
438.0467178739848
 30
0.0
 11
350.4707263227041
 21
437.9651246423848
 31
0.0
  0
LINE
  5
1BB
330
A
100
AcDbEntity
  8
11
  6
Continuous
 62
    92
100
AcDbLine
 10
350.4707263227041
 20
437.9651246423848
 30
0.0
 11
350.5079483497041
 21
437.8812294225848
 31
0.0
  0
LINE
  5
1BC
330
A
100
AcDbEntity
  8
11
  6
Continuous
 62
    92
100
AcDbLine
 10
350.5079483497041
 20
437.8812294225848
 30
0.0
 11
350.550315253704
 21
437.7949773930848
 31
0.0
  0
LINE
  5
1BD
330
A
100
AcDbEntity
  8
11
  6
Continuous
 62
    92
100
AcDbLine
 10
350.550315253704
 20
437.7949773930848
 30
0.0
 11
350.5978568187041
 21
437.7063106084848
 31
0.0
  0
LINE
  5
1BE
330
A
100
AcDbEntity
  8
11
  6
Continuous
 62
    92
100
AcDbLine
 10
350.5978568187041
 20
437.7063106084848
 30
0.0
 11
350.6506097180041
 21
437.6151678697848
 31
0.0
  0
LINE
  5
1BF
330
A
100
AcDbEntity
  8
11
  6
Continuous
 62
    92
100
AcDbLine
 10
350.6506097180041
 20
437.6151678697848
 30
0.0
 11
350.708617606504
 21
437.5214845829848
 31
0.0
  0
LINE
  5
1C0
330
A
100
AcDbEntity
  8
11
  6
Continuous
 62
    92
100
AcDbLine
 10
350.708617606504
 20
437.5214845829848
 30
0.0
 11
350.7719312371041
 21
437.4251926073847
 31
0.0
  0
LINE
  5
1C1
330
A
100
AcDbEntity
  8
11
  6
Continuous
 62
    92
100
AcDbLine
 10
350.7719312371041
 20
432.5551974901848
 30
0.0
 11
350.708617606504
 21
432.4589272819848
 31
0.0
  0
LINE
  5
1C2
330
A
100
AcDbEntity
  8
11
  6
Continuous
 62
    92
100
AcDbLine
 10
350.708617606504
 20
432.4589272819848
 30
0.0
 11
350.6506097180041
 21
432.3652602184848
 31
0.0
  0
LINE
  5
1C3
330
A
100
AcDbEntity
  8
11
  6
Continuous
 62
    92
100
AcDbLine
 10
350.6506097180041
 20
432.3652602184848
 30
0.0
 11
350.5978568187041
 21
432.2741281824847
 31
0.0
  0
LINE
  5
1C4
330
A
100
AcDbEntity
  8
11
  6
Continuous
 62
    92
100
AcDbLine
 10
350.5978568187041
 20
432.2741281824847
 30
0.0
 11
350.550315253704
 21
432.1854665965847
 31
0.0
  0
LINE
  5
1C5
330
A
100
AcDbEntity
  8
11
  6
Continuous
 62
    92
100
AcDbLine
 10
350.550315253704
 20
432.1854665965847
 30
0.0
 11
350.5079483497041
 21
432.0992142702848
 31
0.0
  0
LINE
  5
1C6
330
A
100
AcDbEntity
  8
11
  6
Continuous
 62
    92
100
AcDbLine
 10
350.5079483497041
 20
432.0992142702848
 30
0.0
 11
350.4707263227041
 21
432.0153132598847
 31
0.0
  0
LINE
  5
1C7
330
A
100
AcDbEntity
  8
11
  6
Continuous
 62
    92
100
AcDbLine
 10
350.4707263227041
 20
432.0153132598847
 30
0.0
 11
350.438626208304
 21
431.9337087383847
 31
0.0
  0
LINE
  5
1C8
330
A
100
AcDbEntity
  8
11
  6
Continuous
 62
    92
100
AcDbLine
 10
350.438626208304
 20
431.9337087383847
 30
0.0
 11
350.4116318149041
 21
431.8543488758847
 31
0.0
  0
LINE
  5
1C9
330
A
100
AcDbEntity
  8
11
  6
Continuous
 62
    92
100
AcDbLine
 10
350.4116318149041
 20
431.8543488758847
 30
0.0
 11
350.3897336987041
 21
431.7771847302848
 31
0.0
  0
LINE
  5
1CA
330
A
100
AcDbEntity
  8
11
  6
Continuous
 62
    92
100
AcDbLine
 10
350.3897336987041
 20
431.7771847302848
 30
0.0
 11
350.3729291619041
 21
431.7021701463848
 31
0.0
  0
LINE
  5
1CB
330
A
100
AcDbEntity
  8
11
  6
Continuous
 62
    92
100
AcDbLine
 10
350.3729291619041
 20
431.7021701463848
 30
0.0
 11
350.3558128789041
 21
431.5962788855848
 31
0.0
  0
LINE
  5
1CC
330
A
100
AcDbEntity
  8
11
  6
Continuous
 62
    92
100
AcDbLine
 10
350.3558128789041
 20
431.5962788855848
 30
0.0
 11
350.3446491509041
 21
431.4886337078847
 31
0.0
  0
LINE
  5
1CD
330
A
100
AcDbEntity
  8
11
  6
Continuous
 62
    92
100
AcDbLine
 10
350.3446491509041
 20
431.4886337078847
 30
0.0
 11
350.3395912179041
 21
431.3797207381847
 31
0.0
  0
LINE
  5
1CE
330
A
100
AcDbEntity
  8
11
  6
Continuous
 62
    92
100
AcDbLine
 10
350.3395912179041
 20
431.3797207381847
 30
0.0
 11
350.3407366397041
 21
431.2700476084848
 31
0.0
  0
LINE
  5
1CF
330
A
100
AcDbEntity
  8
11
  6
Continuous
 62
    92
100
AcDbLine
 10
350.3407366397041
 20
431.2700476084848
 30
0.0
 11
350.3481246188041
 21
431.1601357588847
 31
0.0
  0
LINE
  5
1D0
330
A
100
AcDbEntity
  8
11
  6
Continuous
 62
    92
100
AcDbLine
 10
350.3481246188041
 20
431.1601357588847
 30
0.0
 11
350.3617346724041
 21
431.0505122589847
 31
0.0
  0
LINE
  5
1D1
330
A
100
AcDbEntity
  8
11
  6
Continuous
 62
    92
100
AcDbLine
 10
350.3617346724041
 20
431.0505122589847
 30
0.0
 11
350.381486721504
 21
430.9417014164848
 31
0.0
  0
LINE
  5
1D2
330
A
100
AcDbEntity
  8
11
  6
Continuous
 62
    92
100
AcDbLine
 10
350.381486721504
 20
430.9417014164848
 30
0.0
 11
350.407242601004
 21
430.8342164517847
 31
0.0
  0
LINE
  5
1D3
330
A
100
AcDbEntity
  8
11
  6
Continuous
 62
    92
100
AcDbLine
 10
350.407242601004
 20
430.8342164517847
 30
0.0
 11
350.4388089330041
 21
430.7285515139847
 31
0.0
  0
LINE
  5
1D4
330
A
100
AcDbEntity
  8
11
  6
Continuous
 62
    92
100
AcDbLine
 10
350.4388089330041
 20
430.7285515139847
 30
0.0
 11
350.4759412469041
 21
430.6251742967847
 31
0.0
  0
LINE
  5
1D5
330
A
100
AcDbEntity
  8
11
  6
Continuous
 62
    92
100
AcDbLine
 10
350.2249341668041
 20
428.7311923631848
 30
0.0
 11
350.1615126177041
 21
428.6419941865847
 31
0.0
  0
LINE
  5
1D6
330
A
100
AcDbEntity
  8
11
  6
Continuous
 62
    92
100
AcDbLine
 10
350.1615126177041
 20
428.6419941865847
 30
0.0
 11
350.1040247816041
 21
428.5540581523847
 31
0.0
  0
LINE
  5
1D7
330
A
100
AcDbEntity
  8
11
  6
Continuous
 62
    92
100
AcDbLine
 10
350.1040247816041
 20
428.5540581523847
 30
0.0
 11
350.0526213432041
 21
428.4675620911848
 31
0.0
  0
LINE
  5
1D8
330
A
100
AcDbEntity
  8
11
  6
Continuous
 62
    92
100
AcDbLine
 10
350.0526213432041
 20
428.4675620911848
 30
0.0
 11
350.0074306952041
 21
428.3826796537848
 31
0.0
  0
LINE
  5
1D9
330
A
100
AcDbEntity
  8
11
  6
Continuous
 62
    92
100
AcDbLine
 10
350.0074306952041
 20
428.3826796537848
 30
0.0
 11
349.9685579332041
 21
428.2995791613848
 31
0.0
  0
LINE
  5
1DA
330
A
100
AcDbEntity
  8
11
  6
Continuous
 62
    92
100
AcDbLine
 10
349.9685579332041
 20
428.2995791613848
 30
0.0
 11
349.9360840691041
 21
428.2184224989848
 31
0.0
  0
LINE
  5
1DB
330
A
100
AcDbEntity
  8
11
  6
Continuous
 62
    92
100
AcDbLine
 10
349.9360840691041
 20
428.2184224989848
 30
0.0
 11
349.9100654720041
 21
428.1393640655847
 31
0.0
  0
LINE
  5
1DC
330
A
100
AcDbEntity
  8
11
  6
Continuous
 62
    92
100
AcDbLine
 10
349.9100654720041
 20
428.1393640655847
 30
0.0
 11
349.8905335465041
 21
428.0625497969848
 31
0.0
  0
LINE
  5
1DD
330
A
100
AcDbEntity
  8
11
  6
Continuous
 62
    92
100
AcDbLine
 10
349.8905335465041
 20
428.0625497969848
 30
0.0
 11
349.8774946518041
 21
427.9881162729848
 31
0.0
  0
LINE
  5
1DE
330
A
100
AcDbEntity
  8
11
  6
Continuous
 62
    92
100
AcDbLine
 10
349.8774946518041
 20
427.9881162729848
 30
0.0
 11
349.870930260604
 21
427.9161899217847
 31
0.0
  0
LINE
  5
1DF
330
A
100
AcDbEntity
  8
11
  6
Continuous
 62
    92
100
AcDbLine
 10
350.0689205796041
 20
427.1811708169847
 30
0.0
 11
350.1098509161041
 21
427.1131743332848
 31
0.0
  0
LINE
  5
1E0
330
A
100
AcDbEntity
  8
11
  6
Continuous
 62
    92
100
AcDbLine
 10
350.1098509161041
 20
427.1131743332848
 30
0.0
 11
350.1466778198041
 21
427.0428102408847
 31
0.0
  0
LINE
  5
1E1
330
A
100
AcDbEntity
  8
11
  6
Continuous
 62
    92
100
AcDbLine
 10
350.1466778198041
 20
427.0428102408847
 30
0.0
 11
350.1790907421041
 21
426.9704680279848
 31
0.0
  0
LINE
  5
1E2
330
A
100
AcDbEntity
  8
11
  6
Continuous
 62
    92
100
AcDbLine
 10
350.1790907421041
 20
426.9704680279848
 30
0.0
 11
350.2068185516041
 21
426.8965682773847
 31
0.0
  0
LINE
  5
1E3
330
A
100
AcDbEntity
  8
11
  6
Continuous
 62
    92
100
AcDbLine
 10
350.2068185516041
 20
426.8965682773847
 30
0.0
 11
350.2296441349041
 21
426.8215580370847
 31
0.0
  0
LINE
  5
1E4
330
A
100
AcDbEntity
  8
11
  6
Continuous
 62
    92
100
AcDbLine
 10
350.2296441349041
 20
426.8215580370847
 30
0.0
 11
350.2474097558041
 21
426.7459019349847
 31
0.0
  0
LINE
  5
1E5
330
A
100
AcDbEntity
  8
11
  6
Continuous
 62
    92
100
AcDbLine
 10
350.2474097558041
 20
426.7459019349847
 30
0.0
 11
350.2600206338041
 21
426.6700726343848
 31
0.0
  0
LINE
  5
1E6
330
A
100
AcDbEntity
  8
11
  6
Continuous
 62
    92
100
AcDbLine
 10
350.2600206338041
 20
426.6700726343848
 30
0.0
 11
350.2674465748041
 21
426.5945410422848
 31
0.0
  0
LINE
  5
1E7
330
A
100
AcDbEntity
  8
11
  6
Continuous
 62
    92
100
AcDbLine
 10
350.2674465748041
 20
426.5945410422848
 30
0.0
 11
350.2697215973041
 21
426.5197666910848
 31
0.0
  0
LINE
  5
1E8
330
A
100
AcDbEntity
  8
11
  6
Continuous
 62
    92
100
AcDbLine
 10
350.2697215973041
 20
426.5197666910848
 30
0.0
 11
350.2669416131041
 21
426.4461887010847
 31
0.0
  0
LINE
  5
1E9
330
A
100
AcDbEntity
  8
11
  6
Continuous
 62
    92
100
AcDbLine
 10
350.2669416131041
 20
426.4461887010847
 30
0.0
 11
350.256567366704
 21
426.3601955901847
 31
0.0
  0
LINE
  5
1EA
330
A
100
AcDbEntity
  8
11
  6
Continuous
 62
    92
100
AcDbLine
 10
350.256567366704
 20
426.3601955901847
 30
0.0
 11
350.2377141373041
 21
426.2727517282847
 31
0.0
  0
LINE
  5
1EB
330
A
100
AcDbEntity
  8
11
  6
Continuous
 62
    92
100
AcDbLine
 10
350.2377141373041
 20
426.2727517282847
 30
0.0
 11
350.2102969147041
 21
426.1845040567847
 31
0.0
  0
LINE
  5
1EC
330
A
100
AcDbEntity
  8
11
  6
Continuous
 62
    92
100
AcDbLine
 10
350.2102969147041
 20
426.1845040567847
 30
0.0
 11
350.174363068404
 21
426.0961325993847
 31
0.0
  0
LINE
  5
1ED
330
A
100
AcDbEntity
  8
11
  6
Continuous
 62
    92
100
AcDbLine
 10
350.174363068404
 20
426.0961325993847
 30
0.0
 11
350.1300954565041
 21
426.0083336527848
 31
0.0
  0
LINE
  5
1EE
330
A
100
AcDbEntity
  8
11
  6
Continuous
 62
    92
100
AcDbLine
 10
350.1300954565041
 20
426.0083336527848
 30
0.0
 11
350.0778102899041
 21
425.9218018056847
 31
0.0
  0
LINE
  5
1EF
330
A
100
AcDbEntity
  8
11
  6
Continuous
 62
    92
100
AcDbLine
 10
350.0778102899041
 20
425.9218018056847
 30
0.0
 11
350.0179497264041
 21
425.8372117417848
 31
0.0
  0
LINE
  5
1F0
330
A
100
AcDbEntity
  8
11
  6
Continuous
 62
    92
100
AcDbLine
 10
350.0179497264041
 20
425.8372117417848
 30
0.0
 11
349.9510695510041
 21
425.7552008201847
 31
0.0
  0
LINE
  5
1F1
330
A
100
AcDbEntity
  8
11
  6
Continuous
 62
    92
100
AcDbLine
 10
349.9510695510041
 20
425.7552008201847
 30
0.0
 11
349.8778226522041
 21
425.6763533680848
 31
0.0
  0
LINE
  5
1F2
330
A
100
AcDbEntity
  8
11
  6
Continuous
 62
    92
100
AcDbLine
 10
349.8778226522041
 20
425.6763533680848
 30
0.0
 11
349.7989392938041
 21
425.6011874803848
 31
0.0
  0
LINE
  5
1F3
330
A
100
AcDbEntity
  8
11
  6
Continuous
 62
    92
100
AcDbLine
 10
349.3309369744041
 20
424.7551791795848
 30
0.0
 11
349.3190019944041
 21
424.6715839994847
 31
0.0
  0
LINE
  5
1F4
330
A
100
AcDbEntity
  8
11
  6
Continuous
 62
    92
100
AcDbLine
 10
349.3190019944041
 20
424.6715839994847
 30
0.0
 11
349.3122350219041
 21
424.5858755838848
 31
0.0
  0
LINE
  5
1F5
330
A
100
AcDbEntity
  8
11
  6
Continuous
 62
    92
100
AcDbLine
 10
349.3122350219041
 20
424.5858755838848
 30
0.0
 11
349.3107541106041
 21
424.4984258908847
 31
0.0
  0
LINE
  5
1F6
330
A
100
AcDbEntity
  8
11
  6
Continuous
 62
    92
100
AcDbLine
 10
349.3107541106041
 20
424.4984258908847
 30
0.0
 11
349.3146292283041
 21
424.4096305426848
 31
0.0
  0
LINE
  5
1F7
330
A
100
AcDbEntity
  8
11
  6
Continuous
 62
    92
100
AcDbLine
 10
349.3146292283041
 20
424.4096305426848
 30
0.0
 11
349.3238801913041
 21
424.3199030115847
 31
0.0
  0
LINE
  5
1F8
330
A
100
AcDbEntity
  8
11
  6
Continuous
 62
    92
100
AcDbLine
 10
349.3238801913041
 20
424.3199030115847
 30
0.0
 11
349.338475753104
 21
424.2296682709848
 31
0.0
  0
LINE
  5
1F9
330
A
100
AcDbEntity
  8
11
  6
Continuous
 62
    92
100
AcDbLine
 10
349.338475753104
 20
424.2296682709848
 30
0.0
 11
349.3583338967041
 21
424.1393561122848
 31
0.0
  0
LINE
  5
1FA
330
A
100
AcDbEntity
  8
11
  6
Continuous
 62
    92
100
AcDbLine
 10
349.3583338967041
 20
424.1393561122848
 30
0.0
 11
349.383323328304
 21
424.0493943483848
 31
0.0
  0
LINE
  5
1FB
330
A
100
AcDbEntity
  8
11
  6
Continuous
 62
    92
100
AcDbLine
 10
349.383323328304
 20
424.0493943483848
 30
0.0
 11
349.4132661161041
 21
423.9602021275848
 31
0.0
  0
LINE
  5
1FC
330
A
100
AcDbEntity
  8
11
  6
Continuous
 62
    92
100
AcDbLine
 10
349.4132661161041
 20
423.9602021275848
 30
0.0
 11
349.447941369004
 21
423.8721835741848
 31
0.0
  0
LINE
  5
1FD
330
A
100
AcDbEntity
  8
11
  6
Continuous
 62
    92
100
AcDbLine
 10
349.5649296366041
 20
422.9891816754848
 30
0.0
 11
349.5537974504041
 21
422.9274459163848
 31
0.0
  0
LINE
  5
1FE
330
A
100
AcDbEntity
  8
11
  6
Continuous
 62
    92
100
AcDbLine
 10
349.5537974504041
 20
422.9274459163848
 30
0.0
 11
349.5373714969041
 21
422.8622345731848
 31
0.0
  0
LINE
  5
1FF
330
A
100
AcDbEntity
  8
11
  6
Continuous
 62
    92
100
AcDbLine
 10
349.5373714969041
 20
422.8622345731848
 30
0.0
 11
349.515668688504
 21
422.7931483359848
 31
0.0
  0
LINE
  5
200
330
A
100
AcDbEntity
  8
11
  6
Continuous
 62
    92
100
AcDbLine
 10
349.515668688504
 20
422.7931483359848
 30
0.0
 11
349.4886242259041
 21
422.7197349485847
 31
0.0
  0
LINE
  5
201
330
A
100
AcDbEntity
  8
11
  6
Continuous
 62
    92
100
AcDbLine
 10
349.4886242259041
 20
422.7197349485847
 30
0.0
 11
349.4560933858041
 21
422.6414855164848
 31
0.0
  0
LINE
  5
202
330
A
100
AcDbEntity
  8
11
  6
Continuous
 62
    92
100
AcDbLine
 10
349.4560933858041
 20
422.6414855164848
 30
0.0
 11
349.4178493690041
 21
422.5578226693848
 31
0.0
  0
LINE
  5
203
330
A
100
AcDbEntity
  8
11
  6
Continuous
 62
    92
100
AcDbLine
 10
349.4178493690041
 20
422.5578226693848
 30
0.0
 11
349.3735780450041
 21
422.4680862876848
 31
0.0
  0
LINE
  5
204
330
A
100
AcDbEntity
  8
11
  6
Continuous
 62
    92
100
AcDbLine
 10
349.3735780450041
 20
422.4680862876848
 30
0.0
 11
349.3228693381041
 21
422.3715160473847
 31
0.0
  0
LINE
  5
205
330
A
100
AcDbEntity
  8
11
  6
Continuous
 62
    92
100
AcDbLine
 10
349.3228693381041
 20
422.3715160473847
 30
0.0
 11
349.2652047561041
 21
422.2672298035847
 31
0.0
  0
LINE
  5
206
330
A
100
AcDbEntity
  8
11
  6
Continuous
 62
    92
100
AcDbLine
 10
349.2652047561041
 20
422.2672298035847
 30
0.0
 11
349.199940270304
 21
422.1541965135847
 31
0.0
  0
LINE
  5
207
330
A
100
AcDbEntity
  8
11
  6
Continuous
 62
    92
100
AcDbLine
 10
346.3949323358041
 20
418.1711948045848
 30
0.0
 11
346.2810790030041
 21
418.1656790287847
 31
0.0
  0
LINE
  5
208
330
A
100
AcDbEntity
  8
11
  6
Continuous
 62
    92
100
AcDbLine
 10
346.2810790030041
 20
418.1656790287847
 30
0.0
 11
346.1700727415041
 21
418.1567796331847
 31
0.0
  0
LINE
  5
209
330
A
100
AcDbEntity
  8
11
  6
Continuous
 62
    92
100
AcDbLine
 10
346.1700727415041
 20
418.1567796331847
 30
0.0
 11
346.0620724665041
 21
418.1444927513847
 31
0.0
  0
LINE
  5
20A
330
A
100
AcDbEntity
  8
11
  6
Continuous
 62
    92
100
AcDbLine
 10
346.0620724665041
 20
418.1444927513847
 30
0.0
 11
345.9572300260041
 21
418.1288234023847
 31
0.0
  0
LINE
  5
20B
330
A
100
AcDbEntity
  8
11
  6
Continuous
 62
    92
100
AcDbLine
 10
345.9572300260041
 20
418.1288234023847
 30
0.0
 11
345.8556894964041
 21
418.1097855175847
 31
0.0
  0
LINE
  5
20C
330
A
100
AcDbEntity
  8
11
  6
Continuous
 62
    92
100
AcDbLine
 10
345.8556894964041
 20
418.1097855175847
 30
0.0
 11
345.7575865259041
 21
418.0874019087847
 31
0.0
  0
LINE
  5
20D
330
A
100
AcDbEntity
  8
11
  6
Continuous
 62
    92
100
AcDbLine
 10
345.7575865259041
 20
418.0874019087847
 30
0.0
 11
345.6630477309041
 21
418.0617041781848
 31
0.0
  0
LINE
  5
20E
330
A
100
AcDbEntity
  8
11
  6
Continuous
 62
    92
100
AcDbLine
 10
345.6630477309041
 20
418.0617041781848
 30
0.0
 11
345.5721901524041
 21
418.0327325701847
 31
0.0
  0
LINE
  5
20F
330
A
100
AcDbEntity
  8
11
  6
Continuous
 62
    92
100
AcDbLine
 10
345.5721901524041
 20
418.0327325701847
 30
0.0
 11
345.4851207758041
 21
418.0005357679847
 31
0.0
  0
LINE
  5
210
330
A
100
AcDbEntity
  8
11
  6
Continuous
 62
    92
100
AcDbLine
 10
345.4851207758041
 20
418.0005357679847
 30
0.0
 11
345.4019361200041
 21
417.9651706346848
 31
0.0
  0
LINE
  5
211
330
A
100
AcDbEntity
  8
11
  6
Continuous
 62
    92
100
AcDbLine
 10
345.4019361200041
 20
417.9651706346848
 30
0.0
 11
345.2813264630041
 21
417.9060362889847
 31
0.0
  0
LINE
  5
212
330
A
100
AcDbEntity
  8
11
  6
Continuous
 62
    92
100
AcDbLine
 10
345.2813264630041
 20
417.9060362889847
 30
0.0
 11
345.163365293304
 21
417.8391467183847
 31
0.0
  0
LINE
  5
213
330
A
100
AcDbEntity
  8
11
  6
Continuous
 62
    92
100
AcDbLine
 10
345.163365293304
 20
417.8391467183847
 30
0.0
 11
345.0487199434041
 21
417.7647103940847
 31
0.0
  0
LINE
  5
214
330
A
100
AcDbEntity
  8
11
  6
Continuous
 62
    92
100
AcDbLine
 10
345.0487199434041
 20
417.7647103940847
 30
0.0
 11
344.9380369084041
 21
417.6830195469848
 31
0.0
  0
LINE
  5
215
330
A
100
AcDbEntity
  8
11
  6
Continuous
 62
    92
100
AcDbLine
 10
344.9380369084041
 20
417.6830195469848
 30
0.0
 11
344.8319300467041
 21
417.5944468774847
 31
0.0
  0
LINE
  5
216
330
A
100
AcDbEntity
  8
11
  6
Continuous
 62
    92
100
AcDbLine
 10
344.8319300467041
 20
417.5944468774847
 30
0.0
 11
344.7309693903041
 21
417.4994400799847
 31
0.0
  0
LINE
  5
217
330
A
100
AcDbEntity
  8
11
  6
Continuous
 62
    92
100
AcDbLine
 10
344.7309693903041
 20
417.4994400799847
 30
0.0
 11
344.635670986704
 21
417.3985143436848
 31
0.0
  0
LINE
  5
218
330
A
100
AcDbEntity
  8
11
  6
Continuous
 62
    92
100
AcDbLine
 10
344.635670986704
 20
417.3985143436848
 30
0.0
 11
344.546488151504
 21
417.2922430903847
 31
0.0
  0
LINE
  5
219
330
A
100
AcDbEntity
  8
11
  6
Continuous
 62
    92
100
AcDbLine
 10
344.546488151504
 20
417.2922430903847
 30
0.0
 11
344.4638044383041
 21
417.1812472979848
 31
0.0
  0
LINE
  5
21A
330
A
100
AcDbEntity
  8
11
  6
Continuous
 62
    92
100
AcDbLine
 10
344.4638044383041
 20
417.1812472979848
 30
0.0
 11
344.387928551604
 21
417.0661838182848
 31
0.0
  0
LINE
  5
21B
330
A
100
AcDbEntity
  8
11
  6
Continuous
 62
    92
100
AcDbLine
 10
342.4649396600041
 20
415.9491794237847
 30
0.0
 11
342.3441095664041
 21
415.9427740060848
 31
0.0
  0
LINE
  5
21C
330
A
100
AcDbEntity
  8
11
  6
Continuous
 62
    92
100
AcDbLine
 10
342.3441095664041
 20
415.9427740060848
 30
0.0
 11
342.230088356904
 21
415.9329391076847
 31
0.0
  0
LINE
  5
21D
330
A
100
AcDbEntity
  8
11
  6
Continuous
 62
    92
100
AcDbLine
 10
342.230088356904
 20
415.9329391076847
 30
0.0
 11
342.1228045210041
 21
415.9196758534847
 31
0.0
  0
LINE
  5
21E
330
A
100
AcDbEntity
  8
11
  6
Continuous
 62
    92
100
AcDbLine
 10
342.1228045210041
 20
415.9196758534847
 30
0.0
 11
342.0221936849041
 21
415.9029818097848
 31
0.0
  0
LINE
  5
21F
330
A
100
AcDbEntity
  8
11
  6
Continuous
 62
    92
100
AcDbLine
 10
342.0221936849041
 20
415.9029818097848
 30
0.0
 11
341.9281984842041
 21
415.8828509882848
 31
0.0
  0
LINE
  5
220
330
A
100
AcDbEntity
  8
11
  6
Continuous
 62
    92
100
AcDbLine
 10
341.9281984842041
 20
415.8828509882848
 30
0.0
 11
341.8407684566041
 21
415.8592738400848
 31
0.0
  0
LINE
  5
221
330
A
100
AcDbEntity
  8
11
  6
Continuous
 62
    92
100
AcDbLine
 10
341.8407684566041
 20
415.8592738400848
 30
0.0
 11
341.7598599507041
 21
415.8322372407848
 31
0.0
  0
LINE
  5
222
330
A
100
AcDbEntity
  8
11
  6
Continuous
 62
    92
100
AcDbLine
 10
341.7598599507041
 20
415.8322372407848
 30
0.0
 11
341.6854360541041
 21
415.8017244659848
 31
0.0
  0
LINE
  5
223
330
A
100
AcDbEntity
  8
11
  6
Continuous
 62
    92
100
AcDbLine
 10
341.6854360541041
 20
415.8017244659848
 30
0.0
 11
341.6174665380041
 21
415.7677151581848
 31
0.0
  0
LINE
  5
224
330
A
100
AcDbEntity
  8
11
  6
Continuous
 62
    92
100
AcDbLine
 10
341.6174665380041
 20
415.7677151581848
 30
0.0
 11
341.555927819204
 21
415.7301852830848
 31
0.0
  0
LINE
  5
225
330
A
100
AcDbEntity
  8
11
  6
Continuous
 62
    92
100
AcDbLine
 10
341.0519300164041
 20
415.0921847948848
 30
0.0
 11
341.0204819606041
 21
415.0155387334847
 31
0.0
  0
LINE
  5
226
330
A
100
AcDbEntity
  8
11
  6
Continuous
 62
    92
100
AcDbLine
 10
341.0204819606041
 20
415.0155387334847
 30
0.0
 11
340.9842587350041
 21
414.9405809108847
 31
0.0
  0
LINE
  5
227
330
A
100
AcDbEntity
  8
11
  6
Continuous
 62
    92
100
AcDbLine
 10
340.9842587350041
 20
414.9405809108847
 30
0.0
 11
340.9433765635041
 21
414.8677930579848
 31
0.0
  0
LINE
  5
228
330
A
100
AcDbEntity
  8
11
  6
Continuous
 62
    92
100
AcDbLine
 10
340.9433765635041
 20
414.8677930579848
 30
0.0
 11
340.8980101211041
 21
414.7976424882847
 31
0.0
  0
LINE
  5
229
330
A
100
AcDbEntity
  8
11
  6
Continuous
 62
    92
100
AcDbLine
 10
340.8980101211041
 20
414.7976424882847
 30
0.0
 11
340.8483905084041
 21
414.7305724221848
 31
0.0
  0
LINE
  5
22A
330
A
100
AcDbEntity
  8
11
  6
Continuous
 62
    92
100
AcDbLine
 10
340.8483905084041
 20
414.7305724221848
 30
0.0
 11
340.794801491404
 21
414.6669927993848
 31
0.0
  0
LINE
  5
22B
330
A
100
AcDbEntity
  8
11
  6
Continuous
 62
    92
100
AcDbLine
 10
340.794801491404
 20
414.6669927993848
 30
0.0
 11
340.7375741286041
 21
414.6072719737848
 31
0.0
  0
LINE
  5
22C
330
A
100
AcDbEntity
  8
11
  6
Continuous
 62
    92
100
AcDbLine
 10
340.7375741286041
 20
414.6072719737848
 30
0.0
 11
340.6770799955041
 21
414.5517296406847
 31
0.0
  0
LINE
  5
22D
330
A
100
AcDbEntity
  8
11
  6
Continuous
 62
    92
100
AcDbLine
 10
340.6770799955041
 20
414.5517296406847
 30
0.0
 11
340.6137232976041
 21
414.5006312790847
 31
0.0
  0
LINE
  5
22E
330
A
100
AcDbEntity
  8
11
  6
Continuous
 62
    92
100
AcDbLine
 10
340.6137232976041
 20
414.5006312790847
 30
0.0
 11
340.5479322137041
 21
414.4541843065848
 31
0.0
  0
LINE
  5
22F
330
A
100
AcDbEntity
  8
11
  6
Continuous
 62
    92
100
AcDbLine
 10
340.5479322137041
 20
414.4541843065848
 30
0.0
 11
340.4594881986041
 21
414.4012612722848
 31
0.0
  0
LINE
  5
230
330
A
100
AcDbEntity
  8
11
  6
Continuous
 62
    92
100
AcDbLine
 10
340.4594881986041
 20
414.4012612722848
 30
0.0
 11
340.3643295537041
 21
414.3553335204847
 31
0.0
  0
LINE
  5
231
330
A
100
AcDbEntity
  8
11
  6
Continuous
 62
    92
100
AcDbLine
 10
340.3643295537041
 20
414.3553335204847
 30
0.0
 11
340.2631477942041
 21
414.3170805404848
 31
0.0
  0
LINE
  5
232
330
A
100
AcDbEntity
  8
11
  6
Continuous
 62
    92
100
AcDbLine
 10
340.2631477942041
 20
414.3170805404848
 30
0.0
 11
340.1567780717041
 21
414.2870593318847
 31
0.0
  0
LINE
  5
233
330
A
100
AcDbEntity
  8
11
  6
Continuous
 62
    92
100
AcDbLine
 10
340.1567780717041
 20
414.2870593318847
 30
0.0
 11
340.0461779479041
 21
414.2656814143848
 31
0.0
  0
LINE
  5
234
330
A
100
AcDbEntity
  8
11
  6
Continuous
 62
    92
100
AcDbLine
 10
340.0461779479041
 20
414.2656814143848
 30
0.0
 11
339.932399410104
 21
414.2531959986848
 31
0.0
  0
LINE
  5
235
330
A
100
AcDbEntity
  8
11
  6
Continuous
 62
    92
100
AcDbLine
 10
339.932399410104
 20
414.2531959986848
 30
0.0
 11
339.8165557912041
 21
414.2496806651847
 31
0.0
  0
LINE
  5
236
330
A
100
AcDbEntity
  8
11
  6
Continuous
 62
    92
100
AcDbLine
 10
339.8165557912041
 20
414.2496806651847
 30
0.0
 11
339.6997857522041
 21
414.2550402570848
 31
0.0
  0
LINE
  5
237
330
A
100
AcDbEntity
  8
11
  6
Continuous
 62
    92
100
AcDbLine
 10
339.6997857522041
 20
414.2550402570848
 30
0.0
 11
339.583216748404
 21
414.2690139724847
 31
0.0
  0
LINE
  5
238
330
A
100
AcDbEntity
  8
11
  6
Continuous
 62
    92
100
AcDbLine
 10
339.583216748404
 20
414.2690139724847
 30
0.0
 11
339.4679303827041
 21
414.2911899217848
 31
0.0
  0
LINE
  5
239
330
A
100
AcDbEntity
  8
11
  6
Continuous
 62
    92
100
AcDbLine
 10
337.7229352655041
 20
413.3241794237847
 30
0.0
 11
337.6842058227041
 21
413.2243415966847
 31
0.0
  0
LINE
  5
23A
330
A
100
AcDbEntity
  8
11
  6
Continuous
 62
    92
100
AcDbLine
 10
337.6842058227041
 20
413.2243415966847
 30
0.0
 11
337.6383433696041
 21
413.1267772810848
 31
0.0
  0
LINE
  5
23B
330
A
100
AcDbEntity
  8
11
  6
Continuous
 62
    92
100
AcDbLine
 10
337.6383433696041
 20
413.1267772810848
 30
0.0
 11
337.5855169191041
 21
413.0323399298847
 31
0.0
  0
LINE
  5
23C
330
A
100
AcDbEntity
  8
11
  6
Continuous
 62
    92
100
AcDbLine
 10
337.5855169191041
 20
413.0323399298847
 30
0.0
 11
337.5260140808041
 21
412.9418599318848
 31
0.0
  0
LINE
  5
23D
330
A
100
AcDbEntity
  8
11
  6
Continuous
 62
    92
100
AcDbLine
 10
337.5260140808041
 20
412.9418599318848
 30
0.0
 11
337.460237282804
 21
412.8561213221847
 31
0.0
  0
LINE
  5
23E
330
A
100
AcDbEntity
  8
11
  6
Continuous
 62
    92
100
AcDbLine
 10
337.460237282804
 20
412.8561213221847
 30
0.0
 11
337.3886952097041
 21
412.7758396174847
 31
0.0
  0
LINE
  5
23F
330
A
100
AcDbEntity
  8
11
  6
Continuous
 62
    92
100
AcDbLine
 10
337.3886952097041
 20
412.7758396174847
 30
0.0
 11
337.3119898042041
 21
412.7016420641847
 31
0.0
  0
LINE
  5
240
330
A
100
AcDbEntity
  8
11
  6
Continuous
 62
    92
100
AcDbLine
 10
337.3119898042041
 20
412.7016420641847
 30
0.0
 11
337.2307995239041
 21
412.6340514320848
 31
0.0
  0
LINE
  5
241
330
A
100
AcDbEntity
  8
11
  6
Continuous
 62
    92
100
AcDbLine
 10
337.2307995239041
 20
412.6340514320848
 30
0.0
 11
337.145859818304
 21
412.5734742238848
 31
0.0
  0
LINE
  5
242
330
A
100
AcDbEntity
  8
11
  6
Continuous
 62
    92
100
AcDbLine
 10
337.145859818304
 20
412.5734742238848
 30
0.0
 11
337.0579419793041
 21
412.5201938280848
 31
0.0
  0
LINE
  5
243
330
A
100
AcDbEntity
  8
11
  6
Continuous
 62
    92
100
AcDbLine
 10
337.0579419793041
 20
412.5201938280848
 30
0.0
 11
336.9922940649041
 21
412.4880645904848
 31
0.0
  0
LINE
  5
244
330
A
100
AcDbEntity
  8
11
  6
Continuous
 62
    92
100
AcDbLine
 10
336.9922940649041
 20
412.4880645904848
 30
0.0
 11
336.9193371627041
 21
412.4602988708848
 31
0.0
  0
LINE
  5
245
330
A
100
AcDbEntity
  8
11
  6
Continuous
 62
    92
100
AcDbLine
 10
336.9193371627041
 20
412.4602988708848
 30
0.0
 11
336.8388601888041
 21
412.4367049107847
 31
0.0
  0
LINE
  5
246
330
A
100
AcDbEntity
  8
11
  6
Continuous
 62
    92
100
AcDbLine
 10
336.8388601888041
 20
412.4367049107847
 30
0.0
 11
336.7505889498041
 21
412.4171314541848
 31
0.0
  0
LINE
  5
247
330
A
100
AcDbEntity
  8
11
  6
Continuous
 62
    92
100
AcDbLine
 10
336.7505889498041
 20
412.4171314541848
 30
0.0
 11
336.6541832504041
 21
412.4014647580848
 31
0.0
  0
LINE
  5
248
330
A
100
AcDbEntity
  8
11
  6
Continuous
 62
    92
100
AcDbLine
 10
336.6541832504041
 20
412.4014647580848
 30
0.0
 11
336.5492325858041
 21
412.3896264895848
 31
0.0
  0
LINE
  5
249
330
A
100
AcDbEntity
  8
11
  6
Continuous
 62
    92
100
AcDbLine
 10
336.5492325858041
 20
412.3896264895848
 30
0.0
 11
336.4352503063041
 21
412.3815724316847
 31
0.0
  0
LINE
  5
24A
330
A
100
AcDbEntity
  8
11
  6
Continuous
 62
    92
100
AcDbLine
 10
336.4352503063041
 20
412.3815724316847
 30
0.0
 11
336.3116660785041
 21
412.3772919505848
 31
0.0
  0
LINE
  5
24B
330
A
100
AcDbEntity
  8
11
  6
Continuous
 62
    92
100
AcDbLine
 10
336.3116660785041
 20
412.3772919505848
 30
0.0
 11
336.177816398504
 21
412.3768082143848
 31
0.0
  0
LINE
  5
24C
330
A
100
AcDbEntity
  8
11
  6
Continuous
 62
    92
100
AcDbLine
 10
336.177816398504
 20
412.3768082143848
 30
0.0
 11
336.0329328241041
 21
412.3801791795847
 31
0.0
  0
LINE
  5
24D
330
A
100
AcDbEntity
  8
11
  6
Continuous
 62
    92
100
AcDbLine
 10
386.3349347772041
 20
377.4901950487848
 30
0.0
 11
379.3349347772041
 21
377.4901950487848
 31
0.0
  0
LINE
  5
24E
330
A
100
AcDbEntity
  8
11
  6
Continuous
 62
    92
100
AcDbLine
 10
379.3349347772041
 20
377.4901950487848
 30
0.0
 11
344.3349347772041
 21
382.4901950487848
 31
0.0
  0
LINE
  5
24F
330
A
100
AcDbEntity
  8
11
  6
Continuous
 62
    92
100
AcDbLine
 10
344.3349347772041
 20
382.4901950487848
 30
0.0
 11
336.3339429559041
 21
382.4901950487848
 31
0.0
  0
LINE
  5
250
330
A
100
AcDbEntity
  8
11
  6
Continuous
 62
    92
100
AcDbLine
 10
336.3339429559041
 20
382.4901950487848
 30
0.0
 11
336.3339429559041
 21
412.4711825975848
 31
0.0
  0
LINE
  5
251
330
A
100
AcDbEntity
  8
11
  6
Continuous
 62
    92
100
AcDbLine
 10
336.3339429559041
 20
457.5091769823848
 30
0.0
 11
336.3339429559041
 21
487.4901950487847
 31
0.0
  0
LINE
  5
252
330
A
100
AcDbEntity
  8
11
  6
Continuous
 62
    92
100
AcDbLine
 10
336.3339429559041
 20
487.4901950487847
 30
0.0
 11
344.3349347772041
 21
487.4901950487847
 31
0.0
  0
LINE
  5
253
330
A
100
AcDbEntity
  8
11
  6
Continuous
 62
    92
100
AcDbLine
 10
344.3349347772041
 20
487.4901950487847
 30
0.0
 11
379.3349347772041
 21
492.4901950487848
 31
0.0
  0
LINE
  5
254
330
A
100
AcDbEntity
  8
11
  6
Continuous
 62
    92
100
AcDbLine
 10
379.3349347772041
 20
492.4901950487848
 30
0.0
 11
386.3349347772041
 21
492.4901950487848
 31
0.0
  0
LINE
  5
255
330
A
100
AcDbEntity
  8
11
  6
Continuous
 62
    92
100
AcDbLine
 10
336.3339429559041
 20
482.4901950487848
 30
0.0
 11
333.3339429559041
 21
482.4901950487848
 31
0.0
  0
LINE
  5
256
330
A
100
AcDbEntity
  8
11
  6
Continuous
 62
    92
100
AcDbLine
 10
333.3339429559041
 20
482.4901950487848
 30
0.0
 11
333.3339429559041
 21
444.4901950487848
 31
0.0
  0
LINE
  5
257
330
A
100
AcDbEntity
  8
11
  6
Continuous
 62
    92
100
AcDbLine
 10
333.3339429559041
 20
425.4901950487847
 30
0.0
 11
333.3339429559041
 21
387.4901950487848
 31
0.0
  0
LINE
  5
258
330
A
100
AcDbEntity
  8
11
  6
Continuous
 62
    92
100
AcDbLine
 10
333.3339429559041
 20
387.4901950487848
 30
0.0
 11
336.3339429559041
 21
387.4901950487848
 31
0.0
  0
LINE
  5
259
330
A
100
AcDbEntity
  8
11
  6
Continuous
 62
    92
100
AcDbLine
 10
341.8339429559041
 20
454.0001742967848
 30
0.0
 11
341.8339429559041
 21
447.7401950487847
 31
0.0
  0
LINE
  5
25A
330
A
100
AcDbEntity
  8
11
  6
Continuous
 62
    92
100
AcDbLine
 10
341.8339429559041
 20
447.7401950487847
 30
0.0
 11
344.8349347772041
 21
447.7401950487847
 31
0.0
  0
LINE
  5
25B
330
A
100
AcDbEntity
  8
11
  6
Continuous
 62
    92
100
AcDbLine
 10
344.8349347772041
 20
447.7401950487847
 30
0.0
 11
344.8349347772041
 21
452.2011935838848
 31
0.0
  0
LINE
  5
25C
330
A
100
AcDbEntity
  8
11
  6
Continuous
 62
    92
100
AcDbLine
 10
341.8339429559041
 20
415.9801852830847
 30
0.0
 11
341.8339429559041
 21
422.2401950487848
 31
0.0
  0
LINE
  5
25D
330
A
100
AcDbEntity
  8
11
  6
Continuous
 62
    92
100
AcDbLine
 10
341.8339429559041
 20
422.2401950487848
 30
0.0
 11
344.8349347772041
 21
422.2401950487848
 31
0.0
  0
LINE
  5
25E
330
A
100
AcDbEntity
  8
11
  6
Continuous
 62
    92
100
AcDbLine
 10
344.8349347772041
 20
422.2401950487848
 30
0.0
 11
344.8349347772041
 21
417.7791965135847
 31
0.0
  0
LINE
  5
25F
330
A
100
AcDbEntity
  8
11
  6
Continuous
 62
    92
100
AcDbLine
 10
540.3339276971041
 20
377.4901950487848
 30
0.0
 11
540.3339276971041
 21
492.4901950487848
 31
0.0
  0
LINE
  5
260
330
A
100
AcDbEntity
  8
11
  6
Continuous
 62
    92
100
AcDbLine
 10
540.3339276971041
 20
492.4901950487848
 30
0.0
 11
386.3349347772041
 21
492.4901950487848
 31
0.0
  0
LINE
  5
261
330
A
100
AcDbEntity
  8
11
  6
Continuous
 62
    92
100
AcDbLine
 10
386.3349347772041
 20
492.4901950487848
 30
0.0
 11
386.3349347772041
 21
377.4901950487848
 31
0.0
  0
LINE
  5
262
330
A
100
AcDbEntity
  8
11
  6
Continuous
 62
    92
100
AcDbLine
 10
386.3349347772041
 20
377.4901950487848
 30
0.0
 11
540.3339276971041
 21
377.4901950487848
 31
0.0
  0
LINE
  5
263
330
A
100
AcDbEntity
  8
11
  6
Continuous
 62
    92
100
AcDbLine
 10
386.3349347772041
 20
483.5561740526848
 30
0.0
 11
540.3339276971041
 21
483.5561740526848
 31
0.0
  0
LINE
  5
264
330
A
100
AcDbEntity
  8
11
  6
Continuous
 62
    92
100
AcDbLine
 10
386.3349347772041
 20
467.6241977342847
 30
0.0
 11
540.3339276971041
 21
467.6241977342847
 31
0.0
  0
LINE
  5
265
330
A
100
AcDbEntity
  8
11
  6
Continuous
 62
    92
100
AcDbLine
 10
386.3349347772041
 20
458.6841952928848
 30
0.0
 11
540.3339276971041
 21
458.6841952928848
 31
0.0
  0
LINE
  5
266
330
A
100
AcDbEntity
  8
11
  6
Continuous
 62
    92
100
AcDbLine
 10
386.3349347772041
 20
450.3051974901848
 30
0.0
 11
540.3339276971041
 21
450.3051974901848
 31
0.0
  0
LINE
  5
267
330
A
100
AcDbEntity
  8
11
  6
Continuous
 62
    92
100
AcDbLine
 10
386.3349347772041
 20
461.9311740526848
 30
0.0
 11
538.3339276971041
 21
461.9311740526848
 31
0.0
  0
LINE
  5
268
330
A
100
AcDbEntity
  8
11
  6
Continuous
 62
    92
100
AcDbLine
 10
538.3339276971041
 20
468.8941867479847
 30
0.0
 11
386.3349347772041
 21
468.8941867479847
 31
0.0
  0
LINE
  5
269
330
A
100
AcDbEntity
  8
11
  6
Continuous
 62
    92
100
AcDbLine
 10
386.3349347772041
 20
448.3021762498847
 30
0.0
 11
538.3339276971041
 21
448.3021762498847
 31
0.0
  0
LINE
  5
26A
330
A
100
AcDbEntity
  8
11
  6
Continuous
 62
    92
100
AcDbLine
 10
538.3339276971041
 20
455.2651889452848
 30
0.0
 11
386.3349347772041
 21
455.2651889452848
 31
0.0
  0
LINE
  5
26B
330
A
100
AcDbEntity
  8
11
  6
Continuous
 62
    92
100
AcDbLine
 10
344.3349347772041
 20
487.4901950487847
 30
0.0
 11
344.3349347772041
 21
453.9901950487847
 31
0.0
  0
LINE
  5
26C
330
A
100
AcDbEntity
  8
11
  6
Continuous
 62
    92
100
AcDbLine
 10
344.3349347772041
 20
453.9901950487847
 30
0.0
 11
379.3349347772041
 21
453.9901950487847
 31
0.0
  0
LINE
  5
26D
330
A
100
AcDbEntity
  8
11
  6
Continuous
 62
    92
100
AcDbLine
 10
379.3349347772041
 20
453.9901950487847
 30
0.0
 11
379.3349347772041
 21
492.4901950487848
 31
0.0
  0
LINE
  5
26E
330
A
100
AcDbEntity
  8
11
  6
Continuous
 62
    92
100
AcDbLine
 10
349.3919416131041
 20
444.9901950487848
 30
0.0
 11
336.3339429559041
 21
444.9901950487848
 31
0.0
  0
LINE
  5
26F
330
A
100
AcDbEntity
  8
11
  6
Continuous
 62
    92
100
AcDbLine
 10
336.3339429559041
 20
444.9901950487848
 30
0.0
 11
336.3339429559041
 21
444.4901950487848
 31
0.0
  0
LINE
  5
270
330
A
100
AcDbEntity
  8
11
  6
Continuous
 62
    92
100
AcDbLine
 10
336.3339429559041
 20
444.4901950487848
 30
0.0
 11
297.3339429559041
 21
444.4901950487848
 31
0.0
  0
LINE
  5
271
330
A
100
AcDbEntity
  8
11
  6
Continuous
 62
    92
100
AcDbLine
 10
297.3339429559041
 20
444.4901950487848
 30
0.0
 11
296.3339429559041
 21
443.4901950487848
 31
0.0
  0
LINE
  5
272
330
A
100
AcDbEntity
  8
11
  6
Continuous
 62
    92
100
AcDbLine
 10
296.3339429559041
 20
443.4901950487848
 30
0.0
 11
296.3339429559041
 21
426.4901950487848
 31
0.0
  0
LINE
  5
273
330
A
100
AcDbEntity
  8
11
  6
Continuous
 62
    92
100
AcDbLine
 10
296.3339429559041
 20
426.4901950487848
 30
0.0
 11
297.3339429559041
 21
425.4901950487847
 31
0.0
  0
LINE
  5
274
330
A
100
AcDbEntity
  8
11
  6
Continuous
 62
    92
100
AcDbLine
 10
297.3339429559041
 20
425.4901950487847
 30
0.0
 11
336.3339429559041
 21
425.4901950487847
 31
0.0
  0
LINE
  5
275
330
A
100
AcDbEntity
  8
11
  6
Continuous
 62
    92
100
AcDbLine
 10
336.3339429559041
 20
425.4901950487847
 30
0.0
 11
336.3339429559041
 21
424.9901950487847
 31
0.0
  0
LINE
  5
276
330
A
100
AcDbEntity
  8
11
  6
Continuous
 62
    92
100
AcDbLine
 10
336.3339429559041
 20
424.9901950487847
 30
0.0
 11
349.3919416131041
 21
424.9901950487847
 31
0.0
  0
LINE
  5
277
330
A
100
AcDbEntity
  8
11
  6
Continuous
 62
    92
100
AcDbLine
 10
336.3339429559041
 20
444.9901950487848
 30
0.0
 11
336.0349317254041
 21
444.9901950487848
 31
0.0
  0
LINE
  5
278
330
A
100
AcDbEntity
  8
11
  6
Continuous
 62
    92
100
AcDbLine
 10
336.0349317254041
 20
444.9901950487848
 30
0.0
 11
336.0349317254041
 21
447.4901950487848
 31
0.0
  0
LINE
  5
279
330
A
100
AcDbEntity
  8
11
  6
Continuous
 62
    92
100
AcDbLine
 10
336.0349317254041
 20
447.4901950487848
 30
0.0
 11
349.3849378289041
 21
447.4901950487848
 31
0.0
  0
LINE
  5
27A
330
A
100
AcDbEntity
  8
11
  6
Continuous
 62
    92
100
AcDbLine
 10
336.3339429559041
 20
424.9901950487847
 30
0.0
 11
336.0349317254041
 21
424.9901950487847
 31
0.0
  0
LINE
  5
27B
330
A
100
AcDbEntity
  8
11
  6
Continuous
 62
    92
100
AcDbLine
 10
336.0349317254041
 20
424.9901950487847
 30
0.0
 11
336.0349317254041
 21
422.4901950487848
 31
0.0
  0
LINE
  5
27C
330
A
100
AcDbEntity
  8
11
  6
Continuous
 62
    92
100
AcDbLine
 10
336.0349317254041
 20
422.4901950487848
 30
0.0
 11
349.3849378289041
 21
422.4901950487848
 31
0.0
  0
LINE
  5
27D
330
A
100
AcDbEntity
  8
11
  6
Continuous
 62
    92
100
AcDbLine
 10
336.3339429559041
 20
444.4901950487848
 30
0.0
 11
336.3339429559041
 21
425.4901950487847
 31
0.0
  0
LINE
  5
27E
330
A
100
AcDbEntity
  8
11
  6
Continuous
 62
    92
100
AcDbLine
 10
328.3339429559041
 20
431.9901950487848
 30
0.0
 11
302.3339429559041
 21
431.9901950487848
 31
0.0
  0
LINE
  5
27F
330
A
100
AcDbEntity
  8
11
  6
Continuous
 62
    92
100
AcDbLine
 10
302.3339429559041
 20
437.9901950487847
 30
0.0
 11
328.3339429559041
 21
437.9901950487847
 31
0.0
  0
LINE
  5
280
330
A
100
AcDbEntity
  8
11
  6
Continuous
 62
    92
100
AcDbLine
 10
297.3339429559041
 20
444.4901950487848
 30
0.0
 11
297.3339429559041
 21
425.4901950487847
 31
0.0
  0
LINE
  5
281
330
A
100
AcDbEntity
  8
11
  6
Continuous
 62
    92
100
AcDbLine
 10
386.3349347772041
 20
483.5561740526848
 30
0.0
 11
379.3349347772041
 21
483.5561740526848
 31
0.0
  0
LINE
  5
282
330
A
100
AcDbEntity
  8
11
  6
Continuous
 62
    92
100
AcDbLine
 10
386.3349347772041
 20
386.4241855272848
 30
0.0
 11
379.3349347772041
 21
386.4241855272848
 31
0.0
  0
LINE
  5
283
330
A
100
AcDbEntity
  8
11
  6
Continuous
 62
    92
100
AcDbLine
 10
336.3339429559041
 20
483.5561740526848
 30
0.0
 11
344.3349347772041
 21
483.5561740526848
 31
0.0
  0
LINE
  5
284
330
A
100
AcDbEntity
  8
11
  6
Continuous
 62
    92
100
AcDbLine
 10
344.3349347772041
 20
386.4241855272848
 30
0.0
 11
336.3339429559041
 21
386.4241855272848
 31
0.0
  0
LINE
  5
285
330
A
100
AcDbEntity
  8
11
  6
CENTERX2
 62
    92
100
AcDbLine
 10
287.5050092401041
 20
434.9901950487848
 30
0.0
 11
383.7367902459041
 21
434.9901950487848
 31
0.0
  0
LINE
  5
286
330
A
100
AcDbEntity
  8
11
  6
CENTERX2
 62
    92
100
AcDbLine
 10
467.4505963983041
 20
434.9901950487848
 30
0.0
 11
604.6569257440041
 21
434.9901950487848
 31
0.0
  0
LINE
  5
287
330
A
100
AcDbEntity
  8
11
  6
CENTERX2
 62
    92
100
AcDbLine
 10
604.6569257440041
 20
434.9901950487848
 30
0.0
 11
621.5779157342041
 21
434.9901950487848
 31
0.0
  0
LINE
  5
288
330
A
100
AcDbEntity
  8
11
  6
Continuous
 62
    92
100
AcDbLine
 10
344.3349347772041
 20
382.4901950487848
 30
0.0
 11
344.3349347772041
 21
415.9901950487848
 31
0.0
  0
LINE
  5
289
330
A
100
AcDbEntity
  8
11
  6
Continuous
 62
    92
100
AcDbLine
 10
344.3349347772041
 20
415.9901950487848
 30
0.0
 11
379.3349347772041
 21
415.9901950487848
 31
0.0
  0
LINE
  5
28A
330
A
100
AcDbEntity
  8
11
  6
Continuous
 62
    92
100
AcDbLine
 10
379.3349347772041
 20
415.9901950487848
 30
0.0
 11
379.3349347772041
 21
377.4901950487848
 31
0.0
  0
LINE
  5
28B
330
A
100
AcDbEntity
  8
11
  6
Continuous
 62
    92
100
AcDbLine
 10
603.3339276971041
 20
492.4901950487848
 30
0.0
 11
608.3349347772041
 21
492.4901950487848
 31
0.0
  0
LINE
  5
28C
330
A
100
AcDbEntity
  8
11
  6
Continuous
 62
    92
100
AcDbLine
 10
608.3349347772041
 20
492.4901950487848
 30
0.0
 11
608.3349347772041
 21
483.5561740526848
 31
0.0
  0
LINE
  5
28D
330
A
100
AcDbEntity
  8
11
  6
Continuous
 62
    92
100
AcDbLine
 10
608.3349347772041
 20
483.5561740526848
 30
0.0
 11
603.3339276971041
 21
483.5561740526848
 31
0.0
  0
LINE
  5
28E
330
A
100
AcDbEntity
  8
11
  6
Continuous
 62
    92
100
AcDbLine
 10
603.3339276971041
 20
483.5561740526848
 30
0.0
 11
603.3339276971041
 21
386.4241855272848
 31
0.0
  0
LINE
  5
28F
330
A
100
AcDbEntity
  8
11
  6
Continuous
 62
    92
100
AcDbLine
 10
603.3339276971041
 20
386.4241855272848
 30
0.0
 11
608.3349347772041
 21
386.4241855272848
 31
0.0
  0
LINE
  5
290
330
A
100
AcDbEntity
  8
11
  6
Continuous
 62
    92
100
AcDbLine
 10
608.3349347772041
 20
386.4241855272848
 30
0.0
 11
608.3349347772041
 21
377.4901950487848
 31
0.0
  0
LINE
  5
291
330
A
100
AcDbEntity
  8
11
  6
Continuous
 62
    92
100
AcDbLine
 10
608.3349347772041
 20
377.4901950487848
 30
0.0
 11
603.3339276971041
 21
377.4901950487848
 31
0.0
  0
LINE
  5
292
330
A
100
AcDbEntity
  8
11
  6
Continuous
 62
    92
100
AcDbLine
 10
540.3339276971041
 20
392.3171908983848
 30
0.0
 11
540.3339276971041
 21
392.1001804002847
 31
0.0
  0
LINE
  5
293
330
A
100
AcDbEntity
  8
11
  6
Continuous
 62
    92
100
AcDbLine
 10
540.3339276971041
 20
377.4901950487848
 30
0.0
 11
581.3339276971041
 21
377.4901950487848
 31
0.0
  0
LINE
  5
294
330
A
100
AcDbEntity
  8
11
  6
Continuous
 62
    92
100
AcDbLine
 10
581.3339276971041
 20
377.4901950487848
 30
0.0
 11
581.3339276971041
 21
492.4901950487848
 31
0.0
  0
LINE
  5
295
330
A
100
AcDbEntity
  8
11
  6
Continuous
 62
    92
100
AcDbLine
 10
581.3339276971041
 20
492.4901950487848
 30
0.0
 11
540.3339276971041
 21
492.4901950487848
 31
0.0
  0
LINE
  5
296
330
A
100
AcDbEntity
  8
11
  6
Continuous
 62
    92
100
AcDbLine
 10
603.3339276971041
 20
492.4901950487848
 30
0.0
 11
603.3339276971041
 21
377.4901950487848
 31
0.0
  0
LINE
  5
297
330
A
100
AcDbEntity
  8
11
  6
Continuous
 62
    92
100
AcDbLine
 10
548.3339276971041
 20
492.4901950487848
 30
0.0
 11
548.3339276971041
 21
499.4901950487848
 31
0.0
  0
LINE
  5
298
330
A
100
AcDbEntity
  8
11
  6
Continuous
 62
    92
100
AcDbLine
 10
548.3339276971041
 20
499.4901950487848
 30
0.0
 11
580.3339276971041
 21
499.4901950487848
 31
0.0
  0
LINE
  5
299
330
A
100
AcDbEntity
  8
11
  6
Continuous
 62
    92
100
AcDbLine
 10
580.3339276971041
 20
499.4901950487848
 30
0.0
 11
580.3339276971041
 21
492.4901950487848
 31
0.0
  0
LINE
  5
29A
330
A
100
AcDbEntity
  8
11
  6
Continuous
 62
    92
100
AcDbLine
 10
540.3339276971041
 20
386.4241855272848
 30
0.0
 11
581.3339276971041
 21
386.4241855272848
 31
0.0
  0
LINE
  5
29B
330
A
100
AcDbEntity
  8
11
  6
Continuous
 62
    92
100
AcDbLine
 10
540.3339276971041
 20
483.5561740526848
 30
0.0
 11
581.3339276971041
 21
483.5561740526848
 31
0.0
  0
LINE
  5
29C
330
A
100
AcDbEntity
  8
11
  6
Continuous
 62
    92
100
AcDbLine
 10
386.3349347772041
 20
386.4241855272848
 30
0.0
 11
540.3339276971041
 21
386.4241855272848
 31
0.0
  0
LINE
  5
29D
330
A
100
AcDbEntity
  8
11
  6
Continuous
 62
    92
100
AcDbLine
 10
386.3349347772041
 20
402.3561923631848
 30
0.0
 11
540.3339276971041
 21
402.3561923631848
 31
0.0
  0
LINE
  5
29E
330
A
100
AcDbEntity
  8
11
  6
Continuous
 62
    92
100
AcDbLine
 10
386.3349347772041
 20
411.2961948045848
 30
0.0
 11
540.3339276971041
 21
411.2961948045848
 31
0.0
  0
LINE
  5
29F
330
A
100
AcDbEntity
  8
11
  6
Continuous
 62
    92
100
AcDbLine
 10
386.3349347772041
 20
419.6751926073848
 30
0.0
 11
540.3339276971041
 21
419.6751926073848
 31
0.0
  0
LINE
  5
2A0
330
A
100
AcDbEntity
  8
11
  6
Continuous
 62
    92
100
AcDbLine
 10
386.3349347772041
 20
408.0491855272848
 30
0.0
 11
538.3339276971041
 21
408.0491855272848
 31
0.0
  0
LINE
  5
2A1
330
A
100
AcDbEntity
  8
11
  6
Continuous
 62
    92
100
AcDbLine
 10
538.3339276971041
 20
401.0861728319848
 30
0.0
 11
386.3349347772041
 21
401.0861728319848
 31
0.0
  0
LINE
  5
2A2
330
A
100
AcDbEntity
  8
11
  6
Continuous
 62
    92
100
AcDbLine
 10
386.3349347772041
 20
421.6771762498847
 30
0.0
 11
538.3339276971041
 21
421.6771762498847
 31
0.0
  0
LINE
  5
2A3
330
A
100
AcDbEntity
  8
11
  6
Continuous
 62
    92
100
AcDbLine
 10
538.3339276971041
 20
414.7141940721848
 30
0.0
 11
386.3349347772041
 21
414.7141940721848
 31
0.0
  0
LINE
  5
2A4
330
A
100
AcDbEntity
  8
11
  6
Continuous
 62
    92
100
AcDbLine
 10
605.3339276971041
 20
492.4901950487848
 30
0.0
 11
608.3349347772041
 21
492.4901950487848
 31
0.0
  0
LINE
  5
2A5
330
A
100
AcDbEntity
  8
11
  6
Continuous
 62
    92
100
AcDbLine
 10
608.3349347772041
 20
492.4901950487848
 30
0.0
 11
613.3339276971041
 21
487.4901950487847
 31
0.0
  0
LINE
  5
2A6
330
A
100
AcDbEntity
  8
11
  6
Continuous
 62
    92
100
AcDbLine
 10
613.3339276971041
 20
487.4901950487847
 30
0.0
 11
613.3339276971041
 21
382.4901950487848
 31
0.0
  0
LINE
  5
2A7
330
A
100
AcDbEntity
  8
11
  6
Continuous
 62
    92
100
AcDbLine
 10
613.3339276971041
 20
382.4901950487848
 30
0.0
 11
608.3349347772041
 21
377.4901950487848
 31
0.0
  0
LINE
  5
2A8
330
A
100
AcDbEntity
  8
11
  6
Continuous
 62
    92
100
AcDbLine
 10
608.3349347772041
 20
377.4901950487848
 30
0.0
 11
605.3339276971041
 21
377.4901950487848
 31
0.0
  0
LINE
  5
2A9
330
A
100
AcDbEntity
  8
11
  6
Continuous
 62
    92
100
AcDbLine
 10
608.3349347772041
 20
492.4901950487848
 30
0.0
 11
608.3349347772041
 21
377.4901950487848
 31
0.0
  0
LINE
  5
2AA
330
A
100
AcDbEntity
  8
11
  6
Continuous
 62
    92
100
AcDbLine
 10
605.3339276971041
 20
483.5561740526848
 30
0.0
 11
608.3349347772041
 21
483.5561740526848
 31
0.0
  0
LINE
  5
2AB
330
A
100
AcDbEntity
  8
11
  6
Continuous
 62
    92
100
AcDbLine
 10
605.3339276971041
 20
386.4241855272848
 30
0.0
 11
608.3349347772041
 21
386.4241855272848
 31
0.0
  0
LINE
  5
2AC
330
A
100
AcDbEntity
  8
11
  6
Continuous
 62
    92
100
AcDbLine
 10
608.3349347772041
 20
392.9901950487847
 30
0.0
 11
613.3339276971041
 21
397.9901950487848
 31
0.0
  0
LINE
  5
2AD
330
A
100
AcDbEntity
  8
11
  6
Continuous
 62
    92
100
AcDbLine
 10
608.3349347772041
 20
476.9901950487848
 30
0.0
 11
613.3339276971041
 21
471.9901950487848
 31
0.0
  0
LINE
  5
2AE
330
A
100
AcDbEntity
  8
4
  6
Continuous
 62
    92
100
AcDbLine
 10
608.3349347772041
 20
492.4901950487848
 30
0.0
 11
642.3509259881041
 21
492.4901950487848
 31
0.0
  0
LINE
  5
2AF
330
A
100
AcDbEntity
  8
4
  6
Continuous
 62
    92
100
AcDbLine
 10
608.3349347772041
 20
377.4901950487848
 30
0.0
 11
642.3509259881041
 21
377.4901950487848
 31
0.0
  0
LINE
  5
2B0
330
A
100
AcDbEntity
  8
4
 62
    92
100
AcDbLine
 10
642.3509259881041
 20
377.4901950487848
 30
0.0
 11
643.150925988104
 21
379.8901950487847
 31
0.0
  0
LINE
  5
2B1
330
A
100
AcDbEntity
  8
4
 62
    92
100
AcDbLine
 10
643.150925988104
 20
379.8901950487847
 30
0.0
 11
641.5509259881041
 21
379.8901950487847
 31
0.0
  0
LINE
  5
2B2
330
A
100
AcDbEntity
  8
4
 62
    92
100
AcDbLine
 10
641.5509259881041
 20
379.8901950487847
 30
0.0
 11
642.3509259881041
 21
377.4901950487848
 31
0.0
  0
LINE
  5
2B3
330
A
100
AcDbEntity
  8
4
  6
Continuous
 62
    92
100
AcDbLine
 10
642.3509259881041
 20
377.4901950487848
 30
0.0
 11
642.3509259881041
 21
492.4901950487848
 31
0.0
  0
LINE
  5
2B4
330
A
100
AcDbEntity
  8
4
 62
    92
100
AcDbLine
 10
642.3509259881041
 20
492.4901950487848
 30
0.0
 11
641.5509259881041
 21
490.0901950487848
 31
0.0
  0
LINE
  5
2B5
330
A
100
AcDbEntity
  8
4
 62
    92
100
AcDbLine
 10
641.5509259881041
 20
490.0901950487848
 30
0.0
 11
643.150925988104
 21
490.0901950487848
 31
0.0
  0
LINE
  5
2B6
330
A
100
AcDbEntity
  8
4
 62
    92
100
AcDbLine
 10
643.150925988104
 20
490.0901950487848
 30
0.0
 11
642.3509259881041
 21
492.4901950487848
 31
0.0
  0
LINE
  5
2B7
330
A
100
AcDbEntity
  8
11
  6
Continuous
 62
    92
100
AcDbLine
 10
639.3739362420041
 20
414.3951938280848
 30
0.0
 11
631.4969220819041
 21
414.3951938280848
 31
0.0
  0
LINE
  5
2B8
330
A
100
AcDbEntity
  8
11
  6
Continuous
 62
    92
100
AcDbLine
 10
631.4969220819041
 20
414.3951938280848
 30
0.0
 11
631.4969220819041
 21
421.7991855272847
 31
0.0
  0
LINE
  5
2B9
330
A
100
AcDbEntity
  8
11
  6
Continuous
 62
    92
100
AcDbLine
 10
631.4969220819041
 20
421.7991855272847
 30
0.0
 11
639.3739362420041
 21
421.7991855272847
 31
0.0
  0
LINE
  5
2BA
330
A
100
AcDbEntity
  8
11
  6
Continuous
 62
    92
100
AcDbLine
 10
639.3739362420041
 20
421.7991855272847
 30
0.0
 11
639.3739362420041
 21
414.3951938280848
 31
0.0
  0
LINE
  5
2BB
330
A
100
AcDbEntity
  8
1
  6
Continuous
 62
    92
100
AcDbLine
 10
386.3345990838041
 20
423.4901950487848
 30
0.0
 11
386.335270470504
 21
446.4901950487848
 31
0.0
  0
LINE
  5
2BC
330
A
100
AcDbEntity
  8
1
  6
Continuous
 62
    92
100
AcDbLine
 10
388.8352704705041
 20
448.9903781541848
 30
0.0
 11
458.8352704705041
 21
448.9903781541848
 31
0.0
  0
LINE
  5
2BD
330
A
100
AcDbEntity
  8
1
  6
Continuous
 62
    92
100
AcDbLine
 10
461.3346296014041
 20
446.4901950487848
 30
0.0
 11
461.3346296014041
 21
423.4901950487848
 31
0.0
  0
LINE
  5
2BE
330
A
100
AcDbEntity
  8
1
  6
Continuous
 62
    92
100
AcDbLine
 10
458.8352704705041
 20
420.9903476366847
 30
0.0
 11
388.8352704705041
 21
420.9903476366847
 31
0.0
  0
LINE
  5
2BF
330
A
100
AcDbEntity
  8
4
 62
    92
100
AcDbLine
 10
949.383701867004
 20
434.9923617967847
 30
0.0
 11
950.1837018670041
 21
437.3923617967848
 31
0.0
  0
LINE
  5
2C0
330
A
100
AcDbEntity
  8
4
 62
    92
100
AcDbLine
 10
950.1837018670041
 20
437.3923617967848
 30
0.0
 11
948.5837018670039
 21
437.3923617967848
 31
0.0
  0
LINE
  5
2C1
330
A
100
AcDbEntity
  8
4
 62
    92
100
AcDbLine
 10
948.5837018670039
 20
437.3923617967848
 30
0.0
 11
949.383701867004
 21
434.9923617967847
 31
0.0
  0
LINE
  5
2C2
330
A
100
AcDbEntity
  8
4
  6
Continuous
 62
    92
100
AcDbLine
 10
949.383701867004
 20
434.9923617967847
 30
0.0
 11
949.383701867004
 21
531.4905307420847
 31
0.0
  0
LINE
  5
2C3
330
A
100
AcDbEntity
  8
4
 62
    92
100
AcDbLine
 10
949.383701867004
 20
531.4905307420847
 30
0.0
 11
948.5837018670039
 21
529.0905307420847
 31
0.0
  0
LINE
  5
2C4
330
A
100
AcDbEntity
  8
4
 62
    92
100
AcDbLine
 10
948.5837018670039
 20
529.0905307420847
 30
0.0
 11
950.1837018670041
 21
529.0905307420847
 31
0.0
  0
LINE
  5
2C5
330
A
100
AcDbEntity
  8
4
 62
    92
100
AcDbLine
 10
950.1837018670041
 20
529.0905307420847
 30
0.0
 11
949.383701867004
 21
531.4905307420847
 31
0.0
  0
LINE
  5
2C6
330
A
100
AcDbEntity
  8
4
  6
Continuous
 62
    92
100
AcDbLine
 10
931.383701867004
 20
434.9923617967847
 30
0.0
 11
949.383701867004
 21
434.9923617967847
 31
0.0
  0
LINE
  5
2C7
330
A
100
AcDbEntity
  8
4
  6
Continuous
 62
    92
100
AcDbLine
 10
828.883579796704
 20
531.4905307420847
 30
0.0
 11
949.383701867004
 21
531.4905307420847
 31
0.0
  0
LINE
  5
2C8
330
A
100
AcDbEntity
  8
4
 62
    92
100
AcDbLine
 10
931.383701867004
 20
434.9923617967847
 30
0.0
 11
932.183701867004
 21
437.3923617967848
 31
0.0
  0
LINE
  5
2C9
330
A
100
AcDbEntity
  8
4
 62
    92
100
AcDbLine
 10
932.183701867004
 20
437.3923617967848
 30
0.0
 11
930.583701867004
 21
437.3923617967848
 31
0.0
  0
LINE
  5
2CA
330
A
100
AcDbEntity
  8
4
 62
    92
100
AcDbLine
 10
930.583701867004
 20
437.3923617967848
 30
0.0
 11
931.383701867004
 21
434.9923617967847
 31
0.0
  0
LINE
  5
2CB
330
A
100
AcDbEntity
  8
4
  6
Continuous
 62
    92
100
AcDbLine
 10
931.383701867004
 20
434.9923617967847
 30
0.0
 11
931.383701867004
 21
524.4939792284847
 31
0.0
  0
LINE
  5
2CC
330
A
100
AcDbEntity
  8
4
 62
    92
100
AcDbLine
 10
931.383701867004
 20
524.4939792284847
 30
0.0
 11
930.583701867004
 21
522.0939792284848
 31
0.0
  0
LINE
  5
2CD
330
A
100
AcDbEntity
  8
4
 62
    92
100
AcDbLine
 10
930.583701867004
 20
522.0939792284848
 30
0.0
 11
932.183701867004
 21
522.0939792284848
 31
0.0
  0
LINE
  5
2CE
330
A
100
AcDbEntity
  8
4
 62
    92
100
AcDbLine
 10
932.183701867004
 20
522.0939792284848
 30
0.0
 11
931.383701867004
 21
524.4939792284847
 31
0.0
  0
LINE
  5
2CF
330
A
100
AcDbEntity
  8
4
  6
Continuous
 62
    92
100
AcDbLine
 10
881.3835187616041
 20
434.9923617967847
 30
0.0
 11
931.383701867004
 21
434.9923617967847
 31
0.0
  0
LINE
  5
2D0
330
A
100
AcDbEntity
  8
4
  6
Continuous
 62
    92
100
AcDbLine
 10
828.883579796704
 20
524.4939792284847
 30
0.0
 11
931.383701867004
 21
524.4939792284847
 31
0.0
  0
LINE
  5
2D1
330
A
100
AcDbEntity
  8
11
  6
Continuous
 62
    92
100
AcDbLine
 10
818.8835187616041
 20
524.4939792284847
 30
0.0
 11
818.8835187616041
 21
524.0873019823848
 31
0.0
  0
LINE
  5
2D2
330
A
100
AcDbEntity
  8
11
  6
Continuous
 62
    92
100
AcDbLine
 10
828.883579796704
 20
524.0873019823848
 30
0.0
 11
828.883579796704
 21
524.4939792284847
 31
0.0
  0
LINE
  5
2D3
330
A
100
AcDbEntity
  8
11
  6
Continuous
 62
    92
100
AcDbLine
 10
828.883579796704
 20
524.4939792284847
 30
0.0
 11
818.8835187616041
 21
524.4939792284847
 31
0.0
  0
LINE
  5
2D4
330
A
100
AcDbEntity
  8
11
  6
Continuous
 62
    92
100
AcDbLine
 10
811.883579796704
 20
494.8940341600848
 30
0.0
 11
811.883579796704
 21
508.4937656053847
 31
0.0
  0
LINE
  5
2D5
330
A
100
AcDbEntity
  8
11
  6
Continuous
 62
    92
100
AcDbLine
 10
835.883640831904
 20
494.8940341600848
 30
0.0
 11
835.883640831904
 21
508.4940402635847
 31
0.0
  0
LINE
  5
2D6
330
A
100
AcDbEntity
  8
11
  6
CENTERX2
 62
    92
100
AcDbLine
 10
823.8835797967041
 20
526.0990817674848
 30
0.0
 11
823.8835797967041
 21
491.1099765428848
 31
0.0
  0
LINE
  5
2D7
330
A
100
AcDbEntity
  8
11
  6
CENTERX2
 62
    92
100
AcDbLine
 10
837.3835797967041
 20
511.9939792284847
 30
0.0
 11
810.3834577264041
 21
511.9939792284847
 31
0.0
  0
LINE
  5
2D8
330
A
100
AcDbEntity
  8
11
  6
Continuous
 62
    92
100
AcDbLine
 10
836.3835187616041
 20
492.4939792284847
 30
0.0
 11
811.3834577264041
 21
492.4939792284847
 31
0.0
  0
LINE
  5
2D9
330
A
100
AcDbEntity
  8
11
  6
Continuous
 62
    92
100
AcDbLine
 10
811.3834577264041
 20
492.4939792284847
 30
0.0
 11
811.3834577264041
 21
494.8940341600848
 31
0.0
  0
LINE
  5
2DA
330
A
100
AcDbEntity
  8
11
  6
Continuous
 62
    92
100
AcDbLine
 10
811.3834577264041
 20
494.8940341600848
 30
0.0
 11
836.3835187616041
 21
494.8940341600848
 31
0.0
  0
LINE
  5
2DB
330
A
100
AcDbEntity
  8
11
  6
Continuous
 62
    92
100
AcDbLine
 10
836.3835187616041
 20
494.8940341600848
 30
0.0
 11
836.3835187616041
 21
492.4939792284847
 31
0.0
  0
LINE
  5
2DC
330
A
100
AcDbEntity
  8
11
  6
Continuous
 62
    92
100
AcDbLine
 10
818.883457726404
 20
531.0838534959848
 30
0.0
 11
818.8835187616041
 21
531.4905307420847
 31
0.0
  0
LINE
  5
2DD
330
A
100
AcDbEntity
  8
11
  6
Continuous
 62
    92
100
AcDbLine
 10
818.8835187616041
 20
531.4905307420847
 30
0.0
 11
828.883579796704
 21
531.4905307420847
 31
0.0
  0
LINE
  5
2DE
330
A
100
AcDbEntity
  8
11
  6
Continuous
 62
    92
100
AcDbLine
 10
828.883579796704
 20
531.4905307420847
 30
0.0
 11
828.883579796704
 21
531.0838534959848
 31
0.0
  0
LINE
  5
2DF
330
A
100
AcDbEntity
  8
11
  6
Continuous
 62
    92
100
AcDbLine
 10
818.8835187616041
 20
531.4905307420847
 30
0.0
 11
818.8835187616041
 21
524.0873019823848
 31
0.0
  0
LINE
  5
2E0
330
A
100
AcDbEntity
  8
11
  6
Continuous
 62
    92
100
AcDbLine
 10
828.883579796704
 20
531.4905307420847
 30
0.0
 11
828.883579796704
 21
524.4939792284847
 31
0.0
  0
LINE
  5
2E1
330
A
100
AcDbEntity
  8
11
  6
Continuous
 62
    92
100
AcDbLine
 10
832.8974347772041
 20
431.9938266405848
 30
0.0
 11
835.883396691204
 21
431.9938266405848
 31
0.0
  0
LINE
  5
2E2
330
A
100
AcDbEntity
  8
11
  6
Continuous
 62
    92
100
AcDbLine
 10
835.883396691204
 20
431.9938266405848
 30
0.0
 11
835.883396691204
 21
437.9938266405848
 31
0.0
  0
LINE
  5
2E3
330
A
100
AcDbEntity
  8
11
  6
Continuous
 62
    92
100
AcDbLine
 10
835.883396691204
 20
437.9938266405848
 30
0.0
 11
832.8974347772041
 21
437.9938266405848
 31
0.0
  0
LINE
  5
2E4
330
A
100
AcDbEntity
  8
11
  6
CENTERX2
 62
    92
100
AcDbLine
 10
797.9183698358041
 20
449.6675937303847
 30
0.0
 11
798.6750933057041
 21
450.9651557736847
 31
0.0
  0
LINE
  5
2E5
330
A
100
AcDbEntity
  8
11
  6
CENTERX2
 62
    92
100
AcDbLine
 10
798.6750933057041
 20
450.9651557736847
 30
0.0
 11
799.496653202804
 21
452.2237215077848
 31
0.0
  0
LINE
  5
2E6
330
A
100
AcDbEntity
  8
11
  6
CENTERX2
 62
    92
100
AcDbLine
 10
799.496653202804
 20
452.2237215077848
 30
0.0
 11
800.3810399076041
 21
453.4400500496848
 31
0.0
  0
LINE
  5
2E7
330
A
100
AcDbEntity
  8
11
  6
CENTERX2
 62
    92
100
AcDbLine
 10
800.3810399076041
 20
453.4400500496848
 30
0.0
 11
801.326082913904
 21
454.6110055677847
 31
0.0
  0
LINE
  5
2E8
330
A
100
AcDbEntity
  8
11
  6
CENTERX2
 62
    92
100
AcDbLine
 10
801.326082913904
 20
454.6110055677847
 30
0.0
 11
802.3294552222042
 21
455.7335637238848
 31
0.0
  0
LINE
  5
2E9
330
A
100
AcDbEntity
  8
11
  6
CENTERX2
 62
    92
100
AcDbLine
 10
802.3294552222042
 20
455.7335637238848
 30
0.0
 11
803.3886790645041
 21
456.8048194811848
 31
0.0
  0
LINE
  5
2EA
330
A
100
AcDbEntity
  8
11
  6
CENTERX2
 62
    92
100
AcDbLine
 10
803.3886790645041
 20
456.8048194811848
 30
0.0
 11
804.501132019204
 21
457.8219946195848
 31
0.0
  0
LINE
  5
2EB
330
A
100
AcDbEntity
  8
11
  6
CENTERX2
 62
    92
100
AcDbLine
 10
804.501132019204
 20
457.8219946195848
 30
0.0
 11
805.664053499704
 21
458.7824449364847
 31
0.0
  0
LINE
  5
2EC
330
A
100
AcDbEntity
  8
11
  6
CENTERX2
 62
    92
100
AcDbLine
 10
805.664053499704
 20
458.7824449364847
 30
0.0
 11
806.874551601804
 21
459.6836671166848
 31
0.0
  0
LINE
  5
2ED
330
A
100
AcDbEntity
  8
11
  6
CENTERX2
 62
    92
100
AcDbLine
 10
806.874551601804
 20
459.6836671166848
 30
0.0
 11
808.1296125116042
 21
460.5233066209847
 31
0.0
  0
LINE
  5
2EE
330
A
100
AcDbEntity
  8
11
  6
CENTERX2
 62
    92
100
AcDbLine
 10
768.4108625116041
 20
490.4652316698848
 30
0.0
 11
879.208775109204
 21
379.6671970018848
 31
0.0
  0
LINE
  5
2EF
330
A
100
AcDbEntity
  8
11
  6
CENTERX2
 62
    92
100
AcDbLine
 10
801.4051252069041
 20
473.9264133104848
 30
0.0
 11
846.8578839959041
 21
395.1998508104848
 31
0.0
  0
LINE
  5
2F0
330
A
100
AcDbEntity
  8
11
  6
CENTERX2
 62
    92
100
AcDbLine
 10
846.7245221795041
 20
474.5542819627847
 30
0.0
 11
800.9404035272041
 21
395.2538974412847
 31
0.0
  0
LINE
  5
2F1
330
A
100
AcDbEntity
  8
11
  6
CENTERX2
 62
    92
100
AcDbLine
 10
769.0568586053041
 20
380.1658542284848
 30
0.0
 11
879.192600792804
 21
490.3016574510847
 31
0.0
  0
LINE
  5
2F2
330
A
100
AcDbEntity
  8
11
  6
CENTERX2
 62
    92
100
AcDbLine
 10
823.8834577264041
 20
495.4518344530848
 30
0.0
 11
823.8834577264041
 21
374.5010287889848
 31
0.0
  0
LINE
  5
2F3
330
A
100
AcDbEntity
  8
11
  6
CENTERX2
 62
    92
100
AcDbLine
 10
763.0238385858041
 20
434.9925449022848
 30
0.0
 11
885.2989240350041
 21
434.9925449022848
 31
0.0
  0
LINE
  5
2F4
330
A
100
AcDbEntity
  8
11
  6
Continuous
 62
    92
100
AcDbLine
 10
774.5853009881041
 20
378.2247531541847
 30
0.0
 11
767.1156964959041
 21
385.6942660936848
 31
0.0
  0
LINE
  5
2F5
330
A
100
AcDbEntity
  8
11
  6
Continuous
 62
    92
100
AcDbLine
 10
766.3836408319041
 20
387.4620273241848
 30
0.0
 11
766.3836408319041
 21
482.5230319627848
 31
0.0
  0
LINE
  5
2F6
330
A
100
AcDbEntity
  8
11
  6
Continuous
 62
    92
100
AcDbLine
 10
767.1159406366041
 20
484.2908542284847
 30
0.0
 11
774.5853009881041
 21
491.7603366502848
 31
0.0
  0
LINE
  5
2F7
330
A
100
AcDbEntity
  8
11
  6
Continuous
 62
    92
100
AcDbLine
 10
776.3530011834041
 20
492.4926364549848
 30
0.0
 11
871.413975304504
 21
492.4926364549848
 31
0.0
  0
LINE
  5
2F8
330
A
100
AcDbEntity
  8
11
  6
Continuous
 62
    92
100
AcDbLine
 10
873.1817975702041
 20
491.7603671678848
 30
0.0
 11
880.651157921704
 21
484.2908847459847
 31
0.0
  0
LINE
  5
2F9
330
A
100
AcDbEntity
  8
11
  6
Continuous
 62
    92
100
AcDbLine
 10
881.3835187616041
 20
482.5231845506848
 30
0.0
 11
881.3835187616041
 21
387.4620883592847
 31
0.0
  0
LINE
  5
2FA
330
A
100
AcDbEntity
  8
11
  6
Continuous
 62
    92
100
AcDbLine
 10
880.651157921704
 20
385.6943271287848
 30
0.0
 11
873.1817975702041
 21
378.2247836717847
 31
0.0
  0
LINE
  5
2FB
330
A
100
AcDbEntity
  8
11
  6
Continuous
 62
    92
100
AcDbLine
 10
871.413853234204
 20
377.4925754198848
 30
0.0
 11
776.3530011834041
 21
377.4925754198848
 31
0.0
  0
LINE
  5
2FC
330
A
100
AcDbEntity
  8
11
  6
Continuous
 62
    92
100
AcDbLine
 10
771.3836408319041
 20
434.9925449022848
 30
0.0
 11
771.3836408319041
 21
477.6235263475848
 31
0.0
  0
LINE
  5
2FD
330
A
100
AcDbEntity
  8
11
  6
Continuous
 62
    92
100
AcDbLine
 10
772.1158185662041
 20
479.3912570604848
 30
0.0
 11
779.4848981561041
 21
486.7603671678848
 31
0.0
  0
LINE
  5
2FE
330
A
100
AcDbEntity
  8
11
  6
Continuous
 62
    92
100
AcDbLine
 10
781.2525983514041
 20
487.4925754198847
 30
0.0
 11
823.8834577264041
 21
487.4925754198847
 31
0.0
  0
LINE
  5
2FF
330
A
100
AcDbEntity
  8
11
  6
Continuous
 62
    92
100
AcDbLine
 10
771.3836408319041
 20
434.9953220018847
 30
0.0
 11
771.3836408319041
 21
392.3643710741848
 31
0.0
  0
LINE
  5
300
330
A
100
AcDbEntity
  8
11
  6
Continuous
 62
    92
100
AcDbLine
 10
772.1158185662041
 20
390.5966098436848
 30
0.0
 11
779.4848981561041
 21
383.2274997362848
 31
0.0
  0
LINE
  5
301
330
A
100
AcDbEntity
  8
11
  6
Continuous
 62
    92
100
AcDbLine
 10
781.2525983514041
 20
382.4952914842847
 30
0.0
 11
823.8834577264041
 21
382.4952914842847
 31
0.0
  0
LINE
  5
302
330
A
100
AcDbEntity
  8
11
  6
Continuous
 62
    92
100
AcDbLine
 10
823.8834577264041
 20
487.4925754198847
 30
0.0
 11
866.514378136604
 21
487.4925754198847
 31
0.0
  0
LINE
  5
303
330
A
100
AcDbEntity
  8
11
  6
Continuous
 62
    92
100
AcDbLine
 10
868.2822004022041
 20
486.7603366502847
 30
0.0
 11
875.6512799920042
 21
479.3912570604848
 31
0.0
  0
LINE
  5
304
330
A
100
AcDbEntity
  8
11
  6
Continuous
 62
    92
100
AcDbLine
 10
876.3835187616042
 20
477.6235568651848
 30
0.0
 11
876.3835187616042
 21
392.3615634569848
 31
0.0
  0
LINE
  5
305
330
A
100
AcDbEntity
  8
11
  6
Continuous
 62
    92
100
AcDbLine
 10
875.6512799920042
 20
390.5938327440848
 30
0.0
 11
868.2822004022041
 21
383.2247531541847
 31
0.0
  0
LINE
  5
306
330
A
100
AcDbEntity
  8
11
  6
Continuous
 62
    92
100
AcDbLine
 10
866.514500206904
 20
382.4926059373847
 30
0.0
 11
809.2084088983041
 21
382.4926059373847
 31
0.0
  0
LINE
  5
307
330
A
100
AcDbEntity
  8
11
  6
Continuous
 62
    92
100
AcDbLine
 10
832.603855675604
 20
454.0964877733848
 30
0.0
 11
842.522129601404
 21
471.2755038866847
 31
0.0
  0
LINE
  5
308
330
A
100
AcDbEntity
  8
11
  6
Continuous
 62
    92
100
AcDbLine
 10
836.0678449334042
 20
452.0965182909848
 30
0.0
 11
845.9861188592041
 21
469.2755649217848
 31
0.0
  0
LINE
  5
309
330
A
100
AcDbEntity
  8
11
  6
Continuous
 62
    92
100
AcDbLine
 10
815.163303917804
 20
454.0965793260848
 30
0.0
 11
805.2450910272041
 21
471.2754733690847
 31
0.0
  0
LINE
  5
30A
330
A
100
AcDbEntity
  8
11
  6
Continuous
 62
    92
100
AcDbLine
 10
802.9789167108042
 20
436.9925754198848
 30
0.0
 11
783.1423078241041
 21
436.9925754198848
 31
0.0
  0
LINE
  5
30B
330
A
100
AcDbEntity
  8
11
  6
Continuous
 62
    92
100
AcDbLine
 10
802.988133019404
 20
432.9608066209847
 30
0.0
 11
783.144871300604
 21
432.9900424608847
 31
0.0
  0
LINE
  5
30C
330
A
100
AcDbEntity
  8
11
  6
Continuous
 62
    92
100
AcDbLine
 10
844.7880597772041
 20
436.9925449022848
 30
0.0
 11
864.6248517694042
 21
436.9925449022848
 31
0.0
  0
LINE
  5
30D
330
A
100
AcDbEntity
  8
11
  6
Continuous
 62
    92
100
AcDbLine
 10
844.7880597772041
 20
432.9925143846848
 30
0.0
 11
864.6248517694042
 21
432.9925143846848
 31
0.0
  0
LINE
  5
30E
330
A
100
AcDbEntity
  8
11
  6
Continuous
 62
    92
100
AcDbLine
 10
836.0678449334042
 20
417.8888156541847
 30
0.0
 11
845.9851422967041
 21
400.7116916307848
 31
0.0
  0
LINE
  5
30F
330
A
100
AcDbEntity
  8
11
  6
Continuous
 62
    92
100
AcDbLine
 10
848.2640119256041
 20
400.1843478807847
 30
0.0
 11
848.3721051873041
 21
400.2571017869847
 31
0.0
  0
LINE
  5
310
330
A
100
AcDbEntity
  8
11
  6
Continuous
 62
    92
100
AcDbLine
 10
832.603794640504
 20
415.8888156541848
 30
0.0
 11
842.522251671704
 21
398.7096469530848
 31
0.0
  0
LINE
  5
311
330
A
100
AcDbEntity
  8
11
  6
Continuous
 62
    92
100
AcDbLine
 10
815.163303917804
 20
415.8887546190848
 30
0.0
 11
805.2450910272041
 21
398.7096164354848
 31
0.0
  0
LINE
  5
312
330
A
100
AcDbEntity
  8
11
  6
Continuous
 62
    92
100
AcDbLine
 10
811.6993146600041
 20
417.8887241014847
 30
0.0
 11
801.7809796991041
 21
400.7095554002847
 31
0.0
  0
LINE
  5
313
330
A
100
AcDbEntity
  8
11
  6
Continuous
 62
    92
100
AcDbLine
 10
811.6991925897041
 20
452.0965488084847
 30
0.0
 11
801.7808576287041
 21
469.2755038866847
 31
0.0
  0
LINE
  5
314
330
A
100
AcDbEntity
  8
11
  6
Continuous
 62
    92
100
AcDbLine
 10
845.9861188592041
 20
469.2755649217848
 30
0.0
 11
844.8551984491041
 21
467.3167026170848
 31
0.0
  0
LINE
  5
315
330
A
100
AcDbEntity
  8
11
  6
Continuous
 62
    92
100
AcDbLine
 10
845.1095319452042
 20
465.3853671678848
 30
0.0
 11
849.7034650506041
 21
460.7913730272848
 31
0.0
  0
LINE
  5
316
330
A
100
AcDbEntity
  8
11
  6
Continuous
 62
    92
100
AcDbLine
 10
849.7045636834041
 20
451.6211764940847
 30
0.0
 11
846.3954816522042
 21
448.3120944627848
 31
0.0
  0
LINE
  5
317
330
A
100
AcDbEntity
  8
11
  6
Continuous
 62
    92
100
AcDbLine
 10
801.7805524530041
 20
469.2762668260847
 30
0.0
 11
802.9114728631041
 21
467.3174045213848
 31
0.0
  0
LINE
  5
318
330
A
100
AcDbEntity
  8
11
  6
Continuous
 62
    92
100
AcDbLine
 10
802.6572614373041
 20
465.3860690721848
 30
0.0
 11
798.0632062616041
 21
460.7920749315848
 31
0.0
  0
LINE
  5
319
330
A
100
AcDbEntity
  8
11
  6
Continuous
 62
    92
100
AcDbLine
 10
798.062107628704
 20
451.6219394334847
 30
0.0
 11
801.3711896600041
 21
448.3128574022848
 31
0.0
  0
LINE
  5
31A
330
A
100
AcDbEntity
  8
11
  6
Continuous
 62
    92
100
AcDbLine
 10
801.7805524530041
 20
400.7099216112847
 30
0.0
 11
802.9114728631041
 21
402.6687839159848
 31
0.0
  0
LINE
  5
31B
330
A
100
AcDbEntity
  8
11
  6
Continuous
 62
    92
100
AcDbLine
 10
802.6572614373041
 20
404.6000888475847
 30
0.0
 11
798.0632062616041
 21
409.1941135057847
 31
0.0
  0
LINE
  5
31C
330
A
100
AcDbEntity
  8
11
  6
Continuous
 62
    92
100
AcDbLine
 10
798.062107628704
 20
418.3642490037847
 30
0.0
 11
801.3711896600041
 21
421.6733310350847
 31
0.0
  0
LINE
  5
31D
330
A
100
AcDbEntity
  8
11
  6
Continuous
 62
    92
100
AcDbLine
 10
845.9861188592041
 20
400.7105624803847
 30
0.0
 11
844.8551984491041
 21
402.6694247850848
 31
0.0
  0
LINE
  5
31E
330
A
100
AcDbEntity
  8
11
  6
Continuous
 62
    92
100
AcDbLine
 10
845.1095319452042
 20
404.6007602342847
 30
0.0
 11
849.7034650506041
 21
409.1947543748847
 31
0.0
  0
LINE
  5
31F
330
A
100
AcDbEntity
  8
11
  6
Continuous
 62
    92
100
AcDbLine
 10
849.7045636834041
 20
418.3649509080847
 30
0.0
 11
846.3954816522042
 21
421.6740329393847
 31
0.0
  0
LINE
  5
320
330
A
100
AcDbEntity
  8
11
  6
Continuous
 62
    92
100
AcDbLine
 10
825.8837018670041
 20
461.3476474412848
 30
0.0
 11
825.8837018670041
 21
472.9396579393847
 31
0.0
  0
LINE
  5
321
330
A
100
AcDbEntity
  8
11
  6
Continuous
 62
    92
100
AcDbLine
 10
821.8836408319042
 20
472.9396579393847
 30
0.0
 11
821.8836408319042
 21
461.3476169237848
 31
0.0
  0
LINE
  5
322
330
A
100
AcDbEntity
  8
11
  6
Continuous
 62
    92
100
AcDbLine
 10
821.883701867004
 20
408.6399753221847
 30
0.0
 11
821.883701867004
 21
397.0479648241848
 31
0.0
  0
LINE
  5
323
330
A
100
AcDbEntity
  8
11
  6
Continuous
 62
    92
100
AcDbLine
 10
825.8836408319041
 20
397.0479648241848
 30
0.0
 11
825.8836408319041
 21
408.6400363573848
 31
0.0
  0
LINE
  5
324
330
A
100
AcDbEntity
  8
11
  6
Continuous
 62
    92
100
AcDbLine
 10
833.6081281366041
 20
414.1492526659848
 30
0.0
 11
831.746206951804
 21
413.3894647917847
 31
0.0
  0
LINE
  5
325
330
A
100
AcDbEntity
  8
11
  6
Continuous
 62
    92
100
AcDbLine
 10
831.746206951804
 20
413.3894647917847
 30
0.0
 11
829.8259218549041
 21
412.7955406359848
 31
0.0
  0
LINE
  5
326
330
A
100
AcDbEntity
  8
11
  6
Continuous
 62
    92
100
AcDbLine
 10
829.8259218549041
 20
412.7955406359848
 30
0.0
 11
827.8620092140041
 21
412.3718657073847
 31
0.0
  0
LINE
  5
327
330
A
100
AcDbEntity
  8
11
  6
Continuous
 62
    92
100
AcDbLine
 10
827.8620092140041
 20
412.3718657073847
 30
0.0
 11
825.8695247303041
 21
412.1215195180848
 31
0.0
  0
LINE
  5
328
330
A
100
AcDbEntity
  8
11
  6
Continuous
 62
    92
100
AcDbLine
 10
825.8695247303041
 20
412.1215195180848
 30
0.0
 11
823.863728440804
 21
412.0462534579847
 31
0.0
  0
LINE
  5
329
330
A
100
AcDbEntity
  8
11
  6
Continuous
 62
    92
100
AcDbLine
 10
823.863728440804
 20
412.0462534579847
 30
0.0
 11
821.8599678452042
 21
412.1464786487847
 31
0.0
  0
LINE
  5
32A
330
A
100
AcDbEntity
  8
11
  6
Continuous
 62
    92
100
AcDbLine
 10
821.8599678452042
 20
412.1464786487847
 30
0.0
 11
819.8735604733041
 21
412.4212640574848
 31
0.0
  0
LINE
  5
32B
330
A
100
AcDbEntity
  8
11
  6
Continuous
 62
    92
100
AcDbLine
 10
819.8735604733041
 20
412.4212640574848
 30
0.0
 11
817.9196767918039
 21
412.8683448757848
 31
0.0
  0
LINE
  5
32C
330
A
100
AcDbEntity
  8
11
  6
Continuous
 62
    92
100
AcDbLine
 10
817.9196767918039
 20
412.8683448757848
 30
0.0
 11
816.013224345704
 21
413.4841410892847
 31
0.0
  0
LINE
  5
32D
330
A
100
AcDbEntity
  8
11
  6
Continuous
 62
    92
100
AcDbLine
 10
816.013224345704
 20
413.4841410892847
 30
0.0
 11
814.1687360467042
 21
414.2637851366847
 31
0.0
  0
LINE
  5
32E
330
A
100
AcDbEntity
  8
11
  6
Continuous
 62
    92
100
AcDbLine
 10
869.0082746209041
 20
393.7828891405848
 30
0.0
 11
868.3135932355041
 21
394.0115751690847
 31
0.0
  0
LINE
  5
32F
330
A
100
AcDbEntity
  8
11
  6
Continuous
 62
    92
100
AcDbLine
 10
868.3135932355041
 20
394.0115751690847
 30
0.0
 11
867.5867394835041
 21
394.0621150992847
 31
0.0
  0
LINE
  5
330
330
A
100
AcDbEntity
  8
11
  6
Continuous
 62
    92
100
AcDbLine
 10
867.5867394835041
 20
394.0621150992847
 30
0.0
 11
866.8724978629041
 21
393.9327491655848
 31
0.0
  0
LINE
  5
331
330
A
100
AcDbEntity
  8
11
  6
Continuous
 62
    92
100
AcDbLine
 10
866.8724978629041
 20
393.9327491655848
 30
0.0
 11
866.2145429198041
 21
393.6327608470847
 31
0.0
  0
LINE
  5
332
330
A
100
AcDbEntity
  8
11
  6
Continuous
 62
    92
100
AcDbLine
 10
866.2145429198041
 20
393.6327608470847
 30
0.0
 11
865.6527688501041
 21
393.1818243339847
 31
0.0
  0
LINE
  5
333
330
A
100
AcDbEntity
  8
11
  6
Continuous
 62
    92
100
AcDbLine
 10
865.6527688501041
 20
393.1818243339847
 30
0.0
 11
865.220871015904
 21
392.6087193385847
 31
0.0
  0
LINE
  5
334
330
A
100
AcDbEntity
  8
11
  6
Continuous
 62
    92
100
AcDbLine
 10
865.220871015904
 20
392.6087193385847
 30
0.0
 11
864.944326113404
 21
391.9494968365847
 31
0.0
  0
LINE
  5
335
330
A
100
AcDbEntity
  8
11
  6
Continuous
 62
    92
100
AcDbLine
 10
864.944326113404
 20
391.9494968365847
 30
0.0
 11
864.8388919925041
 21
391.2452124928847
 31
0.0
  0
LINE
  5
336
330
A
100
AcDbEntity
  8
11
  6
Continuous
 62
    92
100
AcDbLine
 10
864.8388919925041
 20
391.2452124928847
 30
0.0
 11
864.9097152966042
 21
390.5393702050848
 31
0.0
  0
LINE
  5
337
330
A
100
AcDbEntity
  8
11
  6
Continuous
 62
    92
100
AcDbLine
 10
864.9097152966042
 20
390.5393702050848
 30
0.0
 11
865.1510968866041
 21
389.8752353319848
 31
0.0
  0
LINE
  5
338
330
A
100
AcDbEntity
  8
11
  6
Continuous
 62
    92
100
AcDbLine
 10
838.5586896600042
 20
487.4925754198847
 30
0.0
 11
838.5586896600042
 21
492.4925754198847
 31
0.0
  0
LINE
  5
339
330
A
100
AcDbEntity
  8
11
  6
Continuous
 62
    92
100
AcDbLine
 10
809.2084699334041
 20
487.4925754198847
 30
0.0
 11
809.2084699334041
 21
492.4925754198847
 31
0.0
  0
LINE
  5
33A
330
A
100
AcDbEntity
  8
11
  6
Continuous
 62
    92
100
AcDbLine
 10
771.3835797967041
 20
449.6676242479848
 30
0.0
 11
766.3834577264041
 21
449.6676242479848
 31
0.0
  0
LINE
  5
33B
330
A
100
AcDbEntity
  8
11
  6
Continuous
 62
    92
100
AcDbLine
 10
771.3835797967041
 20
420.3174350389848
 30
0.0
 11
766.3834577264041
 21
420.3174350389848
 31
0.0
  0
LINE
  5
33C
330
A
100
AcDbEntity
  8
11
  6
Continuous
 62
    92
100
AcDbLine
 10
809.2084088983041
 20
382.4925449022848
 30
0.0
 11
809.2084088983041
 21
377.4925449022848
 31
0.0
  0
LINE
  5
33D
330
A
100
AcDbEntity
  8
11
  6
Continuous
 62
    92
100
AcDbLine
 10
838.5586896600042
 20
382.4925449022848
 30
0.0
 11
838.5586896600042
 21
377.4925449022848
 31
0.0
  0
LINE
  5
33E
330
A
100
AcDbEntity
  8
11
  6
Continuous
 62
    92
100
AcDbLine
 10
876.3835187616042
 20
420.3173129686848
 30
0.0
 11
881.3835187616041
 21
420.3173129686848
 31
0.0
  0
LINE
  5
33F
330
A
100
AcDbEntity
  8
11
  6
Continuous
 62
    92
100
AcDbLine
 10
876.3835187616042
 20
449.6677768358848
 30
0.0
 11
881.3835187616041
 21
449.6677768358848
 31
0.0
  0
LINE
  5
340
330
A
100
AcDbEntity
  8
4
 62
    92
100
AcDbLine
 10
857.2017560662041
 20
320.3572299608847
 30
0.0
 11
859.4644751681041
 21
321.4886460054848
 31
0.0
  0
LINE
  5
341
330
A
100
AcDbEntity
  8
4
 62
    92
100
AcDbLine
 10
859.4644751681041
 20
321.4886460054848
 30
0.0
 11
858.333081720904
 21
322.6199942576847
 31
0.0
  0
LINE
  5
342
330
A
100
AcDbEntity
  8
4
 62
    92
100
AcDbLine
 10
858.333081720904
 20
322.6199942576847
 30
0.0
 11
857.2017560662041
 21
320.3572299608847
 31
0.0
  0
LINE
  5
343
330
A
100
AcDbEntity
  8
4
  6
Continuous
 62
    92
100
AcDbLine
 10
857.2017560662041
 20
320.3572299608847
 30
0.0
 11
938.519016808404
 21
401.6744907030847
 31
0.0
  0
LINE
  5
344
330
A
100
AcDbEntity
  8
4
 62
    92
100
AcDbLine
 10
938.519016808404
 20
401.6744907030847
 30
0.0
 11
936.2562977066042
 21
400.5430746583847
 31
0.0
  0
LINE
  5
345
330
A
100
AcDbEntity
  8
4
 62
    92
100
AcDbLine
 10
936.2562977066042
 20
400.5430746583847
 30
0.0
 11
937.387691153704
 21
399.4117264061848
 31
0.0
  0
LINE
  5
346
330
A
100
AcDbEntity
  8
4
 62
    92
100
AcDbLine
 10
937.387691153704
 20
399.4117264061848
 30
0.0
 11
938.519016808404
 21
401.6744907030847
 31
0.0
  0
LINE
  5
347
330
A
100
AcDbEntity
  8
4
  6
Continuous
 62
    92
100
AcDbLine
 10
783.2251325311041
 20
394.3337924608848
 30
0.0
 11
857.2017560662041
 21
320.3572299608847
 31
0.0
  0
LINE
  5
348
330
A
100
AcDbEntity
  8
4
  6
Continuous
 62
    92
100
AcDbLine
 10
864.5423932733041
 20
475.6510532030848
 30
0.0
 11
938.519016808404
 21
401.6744907030847
 31
0.0
  0
LINE
  5
349
330
A
100
AcDbEntity
  8
1
  6
Continuous
 62
    92
100
AcDbLine
 10
807.4524274530041
 20
555.8086764940847
 30
0.0
 11
813.4523664178042
 21
555.8086764940847
 31
0.0
  0
LINE
  5
34A
330
A
100
AcDbEntity
  8
1
  6
Continuous
 62
    92
100
AcDbLine
 10
813.4523664178042
 20
555.8086764940847
 30
0.0
 11
813.4523664178042
 21
561.8086154588848
 31
0.0
  0
LINE
  5
34B
330
A
100
AcDbEntity
  8
1
  6
Continuous
 62
    92
100
AcDbLine
 10
813.4523664178042
 20
561.8086154588848
 30
0.0
 11
807.4524274530041
 21
561.8086154588848
 31
0.0
  0
LINE
  5
34C
330
A
100
AcDbEntity
  8
1
  6
Continuous
 62
    92
100
AcDbLine
 10
807.4524274530041
 20
561.8086154588848
 30
0.0
 11
807.4524274530041
 21
555.8086764940847
 31
0.0
  0
LINE
  5
34D
330
A
100
AcDbEntity
  8
1
  6
Continuous
 62
    92
100
AcDbLine
 10
809.0163312616041
 20
581.6264255174847
 30
0.0
 11
815.016331261604
 21
581.6264255174847
 31
0.0
  0
LINE
  5
34E
330
A
100
AcDbEntity
  8
1
  6
Continuous
 62
    92
100
AcDbLine
 10
815.016331261604
 20
581.6264255174847
 30
0.0
 11
815.016331261604
 21
587.6264255174848
 31
0.0
  0
LINE
  5
34F
330
A
100
AcDbEntity
  8
1
  6
Continuous
 62
    92
100
AcDbLine
 10
815.016331261604
 20
587.6264255174848
 30
0.0
 11
809.0163312616041
 21
587.6264255174848
 31
0.0
  0
LINE
  5
350
330
A
100
AcDbEntity
  8
1
  6
Continuous
 62
    92
100
AcDbLine
 10
809.0163312616041
 20
587.6264255174848
 30
0.0
 11
809.0163312616041
 21
581.6264255174847
 31
0.0
  0
LINE
  5
351
330
A
100
AcDbEntity
  8
1
  6
Continuous
 62
    92
100
AcDbLine
 10
894.736973351404
 20
334.7923343309847
 30
0.0
 11
898.9795880975041
 21
339.0349643358847
 31
0.0
  0
LINE
  5
352
330
A
100
AcDbEntity
  8
1
  6
Continuous
 62
    92
100
AcDbLine
 10
898.9795880975041
 20
339.0349643358847
 30
0.0
 11
894.736973351404
 21
343.2776248582848
 31
0.0
  0
LINE
  5
353
330
A
100
AcDbEntity
  8
1
  6
Continuous
 62
    92
100
AcDbLine
 10
894.736973351404
 20
343.2776248582848
 30
0.0
 11
890.4943586053041
 21
339.0349643358847
 31
0.0
  0
LINE
  5
354
330
A
100
AcDbEntity
  8
1
  6
Continuous
 62
    92
100
AcDbLine
 10
890.4943586053041
 20
339.0349643358847
 30
0.0
 11
894.736973351404
 21
334.7923343309847
 31
0.0
  0
LINE
  5
355
330
A
100
AcDbEntity
  8
1
  6
Continuous
 62
    92
100
AcDbLine
 10
723.676548546704
 20
620.0144870409847
 30
0.0
 11
587.527836388504
 21
620.0144870409847
 31
0.0
  0
LINE
  5
356
330
A
100
AcDbEntity
  8
1
  6
Continuous
 62
    92
100
AcDbLine
 10
587.527836388504
 20
620.0144870409847
 30
0.0
 11
564.0829206170041
 21
523.8125827440848
 31
0.0
  0
LINE
  5
357
330
A
100
AcDbEntity
  8
7
 62
    92
100
AcDbLine
 10
766.3836408319041
 20
578.8894260057848
 30
0.0
 11
768.7836408319041
 21
578.0894260057848
 31
0.0
  0
LINE
  5
358
330
A
100
AcDbEntity
  8
7
 62
    92
100
AcDbLine
 10
768.7836408319041
 20
578.0894260057848
 30
0.0
 11
768.7836408319041
 21
579.6894260057847
 31
0.0
  0
LINE
  5
359
330
A
100
AcDbEntity
  8
7
 62
    92
100
AcDbLine
 10
768.7836408319041
 20
579.6894260057847
 30
0.0
 11
766.3836408319041
 21
578.8894260057848
 31
0.0
  0
LINE
  5
35A
330
A
100
AcDbEntity
  8
7
  6
Continuous
 62
    92
100
AcDbLine
 10
766.3836408319041
 20
578.8894260057848
 30
0.0
 11
881.3835187616041
 21
578.8894260057848
 31
0.0
  0
LINE
  5
35B
330
A
100
AcDbEntity
  8
7
 62
    92
100
AcDbLine
 10
881.3835187616041
 20
578.8894260057848
 30
0.0
 11
878.9835187616041
 21
579.6894260057847
 31
0.0
  0
LINE
  5
35C
330
A
100
AcDbEntity
  8
7
 62
    92
100
AcDbLine
 10
878.9835187616041
 20
579.6894260057847
 30
0.0
 11
878.9835187616041
 21
578.0894260057848
 31
0.0
  0
LINE
  5
35D
330
A
100
AcDbEntity
  8
7
 62
    92
100
AcDbLine
 10
878.9835187616041
 20
578.0894260057848
 30
0.0
 11
881.3835187616041
 21
578.8894260057848
 31
0.0
  0
LINE
  5
35E
330
A
100
AcDbEntity
  8
7
  6
Continuous
 62
    92
100
AcDbLine
 10
766.3836408319041
 20
476.3354404100848
 30
0.0
 11
766.3836408319041
 21
578.8894260057848
 31
0.0
  0
LINE
  5
35F
330
A
100
AcDbEntity
  8
7
  6
Continuous
 62
    92
100
AcDbLine
 10
881.3835187616041
 20
473.9883029588847
 30
0.0
 11
881.3835187616041
 21
578.8894260057848
 31
0.0
  0
LINE
  5
360
330
A
100
AcDbEntity
  8
4
  6
Continuous
 62
    92
100
AcDbLine
 10
196.9286847772041
 20
387.3984897264847
 30
0.0
 11
151.9449201288041
 21
387.3984897264847
 31
0.0
  0
LINE
  5
361
330
A
100
AcDbEntity
  8
4
 62
    92
100
AcDbLine
 10
151.9449201288041
 20
387.3984897264847
 30
0.0
 11
154.3449201287041
 21
386.5984897264847
 31
0.0
  0
LINE
  5
362
330
A
100
AcDbEntity
  8
4
 62
    92
100
AcDbLine
 10
154.3449201287041
 20
386.5984897264847
 30
0.0
 11
154.3449201287041
 21
388.1984897264848
 31
0.0
  0
LINE
  5
363
330
A
100
AcDbEntity
  8
4
 62
    92
100
AcDbLine
 10
154.3449201287041
 20
388.1984897264848
 30
0.0
 11
151.9449201288041
 21
387.3984897264847
 31
0.0
  0
LINE
  5
364
330
A
100
AcDbEntity
  8
4
  6
Continuous
 62
    92
100
AcDbLine
 10
151.9449201288041
 20
387.3984897264847
 30
0.0
 11
130.4449201288041
 21
387.3984897264847
 31
0.0
  0
LINE
  5
365
330
A
100
AcDbEntity
  8
4
 62
    92
100
AcDbLine
 10
130.4449201288041
 20
387.3984897264847
 30
0.0
 11
128.044920128804
 21
388.1984897264848
 31
0.0
  0
LINE
  5
366
330
A
100
AcDbEntity
  8
4
 62
    92
100
AcDbLine
 10
128.044920128804
 20
388.1984897264848
 30
0.0
 11
128.044920128804
 21
386.5984897264847
 31
0.0
  0
LINE
  5
367
330
A
100
AcDbEntity
  8
4
 62
    92
100
AcDbLine
 10
128.044920128804
 20
386.5984897264847
 30
0.0
 11
130.4449201288041
 21
387.3984897264847
 31
0.0
  0
LINE
  5
368
330
A
100
AcDbEntity
  8
4
  6
Continuous
 62
    92
100
AcDbLine
 10
130.4449201288041
 20
387.3984897264847
 30
0.0
 11
112.9449201288041
 21
387.3984897264847
 31
0.0
  0
LINE
  5
369
330
A
100
AcDbEntity
  8
4
  6
Continuous
 62
    92
100
AcDbLine
 10
151.9449201288041
 20
431.8984286912847
 30
0.0
 11
151.9449201288041
 21
387.3984897264847
 31
0.0
  0
LINE
  5
36A
330
A
100
AcDbEntity
  8
4
  6
Continuous
 62
    92
100
AcDbLine
 10
130.4449201288041
 20
434.8985507615847
 30
0.0
 11
130.4449201288041
 21
387.3984897264847
 31
0.0
  0
LINE
  5
36B
330
A
100
AcDbEntity
  8
4
  6
Continuous
 62
    92
100
AcDbLine
 10
189.9448590936041
 20
465.1634128221847
 30
0.0
 11
189.9448590936041
 21
437.8983981737848
 31
0.0
  0
LINE
  5
36C
330
A
100
AcDbEntity
  8
4
 62
    92
100
AcDbLine
 10
189.9448590936041
 20
437.8983981737848
 30
0.0
 11
190.744859093604
 21
440.2983981737848
 31
0.0
  0
LINE
  5
36D
330
A
100
AcDbEntity
  8
4
 62
    92
100
AcDbLine
 10
190.744859093604
 20
440.2983981737848
 30
0.0
 11
189.1448590936041
 21
440.2983981737848
 31
0.0
  0
LINE
  5
36E
330
A
100
AcDbEntity
  8
4
 62
    92
100
AcDbLine
 10
189.1448590936041
 20
440.2983981737848
 30
0.0
 11
189.9448590936041
 21
437.8983981737848
 31
0.0
  0
LINE
  5
36F
330
A
100
AcDbEntity
  8
4
  6
Continuous
 62
    92
100
AcDbLine
 10
189.9448590936041
 20
437.8983981737848
 30
0.0
 11
189.9448590936041
 21
431.8984286912847
 31
0.0
  0
LINE
  5
370
330
A
100
AcDbEntity
  8
4
 62
    92
100
AcDbLine
 10
189.9448590936041
 20
431.8984286912847
 30
0.0
 11
189.1448590936041
 21
429.4984286912848
 31
0.0
  0
LINE
  5
371
330
A
100
AcDbEntity
  8
4
 62
    92
100
AcDbLine
 10
189.1448590936041
 20
429.4984286912848
 30
0.0
 11
190.744859093604
 21
429.4984286912848
 31
0.0
  0
LINE
  5
372
330
A
100
AcDbEntity
  8
4
 62
    92
100
AcDbLine
 10
190.744859093604
 20
429.4984286912848
 30
0.0
 11
189.9448590936041
 21
431.8984286912847
 31
0.0
  0
LINE
  5
373
330
A
100
AcDbEntity
  8
4
  6
Continuous
 62
    92
100
AcDbLine
 10
189.9448590936041
 20
431.8984286912847
 30
0.0
 11
189.9448590936041
 21
414.3984286912847
 31
0.0
  0
LINE
  5
374
330
A
100
AcDbEntity
  8
4
  6
Continuous
 62
    92
100
AcDbLine
 10
151.9449201288041
 20
437.8983981737848
 30
0.0
 11
189.9448590936041
 21
437.8983981737848
 31
0.0
  0
LINE
  5
375
330
A
100
AcDbEntity
  8
4
  6
Continuous
 62
    92
100
AcDbLine
 10
151.9449201288041
 20
431.8984286912847
 30
0.0
 11
189.9448590936041
 21
431.8984286912847
 31
0.0
  0
LINE
  5
376
330
A
100
AcDbEntity
  8
11
  6
CENTERX2
 62
    92
100
AcDbLine
 10
161.9449811639041
 20
434.8985202440847
 30
0.0
 11
120.4449201288041
 21
434.8985202440847
 31
0.0
  0
LINE
  5
377
330
A
100
AcDbEntity
  8
11
  6
CENTERX2
 62
    92
100
AcDbLine
 10
139.9449811639041
 20
454.3986117967848
 30
0.0
 11
139.9449811639041
 21
415.3983676561848
 31
0.0
  0
LINE
  5
378
330
A
100
AcDbEntity
  8
11
  6
Continuous
 62
    92
100
AcDbLine
 10
148.9588971795041
 20
431.8984286912847
 30
0.0
 11
151.9449201288041
 21
431.8984286912847
 31
0.0
  0
LINE
  5
379
330
A
100
AcDbEntity
  8
11
  6
Continuous
 62
    92
100
AcDbLine
 10
151.9449201288041
 20
431.8984286912847
 30
0.0
 11
151.9449201288041
 21
437.8983981737848
 31
0.0
  0
LINE
  5
37A
330
A
100
AcDbEntity
  8
11
  6
Continuous
 62
    92
100
AcDbLine
 10
151.9449201288041
 20
437.8983981737848
 30
0.0
 11
148.9588971795041
 21
437.8983981737848
 31
0.0
  0
LINE
  5
37B
330
A
100
AcDbEntity
  8
4
 62
    92
100
AcDbLine
 10
859.239170617004
 20
293.5709750780847
 30
0.0
 11
861.5018888145041
 21
294.7023929313847
 31
0.0
  0
LINE
  5
37C
330
A
100
AcDbEntity
  8
4
 62
    92
100
AcDbLine
 10
861.5018888145041
 20
294.7023929313847
 30
0.0
 11
860.3704944630042
 21
295.8337402791847
 31
0.0
  0
LINE
  5
37D
330
A
100
AcDbEntity
  8
4
 62
    92
100
AcDbLine
 10
860.3704944630042
 20
295.8337402791847
 30
0.0
 11
859.239170617004
 21
293.5709750780847
 31
0.0
  0
LINE
  5
37E
330
A
100
AcDbEntity
  8
4
  6
Continuous
 62
    92
100
AcDbLine
 10
859.239170617004
 20
293.5709750780847
 30
0.0
 11
965.3052106561041
 21
399.6371982225848
 31
0.0
  0
LINE
  5
37F
330
A
100
AcDbEntity
  8
4
 62
    92
100
AcDbLine
 10
965.3052106561041
 20
399.6371982225848
 30
0.0
 11
963.0424924586041
 21
398.5057803691848
 31
0.0
  0
LINE
  5
380
330
A
100
AcDbEntity
  8
4
 62
    92
100
AcDbLine
 10
963.0424924586041
 20
398.5057803691848
 30
0.0
 11
964.1738868102041
 21
397.3744330213847
 31
0.0
  0
LINE
  5
381
330
A
100
AcDbEntity
  8
4
 62
    92
100
AcDbLine
 10
964.1738868102041
 20
397.3744330213847
 30
0.0
 11
965.3052106561041
 21
399.6371982225848
 31
0.0
  0
LINE
  5
382
330
A
100
AcDbEntity
  8
4
  6
Continuous
 62
    92
100
AcDbLine
 10
775.3176007928041
 20
377.4923617967847
 30
0.0
 11
859.239170617004
 21
293.5709750780847
 31
0.0
  0
LINE
  5
383
330
A
100
AcDbEntity
  8
4
  6
Continuous
 62
    92
100
AcDbLine
 10
881.383701867004
 20
483.5585849412848
 30
0.0
 11
922.274876183404
 21
442.6675326952848
 31
0.0
  0
LINE
  5
384
330
A
100
AcDbEntity
  8
4
  6
Continuous
 62
    92
100
AcDbLine
 10
939.357883995904
 20
425.5845248827847
 30
0.0
 11
965.3052106561041
 21
399.6371982225848
 31
0.0
  0
LINE
  5
385
330
A
100
AcDbEntity
  8
4
  6
Continuous
 62
    92
100
AcDbLine
 10
739.6476178827041
 20
327.4923465379848
 30
0.0
 11
778.7251325311041
 21
327.4923465379848
 31
0.0
  0
LINE
  5
386
330
A
100
AcDbEntity
  8
4
 62
    92
100
AcDbLine
 10
778.7251325311041
 20
327.4923465379848
 30
0.0
 11
776.3251325311041
 21
328.2923465379848
 31
0.0
  0
LINE
  5
387
330
A
100
AcDbEntity
  8
4
 62
    92
100
AcDbLine
 10
776.3251325311041
 20
328.2923465379848
 30
0.0
 11
776.3251325311041
 21
326.6923465379848
 31
0.0
  0
LINE
  5
388
330
A
100
AcDbEntity
  8
4
 62
    92
100
AcDbLine
 10
776.3251325311041
 20
326.6923465379848
 30
0.0
 11
778.7251325311041
 21
327.4923465379848
 31
0.0
  0
LINE
  5
389
330
A
100
AcDbEntity
  8
4
  6
Continuous
 62
    92
100
AcDbLine
 10
778.7251325311041
 20
327.4923465379848
 30
0.0
 11
787.7251935662041
 21
327.4923465379848
 31
0.0
  0
LINE
  5
38A
330
A
100
AcDbEntity
  8
4
 62
    92
100
AcDbLine
 10
787.7251935662041
 20
327.4923465379848
 30
0.0
 11
790.1251935662042
 21
326.6923465379848
 31
0.0
  0
LINE
  5
38B
330
A
100
AcDbEntity
  8
4
 62
    92
100
AcDbLine
 10
790.1251935662042
 20
326.6923465379848
 30
0.0
 11
790.1251935662042
 21
328.2923465379848
 31
0.0
  0
LINE
  5
38C
330
A
100
AcDbEntity
  8
4
 62
    92
100
AcDbLine
 10
790.1251935662042
 20
328.2923465379848
 30
0.0
 11
787.7251935662041
 21
327.4923465379848
 31
0.0
  0
LINE
  5
38D
330
A
100
AcDbEntity
  8
4
  6
Continuous
 62
    92
100
AcDbLine
 10
787.7251935662041
 20
327.4923465379848
 30
0.0
 11
805.2251325311042
 21
327.4923465379848
 31
0.0
  0
LINE
  5
38E
330
A
100
AcDbEntity
  8
4
  6
Continuous
 62
    92
100
AcDbLine
 10
778.7251325311041
 20
394.3337924608848
 30
0.0
 11
778.7251325311041
 21
327.4923465379848
 31
0.0
  0
LINE
  5
38F
330
A
100
AcDbEntity
  8
4
  6
Continuous
 62
    92
100
AcDbLine
 10
787.7251935662041
 20
394.3337924608848
 30
0.0
 11
787.7251935662041
 21
327.4923465379848
 31
0.0
  0
LINE
  5
390
330
A
100
AcDbEntity
  8
4
 62
    92
100
AcDbLine
 10
771.3837629022041
 20
551.2112643846847
 30
0.0
 11
773.7837629022041
 21
550.4112643846847
 31
0.0
  0
LINE
  5
391
330
A
100
AcDbEntity
  8
4
 62
    92
100
AcDbLine
 10
773.7837629022041
 20
550.4112643846847
 30
0.0
 11
773.7837629022041
 21
552.0112643846848
 31
0.0
  0
LINE
  5
392
330
A
100
AcDbEntity
  8
4
 62
    92
100
AcDbLine
 10
773.7837629022041
 20
552.0112643846848
 30
0.0
 11
771.3837629022041
 21
551.2112643846847
 31
0.0
  0
LINE
  5
393
330
A
100
AcDbEntity
  8
4
  6
Continuous
 62
    92
100
AcDbLine
 10
771.3837629022041
 20
551.2112643846847
 30
0.0
 11
876.3837018670042
 21
551.2112643846847
 31
0.0
  0
LINE
  5
394
330
A
100
AcDbEntity
  8
4
 62
    92
100
AcDbLine
 10
876.3837018670042
 20
551.2112643846847
 30
0.0
 11
873.9837018670041
 21
552.0112643846848
 31
0.0
  0
LINE
  5
395
330
A
100
AcDbEntity
  8
4
 62
    92
100
AcDbLine
 10
873.9837018670041
 20
552.0112643846848
 30
0.0
 11
873.9837018670041
 21
550.4112643846847
 31
0.0
  0
LINE
  5
396
330
A
100
AcDbEntity
  8
4
 62
    92
100
AcDbLine
 10
873.9837018670041
 20
550.4112643846847
 30
0.0
 11
876.3837018670042
 21
551.2112643846847
 31
0.0
  0
LINE
  5
397
330
A
100
AcDbEntity
  8
4
  6
Continuous
 62
    92
100
AcDbLine
 10
771.3837629022041
 20
441.7313449510848
 30
0.0
 11
771.3837629022041
 21
551.2112643846847
 31
0.0
  0
LINE
  5
398
330
A
100
AcDbEntity
  8
4
  6
Continuous
 62
    92
100
AcDbLine
 10
876.3837018670042
 20
441.7313449510848
 30
0.0
 11
876.3837018670042
 21
551.2112643846847
 31
0.0
  0
LINE
  5
399
330
A
100
AcDbEntity
  8
11
  6
Continuous
 62
    92
100
AcDbLine
 10
842.5223127069042
 20
471.2754428514847
 30
0.0
 11
834.319309777204
 21
457.0672519334848
 31
0.0
  0
LINE
  5
39A
330
A
100
AcDbEntity
  8
11
  6
Continuous
 62
    92
100
AcDbLine
 10
845.9866071405041
 20
469.2753818162848
 30
0.0
 11
837.7834211053041
 21
455.0671298631847
 31
0.0
  0
LINE
  5
39B
330
A
100
AcDbEntity
  8
11
  6
Continuous
 62
    92
100
AcDbLine
 10
801.7809186639041
 20
469.2754428514848
 30
0.0
 11
809.9841046991041
 21
455.0673129686848
 31
0.0
  0
LINE
  5
39C
330
A
100
AcDbEntity
  8
11
  6
Continuous
 62
    92
100
AcDbLine
 10
805.2451520623041
 20
471.2755038866847
 30
0.0
 11
813.4482160272041
 21
457.0673129686848
 31
0.0
  0
LINE
  5
39D
330
A
100
AcDbEntity
  8
11
  6
Continuous
 62
    92
100
AcDbLine
 10
783.1424298944041
 20
436.9924838670847
 30
0.0
 11
799.5487409295041
 21
436.9924838670847
 31
0.0
  0
LINE
  5
39E
330
A
100
AcDbEntity
  8
11
  6
Continuous
 62
    92
100
AcDbLine
 10
783.1424298944041
 20
432.9923007616848
 30
0.0
 11
799.5487409295041
 21
432.9923007616848
 31
0.0
  0
LINE
  5
39F
330
A
100
AcDbEntity
  8
11
  6
Continuous
 62
    92
100
AcDbLine
 10
805.2451520623041
 20
398.7093417772848
 30
0.0
 11
813.4482160272041
 21
412.9174716600847
 31
0.0
  0
LINE
  5
3A0
330
A
100
AcDbEntity
  8
11
  6
Continuous
 62
    92
100
AcDbLine
 10
801.7809186639041
 20
400.7094028123847
 30
0.0
 11
809.9841046991041
 21
414.9175326952848
 31
0.0
  0
LINE
  5
3A1
330
A
100
AcDbEntity
  8
11
  6
Continuous
 62
    92
100
AcDbLine
 10
845.9864240350041
 20
400.7094028123847
 30
0.0
 11
837.7833600702041
 21
414.9175937303848
 31
0.0
  0
LINE
  5
3A2
330
A
100
AcDbEntity
  8
11
  6
Continuous
 62
    92
100
AcDbLine
 10
842.5223127069042
 20
398.7093417772848
 30
0.0
 11
834.3191877069042
 21
412.9174716600847
 31
0.0
  0
LINE
  5
3AA
330
A
100
AcDbEntity
  8
11
  6
Continuous
 62
    92
100
AcDbLine
 10
581.3339276971041
 20
492.4901950487848
 30
0.0
 11
603.3339276971041
 21
492.4901950487848
 31
0.0
  0
LINE
  5
3AB
330
A
100
AcDbEntity
  8
11
  6
Continuous
 62
    92
100
AcDbLine
 10
603.3339276971041
 20
492.4901950487848
 30
0.0
 11
603.3339276971041
 21
377.4901950487848
 31
0.0
  0
LINE
  5
3AC
330
A
100
AcDbEntity
  8
11
  6
Continuous
 62
    92
100
AcDbLine
 10
603.3339276971041
 20
377.4901950487848
 30
0.0
 11
581.3339276971041
 21
377.4901950487848
 31
0.0
  0
LINE
  5
3AD
330
A
100
AcDbEntity
  8
11
  6
Continuous
 62
    92
100
AcDbLine
 10
581.3339276971041
 20
483.5561740526848
 30
0.0
 11
603.3339276971041
 21
483.5561740526848
 31
0.0
  0
LINE
  5
3AE
330
A
100
AcDbEntity
  8
11
  6
Continuous
 62
    92
100
AcDbLine
 10
581.3339276971041
 20
386.4241855272848
 30
0.0
 11
603.3339276971041
 21
386.4241855272848
 31
0.0
  0
LINE
  5
3B3
330
A
100
AcDbEntity
  8
1
  6
Continuous
 62
    92
100
AcDbLine
 10
290.4299359979041
 20
728.9281528123847
 30
0.0
 11
290.4299359979041
 21
693.7281406053848
 31
0.0
  0
LINE
  5
3B4
330
A
100
AcDbEntity
  8
1
  6
Continuous
 62
    92
100
AcDbLine
 10
290.4299359979041
 20
728.9281528123847
 30
0.0
 11
158.4299321832041
 21
728.9281528123847
 31
0.0
  0
LINE
  5
3B5
330
A
100
AcDbEntity
  8
1
  6
Continuous
 62
    92
100
AcDbLine
 10
158.4299321832041
 20
728.9281528123847
 30
0.0
 11
158.4299321832041
 21
711.3281772264847
 31
0.0
  0
LINE
  5
3B6
330
A
100
AcDbEntity
  8
1
  6
Continuous
 62
    92
100
AcDbLine
 10
158.4299321832041
 20
711.3281772264847
 30
0.0
 11
290.4299359979041
 21
711.3281772264847
 31
0.0
  0
LINE
  5
3B7
330
A
100
AcDbEntity
  8
1
  6
Continuous
 62
    92
100
AcDbLine
 10
158.4299321832041
 20
711.3281772264847
 30
0.0
 11
158.4299321832041
 21
693.7281406053848
 31
0.0
  0
LINE
  5
3B8
330
A
100
AcDbEntity
  8
1
  6
Continuous
 62
    92
100
AcDbLine
 10
158.4299321832041
 20
693.7281406053848
 30
0.0
 11
290.4299359979041
 21
693.7281406053848
 31
0.0
  0
LINE
  5
3BE
330
A
100
AcDbEntity
  8
1
  6
Continuous
 62
    92
100
AcDbLine
 10
134.9449811639042
 20
578.4984805712349
 30
0.0
 11
253.3449445428041
 21
578.4984805712347
 31
0.0
  0
CIRCLE
  5
3C8
330
A
100
AcDbEntity
  8
11
  6
Continuous
 62
    92
100
AcDbCircle
 10
935.745274132704
 20
190.2518527635848
 30
0.0
 40
4.400001525899999
  0
CIRCLE
  5
3C9
330
A
100
AcDbEntity
  8
11
  6
Continuous
 62
    92
100
AcDbCircle
 10
935.745274132704
 20
190.2518527635848
 30
0.0
 40
8.800003051799999
  0
ARC
  5
3CA
330
A
100
AcDbEntity
  8
11
  6
Continuous
 62
    92
100
AcDbCircle
 10
335.929920739104
 20
460.6380832323847
 30
0.0
 40
3.041022381299999
100
AcDbArc
 50
211.3895568999999
 51
252.3519897
  0
ARC
  5
3CB
330
A
100
AcDbEntity
  8
11
  6
Continuous
 62
    92
100
AcDbCircle
 10
335.924549645304
 20
460.6286533006848
 30
0.0
 40
3.0304069498
100
AcDbArc
 50
252.3957671999999
 51
272.0514832
  0
ARC
  5
3CC
330
A
100
AcDbEntity
  8
11
  6
Continuous
 62
    92
100
AcDbCircle
 10
339.1340833368041
 20
457.1454379686848
 30
0.0
 40
1.493556857399999
100
AcDbArc
 50
199.1223755
 51
239.9841309
  0
ARC
  5
3CD
330
A
100
AcDbEntity
  8
11
  6
Continuous
 62
    92
100
AcDbCircle
 10
339.135746544804
 20
457.1520602830847
 30
0.0
 40
1.500122340099999
100
AcDbArc
 50
240.0566864
 51
282.7949218999999
  0
ARC
  5
3CE
330
A
100
AcDbEntity
  8
11
  6
Continuous
 62
    92
100
AcDbCircle
 10
342.3048749627041
 20
455.3598849901848
 30
0.0
 40
1.3387985495
100
AcDbArc
 50
200.630935707
 51
235.9849854019
  0
ARC
  5
3CF
330
A
100
AcDbEntity
  8
11
  6
Continuous
 62
    92
100
AcDbCircle
 10
342.3791852655041
 20
451.6792209276847
 30
0.0
 40
2.353522800299999
100
AcDbArc
 50
64.9987183
 51
87.9135284
  0
ARC
  5
3D0
330
A
100
AcDbEntity
  8
11
  6
Continuous
 62
    92
100
AcDbCircle
 10
342.3806348504041
 20
451.6691196092848
 30
0.0
 40
2.3620738399
100
AcDbArc
 50
31.81073189999999
 51
65.13330079999999
  0
ARC
  5
3D1
330
A
100
AcDbEntity
  8
11
  6
Continuous
 62
    92
100
AcDbCircle
 10
346.2943158807041
 20
448.8281772264848
 30
0.0
 40
2.982713496
100
AcDbArc
 50
68.49256899999999
 51
88.06861109999999
  0
ARC
  5
3D2
330
A
100
AcDbEntity
  8
11
  6
Continuous
 62
    92
100
AcDbCircle
 10
346.2961469354041
 20
448.8354709276848
 30
0.0
 40
2.975259097799999
100
AcDbArc
 50
34.30300139999999
 51
68.47300719999999
  0
ARC
  5
3D3
330
A
100
AcDbEntity
  8
11
  6
Continuous
 62
    92
100
AcDbCircle
 10
352.450459069204
 20
449.7466647752847
 30
0.0
 40
3.774955148299999
100
AcDbArc
 50
168.2993774
 51
196.7108917
  0
ARC
  5
3D4
330
A
100
AcDbEntity
  8
11
  6
Continuous
 62
    92
100
AcDbCircle
 10
352.4392438592041
 20
449.7394931444848
 30
0.0
 40
3.7621526191
100
AcDbArc
 50
196.6561279
 51
210.5687103
  0
ARC
  5
3D5
330
A
100
AcDbEntity
  8
11
  6
Continuous
 62
    92
100
AcDbCircle
 10
347.901402062304
 20
446.7623508104848
 30
0.0
 40
1.679204723099999
100
AcDbArc
 50
337.0714110999999
 51
7.8313904
  0
ARC
  5
3D6
330
A
100
AcDbEntity
  8
11
  6
Continuous
 62
    92
100
AcDbCircle
 10
350.7862897577041
 20
445.4791171678848
 30
0.0
 40
1.477340721
100
AcDbArc
 50
189.8975948068999
 51
228.0618743985999
  0
ARC
  5
3D7
330
A
100
AcDbEntity
  8
11
  6
Continuous
 62
    92
100
AcDbCircle
 10
351.124363488104
 20
442.1206882127847
 30
0.0
 40
1.254711929599999
100
AcDbArc
 50
147.2638244999999
 51
182.5809479
  0
ARC
  5
3D8
330
A
100
AcDbEntity
  8
11
  6
Continuous
 62
    92
100
AcDbCircle
 10
348.6409803094041
 20
440.0772616991848
 30
0.0
 40
1.9703715327
100
AcDbArc
 50
10.40726469999999
 51
36.4972687
  0
ARC
  5
3D9
330
A
100
AcDbEntity
  8
11
  6
Continuous
 62
    92
100
AcDbCircle
 10
348.6449628534041
 20
440.0740573534847
 30
0.0
 40
1.967043195
100
AcDbArc
 50
338.5636597
 51
10.51919559999999
  0
ARC
  5
3DA
330
A
100
AcDbEntity
  8
11
  6
Continuous
 62
    92
100
AcDbCircle
 10
348.2553754510041
 20
435.7282321580847
 30
0.0
 40
3.0352515941
100
AcDbArc
 50
16.14450259999999
 51
33.9929352
  0
ARC
  5
3DB
330
A
100
AcDbEntity
  8
11
  6
Continuous
 62
    92
100
AcDbCircle
 10
348.2742200555041
 20
435.7370822557848
 30
0.0
 40
3.014700408099999
100
AcDbArc
 50
345.655304
 51
16.0817261
  0
ARC
  5
3DC
330
A
100
AcDbEntity
  8
11
  6
Continuous
 62
    92
100
AcDbCircle
 10
348.2750135125041
 20
434.2433078416847
 30
0.0
 40
3.0139286798
100
AcDbArc
 50
343.9132996
 51
14.3482089955
  0
ARC
  5
3DD
330
A
100
AcDbEntity
  8
11
  6
Continuous
 62
    92
100
AcDbCircle
 10
348.250782555504
 20
434.2543552049847
 30
0.0
 40
3.040284133899999
100
AcDbArc
 50
326.0206603999999
 51
343.8393249999999
  0
ARC
  5
3DE
330
A
100
AcDbEntity
  8
11
  6
Continuous
 62
    92
100
AcDbCircle
 10
348.6445203485041
 20
429.9062717088848
 30
0.0
 40
1.967466642399999
100
AcDbArc
 50
349.4832152999999
 51
21.4319310124
  0
ARC
  5
3DF
330
A
100
AcDbEntity
  8
11
  6
Continuous
 62
    92
100
AcDbCircle
 10
348.6335645379041
 20
429.9063632616848
 30
0.0
 40
1.9782527483
100
AcDbArc
 50
323.5545044
 51
349.5378418
  0
ARC
  5
3E0
330
A
100
AcDbEntity
  8
11
  6
Continuous
 62
    92
100
AcDbCircle
 10
351.123768395304
 20
427.8594882616848
 30
0.0
 40
1.254120596299999
100
AcDbArc
 50
177.4086433954999
 51
212.7429504045999
  0
ARC
  5
3E1
330
A
100
AcDbEntity
  8
11
  6
Continuous
 62
    92
100
AcDbCircle
 10
350.7915082635041
 20
424.4996554979848
 30
0.0
 40
1.4827561728
100
AcDbArc
 50
132.0201874
 51
170.0754546999999
  0
ARC
  5
3E2
330
A
100
AcDbEntity
  8
11
  6
Continuous
 62
    92
100
AcDbCircle
 10
347.9037976922041
 20
423.2183444627848
 30
0.0
 40
1.676867698499999
100
AcDbArc
 50
352.144529241
 51
22.9493308803
  0
ARC
  5
3E3
330
A
100
AcDbEntity
  8
11
  6
Continuous
 62
    92
100
AcDbCircle
 10
352.4283338250041
 20
420.2456882127847
 30
0.0
 40
3.750323836399999
100
AcDbArc
 50
149.4091948999999
 51
163.3663177
  0
ARC
  5
3E4
330
A
100
AcDbEntity
  8
11
  6
Continuous
 62
    92
100
AcDbCircle
 10
352.4505048455041
 20
420.2337253221847
 30
0.0
 40
3.774989658999999
100
AcDbArc
 50
163.2890167
 51
191.6997528
  0
ARC
  5
3E5
330
A
100
AcDbEntity
  8
11
  6
Continuous
 62
    92
100
AcDbCircle
 10
346.2952008905041
 20
421.1460178026848
 30
0.0
 40
2.9766541094
100
AcDbArc
 50
291.5350952
 51
325.6889343
  0
ARC
  5
3E6
330
A
100
AcDbEntity
  8
11
  6
Continuous
 62
    92
100
AcDbCircle
 10
346.290714806504
 20
421.1700961717848
 30
0.0
 40
3.0007116995
100
AcDbArc
 50
271.9881287
 51
291.4455261
  0
ARC
  5
3E7
330
A
100
AcDbEntity
  8
11
  6
Continuous
 62
    92
100
AcDbCircle
 10
342.3820081414041
 20
418.3096835741848
 30
0.0
 40
2.3600818797
100
AcDbArc
 50
294.8514708999999
 51
328.2029419
  0
ARC
  5
3E8
330
A
100
AcDbEntity
  8
11
  6
Continuous
 62
    92
100
AcDbCircle
 10
342.3777814569041
 20
418.3070895799848
 30
0.0
 40
2.359520471899999
100
AcDbArc
 50
272.1146851
 51
294.97052
  0
ARC
  5
3E9
330
A
100
AcDbEntity
  8
11
  6
Continuous
 62
    92
100
AcDbCircle
 10
342.306446618004
 20
414.6192233690848
 30
0.0
 40
1.3407143029
100
AcDbArc
 50
124.0398712
 51
159.3417968999999
  0
ARC
  5
3EA
330
A
100
AcDbEntity
  8
11
  6
Continuous
 62
    92
100
AcDbCircle
 10
339.1350293817041
 20
412.8330600389848
 30
0.0
 40
1.495648966699999
100
AcDbArc
 50
77.14137270000001
 51
120.013443
  0
ARC
  5
3EB
330
A
100
AcDbEntity
  8
11
  6
Continuous
 62
    92
100
AcDbCircle
 10
339.1373334588041
 20
412.8322665819847
 30
0.0
 40
1.4975069638
100
AcDbArc
 50
120.0710907
 51
160.8213196
  0
ARC
  5
3EC
330
A
100
AcDbEntity
  8
11
  6
Continuous
 62
    92
100
AcDbCircle
 10
335.9237714471041
 20
409.3569247850847
 30
0.0
 40
3.025224510699999
100
AcDbArc
 50
87.9343262
 51
107.6239777
  0
ARC
  5
3ED
330
A
100
AcDbEntity
  8
11
  6
Continuous
 62
    92
100
AcDbCircle
 10
335.9294019403041
 20
409.3429477342848
 30
0.0
 40
3.040252634999999
100
AcDbArc
 50
107.641304
 51
148.6146088
  0
ARC
  5
3EE
330
A
100
AcDbEntity
  8
11
  6
Continuous
 62
    92
100
AcDbCircle
 10
302.3339429559041
 20
434.9901950487848
 30
0.0
 40
3.0
100
AcDbArc
 50
90.0
 51
270.0
  0
ARC
  5
3EF
330
A
100
AcDbEntity
  8
11
  6
Continuous
 62
    92
100
AcDbCircle
 10
328.3339429559041
 20
434.9901950487848
 30
0.0
 40
3.0
100
AcDbArc
 50
270.0
 51
90.0
  0
ARC
  5
3F0
330
A
100
AcDbEntity
  8
1
  6
Continuous
 62
    92
100
AcDbCircle
 10
388.8352704705041
 20
446.4904086717847
 30
0.0
 40
2.4999694824
100
AcDbArc
 50
90.0
 51
180.0
  0
ARC
  5
3F1
330
A
100
AcDbEntity
  8
1
  6
Continuous
 62
    92
100
AcDbCircle
 10
458.8344770135041
 20
446.4901950487848
 30
0.0
 40
2.500152587899999
100
AcDbArc
 50
0.0
 51
89.98181149999998
  0
ARC
  5
3F2
330
A
100
AcDbEntity
  8
1
  6
Continuous
 62
    92
100
AcDbCircle
 10
458.8352704705041
 20
423.4896762498848
 30
0.0
 40
2.4993286133
100
AcDbArc
 50
270.0
 51
0.0119019002
  0
ARC
  5
3F3
330
A
100
AcDbEntity
  8
1
  6
Continuous
 62
    92
100
AcDbCircle
 10
388.8344464959041
 20
423.4901950487848
 30
0.0
 40
2.499847547899999
100
AcDbArc
 50
179.9811146738
 51
270.0188852588
  0
CIRCLE
  5
3F4
330
A
100
AcDbEntity
  8
11
  6
Continuous
 62
    92
100
AcDbCircle
 10
823.8835797967041
 20
511.9939792284847
 30
0.0
 40
11.4999389648
  0
ARC
  5
3F5
330
A
100
AcDbEntity
  8
11
  6
Continuous
 62
    92
100
AcDbCircle
 10
817.8834577264041
 20
524.0873630174847
 30
0.0
 40
1.000039253099999
100
AcDbArc
 50
296.3859252999999
 51
0.0
  0
ARC
  5
3F6
330
A
100
AcDbEntity
  8
11
  6
Continuous
 62
    92
100
AcDbCircle
 10
823.8835797967041
 20
511.9939792284847
 30
0.0
 40
12.5000124628
100
AcDbArc
 50
116.3867111
 51
63.61087040000001
  0
ARC
  5
3F7
330
A
100
AcDbEntity
  8
11
  6
Continuous
 62
    92
100
AcDbCircle
 10
829.883579796704
 20
524.0873019823848
 30
0.0
 40
1.0
100
AcDbArc
 50
180.0
 51
243.6069794
  0
ARC
  5
3F8
330
A
100
AcDbEntity
  8
11
  6
Continuous
 62
    92
100
AcDbCircle
 10
823.8835797967041
 20
511.9939792284847
 30
0.0
 40
10.749971165
100
AcDbArc
 50
70.83331300000001
 51
346.8529053
  0
CIRCLE
  5
3F9
330
A
100
AcDbEntity
  8
11
  6
Continuous
 62
    92
100
AcDbCircle
 10
823.8835797967041
 20
511.9939792284847
 30
0.0
 40
9.5
  0
ARC
  5
3FA
330
A
100
AcDbEntity
  8
11
  6
Continuous
 62
    92
100
AcDbCircle
 10
829.8835187616042
 20
531.0838229784847
 30
0.0
 40
0.9999389652999999
100
AcDbArc
 50
180.0
 51
243.6110839999999
  0
ARC
  5
3FB
330
A
100
AcDbEntity
  8
11
  6
Continuous
 62
    92
100
AcDbCircle
 10
823.8836408319041
 20
518.9903781541848
 30
0.0
 40
12.50005981609999
100
AcDbArc
 50
343.7384338
 51
63.61260989999999
  0
ARC
  5
3FC
330
A
100
AcDbEntity
  8
11
  6
Continuous
 62
    92
100
AcDbCircle
 10
823.8833356561041
 20
518.9908054002848
 30
0.0
 40
12.4996579147
100
AcDbArc
 50
116.386261
 51
196.2460938
  0
ARC
  5
3FD
330
A
100
AcDbEntity
  8
11
  6
Continuous
 62
    92
100
AcDbCircle
 10
817.8834577264041
 20
531.0838534959848
 30
0.0
 40
0.9999845776
100
AcDbArc
 50
296.3874816999999
 51
0.0
  0
CIRCLE
  5
3FE
330
A
100
AcDbEntity
  8
11
  6
Continuous
 62
    92
100
AcDbCircle
 10
823.8834577264041
 20
434.9938876756848
 30
0.0
 40
9.500030517599999
  0
ARC
  5
3FF
330
A
100
AcDbEntity
  8
11
  6
CENTERX2
 62
    92
100
AcDbCircle
 10
823.8837018670041
 20
434.9923312791847
 30
0.0
 40
57.50029962350001
100
AcDbArc
 50
126.9710922
 51
143.6672515999999
  0
ARC
  5
400
330
A
100
AcDbEntity
  8
11
  6
CENTERX2
 62
    92
100
AcDbCircle
 10
823.8837018670041
 20
434.9923312791847
 30
0.0
 40
29.9999269018
100
AcDbArc
 50
28.5551929
 51
57.66671750000001
  0
ARC
  5
401
330
A
100
AcDbEntity
  8
11
  6
CENTERX2
 62
    92
100
AcDbCircle
 10
823.8834577264041
 20
434.9925449022848
 30
0.0
 40
29.9999605686
100
AcDbArc
 50
301.9829102
 51
331.8502502
  0
ARC
  5
402
330
A
100
AcDbEntity
  8
11
  6
CENTERX2
 62
    92
100
AcDbCircle
 10
823.8834577264041
 20
434.9925449022848
 30
0.0
 40
29.9034982568
100
AcDbArc
 50
209.3906249999999
 51
237.4176025
  0
ARC
  5
403
330
A
100
AcDbEntity
  8
11
  6
CENTERX2
 62
    92
100
AcDbCircle
 10
823.8834577264041
 20
434.9926669725848
 30
0.0
 40
57.5000006797
100
AcDbArc
 50
36.226265
 51
52.27407070000001
  0
ARC
  5
404
330
A
100
AcDbEntity
  8
11
  6
CENTERX2
 62
    92
100
AcDbCircle
 10
823.8834577264041
 20
434.9925143846848
 30
0.0
 40
57.4999836889
100
AcDbArc
 50
306.8076172
 51
322.8751221
  0
ARC
  5
405
330
A
100
AcDbEntity
  8
11
  6
CENTERX2
 62
    92
100
AcDbCircle
 10
823.8837018670041
 20
434.9923312791847
 30
0.0
 40
57.5000644197
100
AcDbArc
 50
216.9037628
 51
232.6790161
  0
ARC
  5
406
330
A
100
AcDbEntity
  8
11
  6
CENTERX2
 62
    92
100
AcDbCircle
 10
823.8834577264041
 20
434.9926364549848
 30
0.0
 40
62.0000275434
100
AcDbArc
 50
221.1628723
 51
229.8207397
  0
ARC
  5
407
330
A
100
AcDbEntity
  8
11
  6
Continuous
 62
    92
100
AcDbCircle
 10
768.8840070428041
 20
387.4620273241848
 30
0.0
 40
2.5003662109
100
AcDbArc
 50
180.0
 51
224.9911041
  0
ARC
  5
408
330
A
100
AcDbEntity
  8
11
  6
Continuous
 62
    92
100
AcDbCircle
 10
768.883701867004
 20
482.5229709276848
 30
0.0
 40
2.500078225399999
100
AcDbArc
 50
134.9968872
 51
180.0
  0
ARC
  5
409
330
A
100
AcDbEntity
  8
11
  6
Continuous
 62
    92
100
AcDbCircle
 10
776.3530011834041
 20
489.9929416307847
 30
0.0
 40
2.499694824199999
100
AcDbArc
 50
90.0
 51
135.0048311989999
  0
ARC
  5
40A
330
A
100
AcDbEntity
  8
11
  6
Continuous
 62
    92
100
AcDbCircle
 10
871.413975304504
 20
489.9925754198847
 30
0.0
 40
2.500056644799999
100
AcDbArc
 50
45.00065229999999
 51
90.0011444
  0
ARC
  5
40B
330
A
100
AcDbEntity
  8
11
  6
Continuous
 62
    92
100
AcDbCircle
 10
878.883946007704
 20
482.5231845506848
 30
0.0
 40
2.499572753899999
100
AcDbArc
 50
0.0
 51
45.0081986364
  0
ARC
  5
40C
330
A
100
AcDbEntity
  8
11
  6
Continuous
 62
    92
100
AcDbCircle
 10
878.883030480304
 20
387.4623935350848
 30
0.0
 40
2.500466649599999
100
AcDbArc
 50
314.9998473999999
 51
359.9918517633
  0
ARC
  5
40D
330
A
100
AcDbEntity
  8
11
  6
Continuous
 62
    92
100
AcDbCircle
 10
871.413853234204
 20
379.9931552537847
 30
0.0
 40
2.500579834
100
AcDbArc
 50
270.0
 51
314.9930724999999
  0
ARC
  5
40E
330
A
100
AcDbEntity
  8
11
  6
Continuous
 62
    92
100
AcDbCircle
 10
776.3530011834041
 20
379.9925143846848
 30
0.0
 40
2.499948749199999
100
AcDbArc
 50
225.0021361999999
 51
270.0011597
  0
ARC
  5
40F
330
A
100
AcDbEntity
  8
11
  6
Continuous
 62
    92
100
AcDbCircle
 10
773.8833356561041
 20
477.6236789354848
 30
0.0
 40
2.499689798899999
100
AcDbArc
 50
134.9978638
 51
180.0
  0
ARC
  5
410
330
A
100
AcDbEntity
  8
11
  6
Continuous
 62
    92
100
AcDbCircle
 10
781.2525983514041
 20
484.9926974901848
 30
0.0
 40
2.499884011299999
100
AcDbArc
 50
90.0
 51
135.0004945818
  0
ARC
  5
411
330
A
100
AcDbEntity
  8
11
  6
Continuous
 62
    92
100
AcDbCircle
 10
773.8834577264041
 20
392.3642490037847
 30
0.0
 40
2.4998168975
100
AcDbArc
 50
180.0
 51
225.0028075999999
  0
ARC
  5
412
330
A
100
AcDbEntity
  8
11
  6
Continuous
 62
    92
100
AcDbCircle
 10
781.2525983514041
 20
384.9951388963848
 30
0.0
 40
2.4998624324
100
AcDbArc
 50
225.0001526
 51
270.0011291999999
  0
ARC
  5
413
330
A
100
AcDbEntity
  8
11
  6
Continuous
 62
    92
100
AcDbCircle
 10
866.514622277204
 20
484.9929416307848
 30
0.0
 40
2.4996034852
100
AcDbArc
 50
44.9981804
 51
90.0067444
  0
ARC
  5
414
330
A
100
AcDbEntity
  8
11
  6
Continuous
 62
    92
100
AcDbCircle
 10
873.8837018670041
 20
477.6235568651848
 30
0.0
 40
2.4998192752
100
AcDbArc
 50
0.079073255
 51
45.0019783779
  0
ARC
  5
415
330
A
100
AcDbEntity
  8
11
  6
Continuous
 62
    92
100
AcDbCircle
 10
873.8841291131041
 20
392.3613193162847
 30
0.0
 40
2.499366122
100
AcDbArc
 50
314.9934081999999
 51
0.0
  0
ARC
  5
416
330
A
100
AcDbEntity
  8
11
  6
Continuous
 62
    92
100
AcDbCircle
 10
866.514500206904
 20
384.9927585252848
 30
0.0
 40
2.500152587899999
100
AcDbArc
 50
270.0
 51
314.9950561999999
  0
CIRCLE
  5
417
330
A
100
AcDbEntity
  8
11
  6
Continuous
 62
    92
100
AcDbCircle
 10
823.8834577264041
 20
434.9925449022848
 30
0.0
 40
47.49993896479999
  0
CIRCLE
  5
418
330
A
100
AcDbEntity
  8
11
  6
Continuous
 62
    92
100
AcDbCircle
 10
823.8835797967041
 20
434.9925449022848
 30
0.0
 40
42.4999389648
  0
ARC
  5
419
330
A
100
AcDbEntity
  8
11
  6
Continuous
 62
    92
100
AcDbCircle
 10
841.1363874139041
 20
472.0754916795847
 30
0.0
 40
1.600081835099999
100
AcDbArc
 50
330.0014343
 51
65.04565429999999
  0
ARC
  5
41A
330
A
100
AcDbEntity
  8
11
  6
Continuous
 62
    92
100
AcDbCircle
 10
847.3718000116042
 20
468.4755160936847
 30
0.0
 40
1.600063142299999
100
AcDbArc
 50
54.9521751
 51
150.0006104
  0
ARC
  5
41B
330
A
100
AcDbEntity
  8
11
  6
Continuous
 62
    92
100
AcDbCircle
 10
806.6307721795041
 20
472.0755221971848
 30
0.0
 40
1.600056234499999
100
AcDbArc
 50
114.9499587999999
 51
209.9991455
  0
ARC
  5
41C
330
A
100
AcDbEntity
  8
11
  6
Continuous
 62
    92
100
AcDbCircle
 10
783.1423078241041
 20
438.5925204881847
 30
0.0
 40
1.599963492499999
100
AcDbArc
 50
174.9487151999999
 51
269.9998778999999
  0
ARC
  5
41D
330
A
100
AcDbEntity
  8
11
  6
Continuous
 62
    92
100
AcDbCircle
 10
783.1424298944041
 20
431.3900973924847
 30
0.0
 40
1.5999469311
100
AcDbArc
 50
89.9138184
 51
185.0547791000999
  0
ARC
  5
41E
330
A
100
AcDbEntity
  8
11
  6
Continuous
 62
    92
100
AcDbCircle
 10
864.6248517694042
 20
438.5925204881847
 30
0.0
 40
1.5999755859
100
AcDbArc
 50
270.0
 51
5.049865700199999
  0
ARC
  5
41F
330
A
100
AcDbEntity
  8
11
  6
Continuous
 62
    92
100
AcDbCircle
 10
864.6248517694042
 20
431.3925387987848
 30
0.0
 40
1.600024290599999
100
AcDbArc
 50
354.9488830999
 51
89.9998474
  0
ARC
  5
420
330
A
100
AcDbEntity
  8
11
  6
Continuous
 62
    92
100
AcDbCircle
 10
847.3707013787041
 20
401.5116489061847
 30
0.0
 40
1.5999080012
100
AcDbArc
 50
210.0009003
 51
303.9424133
  0
ARC
  5
421
330
A
100
AcDbEntity
  8
11
  6
Continuous
 62
    92
100
AcDbCircle
 10
841.1365094842041
 20
397.9096896776848
 30
0.0
 40
1.6000839037
100
AcDbArc
 50
294.9494934
 51
29.99520869999999
  0
ARC
  5
422
330
A
100
AcDbEntity
  8
11
  6
Continuous
 62
    92
100
AcDbCircle
 10
806.6305280389041
 20
397.9096286424848
 30
0.0
 40
1.599817546599999
100
AcDbArc
 50
149.9959564
 51
245.0511168999999
  0
ARC
  5
423
330
A
100
AcDbEntity
  8
11
  6
Continuous
 62
    92
100
AcDbCircle
 10
800.3953595819041
 20
401.5096042284848
 30
0.0
 40
1.600133248
100
AcDbArc
 50
234.9485931
 51
329.9995117
  0
ARC
  5
424
330
A
100
AcDbEntity
  8
11
  6
Continuous
 62
    92
100
AcDbCircle
 10
800.3952375116041
 20
468.4755466112847
 30
0.0
 40
1.599960859399999
100
AcDbArc
 50
29.9998055
 51
125.0512389999999
  0
CIRCLE
  5
425
330
A
100
AcDbEntity
  8
11
  6
Continuous
 62
    92
100
AcDbCircle
 10
845.0966535272041
 20
456.2057407030848
 30
0.0
 40
4.5
  0
CIRCLE
  5
426
330
A
100
AcDbEntity
  8
11
  6
Continuous
 62
    92
100
AcDbCircle
 10
845.0966535272041
 20
413.7793491014847
 30
0.0
 40
4.5
  0
CIRCLE
  5
427
330
A
100
AcDbEntity
  8
11
  6
Continuous
 62
    92
100
AcDbCircle
 10
802.6703229608042
 20
413.7792880662847
 30
0.0
 40
4.5
  0
CIRCLE
  5
428
330
A
100
AcDbEntity
  8
11
  6
Continuous
 62
    92
100
AcDbCircle
 10
802.6702008905042
 20
456.2057712205848
 30
0.0
 40
4.5
  0
ARC
  5
429
330
A
100
AcDbEntity
  8
11
  6
Continuous
 62
    92
100
AcDbCircle
 10
846.2408796014042
 20
466.5167758592848
 30
0.0
 40
1.599998460599999
100
AcDbArc
 50
150.0022278
 51
225.0007781999999
  0
ARC
  5
42A
330
A
100
AcDbEntity
  8
11
  6
Continuous
 62
    92
100
AcDbCircle
 10
845.0966535272041
 20
456.2057407030848
 30
0.0
 40
6.5000819221
100
AcDbArc
 50
315.1443787
 51
44.8668518
  0
ARC
  5
42B
330
A
100
AcDbEntity
  8
11
  6
Continuous
 62
    92
100
AcDbCircle
 10
847.526951378704
 20
447.1807162889848
 30
0.0
 40
1.6000750965
100
AcDbArc
 50
135.0011748999999
 51
207.2656859999999
  0
ARC
  5
42C
330
A
100
AcDbEntity
  8
11
  6
Continuous
 62
    92
100
AcDbCircle
 10
823.8829084100041
 20
434.9930637010848
 30
0.0
 40
25.0007387023
100
AcDbArc
 50
4.5873537
 51
27.2697601
  0
ARC
  5
42D
330
A
100
AcDbEntity
  8
11
  6
Continuous
 62
    92
100
AcDbCircle
 10
801.5259137811041
 20
466.5173556932848
 30
0.0
 40
1.599924041399999
100
AcDbArc
 50
315.0003966999999
 51
30.0018311
  0
ARC
  5
42E
330
A
100
AcDbEntity
  8
11
  6
Continuous
 62
    92
100
AcDbCircle
 10
802.669956749804
 20
456.2064426073848
 30
0.0
 40
6.500013374899999
100
AcDbArc
 50
135.1304779
 51
224.8533325
  0
ARC
  5
42F
330
A
100
AcDbEntity
  8
11
  6
Continuous
 62
    92
100
AcDbCircle
 10
800.2395978631041
 20
447.1814487108848
 30
0.0
 40
1.600169689199999
100
AcDbArc
 50
332.7325133999999
 51
44.99468989999999
  0
ARC
  5
430
330
A
100
AcDbEntity
  8
11
  6
Continuous
 62
    92
100
AcDbCircle
 10
823.8837018670041
 20
434.9938266405848
 30
0.0
 40
25.0002398183
100
AcDbArc
 50
152.7297820999999
 51
175.4122009
  0
ARC
  5
431
330
A
100
AcDbEntity
  8
11
  6
Continuous
 62
    92
100
AcDbCircle
 10
801.5258527459041
 20
403.4687717088847
 30
0.0
 40
1.599976118
100
AcDbArc
 50
329.9992371
 51
44.9969177
  0
ARC
  5
432
330
A
100
AcDbEntity
  8
11
  6
Continuous
 62
    92
100
AcDbCircle
 10
802.669956749804
 20
413.7797153123847
 30
0.0
 40
6.500017129999999
100
AcDbArc
 50
135.1441803
 51
224.8670348999999
  0
ARC
  5
433
330
A
100
AcDbEntity
  8
11
  6
Continuous
 62
    92
100
AcDbCircle
 10
800.2397199334041
 20
422.8047092088847
 30
0.0
 40
1.6000750965
100
AcDbArc
 50
315.0011597
 51
27.2676392
  0
ARC
  5
434
330
A
100
AcDbEntity
  8
11
  6
Continuous
 62
    92
100
AcDbCircle
 10
823.8837018670041
 20
434.9923617967847
 30
0.0
 40
25.0006729813
100
AcDbArc
 50
184.5872344999999
 51
207.2697144
  0
ARC
  5
435
330
A
100
AcDbEntity
  8
11
  6
Continuous
 62
    92
100
AcDbCircle
 10
846.240696495904
 20
403.4693820604847
 30
0.0
 40
1.599859310399999
100
AcDbArc
 50
134.9934386999999
 51
210.0000763
  0
ARC
  5
436
330
A
100
AcDbEntity
  8
11
  6
Continuous
 62
    92
100
AcDbCircle
 10
845.0966535272041
 20
413.7803866991847
 30
0.0
 40
6.500056632499999
100
AcDbArc
 50
315.1308898999999
 51
44.85336300000001
  0
ARC
  5
437
330
A
100
AcDbEntity
  8
11
  6
Continuous
 62
    92
100
AcDbCircle
 10
847.526829308404
 20
422.8054111131847
 30
0.0
 40
1.5999929497
100
AcDbArc
 50
152.7304534999999
 51
225.0000609999999
  0
ARC
  5
438
330
A
100
AcDbEntity
  8
11
  6
Continuous
 62
    92
100
AcDbCircle
 10
823.8829084100041
 20
434.9930637010848
 30
0.0
 40
25.0002677832
100
AcDbArc
 50
332.7296753
 51
355.4120788999999
  0
CIRCLE
  5
439
330
A
100
AcDbEntity
  8
11
  6
Continuous
 62
    92
100
AcDbCircle
 10
845.0966535272041
 20
456.2057407030848
 30
0.0
 40
2.400085449199999
  0
CIRCLE
  5
43A
330
A
100
AcDbEntity
  8
11
  6
Continuous
 62
    92
100
AcDbCircle
 10
845.0966535272041
 20
413.7793491014847
 30
0.0
 40
2.399963378899999
  0
CIRCLE
  5
43B
330
A
100
AcDbEntity
  8
11
  6
Continuous
 62
    92
100
AcDbCircle
 10
802.6703229608042
 20
413.7792880662847
 30
0.0
 40
2.400085449199999
  0
CIRCLE
  5
43C
330
A
100
AcDbEntity
  8
11
  6
Continuous
 62
    92
100
AcDbCircle
 10
802.6702008905042
 20
456.2057712205848
 30
0.0
 40
2.400085449199999
  0
CIRCLE
  5
43D
330
A
100
AcDbEntity
  8
11
  6
Continuous
 62
    92
100
AcDbCircle
 10
823.8834577264041
 20
434.9925449022848
 30
0.0
 40
12.75
  0
ARC
  5
43E
330
A
100
AcDbEntity
  8
11
  6
Continuous
 62
    92
100
AcDbCircle
 10
823.8834577264041
 20
434.9926669725848
 30
0.0
 40
24.9998107082
100
AcDbArc
 50
64.589798
 51
115.4128264999999
  0
ARC
  5
43F
330
A
100
AcDbEntity
  8
11
  6
Continuous
 62
    92
100
AcDbCircle
 10
823.8837018670041
 20
434.9938266405848
 30
0.0
 40
24.9986584775
100
AcDbArc
 50
64.5891629387
 51
82.2229538
  0
ARC
  5
440
330
A
100
AcDbEntity
  8
11
  6
Continuous
 62
    92
100
AcDbCircle
 10
827.483738488104
 20
461.3476474412848
 30
0.0
 40
1.6000366211
100
AcDbArc
 50
180.0
 51
262.2214966
  0
ARC
  5
441
330
A
100
AcDbEntity
  8
11
  6
Continuous
 62
    92
100
AcDbCircle
 10
823.8837018670041
 20
434.9938266405848
 30
0.0
 40
37.9985014568
100
AcDbArc
 50
86.98513790000001
 51
93.01939389999999
  0
ARC
  5
442
330
A
100
AcDbEntity
  8
11
  6
Continuous
 62
    92
100
AcDbCircle
 10
820.2837262811041
 20
461.3475864061848
 30
0.0
 40
1.599950170999999
100
AcDbArc
 50
277.7745361
 51
0.0
  0
ARC
  5
443
330
A
100
AcDbEntity
  8
11
  6
Continuous
 62
    92
100
AcDbCircle
 10
823.8837018670041
 20
434.9938266405848
 30
0.0
 40
24.9985550136
100
AcDbArc
 50
97.77660369999999
 51
115.4107361
  0
ARC
  5
444
330
A
100
AcDbEntity
  8
11
  6
Continuous
 62
    92
100
AcDbCircle
 10
823.8837018670041
 20
434.9938571580848
 30
0.0
 40
24.998713607
100
AcDbArc
 50
244.5892334
 51
262.2229919
  0
ARC
  5
445
330
A
100
AcDbEntity
  8
11
  6
Continuous
 62
    92
100
AcDbCircle
 10
820.2836652459041
 20
408.6399753221847
 30
0.0
 40
1.6000366211
100
AcDbArc
 50
0.0
 51
82.22149659999999
  0
ARC
  5
446
330
A
100
AcDbEntity
  8
11
  6
Continuous
 62
    92
100
AcDbCircle
 10
823.8837018670041
 20
434.9938571580848
 30
0.0
 40
37.9985624073
100
AcDbArc
 50
266.9851379
 51
273.0191956
  0
ARC
  5
447
330
A
100
AcDbEntity
  8
11
  6
Continuous
 62
    92
100
AcDbCircle
 10
827.483738488104
 20
408.6398532518847
 30
0.0
 40
1.6001398516
100
AcDbArc
 50
97.77582549999999
 51
179.9913635
  0
ARC
  5
448
330
A
100
AcDbEntity
  8
11
  6
Continuous
 62
    92
100
AcDbCircle
 10
823.8837018670041
 20
434.9938571580848
 30
0.0
 40
24.9986154871
100
AcDbArc
 50
277.7765808
 51
295.410675
  0
ARC
  5
449
330
A
100
AcDbEntity
  8
11
  6
Continuous
 62
    92
100
AcDbCircle
 10
823.8834577264041
 20
434.9926669725848
 30
0.0
 40
22.999824923
100
AcDbArc
 50
64.9897156
 51
115.0126801
  0
ARC
  5
44A
330
A
100
AcDbEntity
  8
11
  6
Continuous
 62
    92
100
AcDbCircle
 10
823.8834577264041
 20
434.9926669725848
 30
0.0
 40
21.0000311805
100
AcDbArc
 50
65.4661942
 51
114.5364226999999
  0
ARC
  5
44B
330
A
100
AcDbEntity
  8
11
  6
Continuous
 62
    92
100
AcDbCircle
 10
823.8835797967041
 20
434.9925449022848
 30
0.0
 40
25.00011096579999
100
AcDbArc
 50
4.5886619485
 51
55.4115639018
  0
ARC
  5
44C
330
A
100
AcDbEntity
  8
11
  6
Continuous
 62
    92
100
AcDbCircle
 10
823.8837018670041
 20
434.9923312791847
 30
0.0
 40
22.999982038
100
AcDbArc
 50
4.989207299999999
 51
55.0122566
  0
ARC
  5
44D
330
A
100
AcDbEntity
  8
11
  6
Continuous
 62
    92
100
AcDbCircle
 10
823.8834577264041
 20
434.9925449022848
 30
0.0
 40
21.0000568309
100
AcDbArc
 50
5.465148
 51
54.53514479999999
  0
ARC
  5
44E
330
A
100
AcDbEntity
  8
11
  6
Continuous
 62
    92
100
AcDbCircle
 10
823.8834577264041
 20
434.9926669725848
 30
0.0
 40
25.0004035157
100
AcDbArc
 50
304.5872803
 51
355.409729
  0
ARC
  5
44F
330
A
100
AcDbEntity
  8
11
  6
Continuous
 62
    92
100
AcDbCircle
 10
823.8835797967041
 20
434.9925449022848
 30
0.0
 40
23.0002512214
100
AcDbArc
 50
304.9872131
 51
355.0100098
  0
ARC
  5
450
330
A
100
AcDbEntity
  8
11
  6
Continuous
 62
    92
100
AcDbCircle
 10
823.8834577264041
 20
434.9926669725848
 30
0.0
 40
21.0000243222
100
AcDbArc
 50
305.4638061999999
 51
354.5332031
  0
ARC
  5
451
330
A
100
AcDbEntity
  8
11
  6
Continuous
 62
    92
100
AcDbCircle
 10
823.8834577264041
 20
434.9925143846848
 30
0.0
 40
20.9998742765
100
AcDbArc
 50
245.4667511
 51
294.5371398999999
  0
ARC
  5
452
330
A
100
AcDbEntity
  8
11
  6
Continuous
 62
    92
100
AcDbCircle
 10
823.8835797967041
 20
434.9925449022848
 30
0.0
 40
21.0001204951
100
AcDbArc
 50
185.4652252
 51
234.5351868
  0
ARC
  5
453
330
A
100
AcDbEntity
  8
11
  6
Continuous
 62
    92
100
AcDbCircle
 10
823.8834577264041
 20
434.9925143846848
 30
0.0
 40
21.0001026305
100
AcDbArc
 50
125.4632416
 51
174.5335083
  0
ARC
  5
454
330
A
100
AcDbEntity
  8
11
  6
Continuous
 62
    92
100
AcDbCircle
 10
823.8837018670041
 20
434.9923312791847
 30
0.0
 40
23.0000312125
100
AcDbArc
 50
124.9872283999999
 51
175.0095214999999
  0
ARC
  5
455
330
A
100
AcDbEntity
  8
11
  6
Continuous
 62
    92
100
AcDbCircle
 10
823.8834577264041
 20
434.9926669725848
 30
0.0
 40
24.9995294364
100
AcDbArc
 50
124.5869598
 51
175.4102478
  0
ARC
  5
456
330
A
100
AcDbEntity
  8
11
  6
Continuous
 62
    92
100
AcDbCircle
 10
823.8835797967041
 20
434.9925449022848
 30
0.0
 40
22.99984450679999
100
AcDbArc
 50
184.9887695
 51
235.0116118999999
  0
ARC
  5
457
330
A
100
AcDbEntity
  8
11
  6
Continuous
 62
    92
100
AcDbCircle
 10
823.8834577264041
 20
434.9926669725848
 30
0.0
 40
24.999758135
100
AcDbArc
 50
184.5890808
 51
235.4120482999999
  0
ARC
  5
458
330
A
100
AcDbEntity
  8
11
  6
Continuous
 62
    92
100
AcDbCircle
 10
823.8834577264041
 20
434.9925143846848
 30
0.0
 40
25.0000601663
100
AcDbArc
 50
244.5902251999999
 51
295.4134827
  0
CIRCLE
  5
459
330
A
100
AcDbEntity
  8
11
  6
Continuous
 62
    92
100
AcDbCircle
 10
864.5421491327041
 20
475.6512057909847
 30
0.0
 40
4.5
  0
ARC
  5
45A
330
A
100
AcDbEntity
  8
11
  6
Continuous
 62
    92
100
AcDbCircle
 10
867.7242170037041
 20
478.8332126268848
 30
0.0
 40
2.899972662799999
100
AcDbArc
 50
153.7977753
 51
296.1987305
  0
CIRCLE
  5
45B
330
A
100
AcDbEntity
  8
11
  6
Continuous
 62
    92
100
AcDbCircle
 10
783.2248273553041
 20
475.6512363084848
 30
0.0
 40
4.5
  0
CIRCLE
  5
45C
330
A
100
AcDbEntity
  8
11
  6
Continuous
 62
    92
100
AcDbCircle
 10
783.2248273553041
 20
394.3338534959847
 30
0.0
 40
4.5
  0
ARC
  5
45D
330
A
100
AcDbEntity
  8
11
  6
Continuous
 62
    92
100
AcDbCircle
 10
780.0428815545041
 20
478.8332126268848
 30
0.0
 40
2.900040900899999
100
AcDbArc
 50
243.8000640999999
 51
26.2037354
  0
ARC
  5
45E
330
A
100
AcDbEntity
  8
11
  6
Continuous
 62
    92
100
AcDbCircle
 10
780.0428815545041
 20
391.1518466600848
 30
0.0
 40
2.899986137399999
100
AcDbArc
 50
333.7972107
 51
116.2006226
  0
CIRCLE
  5
45F
330
A
100
AcDbEntity
  8
11
  6
Continuous
 62
    92
100
AcDbCircle
 10
864.5421491327041
 20
394.3338534959847
 30
0.0
 40
4.5
  0
CIRCLE
  5
460
330
A
100
AcDbEntity
  8
11
  6
Continuous
 62
    92
100
AcDbCircle
 10
139.9449811639041
 20
434.8984897264847
 30
0.0
 40
9.500061035199999
  0
ARC
  5
461
330
A
100
AcDbEntity
  8
11
  6
Continuous
 62
    92
100
AcDbCircle
 10
841.1366925897041
 20
472.0754916795847
 30
0.0
 40
1.600006636399999
100
AcDbArc
 50
329.9973449999999
 51
65.04928589999998
  0
ARC
  5
462
330
A
100
AcDbEntity
  8
11
  6
Continuous
 62
    92
100
AcDbCircle
 10
832.9336286248041
 20
457.8673007616848
 30
0.0
 40
1.600035867899999
100
AcDbArc
 50
248.4191131999999
 51
330.0009766
  0
ARC
  5
463
330
A
100
AcDbEntity
  8
11
  6
Continuous
 62
    92
100
AcDbCircle
 10
847.372288292804
 20
468.4753329881847
 30
0.0
 40
1.59991809
100
AcDbArc
 50
54.9538689
 51
150.0006104
  0
ARC
  5
464
330
A
100
AcDbEntity
  8
11
  6
Continuous
 62
    92
100
AcDbCircle
 10
839.1691022577042
 20
454.2672031053847
 30
0.0
 40
1.599998460599999
100
AcDbArc
 50
150.0022278
 51
231.5838317999999
  0
ARC
  5
465
330
A
100
AcDbEntity
  8
11
  6
Continuous
 62
    92
100
AcDbCircle
 10
800.3952375116041
 20
468.4753329881847
 30
0.0
 40
1.600090012899999
100
AcDbArc
 50
30.00344659999999
 51
125.0475769
  0
ARC
  5
466
330
A
100
AcDbEntity
  8
11
  6
Continuous
 62
    92
100
AcDbCircle
 10
808.5983625116041
 20
454.2672641405848
 30
0.0
 40
1.600013221999999
100
AcDbArc
 50
308.4205627
 51
29.9983521
  0
ARC
  5
467
330
A
100
AcDbEntity
  8
11
  6
Continuous
 62
    92
100
AcDbCircle
 10
806.6308332147041
 20
472.0754916795847
 30
0.0
 40
1.600028565299999
100
AcDbArc
 50
114.9504089
 51
209.9972533999999
  0
ARC
  5
468
330
A
100
AcDbEntity
  8
11
  6
Continuous
 62
    92
100
AcDbCircle
 10
814.8339582147041
 20
457.8673617967847
 30
0.0
 40
1.600112351599999
100
AcDbArc
 50
210.0004578
 51
291.5801392
  0
ARC
  5
469
330
A
100
AcDbEntity
  8
11
  6
Continuous
 62
    92
100
AcDbCircle
 10
823.8837018670041
 20
434.9938876756848
 30
0.0
 40
22.9986267116
100
AcDbArc
 50
68.41512299999999
 51
111.5881042
  0
ARC
  5
46A
330
A
100
AcDbEntity
  8
11
  6
Continuous
 62
    92
100
AcDbCircle
 10
823.8824811639041
 20
434.9930942186848
 30
0.0
 40
22.99862910539999
100
AcDbArc
 50
128.4121857
 51
171.5852965999999
  0
ARC
  5
46B
330
A
100
AcDbEntity
  8
11
  6
Continuous
 62
    92
100
AcDbCircle
 10
823.8825421991041
 20
434.9915683397847
 30
0.0
 40
22.99867031559999
100
AcDbArc
 50
188.4136504999999
 51
231.5866851999999
  0
ARC
  5
46C
330
A
100
AcDbEntity
  8
11
  6
Continuous
 62
    92
100
AcDbCircle
 10
823.8838849725041
 20
434.9908969530848
 30
0.0
 40
22.9986267116
100
AcDbArc
 50
248.4151154
 51
291.5881041999999
  0
ARC
  5
46D
330
A
100
AcDbEntity
  8
11
  6
Continuous
 62
    92
100
AcDbCircle
 10
823.8851667108042
 20
434.9916293748847
 30
0.0
 40
22.99860108349999
100
AcDbArc
 50
308.4118651999999
 51
351.5851134999999
  0
ARC
  5
46E
330
A
100
AcDbEntity
  8
11
  6
Continuous
 62
    92
100
AcDbCircle
 10
823.8850446405042
 20
434.9931552537848
 30
0.0
 40
22.99867031559999
100
AcDbArc
 50
8.4136515
 51
51.58666229999999
  0
CIRCLE
  5
46F
330
A
100
AcDbEntity
  8
14
  6
Continuous
 62
    92
100
AcDbCircle
 10
823.8838849725041
 20
434.9908969530848
 30
0.0
 40
20.4553222656
  0
ARC
  5
470
330
A
100
AcDbEntity
  8
11
  6
Continuous
 62
    92
100
AcDbCircle
 10
783.1424298944041
 20
438.5925204881847
 30
0.0
 40
1.599958119799999
100
AcDbArc
 50
174.9508819999
 51
269.9998778999999
  0
ARC
  5
471
330
A
100
AcDbEntity
  8
11
  6
Continuous
 62
    92
100
AcDbCircle
 10
799.5487409295041
 20
438.5925204881847
 30
0.0
 40
1.6000366211
100
AcDbArc
 50
270.0
 51
351.5823974998999
  0
ARC
  5
472
330
A
100
AcDbEntity
  8
11
  6
Continuous
 62
    92
100
AcDbCircle
 10
783.1424298944041
 20
431.3922641405848
 30
0.0
 40
1.6000366211
100
AcDbArc
 50
90.0
 51
185.0489806999999
  0
ARC
  5
473
330
A
100
AcDbEntity
  8
11
  6
Continuous
 62
    92
100
AcDbCircle
 10
799.5487409295041
 20
431.3922641405848
 30
0.0
 40
1.599814705699999
100
AcDbArc
 50
8.417814300000001
 51
90.00022129999999
  0
ARC
  5
474
330
A
100
AcDbEntity
  8
11
  6
Continuous
 62
    92
100
AcDbCircle
 10
823.8837018670041
 20
434.9923617967847
 30
0.0
 40
22.99997377199999
100
AcDbArc
 50
176.583847
 51
176.5812377999999
  0
ARC
  5
475
330
A
100
AcDbEntity
  8
11
  6
Continuous
 62
    92
100
AcDbCircle
 10
823.8824811639041
 20
434.9923617967847
 30
0.0
 40
20.9993589477
100
AcDbArc
 50
235.8901215
 51
235.8894043
  0
CIRCLE
  5
476
330
A
100
AcDbEntity
  8
11
  6
Continuous
 62
    92
100
AcDbCircle
 10
823.8837018670041
 20
434.9923617967847
 30
0.0
 40
9.5
  0
ARC
  5
477
330
A
100
AcDbEntity
  8
11
  6
Continuous
 62
    92
100
AcDbCircle
 10
806.6308942498041
 20
397.9093539842848
 30
0.0
 40
1.600081835099999
100
AcDbArc
 50
150.0014343
 51
245.0471801999999
  0
ARC
  5
478
330
A
100
AcDbEntity
  8
11
  6
Continuous
 62
    92
100
AcDbCircle
 10
814.8339582147041
 20
412.1174838670848
 30
0.0
 40
1.5998206983
100
AcDbArc
 50
68.4207382
 51
150.0039367999999
  0
ARC
  5
479
330
A
100
AcDbEntity
  8
11
  6
Continuous
 62
    92
100
AcDbCircle
 10
800.3953595819041
 20
401.5093906053848
 30
0.0
 40
1.5999531406
100
AcDbArc
 50
234.9520873999999
 51
330.0003357
  0
ARC
  5
47A
330
A
100
AcDbEntity
  8
11
  6
Continuous
 62
    92
100
AcDbCircle
 10
808.5983625116041
 20
415.7174594530848
 30
0.0
 40
1.6000513205
100
AcDbArc
 50
330.0033264
 51
51.5800781
  0
ARC
  5
47B
330
A
100
AcDbEntity
  8
11
  6
Continuous
 62
    92
100
AcDbCircle
 10
847.3721662225042
 20
401.5093906053848
 30
0.0
 40
1.600081835099999
100
AcDbArc
 50
209.9985656999999
 51
305.0500792999999
  0
ARC
  5
47C
330
A
100
AcDbEntity
  8
11
  6
Continuous
 62
    92
100
AcDbCircle
 10
839.1690412225042
 20
415.7176425584848
 30
0.0
 40
1.5998895444
100
AcDbArc
 50
128.4185181
 51
209.9994812
  0
ARC
  5
47D
330
A
100
AcDbEntity
  8
11
  6
Continuous
 62
    92
100
AcDbCircle
 10
841.1365705194041
 20
397.9093539842848
 30
0.0
 40
1.600028565299999
100
AcDbArc
 50
294.9504088999999
 51
29.9961548
  0
ARC
  5
47E
330
A
100
AcDbEntity
  8
11
  6
Continuous
 62
    92
100
AcDbCircle
 10
832.9335675897041
 20
412.1175449022848
 30
0.0
 40
1.599945601299999
100
AcDbArc
 50
29.9988594
 51
111.5842132999999
  0
POINT
  5
47F
330
A
100
AcDbEntity
  8
1
100
AcDbPoint
 10
521.3338666619041
 20
592.0781772264847
 30
0.0
  0
POINT
  5
480
330
A
100
AcDbEntity
  8
4
100
AcDbPoint
 10
296.3339429559041
 20
500.4901950487847
 30
0.0
  0
POINT
  5
481
330
A
100
AcDbEntity
  8
4
100
AcDbPoint
 10
299.3339429559041
 20
500.4901950487847
 30
0.0
  0
POINT
  5
482
330
A
100
AcDbEntity
  8
4
100
AcDbPoint
 10
299.3339429559041
 20
518.4901950487848
 30
0.0
  0
POINT
  5
483
330
A
100
AcDbEntity
  8
4
100
AcDbPoint
 10
331.3339429559041
 20
500.4901950487847
 30
0.0
  0
POINT
  5
484
330
A
100
AcDbEntity
  8
4
100
AcDbPoint
 10
331.3339429559041
 20
518.4901950487848
 30
0.0
  0
POINT
  5
485
330
A
100
AcDbEntity
  8
4
100
AcDbPoint
 10
296.3339429559041
 20
426.4901950487848
 30
0.0
  0
POINT
  5
486
330
A
100
AcDbEntity
  8
4
100
AcDbPoint
 10
296.3339429559041
 20
302.4901797899847
 30
0.0
  0
POINT
  5
487
330
A
100
AcDbEntity
  8
4
100
AcDbPoint
 10
613.3339276971041
 20
408.1635043748847
 30
0.0
  0
POINT
  5
488
330
A
100
AcDbEntity
  8
4
100
AcDbPoint
 10
613.3339276971041
 20
302.4901797899847
 30
0.0
  0
POINT
  5
489
330
A
100
AcDbEntity
  8
4
100
AcDbPoint
 10
344.3349347772041
 20
500.4901950487847
 30
0.0
  0
POINT
  5
48A
330
A
100
AcDbEntity
  8
4
100
AcDbPoint
 10
336.3339429559041
 20
500.4901950487847
 30
0.0
  0
POINT
  5
48B
330
A
100
AcDbEntity
  8
4
100
AcDbPoint
 10
246.3339429559041
 20
444.4901950487848
 30
0.0
  0
POINT
  5
48C
330
A
100
AcDbEntity
  8
4
100
AcDbPoint
 10
246.3339429559041
 20
425.4901950487847
 30
0.0
  0
POINT
  5
48D
330
A
100
AcDbEntity
  8
4
100
AcDbPoint
 10
221.3339276971041
 20
387.4901950487848
 30
0.0
  0
POINT
  5
48E
330
A
100
AcDbEntity
  8
4
100
AcDbPoint
 10
221.3339276971041
 20
482.4901950487848
 30
0.0
  0
POINT
  5
48F
330
A
100
AcDbEntity
  8
7
100
AcDbPoint
 10
521.3338666619041
 20
592.0781772264847
 30
0.0
  0
POINT
  5
490
330
A
100
AcDbEntity
  8
7
100
AcDbPoint
 10
521.3338666619041
 20
592.0781772264847
 30
0.0
  0
POINT
  5
491
330
A
100
AcDbEntity
  8
7
100
AcDbPoint
 10
296.3339429559041
 20
592.0781772264847
 30
0.0
  0
POINT
  5
492
330
A
100
AcDbEntity
  8
7
100
AcDbPoint
 10
296.3339429559041
 20
592.0781772264847
 30
0.0
  0
POINT
  5
493
330
A
100
AcDbEntity
  8
7
100
AcDbPoint
 10
564.3339276971041
 20
536.9901950487848
 30
0.0
  0
POINT
  5
494
330
A
100
AcDbEntity
  8
7
100
AcDbPoint
 10
564.3339276971041
 20
617.0781772264847
 30
0.0
  0
POINT
  5
495
330
A
100
AcDbEntity
  8
7
100
AcDbPoint
 10
296.3339429559041
 20
443.4901950487848
 30
0.0
  0
POINT
  5
496
330
A
100
AcDbEntity
  8
7
100
AcDbPoint
 10
296.3339429559041
 20
617.0781772264847
 30
0.0
  0
POINT
  5
497
330
A
100
AcDbEntity
  8
4
100
AcDbPoint
 10
344.3349347772041
 20
541.3371799119848
 30
0.0
  0
POINT
  5
498
330
A
100
AcDbEntity
  8
4
100
AcDbPoint
 10
379.3349347772041
 20
541.3371799119848
 30
0.0
  0
POINT
  5
499
330
A
100
AcDbEntity
  8
4
100
AcDbPoint
 10
336.3339429559041
 20
352.4901797899847
 30
0.0
  0
POINT
  5
49A
330
A
100
AcDbEntity
  8
4
100
AcDbPoint
 10
333.3339429559041
 20
352.4901797899847
 30
0.0
  0
POINT
  5
49B
330
A
100
AcDbEntity
  8
4
100
AcDbPoint
 10
336.3339429559041
 20
327.4901797899847
 30
0.0
  0
POINT
  5
49C
330
A
100
AcDbEntity
  8
4
100
AcDbPoint
 10
296.3339429559041
 20
327.4901797899847
 30
0.0
  0
POINT
  5
49D
330
A
100
AcDbEntity
  8
11
100
AcDbPoint
 10
386.3349347772041
 20
461.9311740526848
 30
0.0
  0
POINT
  5
49E
330
A
100
AcDbEntity
  8
11
100
AcDbPoint
 10
386.3349347772041
 20
468.8941867479847
 30
0.0
  0
POINT
  5
49F
330
A
100
AcDbEntity
  8
11
100
AcDbPoint
 10
386.3349347772041
 20
448.3021762498847
 30
0.0
  0
POINT
  5
4A0
330
A
100
AcDbEntity
  8
11
100
AcDbPoint
 10
386.3349347772041
 20
455.2651889452848
 30
0.0
  0
POINT
  5
4A1
330
A
100
AcDbEntity
  8
11
100
AcDbPoint
 10
386.3349347772041
 20
408.0491855272848
 30
0.0
  0
POINT
  5
4A2
330
A
100
AcDbEntity
  8
11
100
AcDbPoint
 10
386.3349347772041
 20
401.0861728319848
 30
0.0
  0
POINT
  5
4A3
330
A
100
AcDbEntity
  8
11
100
AcDbPoint
 10
386.3349347772041
 20
421.6771762498847
 30
0.0
  0
POINT
  5
4A4
330
A
100
AcDbEntity
  8
11
100
AcDbPoint
 10
386.3349347772041
 20
414.7141940721848
 30
0.0
  0
POINT
  5
4A5
330
A
100
AcDbEntity
  8
4
100
AcDbPoint
 10
642.3509259881041
 20
492.4901950487848
 30
0.0
  0
POINT
  5
4A6
330
A
100
AcDbEntity
  8
4
100
AcDbPoint
 10
642.3509259881041
 20
377.4901950487848
 30
0.0
  0
POINT
  5
4A7
330
A
100
AcDbEntity
  8
4
100
AcDbPoint
 10
931.383701867004
 20
434.9923617967847
 30
0.0
  0
POINT
  5
4A8
330
A
100
AcDbEntity
  8
4
100
AcDbPoint
 10
949.383701867004
 20
434.9923617967847
 30
0.0
  0
POINT
  5
4A9
330
A
100
AcDbEntity
  8
4
100
AcDbPoint
 10
828.883579796704
 20
531.4905307420847
 30
0.0
  0
POINT
  5
4AA
330
A
100
AcDbEntity
  8
4
100
AcDbPoint
 10
949.383701867004
 20
531.4905307420847
 30
0.0
  0
POINT
  5
4AB
330
A
100
AcDbEntity
  8
4
100
AcDbPoint
 10
931.383701867004
 20
434.9923617967847
 30
0.0
  0
POINT
  5
4AC
330
A
100
AcDbEntity
  8
4
100
AcDbPoint
 10
931.383701867004
 20
524.4939792284847
 30
0.0
  0
POINT
  5
4AD
330
A
100
AcDbEntity
  8
4
100
AcDbPoint
 10
857.2017560662041
 20
320.3572299608847
 30
0.0
  0
POINT
  5
4AE
330
A
100
AcDbEntity
  8
4
100
AcDbPoint
 10
938.519016808404
 20
401.6744907030847
 30
0.0
  0
POINT
  5
4AF
330
A
100
AcDbEntity
  8
7
100
AcDbPoint
 10
766.3836408319041
 20
476.3354404100848
 30
0.0
  0
POINT
  5
4B0
330
A
100
AcDbEntity
  8
7
100
AcDbPoint
 10
766.3836408319041
 20
578.8894260057848
 30
0.0
  0
POINT
  5
4B1
330
A
100
AcDbEntity
  8
7
100
AcDbPoint
 10
881.3835187616041
 20
473.9883029588847
 30
0.0
  0
POINT
  5
4B2
330
A
100
AcDbEntity
  8
7
100
AcDbPoint
 10
881.3835187616041
 20
578.8894260057848
 30
0.0
  0
POINT
  5
4B3
330
A
100
AcDbEntity
  8
4
100
AcDbPoint
 10
151.9449201288041
 20
387.3984897264847
 30
0.0
  0
POINT
  5
4B4
330
A
100
AcDbEntity
  8
4
100
AcDbPoint
 10
130.4449201288041
 20
387.3984897264847
 30
0.0
  0
POINT
  5
4B5
330
A
100
AcDbEntity
  8
4
100
AcDbPoint
 10
189.9448590936041
 20
437.8983981737848
 30
0.0
  0
POINT
  5
4B6
330
A
100
AcDbEntity
  8
4
100
AcDbPoint
 10
189.9448590936041
 20
431.8984286912847
 30
0.0
  0
POINT
  5
4B7
330
A
100
AcDbEntity
  8
4
100
AcDbPoint
 10
859.239170617004
 20
293.5709750780847
 30
0.0
  0
POINT
  5
4B8
330
A
100
AcDbEntity
  8
4
100
AcDbPoint
 10
965.3052106561041
 20
399.6371982225848
 30
0.0
  0
POINT
  5
4B9
330
A
100
AcDbEntity
  8
4
100
AcDbPoint
 10
778.7251325311041
 20
327.4923465379848
 30
0.0
  0
POINT
  5
4BA
330
A
100
AcDbEntity
  8
4
100
AcDbPoint
 10
787.7251935662041
 20
327.4923465379848
 30
0.0
  0
POINT
  5
4BB
330
A
100
AcDbEntity
  8
4
100
AcDbPoint
 10
771.3837629022041
 20
551.2112643846847
 30
0.0
  0
POINT
  5
4BC
330
A
100
AcDbEntity
  8
4
100
AcDbPoint
 10
876.3837018670042
 20
551.2112643846847
 30
0.0
  0
MTEXT
  5
4BE
330
A
100
AcDbEntity
  8
6
 62
    92
100
AcDbMText
 10
236.1599532675541
 20
217.5239954669098
 30
0.0
 40
8.035718649625
 41
0.0
 71
     1
 72
     1
  1
Typ
  7
SLDTEXTSTYLE0
 73
     1
 44
1.0
  0
MTEXT
  5
4BF
330
A
100
AcDbEntity
  8
6
 62
    92
100
AcDbMText
 10
236.1599532675541
 20
200.8564959246597
 30
0.0
 40
8.035718649625
 41
0.0
 71
     1
 72
     1
  1
MSM 115-34-404-S/M-O/2KA
  7
SLDTEXTSTYLE0
 73
     1
 44
1.0
  0
MTEXT
  5
4C0
330
A
100
AcDbEntity
  8
6
 62
    92
100
AcDbMText
 10
236.1599532675541
 20
184.1902361590348
 30
0.0
 40
8.035718649625
 41
0.0
 71
     1
 72
     1
  1
MSM 115-62-404-S/M-O/2KA
  7
SLDTEXTSTYLE0
 73
     1
 44
1.0
  0
MTEXT
  5
4C1
330
A
100
AcDbEntity
  8
6
 62
    92
100
AcDbMText
 10
236.1599532675541
 20
167.5239859301598
 30
0.0
 40
8.035718649625
 41
0.0
 71
     1
 72
     1
  1
MSM 115-89-404-S/M-O/2KA
  7
SLDTEXTSTYLE0
 73
     1
 44
1.0
  0
MTEXT
  5
4C6
330
A
100
AcDbEntity
  8
6
 62
    92
100
AcDbMText
 10
395.6068221639291
 20
217.5239954669098
 30
0.0
 40
8.035718649625
 41
0.0
 71
     1
 72
     1
  1
a [mm]
  7
SLDTEXTSTYLE0
 73
     1
 44
1.0
  0
MTEXT
  5
4C7
330
A
100
AcDbEntity
  8
6
 62
    92
100
AcDbMText
 10
395.6068221639291
 20
200.8577357012848
 30
0.0
 40
8.035718649625
 41
0.0
 71
     1
 72
     1
  1
247
  7
SLDTEXTSTYLE0
 73
     1
 44
1.0
  0
MTEXT
  5
4C8
330
A
100
AcDbEntity
  8
6
 62
    92
100
AcDbMText
 10
395.6068221639291
 20
184.1902361590348
 30
0.0
 40
8.035718649625
 41
0.0
 71
     1
 72
     1
  1
287
  7
SLDTEXTSTYLE0
 73
     1
 44
1.0
  0
MTEXT
  5
4C9
330
A
100
AcDbEntity
  8
6
 62
    92
100
AcDbMText
 10
395.6068221639291
 20
167.5239859301598
 30
0.0
 40
8.035718649625
 41
0.0
 71
     1
 72
     1
  1
327
  7
SLDTEXTSTYLE0
 73
     1
 44
1.0
  0
MTEXT
  5
4CA
330
A
100
AcDbEntity
  8
6
 62
    92
100
AcDbMText
 10
521.2018004965541
 20
217.5239954669098
 30
0.0
 40
8.035718649625
 41
0.0
 71
     1
 72
     1
  1
c [mm]
  7
SLDTEXTSTYLE0
 73
     1
 44
1.0
  0
MTEXT
  5
4CB
330
A
100
AcDbEntity
  8
6
 62
    92
100
AcDbMText
 10
521.2018004965541
 20
200.8577357012848
 30
0.0
 40
8.035718649625
 41
0.0
 71
     1
 72
     1
  1
277
  7
SLDTEXTSTYLE0
 73
     1
 44
1.0
  0
MTEXT
  5
4CC
330
A
100
AcDbEntity
  8
6
 62
    92
100
AcDbMText
 10
521.2018004965541
 20
184.1902361590348
 30
0.0
 40
8.035718649625
 41
0.0
 71
     1
 72
     1
  1
317
  7
SLDTEXTSTYLE0
 73
     1
 44
1.0
  0
MTEXT
  5
4CD
330
A
100
AcDbEntity
  8
6
 62
    92
100
AcDbMText
 10
521.2018004965541
 20
167.5239859301598
 30
0.0
 40
8.035718649625
 41
0.0
 71
     1
 72
     1
  1
357
  7
SLDTEXTSTYLE0
 73
     1
 44
1.0
  0
MTEXT
  5
4CE
330
A
100
AcDbEntity
  8
6
 62
    92
100
AcDbMText
 10
458.4043304036791
 20
217.5239954669098
 30
0.0
 40
8.035718649625
 41
0.0
 71
     1
 72
     1
  1
b [mm]
  7
SLDTEXTSTYLE0
 73
     1
 44
1.0
  0
MTEXT
  5
4CF
330
A
100
AcDbEntity
  8
6
 62
    92
100
AcDbMText
 10
458.4043304036791
 20
200.8577357012848
 30
0.0
 40
8.035718649625
 41
0.0
 71
     1
 72
     1
  1
186
  7
SLDTEXTSTYLE0
 73
     1
 44
1.0
  0
MTEXT
  5
4D0
330
A
100
AcDbEntity
  8
6
 62
    92
100
AcDbMText
 10
458.4043304036791
 20
184.1902361590348
 30
0.0
 40
8.035718649625
 41
0.0
 71
     1
 72
     1
  1
226
  7
SLDTEXTSTYLE0
 73
     1
 44
1.0
  0
MTEXT
  5
4D1
330
A
100
AcDbEntity
  8
6
 62
    92
100
AcDbMText
 10
458.4043304036791
 20
167.5239859301598
 30
0.0
 40
8.035718649625
 41
0.0
 71
     1
 72
     1
  1
266
  7
SLDTEXTSTYLE0
 73
     1
 44
1.0
  0
MTEXT
  5
4D2
330
A
100
AcDbEntity
  8
6
 62
    92
100
AcDbMText
 10
235.5209699334041
 20
564.3544986972346
 30
0.0
 40
8.000000119199999
 41
0.0
 71
     2
 72
     1
  1
+0.002
  7
SLDTEXTSTYLE0
 73
     1
 44
1.0
  0
MTEXT
  5
4D3
330
A
100
AcDbEntity
  8
6
 62
    92
100
AcDbMText
 10
235.5209699334041
 20
549.8444889316346
 30
0.0
 40
8.000000119199999
 41
0.0
 71
     2
 72
     1
  1
+0.013
  7
SLDTEXTSTYLE0
 73
     1
 44
1.0
  0
MTEXT
  5
4D4
330
A
100
AcDbEntity
  8
6
 62
    92
100
AcDbMText
 10
235.5209699334041
 20
538.3385074862348
 30
0.0
 40
8.000000119199999
 41
0.0
 71
     2
 72
     1
  1
-0.009
  7
SLDTEXTSTYLE0
 73
     1
 44
1.0
  0
MTEXT
  5
4D5
330
A
100
AcDbEntity
  8
6
 62
    92
100
AcDbMText
 10
167.2339826287041
 20
544.0985172519346
 30
0.0
 40
8.000000119199999
 41
0.0
 71
     2
 72
     1
  1
95
  7
SLDTEXTSTYLE0
 73
     1
 44
1.0
  0
MTEXT
  5
4D6
330
A
100
AcDbEntity
  8
6
 62
    92
100
AcDbMText
 10
180.2309308709041
 20
539.6325138935346
 30
0.0
 40
6.0000002384
 41
0.0
 71
     2
 72
     1
  1
j6
  7
SLDTEXTSTYLE0
 73
     1
 44
1.0
  0
MTEXT
  5
4D7
330
A
100
AcDbEntity
  8
6
 62
    92
100
AcDbMText
 10
167.2339826287041
 20
569.6984928378347
 30
0.0
 40
8.000000119199999
 41
0.0
 71
     2
 72
     1
  1
19
  7
SLDTEXTSTYLE0
 73
     1
 44
1.0
  0
MTEXT
  5
4D8
330
A
100
AcDbEntity
  8
6
 62
    92
100
AcDbMText
 10
180.2309308709041
 20
565.2324894794348
 30
0.0
 40
6.0000002384
 41
0.0
 71
     2
 72
     1
  1
k6
  7
SLDTEXTSTYLE0
 73
     1
 44
1.0
  0
MTEXT
  5
4D9
330
A
100
AcDbEntity
  8
6
 62
    92
100
AcDbMText
 10
235.5209699334041
 20
574.3604801425346
 30
0.0
 40
8.000000119199999
 41
0.0
 71
     2
 72
     1
  1
+0.015
  7
SLDTEXTSTYLE0
 73
     1
 44
1.0
  0
MTEXT
  5
4DA
330
A
100
AcDbEntity
  8
6
 62
    92
100
AcDbMText
 10
560.7639508905041
 20
727.3156272300848
 30
0.0
 40
7.9749000072
 41
0.0
 71
     2
 72
     1
  1
Three phase current synchronous motor
  7
SLDTEXTSTYLE0
 73
     1
 44
1.0
  0
MTEXT
  5
4DB
330
A
100
AcDbEntity
  8
6
 62
    92
100
AcDbMText
 10
437.8559308709041
 20
725.6679598816847
 30
0.0
 40
5.4374998808
 41
0.0
 71
     2
 72
     1
  1
motortyp :
  7
SLDTEXTSTYLE0
 73
     1
 44
1.0
  0
MTEXT
  5
4DC
330
A
100
AcDbEntity
  8
6
 62
    92
100
AcDbMText
 10
272.9739423455041
 20
705.6274081000847
 30
0.0
 40
7.612499833099999
 41
0.0
 71
     2
 72
     1
  1
IP 65
  7
SLDTEXTSTYLE0
 73
     1
 44
1.0
  0
MTEXT
  5
4DD
330
A
100
AcDbEntity
  8
6
 62
    92
100
AcDbMText
 10
161.9160232618041
 20
723.0085175748847
 30
0.0
 40
5.4374998808
 41
0.0
 71
     1
 72
     1
  1
mounting of motor :
  7
SLDTEXTSTYLE0
 73
     1
 44
1.0
  0
MTEXT
  5
4DE
330
A
100
AcDbEntity
  8
6
 62
    92
100
AcDbMText
 10
161.9160232618041
 20
705.6084931607847
 30
0.0
 40
5.4374998808
 41
0.0
 71
     1
 72
     1
  1
class of protection:
  7
SLDTEXTSTYLE0
 73
     1
 44
1.0
  0
MTEXT
  5
4DF
330
A
100
AcDbEntity
  8
6
 62
    92
100
AcDbMText
 10
273.230930870904
 20
723.0874300726847
 30
0.0
 40
7.612499833099999
 41
0.0
 71
     2
 72
     1
  1
B 5
  7
SLDTEXTSTYLE0
 73
     1
 44
1.0
  0
MTEXT
  5
4E0
330
A
100
AcDbEntity
  8
6
 62
    92
100
AcDbMText
 10
224.9639325799041
 20
666.7871784695846
 30
0.0
 40
7.8299897909
 41
0.0
 71
     2
 72
     1
  1
     all dimensions in millimeter
  7
SLDTEXTSTYLE0
 73
     1
 44
1.0
  0
MTEXT
  5
4E1
330
A
100
AcDbEntity
  8
6
 62
    92
100
AcDbMText
 10
334.4460187616041
 20
277.6005221137848
 30
0.0
 40
8.049999833099999
 41
0.0
 71
     2
 72
     1
  1
center hole D M6 DIN 332 Bl.2
  7
SLDTEXTSTYLE0
 73
     1
 44
1.0
  0
MTEXT
  5
4EB
330
A
100
AcDbEntity
  8
6
 62
    92
100
AcDbMText
 10
252.2378583612041
 20
652.2708483466847
 30
0.0
 40
7.920010209099999
 41
0.0
 71
     2
 72
     1
  1
dimensions with or without brake 
  7
SLDTEXTSTYLE0
 73
     1
 44
1.0
  0
MTEXT
  5
4EC
330
A
100
AcDbEntity
  8
6
 62
    92
100
AcDbMText
 10
925.603306359204
 20
216.7449694403848
 30
0.0
 40
7.920010209099999
 41
0.0
 71
     2
 72
     1
  1
projection
  7
SLDTEXTSTYLE0
 73
     1
 44
1.0
  0
MTEXT
  5
4F0
330
A
100
AcDbEntity
  8
6
 62
    92
100
AcDbMText
 10
421.1219220819041
 20
146.2817348369848
 30
0.0
 40
7.650019884099999
 41
0.0
 71
     2
 72
     1
  1
subject to alterations
  7
SLDTEXTSTYLE0
 73
     1
 44
1.0
  0
MTEXT
  5
4F2
330
A
100
AcDbEntity
  8
4
 62
    92
100
AcDbMText
 10
282.959032424404
 20
510.7542953042847
 30
0.0
 40
7.7000001669
 41
0.0
 71
     1
 72
     1
  1
3
  7
SLDTEXTSTYLE0
 73
     1
 44
1.0
  0
MTEXT
  5
4F3
330
A
100
AcDbEntity
  8
4
 62
    92
100
AcDbMText
 10
310.8300346217041
 20
528.7542953042848
 30
0.0
 40
7.7000001669
 41
0.0
 71
     1
 72
     1
  1
32
  7
SLDTEXTSTYLE0
 73
     1
 44
1.0
  0
MTEXT
  5
4F4
330
A
100
AcDbEntity
  8
4
 62
    92
100
AcDbMText
 10
447.903948195904
 20
312.7542800454848
 30
0.0
 40
7.7000001669
 41
0.0
 71
     1
 72
     1
  1
c
  7
SLDTEXTSTYLE0
 73
     1
 44
1.0
  0
MTEXT
  5
4F5
330
A
100
AcDbEntity
  8
4
 62
    92
100
AcDbMText
 10
353.899034865804
 20
510.7542953042847
 30
0.0
 40
7.7000001669
 41
0.0
 71
     1
 72
     1
  1
8
  7
SLDTEXTSTYLE0
 73
     1
 44
1.0
  0
MTEXT
  5
4F6
330
A
100
AcDbEntity
  8
4
 62
    92
100
AcDbMText
 10
235.7588385227041
 20
457.1632738698848
 30
0.0
 40
7.7000001669
 41
0.0
 71
     1
 72
     1
  1
%%c19
  7
SLDTEXTSTYLE0
 11
0.0
 21
1.0
 31
0.0
 73
     1
 44
1.0
  0
MTEXT
  5
4F7
330
A
100
AcDbEntity
  8
4
 62
    92
100
AcDbMText
 10
239.2290600057041
 20
480.6090399594848
 30
0.0
 40
5.3899998665
 41
0.0
 71
     1
 72
     1
  1
k6
  7
SLDTEXTSTYLE0
 11
0.0
 21
1.0
 31
0.0
 73
     1
 44
1.0
  0
MTEXT
  5
4F8
330
A
100
AcDbEntity
  8
4
 62
    92
100
AcDbMText
 10
211.0698279026041
 20
420.6342821706847
 30
0.0
 40
7.7000001669
 41
0.0
 71
     1
 72
     1
  1
%%c95
  7
SLDTEXTSTYLE0
 11
0.0
 21
1.0
 31
0.0
 73
     1
 44
1.0
  0
MTEXT
  5
4F9
330
A
100
AcDbEntity
  8
4
 62
    92
100
AcDbMText
 10
214.1490581747041
 20
444.0510565610848
 30
0.0
 40
5.3899998665
 41
0.0
 71
     1
 72
     1
  1
j6
  7
SLDTEXTSTYLE0
 11
0.0
 21
1.0
 31
0.0
 73
     1
 44
1.0
  0
MTEXT
  5
4FA
330
A
100
AcDbEntity
  8
7
 62
    92
100
AcDbMText
 10
401.903917678304
 20
602.3422774819849
 30
0.0
 40
7.7000001669
 41
0.0
 71
     1
 72
     1
  1
b
  7
SLDTEXTSTYLE0
 73
     1
 44
1.0
  0
MTEXT
  5
4FB
330
A
100
AcDbEntity
  8
7
 62
    92
100
AcDbMText
 10
424.864031203704
 20
628.1582870034847
 30
0.0
 40
7.7000001669
 41
0.0
 71
     1
 72
     1
  1
a
  7
SLDTEXTSTYLE0
 73
     1
 44
1.0
  0
MTEXT
  5
4FC
330
A
100
AcDbEntity
  8
4
 62
    92
100
AcDbMText
 10
356.1751476635041
 20
554.3739748145847
 30
0.0
 40
7.7000001669
 41
0.0
 71
     1
 72
     1
  1
27
  7
SLDTEXTSTYLE0
 73
     1
 44
1.0
  0
MTEXT
  5
4FD
330
A
100
AcDbEntity
  8
4
 62
    92
100
AcDbMText
 10
356.3990348658041
 20
362.7542800454848
 30
0.0
 40
7.7000001669
 41
0.0
 71
     1
 72
     1
  1
3
  7
SLDTEXTSTYLE0
 73
     1
 44
1.0
  0
MTEXT
  5
4FE
330
A
100
AcDbEntity
  8
4
 62
    92
100
AcDbMText
 10
311.063036330604
 20
337.7542800454848
 30
0.0
 40
7.7000001669
 41
0.0
 71
     1
 72
     1
  1
40
  7
SLDTEXTSTYLE0
 73
     1
 44
1.0
  0
MTEXT
  5
4FF
330
A
100
AcDbEntity
  8
4
 62
    92
100
AcDbMText
 10
632.6718481663041
 20
427.4202929128848
 30
0.0
 40
7.7000001669
 41
0.0
 71
     1
 72
     1
  1
115
  7
SLDTEXTSTYLE0
 11
0.0
 21
1.0
 31
0.0
 73
     1
 44
1.0
  0
MTEXT
  5
500
330
A
100
AcDbEntity
  8
6
 62
    92
100
AcDbMText
 10
551.6609235467041
 20
708.3154419788847
 30
0.0
 40
18.3330500126
 41
0.0
 71
     2
 72
     1
  1
MSM115
  7
SLDTEXTSTYLE0
 73
     1
 44
1.0
  0
MTEXT
  5
501
330
A
100
AcDbEntity
  8
6
 62
    92
100
AcDbMText
 10
422.1192670526041
 20
437.9902025887847
 30
0.0
 40
6.000015079999999
 41
0.0
 71
     2
 72
     1
  1
rating plate
  7
SLDTEXTSTYLE0
 73
     1
 44
1.0
  0
MTEXT
  5
502
330
A
100
AcDbEntity
  8
4
 62
    92
100
AcDbMText
 10
938.7197018350041
 20
476.0414332299848
 30
0.0
 40
8.000000357599999
 41
0.0
 71
     1
 72
     1
  1
100
  7
SLDTEXTSTYLE0
 11
0.0
 21
1.0
 31
0.0
 73
     1
 44
1.0
  0
MTEXT
  5
503
330
A
100
AcDbEntity
  8
4
 62
    92
100
AcDbMText
 10
920.7197018350042
 20
464.2631434350848
 30
0.0
 40
8.000000357599999
 41
0.0
 71
     1
 72
     1
  1
  90
  7
SLDTEXTSTYLE0
 11
0.0
 21
1.0
 31
0.0
 73
     1
 44
1.0
  0
MTEXT
  5
504
330
A
100
AcDbEntity
  8
4
 62
    92
100
AcDbMText
 10
885.7023441395041
 20
363.3734332018848
 30
0.0
 40
7.7000001669
 41
0.0
 71
     1
 72
     1
  1
%%c115
  7
SLDTEXTSTYLE0
 11
0.7071065923865224
 21
0.7071069699865224
 31
0.0
 73
     1
 44
1.0
  0
MTEXT
  5
505
330
A
100
AcDbEntity
  8
6
 62
    92
100
AcDbMText
 10
657.3824201287041
 20
618.0348972805847
 30
0.0
 40
7.7000001669
 41
0.0
 71
     2
 72
     1
  1
Stegmann encoder
  7
SLDTEXTSTYLE0
 73
     1
 44
1.0
  0
MTEXT
  5
506
330
A
100
AcDbEntity
  8
7
 62
    92
100
AcDbMText
 10
816.9536002955041
 20
589.1535262612848
 30
0.0
 40
7.7000001669
 41
0.0
 71
     1
 72
     1
  1
115
  7
SLDTEXTSTYLE0
 73
     1
 44
1.0
  0
MTEXT
  5
507
330
A
100
AcDbEntity
  8
6
 62
    92
100
AcDbMText
 10
660.8483014764041
 20
631.0314793118848
 30
0.0
 40
7.7000001669
 41
0.0
 71
     2
 72
     1
  1
connector for
  7
SLDTEXTSTYLE0
 73
     1
 44
1.0
  0
MTEXT
  5
508
330
A
100
AcDbEntity
  8
4
 62
    92
100
AcDbMText
 10
172.009020217404
 20
397.6625899819848
 30
0.0
 40
7.7000001669
 41
0.0
 71
     1
 72
     1
  1
21.5
  7
SLDTEXTSTYLE0
 73
     1
 44
1.0
  0
MTEXT
  5
509
330
A
100
AcDbEntity
  8
4
 62
    92
100
AcDbMText
 10
179.6807592991041
 20
457.9624987233848
 30
0.0
 40
7.7000001669
 41
0.0
 71
     1
 72
     1
  1
6
  7
SLDTEXTSTYLE0
 11
0.0
 21
1.0
 31
0.0
 73
     1
 44
1.0
  0
MTEXT
  5
50A
330
A
100
AcDbEntity
  8
4
 62
    92
100
AcDbMText
 10
899.198677802804
 20
348.0462059331847
 30
0.0
 40
7.7000001669
 41
0.0
 71
     1
 72
     1
  1
150
  7
SLDTEXTSTYLE0
 11
0.7071062628863576
 21
0.7071072994863576
 31
0.0
 73
     1
 44
1.0
  0
MTEXT
  5
50B
330
A
100
AcDbEntity
  8
4
 62
    92
100
AcDbMText
 10
742.211717971304
 20
337.7564467934847
 30
0.0
 40
7.7000001669
 41
0.0
 71
     1
 72
     1
  1
%%c9
  7
SLDTEXTSTYLE0
 73
     1
 44
1.0
  0
MTEXT
  5
50C
330
A
100
AcDbEntity
  8
4
 62
    92
100
AcDbMText
 10
815.6591667017041
 20
561.4753646401847
 30
0.0
 40
7.7000001669
 41
0.0
 71
     1
 72
     1
  1
105
  7
SLDTEXTSTYLE0
 73
     1
 44
1.0
  0
INSERT
  5
658
330
A
100
AcDbEntity
  8
0
  6
Continuous
100
AcDbBlockReference
 66
     1
  2
BM_Emetric
 10
0.0
 20
0.0
 30
0.0
  0
ATTRIB
  5
65A
330
658
100
AcDbEntity
  8
TITLE BLOCK
  6
Continuous
100
AcDbText
 10
897.8899999999997
 20
82.55174299761829
 30
0.0
 40
5.133906008519999
  1
G. MUMM
100
AcDbAttribute
  2
GEN-TITLE-NAME{5}
 70
     0
  0
ATTRIB
  5
65B
330
658
100
AcDbEntity
  8
TITLE BLOCK
  6
Continuous
100
AcDbText
 10
897.8899999999997
 20
69.8517429976183
 30
0.0
 40
5.133906008519999
  1

100
AcDbAttribute
  2
GEN-TITLE-CHKM{5}
 70
     0
  0
ATTRIB
  5
65C
330
658
100
AcDbEntity
  8
TITLE BLOCK
  6
Continuous
100
AcDbText
 10
897.8899999999997
 20
57.1517429976183
 30
0.0
 40
5.133906008519999
  1

100
AcDbAttribute
  2
GEN-TITLE-APPM{5}
 70
     0
  0
ATTRIB
  5
65D
330
658
100
AcDbEntity
  8
TITLE BLOCK
  6
Continuous
100
AcDbText
 10
812.8
 20
31.75
 30
0.0
 40
7.62
  1
SERVO MOTOR, MSM115
 41
0.8
100
AcDbAttribute
  2
GEN-TITLE-DES1{15.54}
 70
     0
  0
ATTRIB
  5
65E
330
658
100
AcDbEntity
  8
TITLE BLOCK
  6
Continuous
100
AcDbText
 10
1074.42
 20
57.15174299761829
 30
0.0
 40
5.998969170955619
  1
1
 41
0.8
100
AcDbAttribute
  2
GEN-TITLE-SHEET-OF{2.62}
 70
     0
  0
ATTRIB
  5
65F
330
658
100
AcDbEntity
  8
TITLE BLOCK
  6
Continuous
100
AcDbText
 10
1054.099999999999
 20
57.15174299761829
 30
0.0
 40
5.998969170955619
  1
1
 41
0.8
100
AcDbAttribute
  2
GEN-TITLE-SHEET{2.62}
 70
     0
  0
ATTRIB
  5
660
330
658
100
AcDbEntity
  8
TITLE BLOCK
  6
Continuous
100
AcDbText
 10
975.3600000000002
 20
57.1517429976183
 30
0.0
 40
5.133906008519999
  1

 41
0.8
100
AcDbAttribute
  2
GEN-TITLE-MAT{11.15}
 70
     0
  0
ATTRIB
  5
661
330
658
100
AcDbEntity
  8
TITLE BLOCK
  6
Continuous
100
AcDbText
 10
975.3600000000002
 20
69.8517429976183
 30
0.0
 40
5.133906008519999
  1

100
AcDbAttribute
  2
GEN-TITLE-MACH{5}
 70
     0
  0
ATTRIB
  5
662
330
658
100
AcDbEntity
  8
TITLE BLOCK
  6
Continuous
100
AcDbText
 10
975.3600000000002
 20
82.55174299761829
 30
0.0
 40
5.133906008519999
  1
70502232
100
AcDbAttribute
  2
GEN-TITLE-REF{5}
 70
     0
  0
ATTRIB
  5
663
330
658
100
AcDbEntity
  8
TITLE BLOCK
  6
Continuous
100
AcDbText
 10
1049.39
 20
69.85174299761829
 30
0.0
 40
5.133906008519999
  1
14.01.03
100
AcDbAttribute
  2
GEN-TITLE-PLOT{5}
 70
     0
  0
ATTRIB
  5
664
330
658
100
AcDbEntity
  8
TITLE BLOCK
  6
Continuous
100
AcDbText
 10
965.2000000000001
 20
31.75
 30
0.0
 40
7.62
  1
MSM115-xx-404-SxM-xKA
 41
0.8
100
AcDbAttribute
  2
GEN-TITLE-NR{13.37}
 70
     0
  0
SEQEND
  5
659
330
658
100
AcDbEntity
  8
0
  6
Continuous
  0
ENDSEC
  0
SECTION
  2
OBJECTS
  0
DICTIONARY
  5
19
330
0
100
AcDbDictionary
281
     1
  3
ACAD_GROUP
350
1A
  3
ACAD_LAYOUT
350
511
  3
ACAD_MLINESTYLE
350
1B
  3
ACAD_PLOTSETTINGS
350
512
  3
ACAD_PLOTSTYLENAME
350
50F
  3
AcDbVariableDictionary
350
520
  3
AcmDictionary
350
533
  3
AMG
350
517
  3
AMGSNAPSETTINGS
350
566
  3
ASE_INDEX_DICTIONARY
350
668
  3
DWGPROPS
350
68C
  0
DICTIONARY
  5
66B
330
A
100
AcDbDictionary
280
     1
281
     1
  3
ACAD_INDEX
360
66C
  0
DICTIONARY
  5
1A
102
{ACAD_REACTORS
330
19
102
}
330
19
100
AcDbDictionary
281
     1
  0
DICTIONARY
  5
511
102
{ACAD_REACTORS
330
19
102
}
330
19
100
AcDbDictionary
281
     1
  3
Layout1
350
514
  3
Model
350
513
  0
DICTIONARY
  5
1B
102
{ACAD_REACTORS
330
19
102
}
330
19
100
AcDbDictionary
281
     1
  3
STANDARD
350
1C
  0
DICTIONARY
  5
512
102
{ACAD_REACTORS
330
19
102
}
330
19
100
AcDbDictionary
281
     1
  0
ACDBDICTIONARYWDFLT
  5
50F
102
{ACAD_REACTORS
330
19
102
}
330
19
100
AcDbDictionary
281
     1
  3
Normal
350
510
100
AcDbDictionaryWithDefault
340
510
  0
DICTIONARY
  5
520
102
{ACAD_REACTORS
330
19
102
}
330
19
100
AcDbDictionary
281
     1
  3
INDEXCTL
350
521
  0
DICTIONARY
  5
533
102
{ACAD_REACTORS
330
19
102
}
330
19
100
AcDbDictionary
281
     1
  3
AcmBOMDATA
350
534
  3
AcmStdDictionary
350
539
  0
DICTIONARY
  5
517
102
{ACAD_REACTORS
330
19
102
}
330
19
100
AcDbDictionary
281
     1
  3
AcMgSettings
350
518
  3
AMGLAYCFG
350
53B
  0
DICTIONARY
  5
566
102
{ACAD_REACTORS
330
19
102
}
330
19
100
AcDbDictionary
281
     1
  3
DIMENSION
350
56B
  3
FEA
350
56A
  3
HATCH (1)
350
567
  3
HATCH (2)
350
568
  3
SIMPLE WELD
350
56C
  3
SYMBOLS
350
569
  0
DICTIONARY
  5
668
102
{ACAD_REACTORS
330
19
102
}
330
19
100
AcDbDictionary
281
     1
  3
ASEBlockHierarchyIndexRecord
350
66A
1001
DCO15
1040
1456026785.7
  0
XRECORD
  5
68C
102
{ACAD_REACTORS
330
19
102
}
330
19
100
AcDbXrecord
280
     1
  1
DWGPROPS COOKIE
  2

  3

  4

  6

  7

  8

  9

300
AmdtFileType=84
301
=
302
=
303
=
304
=
305
=
306
=
307
=
308
=
309
=
 40
0.0048175810185185
 41
2311942.262181006
 42
2452654.360869629
  1

 90
        1
  0
DICTIONARY
  5
66C
102
{ACAD_REACTORS
330
66B
102
}
330
66B
100
AcDbDictionary
281
     1
  3
*A1
350
66D
  0
LAYOUT
  5
514
102
{ACAD_REACTORS
330
511
102
}
330
511
100
AcDbPlotSettings
  1

  2
\\CONTROLSFS1\HP LaserJet 5Si MX
  4

  6

 40
0.0
 41
0.0
 42
0.0
 43
0.0
 44
0.0
 45
0.0
 46
0.0
 47
0.0
 48
0.0
 49
0.0
140
0.0
141
0.0
142
1.0
143
1.0
 70
   688
 72
     0
 73
     0
 74
     5
  7
monochrome.ctb
 75
    16
147
1.0
148
0.0
149
0.0
100
AcDbLayout
  1
Layout1
 70
     1
 71
     1
 10
0.0
 20
0.0
 11
12.0
 21
9.0
 12
0.0
 22
0.0
 32
0.0
 14
1.000000000000000E+20
 24
1.000000000000000E+20
 34
1.000000000000000E+20
 15
-1.000000000000000E+20
 25
-1.000000000000000E+20
 35
-1.000000000000000E+20
146
0.0
 13
0.0
 23
0.0
 33
0.0
 16
1.0
 26
0.0
 36
0.0
 17
0.0
 27
1.0
 37
0.0
 76
     0
330
B
  0
LAYOUT
  5
513
102
{ACAD_REACTORS
330
511
102
}
330
511
100
AcDbPlotSettings
  1

  2
\\Fdlfs06\Engineering - Digital PrintServer 17/600 C
  4
Letter
  6

 40
6.085416793823242
 41
3.630082130432128
 42
6.085418701171875
 43
5.027069091796875
 44
215.8999938964843
 45
279.3999938964843
 46
0.0
 47
3.556
 48
0.0
 49
0.0
140
0.0
141
0.0
142
1.0
143
107.6779280299856
 70
 11956
 72
     0
 73
     1
 74
     1
  7
monochrome.ctb
 75
     0
147
0.0092869543303389
148
1.191808204904464
149
0.899577200965723
100
AcDbLayout
  1
Model
 70
     1
 71
     0
 10
0.0
 20
0.0
 11
12.0
 21
9.0
 12
0.0
 22
0.0
 32
0.0
 14
0.0
 24
0.0
 34
0.0
 15
0.0
 25
0.0
 35
0.0
146
0.0
 13
0.0
 23
0.0
 33
0.0
 16
1.0
 26
0.0
 36
0.0
 17
0.0
 27
1.0
 37
0.0
 76
     0
330
A
  0
MLINESTYLE
  5
1C
102
{ACAD_REACTORS
330
1B
102
}
330
1B
100
AcDbMlineStyle
  2
STANDARD
 70
     0
  3

 62
     0
 51
90.0
 52
90.0
 71
     2
 49
0.5
 62
   256
  6
BYLAYER
 49
-0.5
 62
   256
  6
BYLAYER
  0
ACDBPLACEHOLDER
  5
510
102
{ACAD_REACTORS
330
50F
102
}
330
50F
  0
DICTIONARYVAR
  5
521
102
{ACAD_REACTORS
330
520
102
}
330
520
100
DictionaryVariables
280
     0
  1
1
  0
ACMDATADICTIONARY
  5
534
102
{ACAD_REACTORS
330
533
102
}
330
533
100
AcDbDictionary
281
     1
  3
*A1
350
535
100
AcmDataDictionary
  0
DICTIONARY
  5
539
102
{ACAD_REACTORS
330
533
102
}
330
533
100
AcDbDictionary
281
     1
  3
ANSI
350
53A
  0
DICTIONARY
  5
518
102
{ACAD_REACTORS
330
517
102
}
330
517
100
AcDbDictionary
281
     1
  3
DWGSETTINGS
350
519
  3
TRANSSETTINGS
350
51A
  0
ACAMGFILTERDAT
  5
56B
102
{ACAD_REACTORS
330
566
102
}
330
566
100
AcAmgFilterDat
 70
    15
  1
DIMENSION,AMDT_*_DIM
  2
*
  3
*
  4
*
  5
*
290
     1
  0
ACAMGFILTERDAT
  5
56A
102
{ACAD_REACTORS
330
566
102
}
330
566
100
AcAmgFilterDat
 70
    15
  1
*
  2
AM_FEA-AM_*
  3
*
  4
*
  5
*
290
     1
  0
ACAMGFILTERDAT
  5
567
102
{ACAD_REACTORS
330
566
102
}
330
566
100
AcAmgFilterDat
 70
    15
  1
HATCH
  2
*
  3
*
  4
*
  5
*
290
     1
  0
ACAMGFILTERDAT
  5
568
102
{ACAD_REACTORS
330
566
102
}
330
566
100
AcAmgFilterDat
 70
    15
  1
LINE
  2
8,8N,*-8,*-8N,AM_8,AM_8N,*-AM_8,*-AM_8N
  3
*
  4
*
  5
INSERT,STDPART2D
290
     1
  0
ACAMGFILTERDAT
  5
56C
102
{ACAD_REACTORS
330
566
102
}
330
566
100
AcAmgFilterDat
 70
    15
  1
ARC
  2
AM_5
  3
*
  4
2
  5
INSERT
290
     0
  0
ACAMGFILTERDAT
  5
569
102
{ACAD_REACTORS
330
566
102
}
330
566
100
AcAmgFilterDat
 70
    15
  1
ACMFCFRAME,ACMDATUMTARGET,ACMDATUMID,ACMWELDSYM,ACMSURFSYM,ACMFEATID,ACMPARTREF,ACMBALLOON,AMDTEDGESYM
  2
*
  3
*
  4
*
  5
*
290
     1
  0
XRECORD
  5
66A
102
{ACAD_REACTORS
330
668
102
}
330
668
100
AcDbXrecord
280
     1
330
658
  0
LAYER_INDEX
  5
66D
102
{ACAD_REACTORS
330
66C
102
}
330
66C
100
AcDbIndex
 40
2452655.37372338
100
AcDbLayerIndex
  8
0
360
66E
 90
        1
  8
DEFPOINTS
360
66F
 90
        0
  8
1
360
670
 90
       45
  8
5
360
671
 90
        0
  8
6
360
672
 90
       39
  8
11
360
673
 90
      834
  8
2
360
674
 90
        0
  8
4
360
675
 90
      240
  8
90
360
676
 90
        0
  8
7
360
677
 90
       40
  8
14
360
678
 90
        1
  8
BORDER
360
679
 90
        0
  8
TITLE BLOCK
360
67A
 90
        0
  0
ACMDATAENTRYBLOCK
  5
535
102
{ACAD_REACTORS
330
534
102
}
330
534
100
AcmDataEntry
100
AcmDataEntryBlock
  0
IDBUFFER
  5
66E
330
0
100
AcDbIdBuffer
330
658
  0
IDBUFFER
  5
66F
330
0
100
AcDbIdBuffer
  0
IDBUFFER
  5
670
330
0
100
AcDbIdBuffer
330
2BC
330
2BD
330
2BE
330
349
330
34A
330
34B
330
34C
330
34D
330
34E
330
34F
330
350
330
351
330
352
330
353
330
354
330
355
330
356
330
3B3
330
3B4
330
3B5
330
3B6
330
3B7
330
3B8
330
3BE
330
3F0
330
3F1
330
3F2
330
3F3
330
47F
330
32
330
33
330
34
330
35
330
36
330
37
330
39
330
3A
330
3B
330
3C
330
4B
330
C6
330
C7
330
C8
330
C9
330
2BB
  0
IDBUFFER
  5
671
330
0
100
AcDbIdBuffer
  0
IDBUFFER
  5
672
330
0
100
AcDbIdBuffer
330
4D2
330
4D3
330
4D4
330
4D5
330
4D6
330
4D7
330
4D8
330
4D9
330
4DA
330
4DB
330
4DC
330
4DD
330
4DE
330
4DF
330
4E0
330
4E1
330
4EB
330
4EC
330
4F0
330
500
330
501
330
505
330
507
330
4BE
330
4BF
330
4C0
330
4C1
330
4C6
330
4C7
330
4C8
330
4C9
330
4CA
330
4CB
330
4CC
330
4CD
330
4CE
330
4CF
330
4D0
330
4D1
  0
IDBUFFER
  5
673
330
0
100
AcDbIdBuffer
330
29D
330
29E
330
29F
330
2A0
330
2A1
330
2A2
330
2A3
330
2A4
330
2A5
330
2A6
330
2A7
330
2A8
330
2A9
330
2AA
330
2AB
330
2AC
330
2AD
330
2B7
330
2B8
330
2B9
330
2BA
330
2D1
330
2D2
330
2D3
330
2D4
330
2D5
330
2D6
330
2D7
330
2D8
330
2D9
330
2DA
330
2DB
330
2DC
330
2DD
330
2DE
330
2DF
330
2E0
330
2E1
330
2E2
330
2E3
330
2E4
330
2E5
330
2E6
330
2E7
330
2E8
330
2E9
330
2EA
330
2EB
330
2EC
330
2ED
330
2EE
330
2EF
330
2F0
330
2F1
330
2F2
330
2F3
330
2F4
330
2F5
330
2F6
330
2F7
330
2F8
330
2F9
330
2FA
330
2FB
330
2FC
330
2FD
330
2FE
330
2FF
330
300
330
301
330
302
330
303
330
304
330
305
330
306
330
307
330
308
330
309
330
30A
330
30B
330
30C
330
30D
330
30E
330
30F
330
310
330
311
330
312
330
313
330
314
330
315
330
316
330
317
330
318
330
319
330
31A
330
31B
330
31C
330
31D
330
31E
330
31F
330
320
330
321
330
322
330
323
330
324
330
325
330
326
330
327
330
328
330
329
330
32A
330
32B
330
32C
330
32D
330
32E
330
32F
330
330
330
331
330
332
330
333
330
334
330
335
330
336
330
337
330
338
330
339
330
33A
330
33B
330
33C
330
33D
330
33E
330
33F
330
376
330
377
330
378
330
379
330
37A
330
399
330
39A
330
39B
330
39C
330
39D
330
39E
330
39F
330
3A0
330
3A1
330
3A2
330
3AA
330
3AB
330
3AC
330
3AD
330
3AE
330
3C8
330
3C9
330
3CA
330
3CB
330
3CC
330
3CD
330
3CE
330
3CF
330
3D0
330
3D1
330
3D2
330
3D3
330
3D4
330
3D5
330
3D6
330
3D7
330
3D8
330
3D9
330
3DA
330
3DB
330
3DC
330
3DD
330
3DE
330
3DF
330
3E0
330
3E1
330
3E2
330
3E3
330
3E4
330
3E5
330
3E6
330
3E7
330
3E8
330
3E9
330
3EA
330
3EB
330
3EC
330
3ED
330
3EE
330
3EF
330
3F4
330
3F5
330
3F6
330
3F7
330
3F8
330
3F9
330
3FA
330
3FB
330
3FC
330
3FD
330
3FE
330
3FF
330
400
330
401
330
402
330
403
330
404
330
405
330
406
330
407
330
408
330
409
330
40A
330
40B
330
40C
330
40D
330
40E
330
40F
330
410
330
411
330
412
330
413
330
414
330
415
330
416
330
417
330
418
330
419
330
41A
330
41B
330
41C
330
41D
330
41E
330
41F
330
420
330
421
330
422
330
423
330
424
330
425
330
426
330
427
330
428
330
429
330
42A
330
42B
330
42C
330
42D
330
42E
330
42F
330
430
330
431
330
432
330
433
330
434
330
435
330
436
330
437
330
438
330
439
330
43A
330
43B
330
43C
330
43D
330
43E
330
43F
330
440
330
441
330
442
330
443
330
444
330
445
330
446
330
447
330
448
330
449
330
44A
330
44B
330
44C
330
44D
330
44E
330
44F
330
450
330
451
330
452
330
453
330
454
330
455
330
456
330
457
330
458
330
459
330
45A
330
45B
330
45C
330
45D
330
45E
330
45F
330
460
330
461
330
462
330
463
330
464
330
465
330
466
330
467
330
468
330
469
330
46A
330
46B
330
46C
330
46D
330
46E
330
470
330
471
330
472
330
473
330
474
330
475
330
476
330
477
330
478
330
479
330
47A
330
47B
330
47C
330
47D
330
47E
330
49D
330
49E
330
49F
330
4A0
330
4A1
330
4A2
330
4A3
330
4A4
330
3D
330
3E
330
3F
330
40
330
41
330
42
330
43
330
44
330
45
330
46
330
47
330
48
330
49
330
4A
330
4C
330
4D
330
4E
330
4F
330
50
330
51
330
52
330
53
330
54
330
55
330
56
330
57
330
58
330
59
330
5A
330
5B
330
5C
330
5D
330
5E
330
5F
330
60
330
61
330
62
330
63
330
64
330
65
330
66
330
67
330
68
330
69
330
6A
330
6B
330
6C
330
6D
330
6E
330
6F
330
70
330
71
330
72
330
73
330
74
330
75
330
76
330
77
330
78
330
79
330
7A
330
7B
330
7C
330
7D
330
7E
330
7F
330
80
330
81
330
82
330
83
330
84
330
85
330
86
330
87
330
88
330
89
330
8A
330
8B
330
8C
330
8D
330
8E
330
8F
330
90
330
91
330
92
330
93
330
94
330
95
330
96
330
97
330
98
330
99
330
9A
330
9B
330
9C
330
9D
330
9E
330
9F
330
A0
330
A1
330
A2
330
A3
330
A4
330
A5
330
A6
330
A7
330
A8
330
A9
330
AA
330
AB
330
AC
330
AD
330
AE
330
AF
330
B0
330
B1
330
B2
330
B3
330
B4
330
B5
330
B6
330
B7
330
B8
330
B9
330
BA
330
BB
330
BC
330
BD
330
BE
330
BF
330
C0
330
C1
330
C2
330
C3
330
C4
330
C5
330
135
330
136
330
137
330
138
330
139
330
13A
330
13B
330
13C
330
13D
330
13E
330
13F
330
140
330
141
330
142
330
143
330
144
330
145
330
146
330
147
330
148
330
149
330
14A
330
14B
330
14C
330
14D
330
14E
330
14F
330
150
330
151
330
152
330
153
330
154
330
155
330
156
330
157
330
158
330
159
330
15A
330
15B
330
15C
330
15D
330
15E
330
15F
330
160
330
161
330
162
330
163
330
164
330
165
330
166
330
167
330
168
330
169
330
16A
330
16B
330
16C
330
16D
330
16E
330
16F
330
170
330
171
330
172
330
173
330
174
330
175
330
176
330
177
330
178
330
179
330
17A
330
17B
330
17C
330
17D
330
17E
330
17F
330
180
330
181
330
182
330
183
330
184
330
185
330
186
330
187
330
188
330
189
330
18A
330
18B
330
18C
330
18D
330
18E
330
18F
330
190
330
191
330
192
330
193
330
194
330
195
330
196
330
197
330
198
330
199
330
19A
330
19B
330
19C
330
19D
330
19E
330
19F
330
1A0
330
1A1
330
1A2
330
1A3
330
1A4
330
1A5
330
1A6
330
1A7
330
1A8
330
1A9
330
1AA
330
1AB
330
1AC
330
1AD
330
1AE
330
1AF
330
1B0
330
1B1
330
1B2
330
1B3
330
1B4
330
1B5
330
1B6
330
1B7
330
1B8
330
1B9
330
1BA
330
1BB
330
1BC
330
1BD
330
1BE
330
1BF
330
1C0
330
1C1
330
1C2
330
1C3
330
1C4
330
1C5
330
1C6
330
1C7
330
1C8
330
1C9
330
1CA
330
1CB
330
1CC
330
1CD
330
1CE
330
1CF
330
1D0
330
1D1
330
1D2
330
1D3
330
1D4
330
1D5
330
1D6
330
1D7
330
1D8
330
1D9
330
1DA
330
1DB
330
1DC
330
1DD
330
1DE
330
1DF
330
1E0
330
1E1
330
1E2
330
1E3
330
1E4
330
1E5
330
1E6
330
1E7
330
1E8
330
1E9
330
1EA
330
1EB
330
1EC
330
1ED
330
1EE
330
1EF
330
1F0
330
1F1
330
1F2
330
1F3
330
1F4
330
1F5
330
1F6
330
1F7
330
1F8
330
1F9
330
1FA
330
1FB
330
1FC
330
1FD
330
1FE
330
1FF
330
200
330
201
330
202
330
203
330
204
330
205
330
206
330
207
330
208
330
209
330
20A
330
20B
330
20C
330
20D
330
20E
330
20F
330
210
330
211
330
212
330
213
330
214
330
215
330
216
330
217
330
218
330
219
330
21A
330
21B
330
21C
330
21D
330
21E
330
21F
330
220
330
221
330
222
330
223
330
224
330
225
330
226
330
227
330
228
330
229
330
22A
330
22B
330
22C
330
22D
330
22E
330
22F
330
230
330
231
330
232
330
233
330
234
330
235
330
236
330
237
330
238
330
239
330
23A
330
23B
330
23C
330
23D
330
23E
330
23F
330
240
330
241
330
242
330
243
330
244
330
245
330
246
330
247
330
248
330
249
330
24A
330
24B
330
24C
330
24D
330
24E
330
24F
330
250
330
251
330
252
330
253
330
254
330
255
330
256
330
257
330
258
330
259
330
25A
330
25B
330
25C
330
25D
330
25E
330
25F
330
260
330
261
330
262
330
263
330
264
330
265
330
266
330
267
330
268
330
269
330
26A
330
26B
330
26C
330
26D
330
26E
330
26F
330
270
330
271
330
272
330
273
330
274
330
275
330
276
330
277
330
278
330
279
330
27A
330
27B
330
27C
330
27D
330
27E
330
27F
330
280
330
281
330
282
330
283
330
284
330
285
330
286
330
287
330
288
330
289
330
28A
330
28B
330
28C
330
28D
330
28E
330
28F
330
290
330
291
330
292
330
293
330
294
330
295
330
296
330
297
330
298
330
299
330
29A
330
29B
330
29C
  0
IDBUFFER
  5
674
330
0
100
AcDbIdBuffer
  0
IDBUFFER
  5
675
330
0
100
AcDbIdBuffer
330
2CB
330
2CC
330
2CD
330
2CE
330
2CF
330
2D0
330
340
330
341
330
342
330
343
330
344
330
345
330
346
330
347
330
348
330
360
330
361
330
362
330
363
330
364
330
365
330
366
330
367
330
368
330
369
330
36A
330
36B
330
36C
330
36D
330
36E
330
36F
330
370
330
371
330
372
330
373
330
374
330
375
330
37B
330
37C
330
37D
330
37E
330
37F
330
380
330
381
330
382
330
383
330
384
330
385
330
386
330
387
330
388
330
389
330
38A
330
38B
330
38C
330
38D
330
38E
330
38F
330
390
330
391
330
392
330
393
330
394
330
395
330
396
330
397
330
398
330
480
330
481
330
482
330
483
330
484
330
485
330
486
330
487
330
488
330
489
330
48A
330
48B
330
48C
330
48D
330
48E
330
497
330
498
330
499
330
49A
330
49B
330
49C
330
4A5
330
4A6
330
4A7
330
4A8
330
4A9
330
4AA
330
4AB
330
4AC
330
4AD
330
4AE
330
4B3
330
4B4
330
4B5
330
4B6
330
4B7
330
4B8
330
4B9
330
4BA
330
4BB
330
4BC
330
4F2
330
4F3
330
4F4
330
4F5
330
4F6
330
4F7
330
4F8
330
4F9
330
4FC
330
4FD
330
4FE
330
4FF
330
502
330
503
330
504
330
508
330
509
330
50A
330
50B
330
50C
330
CA
330
CB
330
CC
330
CD
330
CE
330
CF
330
D0
330
D1
330
D2
330
D3
330
D4
330
D5
330
D6
330
D7
330
D8
330
D9
330
DA
330
DB
330
DC
330
DD
330
DE
330
DF
330
E0
330
E1
330
E2
330
E3
330
E4
330
E5
330
E6
330
E7
330
E8
330
E9
330
EA
330
EB
330
EC
330
ED
330
EE
330
EF
330
F0
330
F1
330
F2
330
F3
330
F4
330
F5
330
F6
330
F7
330
F8
330
F9
330
FA
330
FB
330
FC
330
FD
330
FE
330
FF
330
100
330
101
330
102
330
103
330
104
330
105
330
106
330
117
330
118
330
119
330
11A
330
11B
330
11C
330
11D
330
11E
330
11F
330
120
330
121
330
122
330
123
330
124
330
125
330
126
330
127
330
128
330
129
330
12A
330
12B
330
12C
330
12D
330
12E
330
12F
330
130
330
131
330
132
330
133
330
134
330
2AE
330
2AF
330
2B0
330
2B1
330
2B2
330
2B3
330
2B4
330
2B5
330
2B6
330
2BF
330
2C0
330
2C1
330
2C2
330
2C3
330
2C4
330
2C5
330
2C6
330
2C7
330
2C8
330
2C9
330
2CA
  0
IDBUFFER
  5
676
330
0
100
AcDbIdBuffer
  0
IDBUFFER
  5
677
330
0
100
AcDbIdBuffer
330
357
330
358
330
359
330
35A
330
35B
330
35C
330
35D
330
35E
330
35F
330
48F
330
490
330
491
330
492
330
493
330
494
330
495
330
496
330
4AF
330
4B0
330
4B1
330
4B2
330
4FA
330
4FB
330
506
330
107
330
108
330
109
330
10A
330
10B
330
10C
330
10D
330
10E
330
10F
330
110
330
111
330
112
330
113
330
114
330
115
330
116
  0
IDBUFFER
  5
678
330
0
100
AcDbIdBuffer
330
46F
  0
IDBUFFER
  5
679
330
0
100
AcDbIdBuffer
  0
IDBUFFER
  5
67A
330
0
100
AcDbIdBuffer
  0
ENDSEC
  0
EOF
