  0
SECTION
  2
HEADER
  9
$ACADVER
  1
AC1012
  9
$DWGCODEPAGE
  3
ANSI_1252
  9
$INSBASE
 10
0.0
 20
0.0
 30
0.0
  9
$EXTMIN
 10
0.628125
 20
1.34375
 30
0.0
  9
$EXTMAX
 10
7.727649
 20
15.5375
 30
0.0
  9
$LIMMIN
 10
0.0
 20
0.0
  9
$LIMMAX
 10
12.0
 20
9.0
  9
$ORTHOMODE
 70
     1
  9
$REGENMODE
 70
     1
  9
$FILLMODE
 70
     1
  9
$QTEXTMODE
 70
     0
  9
$MIRRTEXT
 70
     1
  9
$DRAGMODE
 70
     2
  9
$LTSCALE
 40
0.5
  9
$OSMODE
 70
     0
  9
$ATTMODE
 70
     1
  9
$TEXTSIZE
 40
0.075
  9
$TRACEWID
 40
0.05
  9
$TEXTSTYLE
  7
STANDARD
  9
$CLAYER
  8
0
  9
$CELTYPE
  6
BYLAYER
  9
$CECOLOR
 62
   256
  9
$CELTSCALE
 40
1.0
  9
$DELOBJ
 70
     1
  9
$DISPSILH
 70
     0
  9
$DIMSCALE
 40
1.0
  9
$DIMASZ
 40
0.18
  9
$DIMEXO
 40
0.0625
  9
$DIMDLI
 40
0.38
  9
$DIMRND
 40
0.0
  9
$DIMDLE
 40
0.0
  9
$DIMEXE
 40
0.18
  9
$DIMTP
 40
0.0
  9
$DIMTM
 40
0.0
  9
$DIMTXT
 40
0.18
  9
$DIMCEN
 40
0.09
  9
$DIMTSZ
 40
0.0
  9
$DIMTOL
 70
     0
  9
$DIMLIM
 70
     0
  9
$DIMTIH
 70
     1
  9
$DIMTOH
 70
     1
  9
$DIMSE1
 70
     0
  9
$DIMSE2
 70
     0
  9
$DIMTAD
 70
     0
  9
$DIMZIN
 70
     0
  9
$DIMBLK
  1

  9
$DIMASO
 70
     1
  9
$DIMSHO
 70
     1
  9
$DIMPOST
  1

  9
$DIMAPOST
  1

  9
$DIMALT
 70
     0
  9
$DIMALTD
 70
     2
  9
$DIMALTF
 40
25.4
  9
$DIMLFAC
 40
1.0
  9
$DIMTOFL
 70
     0
  9
$DIMTVP
 40
0.0
  9
$DIMTIX
 70
     0
  9
$DIMSOXD
 70
     0
  9
$DIMSAH
 70
     0
  9
$DIMBLK1
  1

  9
$DIMBLK2
  1

  9
$DIMSTYLE
  2
STANDARD
  9
$DIMCLRD
 70
     0
  9
$DIMCLRE
 70
     0
  9
$DIMCLRT
 70
     0
  9
$DIMTFAC
 40
1.0
  9
$DIMGAP
 40
0.09
  9
$DIMJUST
 70
     0
  9
$DIMSD1
 70
     0
  9
$DIMSD2
 70
     0
  9
$DIMTOLJ
 70
     1
  9
$DIMTZIN
 70
     0
  9
$DIMALTZ
 70
     0
  9
$DIMALTTZ
 70
     0
  9
$DIMFIT
 70
     3
  9
$DIMUPT
 70
     0
  9
$DIMUNIT
 70
     2
  9
$DIMDEC
 70
     4
  9
$DIMTDEC
 70
     4
  9
$DIMALTU
 70
     2
  9
$DIMALTTD
 70
     2
  9
$DIMTXSTY
  7
STANDARD
  9
$DIMAUNIT
 70
     0
  9
$LUNITS
 70
     2
  9
$LUPREC
 70
     4
  9
$SKETCHINC
 40
0.1
  9
$FILLETRAD
 40
0.0
  9
$AUNITS
 70
     0
  9
$AUPREC
 70
     0
  9
$MENU
  1
acad
  9
$ELEVATION
 40
0.0
  9
$PELEVATION
 40
0.0
  9
$THICKNESS
 40
0.0
  9
$LIMCHECK
 70
     0
  9
$BLIPMODE
 70
     1
  9
$CHAMFERA
 40
0.0
  9
$CHAMFERB
 40
0.0
  9
$CHAMFERC
 40
0.0
  9
$CHAMFERD
 40
0.0
  9
$SKPOLY
 70
     0
  9
$TDCREATE
 40
2450219.549162731
  9
$TDUPDATE
 40
2451087.453027199
  9
$TDINDWG
 40
0.2169431713
  9
$TDUSRTIMER
 40
0.2169431713
  9
$USRTIMER
 70
     1
  9
$ANGBASE
 50
0.0
  9
$ANGDIR
 70
     0
  9
$PDMODE
 70
     0
  9
$PDSIZE
 40
0.0
  9
$PLINEWID
 40
0.0
  9
$COORDS
 70
     0
  9
$SPLFRAME
 70
     0
  9
$SPLINETYPE
 70
     6
  9
$SPLINESEGS
 70
     8
  9
$ATTDIA
 70
     0
  9
$ATTREQ
 70
     1
  9
$HANDLING
 70
     1
  9
$HANDSEED
  5
6BF
  9
$SURFTAB1
 70
     6
  9
$SURFTAB2
 70
     6
  9
$SURFTYPE
 70
     6
  9
$SURFU
 70
     6
  9
$SURFV
 70
     6
  9
$UCSNAME
  2

  9
$UCSORG
 10
0.0
 20
0.0
 30
0.0
  9
$UCSXDIR
 10
1.0
 20
0.0
 30
0.0
  9
$UCSYDIR
 10
0.0
 20
1.0
 30
0.0
  9
$PUCSNAME
  2

  9
$PUCSORG
 10
0.0
 20
0.0
 30
0.0
  9
$PUCSXDIR
 10
1.0
 20
0.0
 30
0.0
  9
$PUCSYDIR
 10
0.0
 20
1.0
 30
0.0
  9
$USERI1
 70
     0
  9
$USERI2
 70
     0
  9
$USERI3
 70
     0
  9
$USERI4
 70
     0
  9
$USERI5
 70
     0
  9
$USERR1
 40
0.0
  9
$USERR2
 40
0.0
  9
$USERR3
 40
0.0
  9
$USERR4
 40
0.0
  9
$USERR5
 40
0.0
  9
$WORLDVIEW
 70
     1
  9
$SHADEDGE
 70
     3
  9
$SHADEDIF
 70
    70
  9
$TILEMODE
 70
     1
  9
$MAXACTVP
 70
    16
  9
$PINSBASE
 10
0.0
 20
0.0
 30
0.0
  9
$PLIMCHECK
 70
     0
  9
$PEXTMIN
 10
1.000000E+20
 20
1.000000E+20
 30
1.000000E+20
  9
$PEXTMAX
 10
-1.000000E+20
 20
-1.000000E+20
 30
-1.000000E+20
  9
$PLIMMIN
 10
0.0
 20
0.0
  9
$PLIMMAX
 10
12.0
 20
9.0
  9
$UNITMODE
 70
     0
  9
$VISRETAIN
 70
     0
  9
$PLINEGEN
 70
     0
  9
$PSLTSCALE
 70
     1
  9
$TREEDEPTH
 70
  3020
  9
$PICKSTYLE
 70
     1
  9
$CMLSTYLE
  2
STANDARD
  9
$CMLJUST
 70
     0
  9
$CMLSCALE
 40
1.0
  9
$SAVEIMAGES
 70
     1
  0
ENDSEC
  0
SECTION
  2
CLASSES
  0
CLASS
  1
LWPOLYLINE
  2
AcDbPolyline
  3
"AutoCAD"
 90
    32768
280
     0
281
     1
  0
CLASS
  1
HATCH
  2
AcDbHatch
  3
"ACAD_SEDONA"
 90
    32768
280
     0
281
     1
  0
ENDSEC
  0
SECTION
  2
TABLES
  0
TABLE
  2
VPORT
  5
8
100
AcDbSymbolTable
 70
     2
  0
VPORT
  5
6BE
100
AcDbSymbolTableRecord
100
AcDbViewportTableRecord
  2
*ACTIVE
 70
     0
 10
0.0
 20
0.0
 11
1.0
 21
1.0
 12
14.34619
 22
7.769222
 13
0.0
 23
0.0
 14
1.0
 24
1.0
 15
0.0
 25
0.0
 16
0.0
 26
0.0
 36
1.0
 17
0.0
 27
0.0
 37
0.0
 40
15.797417
 41
1.810585
 42
50.0
 43
0.0
 44
0.0
 50
0.0
 51
0.0
 71
     0
 72
   100
 73
     1
 74
     1
 75
     0
 76
     0
 77
     0
 78
     0
  0
ENDTAB
  0
TABLE
  2
LTYPE
  5
5
100
AcDbSymbolTable
 70
     2
  0
LTYPE
  5
12
100
AcDbSymbolTableRecord
100
AcDbLinetypeTableRecord
  2
BYBLOCK
 70
     0
  3

 72
    65
 73
     0
 40
0.0
  0
LTYPE
  5
13
100
AcDbSymbolTableRecord
100
AcDbLinetypeTableRecord
  2
BYLAYER
 70
     0
  3

 72
    65
 73
     0
 40
0.0
  0
LTYPE
  5
14
100
AcDbSymbolTableRecord
100
AcDbLinetypeTableRecord
  2
CONTINUOUS
 70
     0
  3
Solid line
 72
    65
 73
     0
 40
0.0
  0
LTYPE
  5
1F
100
AcDbSymbolTableRecord
100
AcDbLinetypeTableRecord
  2
DASHED
 70
     0
  3
__ __ __ __ __ __ __ __ __ __ __ __ __ __ __ __
 72
    65
 73
     2
 40
0.75
 49
0.5
 74
     0
 49
-0.25
 74
     0
  0
ENDTAB
  0
TABLE
  2
LAYER
  5
2
100
AcDbSymbolTable
 70
     3
  0
LAYER
  5
F
100
AcDbSymbolTableRecord
100
AcDbLayerTableRecord
  2
0
 70
     0
 62
     7
  6
CONTINUOUS
  0
LAYER
  5
22
100
AcDbSymbolTableRecord
100
AcDbLayerTableRecord
  2
DASH
 70
     0
 62
     2
  6
DASHED
  0
LAYER
  5
23
100
AcDbSymbolTableRecord
100
AcDbLayerTableRecord
  2
TEXT
 70
     0
 62
     2
  6
CONTINUOUS
  0
ENDTAB
  0
TABLE
  2
STYLE
  5
3
100
AcDbSymbolTable
 70
     2
  0
STYLE
  5
10
100
AcDbSymbolTableRecord
100
AcDbTextStyleTableRecord
  2
STANDARD
 70
     0
 40
0.0
 41
1.0
 50
0.0
 71
     0
 42
0.075
  3
txt
  4

  0
STYLE
  5
1D
100
AcDbSymbolTableRecord
100
AcDbTextStyleTableRecord
  2
ROMANS
 70
     0
 40
0.0
 41
0.8
 50
0.0
 71
     0
 42
0.1
  3
ROMANS
  4

  0
ENDTAB
  0
TABLE
  2
VIEW
  5
6
100
AcDbSymbolTable
 70
     0
  0
ENDTAB
  0
TABLE
  2
UCS
  5
7
100
AcDbSymbolTable
 70
     0
  0
ENDTAB
  0
TABLE
  2
APPID
  5
9
100
AcDbSymbolTable
 70
     1
  0
APPID
  5
11
100
AcDbSymbolTableRecord
100
AcDbRegAppTableRecord
  2
ACAD
 70
     0
  0
ENDTAB
  0
TABLE
  2
DIMSTYLE
  5
A
100
AcDbSymbolTable
 70
     1
  0
DIMSTYLE
105
1A2
100
AcDbSymbolTableRecord
100
AcDbDimStyleTableRecord
  2
STANDARD
 70
     0
  3

  4

  5

  6

  7

 40
1.0
 41
0.18
 42
0.0625
 43
0.38
 44
0.18
 45
0.0
 46
0.0
 47
0.0
 48
0.0
140
0.18
141
0.09
142
0.0
143
25.4
144
1.0
145
0.0
146
1.0
147
0.09
 71
     0
 72
     0
 73
     1
 74
     1
 75
     0
 76
     0
 77
     0
 78
     0
170
     0
171
     2
172
     0
173
     0
174
     0
175
     0
176
     0
177
     0
178
     0
270
     2
271
     4
272
     4
273
     2
274
     2
340
10
275
     0
280
     0
281
     0
282
     0
283
     1
284
     0
285
     0
286
     0
287
     3
288
     0
  0
ENDTAB
  0
TABLE
  2
BLOCK_RECORD
  5
1
100
AcDbSymbolTable
 70
     1
  0
BLOCK_RECORD
  5
18
100
AcDbSymbolTableRecord
100
AcDbBlockTableRecord
  2
*MODEL_SPACE
  0
BLOCK_RECORD
  5
15
100
AcDbSymbolTableRecord
100
AcDbBlockTableRecord
  2
*PAPER_SPACE
  0
BLOCK_RECORD
  5
1C
100
AcDbSymbolTableRecord
100
AcDbBlockTableRecord
  2
TEMP5
  0
ENDTAB
  0
ENDSEC
  0
SECTION
  2
BLOCKS
  0
BLOCK
  5
26
100
AcDbEntity
  8
0
100
AcDbBlockBegin
  2
*MODEL_SPACE
 70
     0
 10
0.0
 20
0.0
 30
0.0
  3
*MODEL_SPACE
  1

  0
ENDBLK
  5
27
100
AcDbEntity
  8
0
100
AcDbBlockEnd
  0
BLOCK
  5
24
100
AcDbEntity
 67
     1
  8
0
100
AcDbBlockBegin
  2
*PAPER_SPACE
 70
     0
 10
0.0
 20
0.0
 30
0.0
  3
*PAPER_SPACE
  1

  0
ENDBLK
  5
25
100
AcDbEntity
 67
     1
  8
0
100
AcDbBlockEnd
  0
BLOCK
  5
28
100
AcDbEntity
  8
0
100
AcDbBlockBegin
  2
TEMP5
 70
     0
 10
0.0
 20
0.0
 30
0.0
  3
TEMP5
  1

  0
TEXT
  5
29
100
AcDbEntity
  8
0
100
AcDbText
 10
-1.467738
 20
-0.190625
 30
0.0
 40
0.1
  1
INTERNAL ADDRESSES
 41
0.8
  7
ROMANS
 72
     4
 11
-0.8125
 21
-0.140625
 31
0.0
100
AcDbText
  0
TEXT
  5
2A
100
AcDbEntity
  8
0
100
AcDbText
 10
-1.281071
 20
-0.35253
 30
0.0
 40
0.1
  1
LISTED BELOW 
 41
0.8
  7
ROMANS
 72
     4
 11
-0.8125
 21
-0.30253
 31
0.0
100
AcDbText
  0
ENDBLK
  5
2B
100
AcDbEntity
  8
0
100
AcDbBlockEnd
  0
ENDSEC
  0
SECTION
  2
ENTITIES
  0
TEXT
  5
C3
100
AcDbEntity
  8
TEXT
100
AcDbText
 10
1.213839
 20
14.556423
 30
0.0
 40
0.125
  1
CARD #--
 41
0.8
  7
ROMANS
 72
     4
 11
1.628125
 21
14.609994
 31
0.0
100
AcDbText
  0
LINE
  5
FB
100
AcDbEntity
  8
DASH
100
AcDbLine
 10
4.590625
 20
1.34375
 30
0.0
 11
4.590625
 21
15.5375
 31
0.0
  0
TEXT
  5
114
100
AcDbEntity
  8
TEXT
100
AcDbText
 10
6.163839
 20
14.556423
 30
0.0
 40
0.125
  1
CARD #--
 41
0.8
  7
ROMANS
 72
     4
 11
6.578125
 21
14.609994
 31
0.0
100
AcDbText
  0
TEXT
  5
3C9
100
AcDbEntity
  8
TEXT
100
AcDbText
 10
2.728125
 20
13.403744
 30
0.0
 40
0.1
  1
*
 41
0.8
  7
ROMANS
100
AcDbText
  0
LINE
  5
3CA
100
AcDbEntity
  8
0
100
AcDbLine
 10
2.378125
 20
14.109994
 30
0.0
 11
0.878125
 21
14.109994
 31
0.0
  0
LINE
  5
3CB
100
AcDbEntity
  8
0
100
AcDbLine
 10
0.628125
 20
13.578744
 30
0.0
 11
0.628125
 21
13.328744
 31
0.0
  0
LINE
  5
3CC
100
AcDbEntity
  8
0
100
AcDbLine
 10
0.878125
 20
13.578744
 30
0.0
 11
0.628125
 21
13.578744
 31
0.0
  0
LINE
  5
3CD
100
AcDbEntity
  8
0
100
AcDbLine
 10
0.878125
 20
13.328744
 30
0.0
 11
0.628125
 21
13.328744
 31
0.0
  0
LINE
  5
3CE
100
AcDbEntity
  8
0
100
AcDbLine
 10
0.878125
 20
12.828744
 30
0.0
 11
0.628125
 21
12.828744
 31
0.0
  0
LINE
  5
3CF
100
AcDbEntity
  8
0
100
AcDbLine
 10
0.878125
 20
13.078744
 30
0.0
 11
0.628125
 21
13.078744
 31
0.0
  0
LINE
  5
3D0
100
AcDbEntity
  8
0
100
AcDbLine
 10
0.628125
 20
13.078744
 30
0.0
 11
0.628125
 21
12.828744
 31
0.0
  0
LINE
  5
3D1
100
AcDbEntity
  8
0
100
AcDbLine
 10
0.878125
 20
12.328744
 30
0.0
 11
0.628125
 21
12.328744
 31
0.0
  0
LINE
  5
3D2
100
AcDbEntity
  8
0
100
AcDbLine
 10
0.878125
 20
12.578744
 30
0.0
 11
0.628125
 21
12.578744
 31
0.0
  0
LINE
  5
3D3
100
AcDbEntity
  8
0
100
AcDbLine
 10
0.628125
 20
12.578744
 30
0.0
 11
0.628125
 21
12.328744
 31
0.0
  0
LINE
  5
3D4
100
AcDbEntity
  8
0
100
AcDbLine
 10
0.878125
 20
11.828744
 30
0.0
 11
0.628125
 21
11.828744
 31
0.0
  0
LINE
  5
3D5
100
AcDbEntity
  8
0
100
AcDbLine
 10
0.878125
 20
12.078744
 30
0.0
 11
0.628125
 21
12.078744
 31
0.0
  0
LINE
  5
3D6
100
AcDbEntity
  8
0
100
AcDbLine
 10
0.628125
 20
12.078744
 30
0.0
 11
0.628125
 21
11.828744
 31
0.0
  0
LINE
  5
3D7
100
AcDbEntity
  8
0
100
AcDbLine
 10
0.878125
 20
11.328744
 30
0.0
 11
0.628125
 21
11.328744
 31
0.0
  0
LINE
  5
3D8
100
AcDbEntity
  8
0
100
AcDbLine
 10
0.878125
 20
11.578744
 30
0.0
 11
0.628125
 21
11.578744
 31
0.0
  0
LINE
  5
3D9
100
AcDbEntity
  8
0
100
AcDbLine
 10
0.628125
 20
11.578744
 30
0.0
 11
0.628125
 21
11.328744
 31
0.0
  0
LINE
  5
3DA
100
AcDbEntity
  8
0
100
AcDbLine
 10
0.878125
 20
10.828744
 30
0.0
 11
0.628125
 21
10.828744
 31
0.0
  0
LINE
  5
3DB
100
AcDbEntity
  8
0
100
AcDbLine
 10
0.878125
 20
11.078744
 30
0.0
 11
0.628125
 21
11.078744
 31
0.0
  0
LINE
  5
3DC
100
AcDbEntity
  8
0
100
AcDbLine
 10
0.628125
 20
11.078744
 30
0.0
 11
0.628125
 21
10.828744
 31
0.0
  0
TEXT
  5
3DD
100
AcDbEntity
  8
TEXT
100
AcDbText
 10
0.712649
 20
13.391244
 30
0.0
 40
0.125
  1
1
 41
0.8
 51
10.0
  7
ROMANS
 72
     1
 11
0.753125
 21
13.391244
 31
0.0
100
AcDbText
  0
TEXT
  5
3DE
100
AcDbEntity
  8
TEXT
100
AcDbText
 10
0.705506
 20
12.891244
 30
0.0
 40
0.125
  1
2
 41
0.8
 51
10.0
  7
ROMANS
 72
     1
 11
0.753125
 21
12.891244
 31
0.0
100
AcDbText
  0
TEXT
  5
3DF
100
AcDbEntity
  8
TEXT
100
AcDbText
 10
0.705506
 20
12.391244
 30
0.0
 40
0.125
  1
3
 41
0.8
 51
10.0
  7
ROMANS
 72
     1
 11
0.753125
 21
12.391244
 31
0.0
100
AcDbText
  0
TEXT
  5
3E0
100
AcDbEntity
  8
TEXT
100
AcDbText
 10
0.703125
 20
11.891244
 30
0.0
 40
0.125
  1
4
 41
0.8
 51
10.0
  7
ROMANS
 72
     1
 11
0.753125
 21
11.891244
 31
0.0
100
AcDbText
  0
TEXT
  5
3E1
100
AcDbEntity
  8
TEXT
100
AcDbText
 10
0.705506
 20
11.391244
 30
0.0
 40
0.125
  1
5
 41
0.8
 51
10.0
  7
ROMANS
 72
     1
 11
0.753125
 21
11.391244
 31
0.0
100
AcDbText
  0
TEXT
  5
3E2
100
AcDbEntity
  8
TEXT
100
AcDbText
 10
0.703125
 20
10.891244
 30
0.0
 40
0.125
  1
6
 41
0.8
 51
10.0
  7
ROMANS
 72
     1
 11
0.753125
 21
10.891244
 31
0.0
100
AcDbText
  0
TEXT
  5
3E4
100
AcDbEntity
  8
TEXT
100
AcDbText
 10
1.013839
 20
14.345113
 30
0.0
 40
0.125
  1
ENCODER INPUT
 41
0.8
  7
ROMANS
 72
     4
 11
1.628125
 21
14.407613
 31
0.0
100
AcDbText
  0
TEXT
  5
3E5
100
AcDbEntity
  8
TEXT
100
AcDbText
 10
1.028125
 20
14.142732
 30
0.0
 40
0.125
  1
502-03839-03
 41
0.8
  7
ROMANS
 72
     4
 11
1.628125
 21
14.205232
 31
0.0
100
AcDbText
  0
INSERT
  5
3E6
100
AcDbEntity
  8
TEXT
100
AcDbBlockReference
  2
TEMP5
 10
2.440625
 20
14.109994
 30
0.0
  0
TEXT
  5
3E7
100
AcDbEntity
  8
TEXT
100
AcDbText
 10
0.940625
 20
13.391244
 30
0.0
 40
0.125
  1
An Out Ch 1+
 41
0.8
 51
10.0
  7
ROMANS
100
AcDbText
  0
TEXT
  5
3E8
100
AcDbEntity
  8
TEXT
100
AcDbText
 10
0.940625
 20
11.391244
 30
0.0
 40
0.125
  1
An In Ch 1+
 41
0.8
 51
10.0
  7
ROMANS
100
AcDbText
  0
TEXT
  5
3E9
100
AcDbEntity
  8
TEXT
100
AcDbText
 10
0.940625
 20
12.891244
 30
0.0
 40
0.125
  1
An Out Ch 1-
 41
0.8
 51
10.0
  7
ROMANS
100
AcDbText
  0
TEXT
  5
3EA
100
AcDbEntity
  8
TEXT
100
AcDbText
 10
0.940625
 20
12.391244
 30
0.0
 40
0.125
  1
An Out Ch 2+
 41
0.8
 51
10.0
  7
ROMANS
100
AcDbText
  0
TEXT
  5
3EB
100
AcDbEntity
  8
TEXT
100
AcDbText
 10
0.940625
 20
11.891244
 30
0.0
 40
0.125
  1
An Out Ch 2-
 41
0.8
 51
10.0
  7
ROMANS
100
AcDbText
  0
TEXT
  5
3EC
100
AcDbEntity
  8
TEXT
100
AcDbText
 10
2.728125
 20
12.903744
 30
0.0
 40
0.1
  1
*
 41
0.8
  7
ROMANS
100
AcDbText
  0
TEXT
  5
3EE
100
AcDbEntity
  8
TEXT
100
AcDbText
 10
2.728125
 20
11.903744
 30
0.0
 40
0.1
  1
*
 41
0.8
  7
ROMANS
100
AcDbText
  0
TEXT
  5
3EF
100
AcDbEntity
  8
TEXT
100
AcDbText
 10
0.940625
 20
10.891244
 30
0.0
 40
0.125
  1
An In Ch 2+
 41
0.8
 51
10.0
  7
ROMANS
100
AcDbText
  0
LINE
  5
3F0
100
AcDbEntity
  8
DASH
100
AcDbLine
 10
2.378125
 20
5.703744
 30
0.0
 11
0.878125
 21
5.703744
 31
0.0
  0
LINE
  5
3F1
100
AcDbEntity
  8
0
100
AcDbLine
 10
2.528125
 20
13.609994
 30
0.0
 11
2.528125
 21
11.703744
 31
0.0
  0
LINE
  5
3F2
100
AcDbEntity
  8
0
100
AcDbLine
 10
2.528125
 20
11.703744
 30
0.0
 11
2.678125
 21
11.703744
 31
0.0
  0
LINE
  5
3F3
100
AcDbEntity
  8
0
100
AcDbLine
 10
2.528125
 20
13.609994
 30
0.0
 11
2.678125
 21
13.609994
 31
0.0
  0
LINE
  5
3F4
100
AcDbEntity
  8
0
100
AcDbLine
 10
0.878125
 20
5.828744
 30
0.0
 11
0.628125
 21
5.828744
 31
0.0
  0
TEXT
  5
3F5
100
AcDbEntity
  8
TEXT
100
AcDbText
 10
0.650744
 20
5.891244
 30
0.0
 40
0.125
  1
16
 41
0.8
 51
10.0
  7
ROMANS
 72
     1
 11
0.753125
 21
5.891244
 31
0.0
100
AcDbText
  0
LINE
  5
3F6
100
AcDbEntity
  8
0
100
AcDbLine
 10
0.878125
 20
6.078744
 30
0.0
 11
0.628125
 21
6.078744
 31
0.0
  0
LINE
  5
3F7
100
AcDbEntity
  8
0
100
AcDbLine
 10
0.878125
 20
5.703744
 30
0.0
 11
0.878125
 21
14.109994
 31
0.0
  0
LINE
  5
3F8
100
AcDbEntity
  8
0
100
AcDbLine
 10
2.378125
 20
14.109994
 30
0.0
 11
2.378125
 21
5.703744
 31
0.0
  0
TEXT
  5
3F9
100
AcDbEntity
  8
TEXT
100
AcDbText
 10
0.650744
 20
6.391244
 30
0.0
 40
0.125
  1
15
 41
0.8
 51
10.0
  7
ROMANS
 72
     1
 11
0.753125
 21
6.391244
 31
0.0
100
AcDbText
  0
LINE
  5
3FA
100
AcDbEntity
  8
0
100
AcDbLine
 10
0.878125
 20
6.328744
 30
0.0
 11
0.628125
 21
6.328744
 31
0.0
  0
LINE
  5
3FB
100
AcDbEntity
  8
0
100
AcDbLine
 10
0.878125
 20
6.578744
 30
0.0
 11
0.628125
 21
6.578744
 31
0.0
  0
LINE
  5
3FC
100
AcDbEntity
  8
0
100
AcDbLine
 10
0.628125
 20
6.578744
 30
0.0
 11
0.628125
 21
6.328744
 31
0.0
  0
TEXT
  5
3FD
100
AcDbEntity
  8
TEXT
100
AcDbText
 10
0.648363
 20
6.891244
 30
0.0
 40
0.125
  1
14
 41
0.8
 51
10.0
  7
ROMANS
 72
     1
 11
0.753125
 21
6.891244
 31
0.0
100
AcDbText
  0
LINE
  5
3FE
100
AcDbEntity
  8
0
100
AcDbLine
 10
0.878125
 20
6.828744
 30
0.0
 11
0.628125
 21
6.828744
 31
0.0
  0
LINE
  5
3FF
100
AcDbEntity
  8
0
100
AcDbLine
 10
0.878125
 20
7.078744
 30
0.0
 11
0.628125
 21
7.078744
 31
0.0
  0
LINE
  5
400
100
AcDbEntity
  8
0
100
AcDbLine
 10
0.628125
 20
7.078744
 30
0.0
 11
0.628125
 21
6.828744
 31
0.0
  0
TEXT
  5
401
100
AcDbEntity
  8
TEXT
100
AcDbText
 10
0.650744
 20
7.391244
 30
0.0
 40
0.125
  1
13
 41
0.8
 51
10.0
  7
ROMANS
 72
     1
 11
0.753125
 21
7.391244
 31
0.0
100
AcDbText
  0
LINE
  5
402
100
AcDbEntity
  8
0
100
AcDbLine
 10
0.878125
 20
7.328744
 30
0.0
 11
0.628125
 21
7.328744
 31
0.0
  0
LINE
  5
403
100
AcDbEntity
  8
0
100
AcDbLine
 10
0.878125
 20
7.578744
 30
0.0
 11
0.628125
 21
7.578744
 31
0.0
  0
LINE
  5
404
100
AcDbEntity
  8
0
100
AcDbLine
 10
0.628125
 20
7.578744
 30
0.0
 11
0.628125
 21
7.328744
 31
0.0
  0
TEXT
  5
405
100
AcDbEntity
  8
TEXT
100
AcDbText
 10
0.650744
 20
7.891244
 30
0.0
 40
0.125
  1
12
 41
0.8
 51
10.0
  7
ROMANS
 72
     1
 11
0.753125
 21
7.891244
 31
0.0
100
AcDbText
  0
LINE
  5
406
100
AcDbEntity
  8
0
100
AcDbLine
 10
0.878125
 20
7.828744
 30
0.0
 11
0.628125
 21
7.828744
 31
0.0
  0
LINE
  5
407
100
AcDbEntity
  8
0
100
AcDbLine
 10
0.878125
 20
8.078744
 30
0.0
 11
0.628125
 21
8.078744
 31
0.0
  0
LINE
  5
408
100
AcDbEntity
  8
0
100
AcDbLine
 10
0.628125
 20
8.078744
 30
0.0
 11
0.628125
 21
7.828744
 31
0.0
  0
TEXT
  5
409
100
AcDbEntity
  8
TEXT
100
AcDbText
 10
0.66503
 20
8.391244
 30
0.0
 40
0.125
  1
11
 41
0.8
 51
10.0
  7
ROMANS
 72
     1
 11
0.753125
 21
8.391244
 31
0.0
100
AcDbText
  0
LINE
  5
40A
100
AcDbEntity
  8
0
100
AcDbLine
 10
0.878125
 20
8.328744
 30
0.0
 11
0.628125
 21
8.328744
 31
0.0
  0
LINE
  5
40B
100
AcDbEntity
  8
0
100
AcDbLine
 10
0.878125
 20
8.578744
 30
0.0
 11
0.628125
 21
8.578744
 31
0.0
  0
LINE
  5
40C
100
AcDbEntity
  8
0
100
AcDbLine
 10
0.628125
 20
8.578744
 30
0.0
 11
0.628125
 21
8.328744
 31
0.0
  0
TEXT
  5
40D
100
AcDbEntity
  8
TEXT
100
AcDbText
 10
0.650744
 20
8.891244
 30
0.0
 40
0.125
  1
10
 41
0.8
 51
10.0
  7
ROMANS
 72
     1
 11
0.753125
 21
8.891244
 31
0.0
100
AcDbText
  0
LINE
  5
40E
100
AcDbEntity
  8
0
100
AcDbLine
 10
0.878125
 20
8.828744
 30
0.0
 11
0.628125
 21
8.828744
 31
0.0
  0
LINE
  5
40F
100
AcDbEntity
  8
0
100
AcDbLine
 10
0.878125
 20
9.078744
 30
0.0
 11
0.628125
 21
9.078744
 31
0.0
  0
LINE
  5
410
100
AcDbEntity
  8
0
100
AcDbLine
 10
0.628125
 20
9.078744
 30
0.0
 11
0.628125
 21
8.828744
 31
0.0
  0
TEXT
  5
411
100
AcDbEntity
  8
TEXT
100
AcDbText
 10
0.707887
 20
9.391244
 30
0.0
 40
0.125
  1
9
 41
0.8
 51
10.0
  7
ROMANS
 72
     1
 11
0.753125
 21
9.391244
 31
0.0
100
AcDbText
  0
LINE
  5
412
100
AcDbEntity
  8
0
100
AcDbLine
 10
0.878125
 20
9.328744
 30
0.0
 11
0.628125
 21
9.328744
 31
0.0
  0
LINE
  5
413
100
AcDbEntity
  8
0
100
AcDbLine
 10
0.878125
 20
9.578744
 30
0.0
 11
0.628125
 21
9.578744
 31
0.0
  0
LINE
  5
414
100
AcDbEntity
  8
0
100
AcDbLine
 10
0.628125
 20
9.578744
 30
0.0
 11
0.628125
 21
9.328744
 31
0.0
  0
TEXT
  5
415
100
AcDbEntity
  8
TEXT
100
AcDbText
 10
0.705506
 20
9.891244
 30
0.0
 40
0.125
  1
8
 41
0.8
 51
10.0
  7
ROMANS
 72
     1
 11
0.753125
 21
9.891244
 31
0.0
100
AcDbText
  0
LINE
  5
416
100
AcDbEntity
  8
0
100
AcDbLine
 10
0.878125
 20
9.828744
 30
0.0
 11
0.628125
 21
9.828744
 31
0.0
  0
LINE
  5
417
100
AcDbEntity
  8
0
100
AcDbLine
 10
0.878125
 20
10.078744
 30
0.0
 11
0.628125
 21
10.078744
 31
0.0
  0
LINE
  5
418
100
AcDbEntity
  8
0
100
AcDbLine
 10
0.628125
 20
10.078744
 30
0.0
 11
0.628125
 21
9.828744
 31
0.0
  0
TEXT
  5
419
100
AcDbEntity
  8
TEXT
100
AcDbText
 10
0.705506
 20
10.391244
 30
0.0
 40
0.125
  1
7
 41
0.8
 51
10.0
  7
ROMANS
 72
     1
 11
0.753125
 21
10.391244
 31
0.0
100
AcDbText
  0
LINE
  5
41A
100
AcDbEntity
  8
0
100
AcDbLine
 10
0.878125
 20
10.328744
 30
0.0
 11
0.628125
 21
10.328744
 31
0.0
  0
LINE
  5
41B
100
AcDbEntity
  8
0
100
AcDbLine
 10
0.878125
 20
10.578744
 30
0.0
 11
0.628125
 21
10.578744
 31
0.0
  0
LINE
  5
41C
100
AcDbEntity
  8
0
100
AcDbLine
 10
0.628125
 20
10.578744
 30
0.0
 11
0.628125
 21
10.328744
 31
0.0
  0
LINE
  5
41D
100
AcDbEntity
  8
0
100
AcDbLine
 10
0.628125
 20
6.078744
 30
0.0
 11
0.628125
 21
5.828744
 31
0.0
  0
TEXT
  5
41E
100
AcDbEntity
  8
TEXT
100
AcDbText
 10
0.940625
 20
5.891244
 30
0.0
 40
0.125
  1
Ch 4 250 Ohm
 41
0.8
 51
10.0
  7
ROMANS
100
AcDbText
  0
TEXT
  5
41F
100
AcDbEntity
  8
TEXT
100
AcDbText
 10
0.940625
 20
6.391244
 30
0.0
 40
0.125
  1
Ch 3 250 Ohm
 41
0.8
 51
10.0
  7
ROMANS
100
AcDbText
  0
TEXT
  5
420
100
AcDbEntity
  8
TEXT
100
AcDbText
 10
0.940625
 20
6.891244
 30
0.0
 40
0.125
  1
An In Ch 4-
 41
0.8
 51
10.0
  7
ROMANS
100
AcDbText
  0
TEXT
  5
421
100
AcDbEntity
  8
TEXT
100
AcDbText
 10
0.940625
 20
7.391244
 30
0.0
 40
0.125
  1
An In Ch 3-
 41
0.8
 51
10.0
  7
ROMANS
100
AcDbText
  0
TEXT
  5
422
100
AcDbEntity
  8
TEXT
100
AcDbText
 10
0.940625
 20
7.891244
 30
0.0
 40
0.125
  1
An In Ch 4+
 41
0.8
 51
10.0
  7
ROMANS
100
AcDbText
  0
TEXT
  5
423
100
AcDbEntity
  8
TEXT
100
AcDbText
 10
0.940625
 20
8.391244
 30
0.0
 40
0.125
  1
An In Ch 3+
 41
0.8
 51
10.0
  7
ROMANS
100
AcDbText
  0
TEXT
  5
424
100
AcDbEntity
  8
TEXT
100
AcDbText
 10
0.940625
 20
8.891244
 30
0.0
 40
0.125
  1
Ch 2 250 Ohm
 41
0.8
 51
10.0
  7
ROMANS
100
AcDbText
  0
TEXT
  5
425
100
AcDbEntity
  8
TEXT
100
AcDbText
 10
0.940625
 20
9.391244
 30
0.0
 40
0.125
  1
Ch 1 250 Ohm
 41
0.8
 51
10.0
  7
ROMANS
100
AcDbText
  0
TEXT
  5
426
100
AcDbEntity
  8
TEXT
100
AcDbText
 10
0.940625
 20
9.891244
 30
0.0
 40
0.125
  1
An In Ch 2-
 41
0.8
 51
10.0
  7
ROMANS
100
AcDbText
  0
TEXT
  5
427
100
AcDbEntity
  8
TEXT
100
AcDbText
 10
0.940625
 20
10.391244
 30
0.0
 40
0.125
  1
An In Ch 1-
 41
0.8
 51
10.0
  7
ROMANS
100
AcDbText
  0
LINE
  5
428
100
AcDbEntity
  8
DASH
100
AcDbLine
 10
2.378125
 20
11.703744
 30
0.0
 11
0.878125
 21
11.703744
 31
0.0
  0
LINE
  5
429
100
AcDbEntity
  8
0
100
AcDbLine
 10
2.528125
 20
11.578744
 30
0.0
 11
2.528125
 21
5.703744
 31
0.0
  0
LINE
  5
42A
100
AcDbEntity
  8
0
100
AcDbLine
 10
2.528125
 20
11.578744
 30
0.0
 11
2.678125
 21
11.578744
 31
0.0
  0
LINE
  5
42B
100
AcDbEntity
  8
0
100
AcDbLine
 10
2.528125
 20
5.703744
 30
0.0
 11
2.678125
 21
5.703744
 31
0.0
  0
TEXT
  5
42C
100
AcDbEntity
  8
TEXT
100
AcDbText
 10
2.728125
 20
11.372494
 30
0.0
 40
0.1
  1
*
 41
0.8
  7
ROMANS
100
AcDbText
  0
TEXT
  5
42D
100
AcDbEntity
  8
TEXT
100
AcDbText
 10
2.728125
 20
5.903744
 30
0.0
 40
0.1
  1
*
 41
0.8
  7
ROMANS
100
AcDbText
  0
TEXT
  5
42E
100
AcDbEntity
  8
TEXT
100
AcDbText
 10
2.728125
 20
6.403744
 30
0.0
 40
0.1
  1
*
 41
0.8
  7
ROMANS
100
AcDbText
  0
TEXT
  5
42F
100
AcDbEntity
  8
TEXT
100
AcDbText
 10
2.728125
 20
6.903744
 30
0.0
 40
0.1
  1
*
 41
0.8
  7
ROMANS
100
AcDbText
  0
TEXT
  5
430
100
AcDbEntity
  8
TEXT
100
AcDbText
 10
2.728125
 20
7.403744
 30
0.0
 40
0.1
  1
*
 41
0.8
  7
ROMANS
100
AcDbText
  0
TEXT
  5
431
100
AcDbEntity
  8
TEXT
100
AcDbText
 10
2.728125
 20
7.903744
 30
0.0
 40
0.1
  1
*
 41
0.8
  7
ROMANS
100
AcDbText
  0
TEXT
  5
432
100
AcDbEntity
  8
TEXT
100
AcDbText
 10
2.728125
 20
8.403744
 30
0.0
 40
0.1
  1
*
 41
0.8
  7
ROMANS
100
AcDbText
  0
TEXT
  5
433
100
AcDbEntity
  8
TEXT
100
AcDbText
 10
2.728125
 20
8.903744
 30
0.0
 40
0.1
  1
*
 41
0.8
  7
ROMANS
100
AcDbText
  0
TEXT
  5
434
100
AcDbEntity
  8
TEXT
100
AcDbText
 10
2.728125
 20
9.403744
 30
0.0
 40
0.1
  1
*
 41
0.8
  7
ROMANS
100
AcDbText
  0
TEXT
  5
435
100
AcDbEntity
  8
TEXT
100
AcDbText
 10
2.728125
 20
9.903744
 30
0.0
 40
0.1
  1
*
 41
0.8
  7
ROMANS
100
AcDbText
  0
TEXT
  5
436
100
AcDbEntity
  8
TEXT
100
AcDbText
 10
2.728125
 20
10.403744
 30
0.0
 40
0.1
  1
*
 41
0.8
  7
ROMANS
100
AcDbText
  0
TEXT
  5
437
100
AcDbEntity
  8
TEXT
100
AcDbText
 10
2.728125
 20
10.903744
 30
0.0
 40
0.1
  1
*
 41
0.8
  7
ROMANS
100
AcDbText
  0
LINE
  5
439
100
AcDbEntity
  8
0
100
AcDbLine
 10
5.578125
 20
9.578744
 30
0.0
 11
5.578125
 21
9.328744
 31
0.0
  0
LINE
  5
43A
100
AcDbEntity
  8
0
100
AcDbLine
 10
5.828125
 20
9.578744
 30
0.0
 11
5.578125
 21
9.578744
 31
0.0
  0
LINE
  5
43B
100
AcDbEntity
  8
0
100
AcDbLine
 10
5.828125
 20
9.328744
 30
0.0
 11
5.578125
 21
9.328744
 31
0.0
  0
LINE
  5
43C
100
AcDbEntity
  8
0
100
AcDbLine
 10
5.828125
 20
8.828744
 30
0.0
 11
5.578125
 21
8.828744
 31
0.0
  0
LINE
  5
43D
100
AcDbEntity
  8
0
100
AcDbLine
 10
5.828125
 20
9.078744
 30
0.0
 11
5.578125
 21
9.078744
 31
0.0
  0
LINE
  5
43E
100
AcDbEntity
  8
0
100
AcDbLine
 10
5.578125
 20
9.078744
 30
0.0
 11
5.578125
 21
8.828744
 31
0.0
  0
LINE
  5
43F
100
AcDbEntity
  8
0
100
AcDbLine
 10
5.828125
 20
8.328744
 30
0.0
 11
5.578125
 21
8.328744
 31
0.0
  0
LINE
  5
440
100
AcDbEntity
  8
0
100
AcDbLine
 10
5.828125
 20
8.578744
 30
0.0
 11
5.578125
 21
8.578744
 31
0.0
  0
LINE
  5
441
100
AcDbEntity
  8
0
100
AcDbLine
 10
5.578125
 20
8.578744
 30
0.0
 11
5.578125
 21
8.328744
 31
0.0
  0
LINE
  5
442
100
AcDbEntity
  8
0
100
AcDbLine
 10
5.828125
 20
7.828744
 30
0.0
 11
5.578125
 21
7.828744
 31
0.0
  0
LINE
  5
443
100
AcDbEntity
  8
0
100
AcDbLine
 10
5.828125
 20
8.078744
 30
0.0
 11
5.578125
 21
8.078744
 31
0.0
  0
LINE
  5
444
100
AcDbEntity
  8
0
100
AcDbLine
 10
5.578125
 20
8.078744
 30
0.0
 11
5.578125
 21
7.828744
 31
0.0
  0
LINE
  5
445
100
AcDbEntity
  8
0
100
AcDbLine
 10
5.828125
 20
7.328744
 30
0.0
 11
5.578125
 21
7.328744
 31
0.0
  0
LINE
  5
446
100
AcDbEntity
  8
0
100
AcDbLine
 10
5.828125
 20
7.578744
 30
0.0
 11
5.578125
 21
7.578744
 31
0.0
  0
LINE
  5
447
100
AcDbEntity
  8
0
100
AcDbLine
 10
5.578125
 20
7.578744
 30
0.0
 11
5.578125
 21
7.328744
 31
0.0
  0
LINE
  5
448
100
AcDbEntity
  8
0
100
AcDbLine
 10
5.828125
 20
6.828744
 30
0.0
 11
5.578125
 21
6.828744
 31
0.0
  0
LINE
  5
449
100
AcDbEntity
  8
0
100
AcDbLine
 10
5.828125
 20
7.078744
 30
0.0
 11
5.578125
 21
7.078744
 31
0.0
  0
LINE
  5
44A
100
AcDbEntity
  8
0
100
AcDbLine
 10
5.578125
 20
7.078744
 30
0.0
 11
5.578125
 21
6.828744
 31
0.0
  0
TEXT
  5
44B
100
AcDbEntity
  8
TEXT
100
AcDbText
 10
5.607887
 20
9.391244
 30
0.0
 40
0.125
  1
25
 41
0.8
 51
10.0
  7
ROMANS
 72
     1
 11
5.703125
 21
9.391244
 31
0.0
100
AcDbText
  0
TEXT
  5
44C
100
AcDbEntity
  8
TEXT
100
AcDbText
 10
5.607887
 20
8.891244
 30
0.0
 40
0.125
  1
26
 41
0.8
 51
10.0
  7
ROMANS
 72
     1
 11
5.703125
 21
8.891244
 31
0.0
100
AcDbText
  0
TEXT
  5
44D
100
AcDbEntity
  8
TEXT
100
AcDbText
 10
5.607887
 20
8.391244
 30
0.0
 40
0.125
  1
27
 41
0.8
 51
10.0
  7
ROMANS
 72
     1
 11
5.703125
 21
8.391244
 31
0.0
100
AcDbText
  0
TEXT
  5
44E
100
AcDbEntity
  8
TEXT
100
AcDbText
 10
5.607887
 20
7.891244
 30
0.0
 40
0.125
  1
28
 41
0.8
 51
10.0
  7
ROMANS
 72
     1
 11
5.703125
 21
7.891244
 31
0.0
100
AcDbText
  0
TEXT
  5
44F
100
AcDbEntity
  8
TEXT
100
AcDbText
 10
5.610268
 20
7.391244
 30
0.0
 40
0.125
  1
29
 41
0.8
 51
10.0
  7
ROMANS
 72
     1
 11
5.703125
 21
7.391244
 31
0.0
100
AcDbText
  0
TEXT
  5
450
100
AcDbEntity
  8
TEXT
100
AcDbText
 10
5.607887
 20
6.891244
 30
0.0
 40
0.125
  1
30
 41
0.8
 51
10.0
  7
ROMANS
 72
     1
 11
5.703125
 21
6.891244
 31
0.0
100
AcDbText
  0
TEXT
  5
452
100
AcDbEntity
  8
TEXT
100
AcDbText
 10
5.963839
 20
14.345113
 30
0.0
 40
0.125
  1
ENCODER INPUT
 41
0.8
  7
ROMANS
 72
     4
 11
6.578125
 21
14.407613
 31
0.0
100
AcDbText
  0
TEXT
  5
453
100
AcDbEntity
  8
TEXT
100
AcDbText
 10
5.978125
 20
14.142732
 30
0.0
 40
0.125
  1
502-03839-03
 41
0.8
  7
ROMANS
 72
     4
 11
6.578125
 21
14.205232
 31
0.0
100
AcDbText
  0
INSERT
  5
454
100
AcDbEntity
  8
TEXT
100
AcDbBlockReference
  2
TEMP5
 10
7.390625
 20
14.109994
 30
0.0
  0
TEXT
  5
455
100
AcDbEntity
  8
TEXT
100
AcDbText
 10
5.890625
 20
9.391244
 30
0.0
 40
0.125
  1
Enc Ch2 B
 41
0.8
 51
10.0
  7
ROMANS
100
AcDbText
  0
TEXT
  5
456
100
AcDbEntity
  8
TEXT
100
AcDbText
 10
5.890625
 20
7.391244
 30
0.0
 40
0.125
  1
Enc Ch3 A
 41
0.8
 51
10.0
  7
ROMANS
100
AcDbText
  0
TEXT
  5
457
100
AcDbEntity
  8
TEXT
100
AcDbText
 10
5.890625
 20
8.891244
 30
0.0
 40
0.125
  1
Enc Ch2 /B
 41
0.8
 51
10.0
  7
ROMANS
100
AcDbText
  0
TEXT
  5
458
100
AcDbEntity
  8
TEXT
100
AcDbText
 10
5.890625
 20
8.391244
 30
0.0
 40
0.125
  1
Enc Ch2 Index
 41
0.8
 51
10.0
  7
ROMANS
100
AcDbText
  0
TEXT
  5
459
100
AcDbEntity
  8
TEXT
100
AcDbText
 10
5.890625
 20
7.891244
 30
0.0
 40
0.125
  1
Enc Ch2 /Index
 41
0.8
 51
10.0
  7
ROMANS
100
AcDbText
  0
TEXT
  5
45A
100
AcDbEntity
  8
TEXT
100
AcDbText
 10
5.890625
 20
6.891244
 30
0.0
 40
0.125
  1
Enc Ch3 /A
 41
0.8
 51
10.0
  7
ROMANS
100
AcDbText
  0
LINE
  5
45B
100
AcDbEntity
  8
0
100
AcDbLine
 10
5.828125
 20
1.828744
 30
0.0
 11
5.578125
 21
1.828744
 31
0.0
  0
TEXT
  5
45C
100
AcDbEntity
  8
TEXT
100
AcDbText
 10
5.607887
 20
1.891244
 30
0.0
 40
0.125
  1
40
 41
0.8
 51
10.0
  7
ROMANS
 72
     1
 11
5.703125
 21
1.891244
 31
0.0
100
AcDbText
  0
LINE
  5
45D
100
AcDbEntity
  8
0
100
AcDbLine
 10
5.828125
 20
2.078744
 30
0.0
 11
5.578125
 21
2.078744
 31
0.0
  0
TEXT
  5
45E
100
AcDbEntity
  8
TEXT
100
AcDbText
 10
5.610268
 20
2.391244
 30
0.0
 40
0.125
  1
39
 41
0.8
 51
10.0
  7
ROMANS
 72
     1
 11
5.703125
 21
2.391244
 31
0.0
100
AcDbText
  0
LINE
  5
45F
100
AcDbEntity
  8
0
100
AcDbLine
 10
5.828125
 20
2.328744
 30
0.0
 11
5.578125
 21
2.328744
 31
0.0
  0
LINE
  5
460
100
AcDbEntity
  8
0
100
AcDbLine
 10
5.828125
 20
2.578744
 30
0.0
 11
5.578125
 21
2.578744
 31
0.0
  0
LINE
  5
461
100
AcDbEntity
  8
0
100
AcDbLine
 10
5.578125
 20
2.578744
 30
0.0
 11
5.578125
 21
2.328744
 31
0.0
  0
TEXT
  5
462
100
AcDbEntity
  8
TEXT
100
AcDbText
 10
5.607887
 20
2.891244
 30
0.0
 40
0.125
  1
38
 41
0.8
 51
10.0
  7
ROMANS
 72
     1
 11
5.703125
 21
2.891244
 31
0.0
100
AcDbText
  0
LINE
  5
463
100
AcDbEntity
  8
0
100
AcDbLine
 10
5.828125
 20
2.828744
 30
0.0
 11
5.578125
 21
2.828744
 31
0.0
  0
LINE
  5
464
100
AcDbEntity
  8
0
100
AcDbLine
 10
5.828125
 20
3.078744
 30
0.0
 11
5.578125
 21
3.078744
 31
0.0
  0
LINE
  5
465
100
AcDbEntity
  8
0
100
AcDbLine
 10
5.578125
 20
3.078744
 30
0.0
 11
5.578125
 21
2.828744
 31
0.0
  0
TEXT
  5
466
100
AcDbEntity
  8
TEXT
100
AcDbText
 10
5.607887
 20
3.391244
 30
0.0
 40
0.125
  1
37
 41
0.8
 51
10.0
  7
ROMANS
 72
     1
 11
5.703125
 21
3.391244
 31
0.0
100
AcDbText
  0
LINE
  5
467
100
AcDbEntity
  8
0
100
AcDbLine
 10
5.828125
 20
3.328744
 30
0.0
 11
5.578125
 21
3.328744
 31
0.0
  0
LINE
  5
468
100
AcDbEntity
  8
0
100
AcDbLine
 10
5.828125
 20
3.578744
 30
0.0
 11
5.578125
 21
3.578744
 31
0.0
  0
LINE
  5
469
100
AcDbEntity
  8
0
100
AcDbLine
 10
5.578125
 20
3.578744
 30
0.0
 11
5.578125
 21
3.328744
 31
0.0
  0
TEXT
  5
46A
100
AcDbEntity
  8
TEXT
100
AcDbText
 10
5.607887
 20
3.891244
 30
0.0
 40
0.125
  1
36
 41
0.8
 51
10.0
  7
ROMANS
 72
     1
 11
5.703125
 21
3.891244
 31
0.0
100
AcDbText
  0
LINE
  5
46B
100
AcDbEntity
  8
0
100
AcDbLine
 10
5.828125
 20
3.828744
 30
0.0
 11
5.578125
 21
3.828744
 31
0.0
  0
LINE
  5
46C
100
AcDbEntity
  8
0
100
AcDbLine
 10
5.828125
 20
4.078744
 30
0.0
 11
5.578125
 21
4.078744
 31
0.0
  0
LINE
  5
46D
100
AcDbEntity
  8
0
100
AcDbLine
 10
5.578125
 20
4.078744
 30
0.0
 11
5.578125
 21
3.828744
 31
0.0
  0
TEXT
  5
46E
100
AcDbEntity
  8
TEXT
100
AcDbText
 10
5.607887
 20
4.391244
 30
0.0
 40
0.125
  1
35
 41
0.8
 51
10.0
  7
ROMANS
 72
     1
 11
5.703125
 21
4.391244
 31
0.0
100
AcDbText
  0
LINE
  5
46F
100
AcDbEntity
  8
0
100
AcDbLine
 10
5.828125
 20
4.328744
 30
0.0
 11
5.578125
 21
4.328744
 31
0.0
  0
LINE
  5
470
100
AcDbEntity
  8
0
100
AcDbLine
 10
5.828125
 20
4.578744
 30
0.0
 11
5.578125
 21
4.578744
 31
0.0
  0
LINE
  5
471
100
AcDbEntity
  8
0
100
AcDbLine
 10
5.578125
 20
4.578744
 30
0.0
 11
5.578125
 21
4.328744
 31
0.0
  0
TEXT
  5
472
100
AcDbEntity
  8
TEXT
100
AcDbText
 10
5.605506
 20
4.891244
 30
0.0
 40
0.125
  1
34
 41
0.8
 51
10.0
  7
ROMANS
 72
     1
 11
5.703125
 21
4.891244
 31
0.0
100
AcDbText
  0
LINE
  5
473
100
AcDbEntity
  8
0
100
AcDbLine
 10
5.828125
 20
4.828744
 30
0.0
 11
5.578125
 21
4.828744
 31
0.0
  0
LINE
  5
474
100
AcDbEntity
  8
0
100
AcDbLine
 10
5.828125
 20
5.078744
 30
0.0
 11
5.578125
 21
5.078744
 31
0.0
  0
LINE
  5
475
100
AcDbEntity
  8
0
100
AcDbLine
 10
5.578125
 20
5.078744
 30
0.0
 11
5.578125
 21
4.828744
 31
0.0
  0
TEXT
  5
476
100
AcDbEntity
  8
TEXT
100
AcDbText
 10
5.607887
 20
5.391244
 30
0.0
 40
0.125
  1
33
 41
0.8
 51
10.0
  7
ROMANS
 72
     1
 11
5.703125
 21
5.391244
 31
0.0
100
AcDbText
  0
LINE
  5
477
100
AcDbEntity
  8
0
100
AcDbLine
 10
5.828125
 20
5.328744
 30
0.0
 11
5.578125
 21
5.328744
 31
0.0
  0
LINE
  5
478
100
AcDbEntity
  8
0
100
AcDbLine
 10
5.828125
 20
5.578744
 30
0.0
 11
5.578125
 21
5.578744
 31
0.0
  0
LINE
  5
479
100
AcDbEntity
  8
0
100
AcDbLine
 10
5.578125
 20
5.578744
 30
0.0
 11
5.578125
 21
5.328744
 31
0.0
  0
TEXT
  5
47A
100
AcDbEntity
  8
TEXT
100
AcDbText
 10
5.607887
 20
5.891244
 30
0.0
 40
0.125
  1
32
 41
0.8
 51
10.0
  7
ROMANS
 72
     1
 11
5.703125
 21
5.891244
 31
0.0
100
AcDbText
  0
LINE
  5
47B
100
AcDbEntity
  8
0
100
AcDbLine
 10
5.828125
 20
5.828744
 30
0.0
 11
5.578125
 21
5.828744
 31
0.0
  0
LINE
  5
47C
100
AcDbEntity
  8
0
100
AcDbLine
 10
5.828125
 20
6.078744
 30
0.0
 11
5.578125
 21
6.078744
 31
0.0
  0
LINE
  5
47D
100
AcDbEntity
  8
0
100
AcDbLine
 10
5.578125
 20
6.078744
 30
0.0
 11
5.578125
 21
5.828744
 31
0.0
  0
TEXT
  5
47E
100
AcDbEntity
  8
TEXT
100
AcDbText
 10
5.622173
 20
6.391244
 30
0.0
 40
0.125
  1
31
 41
0.8
 51
10.0
  7
ROMANS
 72
     1
 11
5.703125
 21
6.391244
 31
0.0
100
AcDbText
  0
LINE
  5
47F
100
AcDbEntity
  8
0
100
AcDbLine
 10
5.828125
 20
6.328744
 30
0.0
 11
5.578125
 21
6.328744
 31
0.0
  0
LINE
  5
480
100
AcDbEntity
  8
0
100
AcDbLine
 10
5.828125
 20
6.578744
 30
0.0
 11
5.578125
 21
6.578744
 31
0.0
  0
LINE
  5
481
100
AcDbEntity
  8
0
100
AcDbLine
 10
5.578125
 20
6.578744
 30
0.0
 11
5.578125
 21
6.328744
 31
0.0
  0
LINE
  5
482
100
AcDbEntity
  8
0
100
AcDbLine
 10
5.578125
 20
2.078744
 30
0.0
 11
5.578125
 21
1.828744
 31
0.0
  0
TEXT
  5
483
100
AcDbEntity
  8
TEXT
100
AcDbText
 10
5.890625
 20
1.891244
 30
0.0
 40
0.125
  1
Enc Ch3 -Fast In
 41
0.8
 51
10.0
  7
ROMANS
100
AcDbText
  0
TEXT
  5
484
100
AcDbEntity
  8
TEXT
100
AcDbText
 10
5.890625
 20
2.391244
 30
0.0
 40
0.125
  1
Enc Ch3 +Fast In
 41
0.8
 51
10.0
  7
ROMANS
100
AcDbText
  0
TEXT
  5
485
100
AcDbEntity
  8
TEXT
100
AcDbText
 10
5.890625
 20
2.891244
 30
0.0
 40
0.125
  1
Enc Ch2 -Fast In
 41
0.8
 51
10.0
  7
ROMANS
100
AcDbText
  0
TEXT
  5
486
100
AcDbEntity
  8
TEXT
100
AcDbText
 10
5.890625
 20
3.391244
 30
0.0
 40
0.125
  1
Enc Ch2 +Fast In
 41
0.8
 51
10.0
  7
ROMANS
100
AcDbText
  0
TEXT
  5
487
100
AcDbEntity
  8
TEXT
100
AcDbText
 10
5.890625
 20
3.891244
 30
0.0
 40
0.125
  1
Enc Ch1 -Fast In
 41
0.8
 51
10.0
  7
ROMANS
100
AcDbText
  0
TEXT
  5
488
100
AcDbEntity
  8
TEXT
100
AcDbText
 10
5.890625
 20
4.391244
 30
0.0
 40
0.125
  1
Enc Ch1 +Fast In
 41
0.8
 51
10.0
  7
ROMANS
100
AcDbText
  0
TEXT
  5
489
100
AcDbEntity
  8
TEXT
100
AcDbText
 10
5.890625
 20
4.891244
 30
0.0
 40
0.125
  1
Enc Ch3 /Index
 41
0.8
 51
10.0
  7
ROMANS
100
AcDbText
  0
TEXT
  5
48A
100
AcDbEntity
  8
TEXT
100
AcDbText
 10
5.890625
 20
5.391244
 30
0.0
 40
0.125
  1
Enc Ch3 Index
 41
0.8
 51
10.0
  7
ROMANS
100
AcDbText
  0
TEXT
  5
48B
100
AcDbEntity
  8
TEXT
100
AcDbText
 10
5.890625
 20
5.891244
 30
0.0
 40
0.125
  1
Enc Ch3 /B
 41
0.8
 51
10.0
  7
ROMANS
100
AcDbText
  0
TEXT
  5
48C
100
AcDbEntity
  8
TEXT
100
AcDbText
 10
5.890625
 20
6.391244
 30
0.0
 40
0.125
  1
Enc Ch3 B
 41
0.8
 51
10.0
  7
ROMANS
100
AcDbText
  0
LINE
  5
48D
100
AcDbEntity
  8
0
100
AcDbLine
 10
7.478125
 20
1.703744
 30
0.0
 11
7.628125
 21
1.703744
 31
0.0
  0
TEXT
  5
48E
100
AcDbEntity
  8
TEXT
100
AcDbText
 10
7.678125
 20
4.903744
 30
0.0
 40
0.1
  1
*
 41
0.8
  7
ROMANS
100
AcDbText
  0
TEXT
  5
48F
100
AcDbEntity
  8
TEXT
100
AcDbText
 10
7.678125
 20
5.403744
 30
0.0
 40
0.1
  1
*
 41
0.8
  7
ROMANS
100
AcDbText
  0
TEXT
  5
490
100
AcDbEntity
  8
TEXT
100
AcDbText
 10
7.678125
 20
5.903744
 30
0.0
 40
0.1
  1
*
 41
0.8
  7
ROMANS
100
AcDbText
  0
TEXT
  5
491
100
AcDbEntity
  8
TEXT
100
AcDbText
 10
7.678125
 20
6.403744
 30
0.0
 40
0.1
  1
*
 41
0.8
  7
ROMANS
100
AcDbText
  0
TEXT
  5
492
100
AcDbEntity
  8
TEXT
100
AcDbText
 10
7.678125
 20
6.903744
 30
0.0
 40
0.1
  1
*
 41
0.8
  7
ROMANS
100
AcDbText
  0
LINE
  5
493
100
AcDbEntity
  8
0
100
AcDbLine
 10
5.578125
 20
10.078744
 30
0.0
 11
5.578125
 21
9.828744
 31
0.0
  0
LINE
  5
494
100
AcDbEntity
  8
0
100
AcDbLine
 10
5.828125
 20
9.828744
 30
0.0
 11
5.578125
 21
9.828744
 31
0.0
  0
TEXT
  5
495
100
AcDbEntity
  8
TEXT
100
AcDbText
 10
5.605506
 20
9.891244
 30
0.0
 40
0.125
  1
24
 41
0.8
 51
10.0
  7
ROMANS
 72
     1
 11
5.703125
 21
9.891244
 31
0.0
100
AcDbText
  0
LINE
  5
496
100
AcDbEntity
  8
0
100
AcDbLine
 10
5.828125
 20
10.078744
 30
0.0
 11
5.578125
 21
10.078744
 31
0.0
  0
LINE
  5
497
100
AcDbEntity
  8
0
100
AcDbLine
 10
5.578125
 20
10.578744
 30
0.0
 11
5.578125
 21
10.328744
 31
0.0
  0
LINE
  5
498
100
AcDbEntity
  8
0
100
AcDbLine
 10
5.828125
 20
10.328744
 30
0.0
 11
5.578125
 21
10.328744
 31
0.0
  0
TEXT
  5
499
100
AcDbEntity
  8
TEXT
100
AcDbText
 10
5.607887
 20
10.391244
 30
0.0
 40
0.125
  1
23
 41
0.8
 51
10.0
  7
ROMANS
 72
     1
 11
5.703125
 21
10.391244
 31
0.0
100
AcDbText
  0
LINE
  5
49A
100
AcDbEntity
  8
0
100
AcDbLine
 10
5.828125
 20
10.578744
 30
0.0
 11
5.578125
 21
10.578744
 31
0.0
  0
LINE
  5
49B
100
AcDbEntity
  8
0
100
AcDbLine
 10
5.578125
 20
11.078744
 30
0.0
 11
5.578125
 21
10.828744
 31
0.0
  0
LINE
  5
49C
100
AcDbEntity
  8
0
100
AcDbLine
 10
5.828125
 20
10.828744
 30
0.0
 11
5.578125
 21
10.828744
 31
0.0
  0
TEXT
  5
49D
100
AcDbEntity
  8
TEXT
100
AcDbText
 10
5.607887
 20
10.891244
 30
0.0
 40
0.125
  1
22
 41
0.8
 51
10.0
  7
ROMANS
 72
     1
 11
5.703125
 21
10.891244
 31
0.0
100
AcDbText
  0
LINE
  5
49E
100
AcDbEntity
  8
0
100
AcDbLine
 10
5.828125
 20
11.078744
 30
0.0
 11
5.578125
 21
11.078744
 31
0.0
  0
LINE
  5
49F
100
AcDbEntity
  8
0
100
AcDbLine
 10
5.578125
 20
11.578744
 30
0.0
 11
5.578125
 21
11.328744
 31
0.0
  0
LINE
  5
4A0
100
AcDbEntity
  8
0
100
AcDbLine
 10
5.828125
 20
11.328744
 30
0.0
 11
5.578125
 21
11.328744
 31
0.0
  0
TEXT
  5
4A1
100
AcDbEntity
  8
TEXT
100
AcDbText
 10
5.622173
 20
11.391244
 30
0.0
 40
0.125
  1
21
 41
0.8
 51
10.0
  7
ROMANS
 72
     1
 11
5.703125
 21
11.391244
 31
0.0
100
AcDbText
  0
LINE
  5
4A2
100
AcDbEntity
  8
0
100
AcDbLine
 10
5.828125
 20
11.578744
 30
0.0
 11
5.578125
 21
11.578744
 31
0.0
  0
LINE
  5
4A3
100
AcDbEntity
  8
0
100
AcDbLine
 10
5.578125
 20
12.078744
 30
0.0
 11
5.578125
 21
11.828744
 31
0.0
  0
LINE
  5
4A4
100
AcDbEntity
  8
0
100
AcDbLine
 10
5.828125
 20
11.828744
 30
0.0
 11
5.578125
 21
11.828744
 31
0.0
  0
TEXT
  5
4A5
100
AcDbEntity
  8
TEXT
100
AcDbText
 10
5.607887
 20
11.891244
 30
0.0
 40
0.125
  1
20
 41
0.8
 51
10.0
  7
ROMANS
 72
     1
 11
5.703125
 21
11.891244
 31
0.0
100
AcDbText
  0
LINE
  5
4A6
100
AcDbEntity
  8
0
100
AcDbLine
 10
5.828125
 20
12.078744
 30
0.0
 11
5.578125
 21
12.078744
 31
0.0
  0
LINE
  5
4A7
100
AcDbEntity
  8
0
100
AcDbLine
 10
5.578125
 20
12.578744
 30
0.0
 11
5.578125
 21
12.328744
 31
0.0
  0
LINE
  5
4A8
100
AcDbEntity
  8
0
100
AcDbLine
 10
5.828125
 20
12.328744
 30
0.0
 11
5.578125
 21
12.328744
 31
0.0
  0
TEXT
  5
4A9
100
AcDbEntity
  8
TEXT
100
AcDbText
 10
5.603125
 20
12.391244
 30
0.0
 40
0.125
  1
19
 41
0.8
 51
10.0
  7
ROMANS
 72
     1
 11
5.703125
 21
12.391244
 31
0.0
100
AcDbText
  0
LINE
  5
4AA
100
AcDbEntity
  8
0
100
AcDbLine
 10
5.828125
 20
12.578744
 30
0.0
 11
5.578125
 21
12.578744
 31
0.0
  0
LINE
  5
4AB
100
AcDbEntity
  8
0
100
AcDbLine
 10
5.578125
 20
13.078744
 30
0.0
 11
5.578125
 21
12.828744
 31
0.0
  0
LINE
  5
4AC
100
AcDbEntity
  8
0
100
AcDbLine
 10
5.828125
 20
12.828744
 30
0.0
 11
5.578125
 21
12.828744
 31
0.0
  0
TEXT
  5
4AD
100
AcDbEntity
  8
TEXT
100
AcDbText
 10
5.600744
 20
12.891244
 30
0.0
 40
0.125
  1
18
 41
0.8
 51
10.0
  7
ROMANS
 72
     1
 11
5.703125
 21
12.891244
 31
0.0
100
AcDbText
  0
LINE
  5
4AE
100
AcDbEntity
  8
0
100
AcDbLine
 10
5.828125
 20
13.078744
 30
0.0
 11
5.578125
 21
13.078744
 31
0.0
  0
LINE
  5
4AF
100
AcDbEntity
  8
0
100
AcDbLine
 10
5.578125
 20
13.578744
 30
0.0
 11
5.578125
 21
13.328744
 31
0.0
  0
LINE
  5
4B0
100
AcDbEntity
  8
0
100
AcDbLine
 10
5.828125
 20
13.328744
 30
0.0
 11
5.578125
 21
13.328744
 31
0.0
  0
TEXT
  5
4B1
100
AcDbEntity
  8
TEXT
100
AcDbText
 10
5.600744
 20
13.391244
 30
0.0
 40
0.125
  1
17
 41
0.8
 51
10.0
  7
ROMANS
 72
     1
 11
5.703125
 21
13.391244
 31
0.0
100
AcDbText
  0
LINE
  5
4B2
100
AcDbEntity
  8
0
100
AcDbLine
 10
5.828125
 20
13.578744
 30
0.0
 11
5.578125
 21
13.578744
 31
0.0
  0
LINE
  5
4B3
100
AcDbEntity
  8
0
100
AcDbLine
 10
5.828125
 20
1.703744
 30
0.0
 11
5.828125
 21
14.109994
 31
0.0
  0
LINE
  5
4B4
100
AcDbEntity
  8
0
100
AcDbLine
 10
7.328125
 20
14.109994
 30
0.0
 11
7.328125
 21
1.703744
 31
0.0
  0
LINE
  5
4B5
100
AcDbEntity
  8
DASH
100
AcDbLine
 10
7.328125
 20
14.109994
 30
0.0
 11
5.828125
 21
14.109994
 31
0.0
  0
TEXT
  5
4B6
100
AcDbEntity
  8
TEXT
100
AcDbText
 10
5.890625
 20
9.891244
 30
0.0
 40
0.125
  1
Enc Ch2 /A
 41
0.8
 51
10.0
  7
ROMANS
100
AcDbText
  0
TEXT
  5
4B7
100
AcDbEntity
  8
TEXT
100
AcDbText
 10
5.890625
 20
10.391244
 30
0.0
 40
0.125
  1
Enc Ch2 A
 41
0.8
 51
10.0
  7
ROMANS
100
AcDbText
  0
TEXT
  5
4B8
100
AcDbEntity
  8
TEXT
100
AcDbText
 10
5.890625
 20
10.891244
 30
0.0
 40
0.125
  1
Enc Ch1 /Index
 41
0.8
 51
10.0
  7
ROMANS
100
AcDbText
  0
TEXT
  5
4B9
100
AcDbEntity
  8
TEXT
100
AcDbText
 10
5.890625
 20
11.391244
 30
0.0
 40
0.125
  1
Enc Ch1 Index
 41
0.8
 51
10.0
  7
ROMANS
100
AcDbText
  0
TEXT
  5
4BA
100
AcDbEntity
  8
TEXT
100
AcDbText
 10
5.890625
 20
11.891244
 30
0.0
 40
0.125
  1
Enc Ch1 /B
 41
0.8
 51
10.0
  7
ROMANS
100
AcDbText
  0
TEXT
  5
4BB
100
AcDbEntity
  8
TEXT
100
AcDbText
 10
5.890625
 20
12.391244
 30
0.0
 40
0.125
  1
Enc Ch1 B
 41
0.8
 51
10.0
  7
ROMANS
100
AcDbText
  0
TEXT
  5
4BC
100
AcDbEntity
  8
TEXT
100
AcDbText
 10
5.890625
 20
12.891244
 30
0.0
 40
0.125
  1
Enc Ch1 /A
 41
0.8
 51
10.0
  7
ROMANS
100
AcDbText
  0
TEXT
  5
4BD
100
AcDbEntity
  8
TEXT
100
AcDbText
 10
5.890625
 20
13.391244
 30
0.0
 40
0.125
  1
Enc Ch1 A
 41
0.8
 51
10.0
  7
ROMANS
100
AcDbText
  0
LINE
  5
4BE
100
AcDbEntity
  8
DASH
100
AcDbLine
 10
7.328125
 20
4.703744
 30
0.0
 11
5.828125
 21
4.703744
 31
0.0
  0
LINE
  5
4BF
100
AcDbEntity
  8
0
100
AcDbLine
 10
7.478125
 20
13.578744
 30
0.0
 11
7.628125
 21
13.578744
 31
0.0
  0
LINE
  5
4C0
100
AcDbEntity
  8
0
100
AcDbLine
 10
7.478125
 20
13.578744
 30
0.0
 11
7.478125
 21
10.828744
 31
0.0
  0
LINE
  5
4C1
100
AcDbEntity
  8
0
100
AcDbLine
 10
7.478125
 20
4.703744
 30
0.0
 11
7.628125
 21
4.703744
 31
0.0
  0
TEXT
  5
4C2
100
AcDbEntity
  8
TEXT
100
AcDbText
 10
7.678125
 20
13.403744
 30
0.0
 40
0.1
  1
*
 41
0.8
  7
ROMANS
100
AcDbText
  0
TEXT
  5
4C3
100
AcDbEntity
  8
TEXT
100
AcDbText
 10
7.678125
 20
7.403744
 30
0.0
 40
0.1
  1
*
 41
0.8
  7
ROMANS
100
AcDbText
  0
TEXT
  5
4C4
100
AcDbEntity
  8
TEXT
100
AcDbText
 10
7.678125
 20
7.903744
 30
0.0
 40
0.1
  1
*
 41
0.8
  7
ROMANS
100
AcDbText
  0
TEXT
  5
4C5
100
AcDbEntity
  8
TEXT
100
AcDbText
 10
7.678125
 20
8.403744
 30
0.0
 40
0.1
  1
*
 41
0.8
  7
ROMANS
100
AcDbText
  0
TEXT
  5
4C6
100
AcDbEntity
  8
TEXT
100
AcDbText
 10
7.678125
 20
8.903744
 30
0.0
 40
0.1
  1
*
 41
0.8
  7
ROMANS
100
AcDbText
  0
TEXT
  5
4C7
100
AcDbEntity
  8
TEXT
100
AcDbText
 10
7.678125
 20
9.403744
 30
0.0
 40
0.1
  1
*
 41
0.8
  7
ROMANS
100
AcDbText
  0
TEXT
  5
4C8
100
AcDbEntity
  8
TEXT
100
AcDbText
 10
7.678125
 20
9.903744
 30
0.0
 40
0.1
  1
*
 41
0.8
  7
ROMANS
100
AcDbText
  0
TEXT
  5
4C9
100
AcDbEntity
  8
TEXT
100
AcDbText
 10
7.678125
 20
10.403744
 30
0.0
 40
0.1
  1
*
 41
0.8
  7
ROMANS
100
AcDbText
  0
TEXT
  5
4CA
100
AcDbEntity
  8
TEXT
100
AcDbText
 10
7.678125
 20
10.903744
 30
0.0
 40
0.1
  1
*
 41
0.8
  7
ROMANS
100
AcDbText
  0
TEXT
  5
4CB
100
AcDbEntity
  8
TEXT
100
AcDbText
 10
7.678125
 20
11.403744
 30
0.0
 40
0.1
  1
*
 41
0.8
  7
ROMANS
100
AcDbText
  0
TEXT
  5
4CC
100
AcDbEntity
  8
TEXT
100
AcDbText
 10
7.678125
 20
11.903744
 30
0.0
 40
0.1
  1
*
 41
0.8
  7
ROMANS
100
AcDbText
  0
TEXT
  5
4CD
100
AcDbEntity
  8
TEXT
100
AcDbText
 10
7.678125
 20
12.403744
 30
0.0
 40
0.1
  1
*
 41
0.8
  7
ROMANS
100
AcDbText
  0
TEXT
  5
4CE
100
AcDbEntity
  8
TEXT
100
AcDbText
 10
7.678125
 20
12.903744
 30
0.0
 40
0.1
  1
*
 41
0.8
  7
ROMANS
100
AcDbText
  0
LINE
  5
4CF
100
AcDbEntity
  8
0
100
AcDbLine
 10
7.478125
 20
10.578744
 30
0.0
 11
7.628125
 21
10.578744
 31
0.0
  0
LINE
  5
4D0
100
AcDbEntity
  8
0
100
AcDbLine
 10
7.478125
 20
10.828744
 30
0.0
 11
7.628125
 21
10.828744
 31
0.0
  0
LINE
  5
4D1
100
AcDbEntity
  8
0
100
AcDbLine
 10
7.478125
 20
10.578744
 30
0.0
 11
7.478125
 21
7.828744
 31
0.0
  0
LINE
  5
4D2
100
AcDbEntity
  8
0
100
AcDbLine
 10
7.478125
 20
7.828744
 30
0.0
 11
7.628125
 21
7.828744
 31
0.0
  0
LINE
  5
4D3
100
AcDbEntity
  8
0
100
AcDbLine
 10
7.478125
 20
7.578744
 30
0.0
 11
7.628125
 21
7.578744
 31
0.0
  0
LINE
  5
4D4
100
AcDbEntity
  8
0
100
AcDbLine
 10
7.478125
 20
7.578744
 30
0.0
 11
7.478125
 21
4.703744
 31
0.0
  0
LINE
  5
4D5
100
AcDbEntity
  8
0
100
AcDbLine
 10
7.478125
 20
4.578744
 30
0.0
 11
7.628125
 21
4.578744
 31
0.0
  0
LINE
  5
4D6
100
AcDbEntity
  8
0
100
AcDbLine
 10
7.478125
 20
1.703744
 30
0.0
 11
7.478125
 21
2.578744
 31
0.0
  0
LINE
  5
4D7
100
AcDbEntity
  8
0
100
AcDbLine
 10
7.478125
 20
3.828744
 30
0.0
 11
7.628125
 21
3.828744
 31
0.0
  0
LINE
  5
4D8
100
AcDbEntity
  8
0
100
AcDbLine
 10
7.478125
 20
3.578744
 30
0.0
 11
7.628125
 21
3.578744
 31
0.0
  0
LINE
  5
4D9
100
AcDbEntity
  8
0
100
AcDbLine
 10
7.478125
 20
2.828744
 30
0.0
 11
7.628125
 21
2.828744
 31
0.0
  0
LINE
  5
4DA
100
AcDbEntity
  8
0
100
AcDbLine
 10
7.478125
 20
2.578744
 30
0.0
 11
7.628125
 21
2.578744
 31
0.0
  0
LINE
  5
4DB
100
AcDbEntity
  8
0
100
AcDbLine
 10
7.478125
 20
3.828744
 30
0.0
 11
7.478125
 21
4.578744
 31
0.0
  0
LINE
  5
4DC
100
AcDbEntity
  8
0
100
AcDbLine
 10
7.478125
 20
2.828744
 30
0.0
 11
7.478125
 21
3.578744
 31
0.0
  0
TEXT
  5
4DD
100
AcDbEntity
  8
TEXT
100
AcDbText
 10
7.678125
 20
4.153744
 30
0.0
 40
0.1
  1
*
 41
0.8
  7
ROMANS
100
AcDbText
  0
TEXT
  5
4DE
100
AcDbEntity
  8
TEXT
100
AcDbText
 10
7.678125
 20
3.153744
 30
0.0
 40
0.1
  1
*
 41
0.8
  7
ROMANS
100
AcDbText
  0
TEXT
  5
4DF
100
AcDbEntity
  8
TEXT
100
AcDbText
 10
7.678125
 20
2.091244
 30
0.0
 40
0.1
  1
*
 41
0.8
  7
ROMANS
100
AcDbText
  0
LINE
  5
4E0
100
AcDbEntity
  8
0
100
AcDbLine
 10
5.828125
 20
1.703744
 30
0.0
 11
7.328125
 21
1.703744
 31
0.0
  0
TEXT
  5
4F1
100
AcDbEntity
  8
TEXT
100
AcDbText
 10
2.728125
 20
12.403744
 30
0.0
 40
0.1
  1
*
 41
0.8
  7
ROMANS
100
AcDbText
  0
TEXT
  5
54B
100
AcDbEntity
  8
0
100
AcDbText
 10
9.171875
 20
8.046875
 30
0.0
 40
0.1
  1

 72
     1
 11
9.171875
 21
8.046875
 31
0.0
100
AcDbText
  0
TEXT
  5
54C
100
AcDbEntity
  8
0
100
AcDbText
 10
15.320913
 20
4.90725
 30
0.0
 40
0.075
  1

100
AcDbText
  0
TEXT
  5
54D
100
AcDbEntity
  8
0
100
AcDbText
 10
14.973206
 20
4.90725
 30
0.0
 40
0.075
  1

100
AcDbText
  0
TEXT
  5
54E
100
AcDbEntity
  8
0
100
AcDbText
 10
14.88208
 20
14.438185
 30
0.0
 40
0.1
  1

 72
     1
 11
14.88208
 21
14.438185
 31
0.0
100
AcDbText
  0
TEXT
  5
54F
100
AcDbEntity
  8
0
100
AcDbText
 10
21.031118
 20
11.29856
 30
0.0
 40
0.075
  1

100
AcDbText
  0
TEXT
  5
550
100
AcDbEntity
  8
0
100
AcDbText
 10
20.683411
 20
11.29856
 30
0.0
 40
0.075
  1

100
AcDbText
  0
TEXT
  5
551
100
AcDbEntity
  8
0
100
AcDbText
 10
20.760375
 20
8.08025
 30
0.0
 40
0.1
  1

 72
     1
 11
20.760375
 21
8.08025
 31
0.0
100
AcDbText
  0
TEXT
  5
552
100
AcDbEntity
  8
0
100
AcDbText
 10
26.909413
 20
4.940625
 30
0.0
 40
0.075
  1

100
AcDbText
  0
TEXT
  5
553
100
AcDbEntity
  8
0
100
AcDbText
 10
26.561706
 20
4.940625
 30
0.0
 40
0.075
  1

100
AcDbText
  0
TEXT
  5
554
100
AcDbEntity
  8
0
100
AcDbText
 10
26.47058
 20
14.47156
 30
0.0
 40
0.1
  1

 72
     1
 11
26.47058
 21
14.47156
 31
0.0
100
AcDbText
  0
TEXT
  5
555
100
AcDbEntity
  8
0
100
AcDbText
 10
32.619618
 20
11.331935
 30
0.0
 40
0.075
  1

100
AcDbText
  0
TEXT
  5
556
100
AcDbEntity
  8
0
100
AcDbText
 10
32.271911
 20
11.331935
 30
0.0
 40
0.075
  1

100
AcDbText
  0
TEXT
  5
55D
100
AcDbEntity
  8
0
100
AcDbText
 10
13.152233
 20
14.907488
 30
0.0
 40
0.075
  1

 72
     1
 11
13.152233
 21
14.907488
 31
0.0
100
AcDbText
  0
TEXT
  5
55E
100
AcDbEntity
  8
0
100
AcDbText
 10
13.152233
 20
14.407488
 30
0.0
 40
0.075
  1

 72
     1
 11
13.152233
 21
14.407488
 31
0.0
100
AcDbText
  0
TEXT
  5
55F
100
AcDbEntity
  8
0
100
AcDbText
 10
13.152233
 20
13.907488
 30
0.0
 40
0.1
  1

 72
     1
 11
13.152233
 21
13.907488
 31
0.0
100
AcDbText
  0
TEXT
  5
560
100
AcDbEntity
  8
0
100
AcDbText
 10
12.964733
 20
7.907488
 30
0.0
 40
0.1
  1

100
AcDbText
  0
TEXT
  5
561
100
AcDbEntity
  8
0
100
AcDbText
 10
12.964733
 20
13.407488
 30
0.0
 40
0.1
  1

100
AcDbText
  0
TEXT
  5
562
100
AcDbEntity
  8
0
100
AcDbText
 10
23.478366
 20
14.907488
 30
0.0
 40
0.075
  1

 72
     1
 11
23.478366
 21
14.907488
 31
0.0
100
AcDbText
  0
TEXT
  5
563
100
AcDbEntity
  8
0
100
AcDbText
 10
23.478366
 20
14.407488
 30
0.0
 40
0.075
  1

 72
     1
 11
23.478366
 21
14.407488
 31
0.0
100
AcDbText
  0
TEXT
  5
564
100
AcDbEntity
  8
0
100
AcDbText
 10
23.478366
 20
13.907488
 30
0.0
 40
0.1
  1

 72
     1
 11
23.478366
 21
13.907488
 31
0.0
100
AcDbText
  0
TEXT
  5
565
100
AcDbEntity
  8
0
100
AcDbText
 10
23.290866
 20
7.907488
 30
0.0
 40
0.1
  1

100
AcDbText
  0
TEXT
  5
566
100
AcDbEntity
  8
0
100
AcDbText
 10
23.290866
 20
13.407488
 30
0.0
 40
0.1
  1

100
AcDbText
  0
ENDSEC
  0
SECTION
  2
OBJECTS
  0
DICTIONARY
  5
C
100
AcDbDictionary
  3
ACAD_GROUP
350
D
  3
ACAD_MLINESTYLE
350
E
  0
DICTIONARY
  5
D
102
{ACAD_REACTORS
330
C
102
}
100
AcDbDictionary
  0
DICTIONARY
  5
E
102
{ACAD_REACTORS
330
C
102
}
100
AcDbDictionary
  3
STANDARD
350
1B
  0
MLINESTYLE
  5
1B
102
{ACAD_REACTORS
330
E
102
}
100
AcDbMlineStyle
  2
STANDARD
 70
     0
  3

 62
     0
 51
90.0
 52
90.0
 71
     2
 49
0.5
 62
   256
  6
BYLAYER
 49
-0.5
 62
   256
  6
BYLAYER
  0
ENDSEC
  0
EOF
