  0
SECTION
  2
HEADER
  9
$ACADVER
  1
AC1012
  9
$DWGCODEPAGE
  3
ANSI_1252
  9
$INSBASE
 10
0.0
 20
0.0
 30
0.0
  9
$EXTMIN
 10
0.628125
 20
1.34375
 30
0.0
  9
$EXTMAX
 10
7.727649
 20
15.5375
 30
0.0
  9
$LIMMIN
 10
0.0
 20
0.0
  9
$LIMMAX
 10
12.0
 20
9.0
  9
$ORTHOMODE
 70
     1
  9
$REGENMODE
 70
     1
  9
$FILLMODE
 70
     1
  9
$QTEXTMODE
 70
     0
  9
$MIRRTEXT
 70
     1
  9
$DRAGMODE
 70
     2
  9
$LTSCALE
 40
0.5
  9
$OSMODE
 70
     0
  9
$ATTMODE
 70
     1
  9
$TEXTSIZE
 40
0.125
  9
$TRACEWID
 40
0.05
  9
$TEXTSTYLE
  7
STANDARD
  9
$CLAYER
  8
0
  9
$CELTYPE
  6
BYLAYER
  9
$CECOLOR
 62
   256
  9
$CELTSCALE
 40
1.0
  9
$DELOBJ
 70
     1
  9
$DISPSILH
 70
     0
  9
$DIMSCALE
 40
1.0
  9
$DIMASZ
 40
0.18
  9
$DIMEXO
 40
0.0625
  9
$DIMDLI
 40
0.38
  9
$DIMRND
 40
0.0
  9
$DIMDLE
 40
0.0
  9
$DIMEXE
 40
0.18
  9
$DIMTP
 40
0.0
  9
$DIMTM
 40
0.0
  9
$DIMTXT
 40
0.18
  9
$DIMCEN
 40
0.09
  9
$DIMTSZ
 40
0.0
  9
$DIMTOL
 70
     0
  9
$DIMLIM
 70
     0
  9
$DIMTIH
 70
     1
  9
$DIMTOH
 70
     1
  9
$DIMSE1
 70
     0
  9
$DIMSE2
 70
     0
  9
$DIMTAD
 70
     0
  9
$DIMZIN
 70
     0
  9
$DIMBLK
  1

  9
$DIMASO
 70
     1
  9
$DIMSHO
 70
     1
  9
$DIMPOST
  1

  9
$DIMAPOST
  1

  9
$DIMALT
 70
     0
  9
$DIMALTD
 70
     2
  9
$DIMALTF
 40
25.4
  9
$DIMLFAC
 40
1.0
  9
$DIMTOFL
 70
     0
  9
$DIMTVP
 40
0.0
  9
$DIMTIX
 70
     0
  9
$DIMSOXD
 70
     0
  9
$DIMSAH
 70
     0
  9
$DIMBLK1
  1

  9
$DIMBLK2
  1

  9
$DIMSTYLE
  2
STANDARD
  9
$DIMCLRD
 70
     0
  9
$DIMCLRE
 70
     0
  9
$DIMCLRT
 70
     0
  9
$DIMTFAC
 40
1.0
  9
$DIMGAP
 40
0.09
  9
$DIMJUST
 70
     0
  9
$DIMSD1
 70
     0
  9
$DIMSD2
 70
     0
  9
$DIMTOLJ
 70
     1
  9
$DIMTZIN
 70
     0
  9
$DIMALTZ
 70
     0
  9
$DIMALTTZ
 70
     0
  9
$DIMFIT
 70
     3
  9
$DIMUPT
 70
     0
  9
$DIMUNIT
 70
     2
  9
$DIMDEC
 70
     4
  9
$DIMTDEC
 70
     4
  9
$DIMALTU
 70
     2
  9
$DIMALTTD
 70
     2
  9
$DIMTXSTY
  7
STANDARD
  9
$DIMAUNIT
 70
     0
  9
$LUNITS
 70
     2
  9
$LUPREC
 70
     4
  9
$SKETCHINC
 40
0.1
  9
$FILLETRAD
 40
0.0
  9
$AUNITS
 70
     0
  9
$AUPREC
 70
     0
  9
$MENU
  1
acad
  9
$ELEVATION
 40
0.0
  9
$PELEVATION
 40
0.0
  9
$THICKNESS
 40
0.0
  9
$LIMCHECK
 70
     0
  9
$BLIPMODE
 70
     1
  9
$CHAMFERA
 40
0.0
  9
$CHAMFERB
 40
0.0
  9
$CHAMFERC
 40
0.0
  9
$CHAMFERD
 40
0.0
  9
$SKPOLY
 70
     0
  9
$TDCREATE
 40
2450219.549162731
  9
$TDUPDATE
 40
2451087.404090046
  9
$TDINDWG
 40
0.1168027778
  9
$TDUSRTIMER
 40
0.1168027778
  9
$USRTIMER
 70
     1
  9
$ANGBASE
 50
0.0
  9
$ANGDIR
 70
     0
  9
$PDMODE
 70
     0
  9
$PDSIZE
 40
0.0
  9
$PLINEWID
 40
0.0
  9
$COORDS
 70
     0
  9
$SPLFRAME
 70
     0
  9
$SPLINETYPE
 70
     6
  9
$SPLINESEGS
 70
     8
  9
$ATTDIA
 70
     0
  9
$ATTREQ
 70
     1
  9
$HANDLING
 70
     1
  9
$HANDSEED
  5
3B0
  9
$SURFTAB1
 70
     6
  9
$SURFTAB2
 70
     6
  9
$SURFTYPE
 70
     6
  9
$SURFU
 70
     6
  9
$SURFV
 70
     6
  9
$UCSNAME
  2

  9
$UCSORG
 10
0.0
 20
0.0
 30
0.0
  9
$UCSXDIR
 10
1.0
 20
0.0
 30
0.0
  9
$UCSYDIR
 10
0.0
 20
1.0
 30
0.0
  9
$PUCSNAME
  2

  9
$PUCSORG
 10
0.0
 20
0.0
 30
0.0
  9
$PUCSXDIR
 10
1.0
 20
0.0
 30
0.0
  9
$PUCSYDIR
 10
0.0
 20
1.0
 30
0.0
  9
$USERI1
 70
     0
  9
$USERI2
 70
     0
  9
$USERI3
 70
     0
  9
$USERI4
 70
     0
  9
$USERI5
 70
     0
  9
$USERR1
 40
0.0
  9
$USERR2
 40
0.0
  9
$USERR3
 40
0.0
  9
$USERR4
 40
0.0
  9
$USERR5
 40
0.0
  9
$WORLDVIEW
 70
     1
  9
$SHADEDGE
 70
     3
  9
$SHADEDIF
 70
    70
  9
$TILEMODE
 70
     1
  9
$MAXACTVP
 70
    16
  9
$PINSBASE
 10
0.0
 20
0.0
 30
0.0
  9
$PLIMCHECK
 70
     0
  9
$PEXTMIN
 10
1.000000E+20
 20
1.000000E+20
 30
1.000000E+20
  9
$PEXTMAX
 10
-1.000000E+20
 20
-1.000000E+20
 30
-1.000000E+20
  9
$PLIMMIN
 10
0.0
 20
0.0
  9
$PLIMMAX
 10
12.0
 20
9.0
  9
$UNITMODE
 70
     0
  9
$VISRETAIN
 70
     0
  9
$PLINEGEN
 70
     0
  9
$PSLTSCALE
 70
     1
  9
$TREEDEPTH
 70
  3020
  9
$PICKSTYLE
 70
     1
  9
$CMLSTYLE
  2
STANDARD
  9
$CMLJUST
 70
     0
  9
$CMLSCALE
 40
1.0
  9
$SAVEIMAGES
 70
     1
  0
ENDSEC
  0
SECTION
  2
CLASSES
  0
CLASS
  1
LWPOLYLINE
  2
AcDbPolyline
  3
"AutoCAD"
 90
    32768
280
     0
281
     1
  0
CLASS
  1
DICTIONARYVAR
  2
AcDbDictionaryVar
  3
"AutoCAD"
 90
    32768
280
     0
281
     0
  0
CLASS
  1
HATCH
  2
AcDbHatch
  3
"ACAD_SEDONA"
 90
    32768
280
     0
281
     1
  0
ENDSEC
  0
SECTION
  2
TABLES
  0
TABLE
  2
VPORT
  5
8
100
AcDbSymbolTable
 70
     2
  0
VPORT
  5
3AF
100
AcDbSymbolTableRecord
100
AcDbViewportTableRecord
  2
*ACTIVE
 70
     0
 10
0.0
 20
0.0
 11
1.0
 21
1.0
 12
13.771294
 22
7.7375
 13
0.0
 23
0.0
 14
1.0
 24
1.0
 15
0.0
 25
0.0
 16
0.0
 26
0.0
 36
1.0
 17
0.0
 27
0.0
 37
0.0
 40
15.62
 41
1.810585
 42
50.0
 43
0.0
 44
0.0
 50
0.0
 51
0.0
 71
     0
 72
   100
 73
     1
 74
     1
 75
     0
 76
     0
 77
     0
 78
     0
  0
ENDTAB
  0
TABLE
  2
LTYPE
  5
5
100
AcDbSymbolTable
 70
     2
  0
LTYPE
  5
12
100
AcDbSymbolTableRecord
100
AcDbLinetypeTableRecord
  2
BYBLOCK
 70
     0
  3

 72
    65
 73
     0
 40
0.0
  0
LTYPE
  5
13
100
AcDbSymbolTableRecord
100
AcDbLinetypeTableRecord
  2
BYLAYER
 70
     0
  3

 72
    65
 73
     0
 40
0.0
  0
LTYPE
  5
14
100
AcDbSymbolTableRecord
100
AcDbLinetypeTableRecord
  2
CONTINUOUS
 70
     0
  3
Solid line
 72
    65
 73
     0
 40
0.0
  0
LTYPE
  5
1F
100
AcDbSymbolTableRecord
100
AcDbLinetypeTableRecord
  2
DASHED
 70
     0
  3
__ __ __ __ __ __ __ __ __ __ __ __ __ __ __ __
 72
    65
 73
     2
 40
0.75
 49
0.5
 74
     0
 49
-0.25
 74
     0
  0
ENDTAB
  0
TABLE
  2
LAYER
  5
2
100
AcDbSymbolTable
 70
     3
  0
LAYER
  5
F
100
AcDbSymbolTableRecord
100
AcDbLayerTableRecord
  2
0
 70
     0
 62
     7
  6
CONTINUOUS
  0
LAYER
  5
22
100
AcDbSymbolTableRecord
100
AcDbLayerTableRecord
  2
DASH
 70
     0
 62
     2
  6
DASHED
  0
LAYER
  5
23
100
AcDbSymbolTableRecord
100
AcDbLayerTableRecord
  2
TEXT
 70
     0
 62
     2
  6
CONTINUOUS
  0
ENDTAB
  0
TABLE
  2
STYLE
  5
3
100
AcDbSymbolTable
 70
     2
  0
STYLE
  5
10
100
AcDbSymbolTableRecord
100
AcDbTextStyleTableRecord
  2
STANDARD
 70
     0
 40
0.0
 41
1.0
 50
0.0
 71
     0
 42
0.125
  3
txt
  4

  0
STYLE
  5
1D
100
AcDbSymbolTableRecord
100
AcDbTextStyleTableRecord
  2
ROMANS
 70
     0
 40
0.0
 41
0.8
 50
0.0
 71
     0
 42
0.1
  3
ROMANS
  4

  0
ENDTAB
  0
TABLE
  2
VIEW
  5
6
100
AcDbSymbolTable
 70
     0
  0
ENDTAB
  0
TABLE
  2
UCS
  5
7
100
AcDbSymbolTable
 70
     0
  0
ENDTAB
  0
TABLE
  2
APPID
  5
9
100
AcDbSymbolTable
 70
     1
  0
APPID
  5
11
100
AcDbSymbolTableRecord
100
AcDbRegAppTableRecord
  2
ACAD
 70
     0
  0
ENDTAB
  0
TABLE
  2
DIMSTYLE
  5
A
100
AcDbSymbolTable
 70
     1
  0
DIMSTYLE
105
1A2
100
AcDbSymbolTableRecord
100
AcDbDimStyleTableRecord
  2
STANDARD
 70
     0
  3

  4

  5

  6

  7

 40
1.0
 41
0.18
 42
0.0625
 43
0.38
 44
0.18
 45
0.0
 46
0.0
 47
0.0
 48
0.0
140
0.18
141
0.09
142
0.0
143
25.4
144
1.0
145
0.0
146
1.0
147
0.09
 71
     0
 72
     0
 73
     1
 74
     1
 75
     0
 76
     0
 77
     0
 78
     0
170
     0
171
     2
172
     0
173
     0
174
     0
175
     0
176
     0
177
     0
178
     0
270
     2
271
     4
272
     4
273
     2
274
     2
340
10
275
     0
280
     0
281
     0
282
     0
283
     1
284
     0
285
     0
286
     0
287
     3
288
     0
  0
ENDTAB
  0
TABLE
  2
BLOCK_RECORD
  5
1
100
AcDbSymbolTable
 70
     1
  0
BLOCK_RECORD
  5
18
100
AcDbSymbolTableRecord
100
AcDbBlockTableRecord
  2
*MODEL_SPACE
  0
BLOCK_RECORD
  5
15
100
AcDbSymbolTableRecord
100
AcDbBlockTableRecord
  2
*PAPER_SPACE
  0
BLOCK_RECORD
  5
1C
100
AcDbSymbolTableRecord
100
AcDbBlockTableRecord
  2
TEMP5
  0
ENDTAB
  0
ENDSEC
  0
SECTION
  2
BLOCKS
  0
BLOCK
  5
26
100
AcDbEntity
  8
0
100
AcDbBlockBegin
  2
*MODEL_SPACE
 70
     0
 10
0.0
 20
0.0
 30
0.0
  3
*MODEL_SPACE
  1

  0
ENDBLK
  5
27
100
AcDbEntity
  8
0
100
AcDbBlockEnd
  0
BLOCK
  5
24
100
AcDbEntity
 67
     1
  8
0
100
AcDbBlockBegin
  2
*PAPER_SPACE
 70
     0
 10
0.0
 20
0.0
 30
0.0
  3
*PAPER_SPACE
  1

  0
ENDBLK
  5
25
100
AcDbEntity
 67
     1
  8
0
100
AcDbBlockEnd
  0
BLOCK
  5
28
100
AcDbEntity
  8
0
100
AcDbBlockBegin
  2
TEMP5
 70
     0
 10
0.0
 20
0.0
 30
0.0
  3
TEMP5
  1

  0
TEXT
  5
29
100
AcDbEntity
  8
0
100
AcDbText
 10
-1.467738
 20
-0.190625
 30
0.0
 40
0.1
  1
INTERNAL ADDRESSES
 41
0.8
  7
ROMANS
 72
     4
 11
-0.8125
 21
-0.140625
 31
0.0
100
AcDbText
  0
TEXT
  5
2A
100
AcDbEntity
  8
0
100
AcDbText
 10
-1.281071
 20
-0.35253
 30
0.0
 40
0.1
  1
LISTED BELOW 
 41
0.8
  7
ROMANS
 72
     4
 11
-0.8125
 21
-0.30253
 31
0.0
100
AcDbText
  0
ENDBLK
  5
2B
100
AcDbEntity
  8
0
100
AcDbBlockEnd
  0
ENDSEC
  0
SECTION
  2
ENTITIES
  0
TEXT
  5
A9
100
AcDbEntity
  8
TEXT
100
AcDbText
 10
2.728125
 20
13.153744
 30
0.0
 40
0.1
  1
*
 41
0.8
  7
ROMANS
100
AcDbText
  0
LINE
  5
AA
100
AcDbEntity
  8
0
100
AcDbLine
 10
2.378125
 20
14.109994
 30
0.0
 11
0.878125
 21
14.109994
 31
0.0
  0
LINE
  5
AB
100
AcDbEntity
  8
0
100
AcDbLine
 10
0.628125
 20
13.578744
 30
0.0
 11
0.628125
 21
13.328744
 31
0.0
  0
LINE
  5
AC
100
AcDbEntity
  8
0
100
AcDbLine
 10
0.878125
 20
13.578744
 30
0.0
 11
0.628125
 21
13.578744
 31
0.0
  0
LINE
  5
AD
100
AcDbEntity
  8
0
100
AcDbLine
 10
0.878125
 20
13.328744
 30
0.0
 11
0.628125
 21
13.328744
 31
0.0
  0
LINE
  5
AE
100
AcDbEntity
  8
0
100
AcDbLine
 10
0.878125
 20
12.828744
 30
0.0
 11
0.628125
 21
12.828744
 31
0.0
  0
LINE
  5
AF
100
AcDbEntity
  8
0
100
AcDbLine
 10
0.878125
 20
13.078744
 30
0.0
 11
0.628125
 21
13.078744
 31
0.0
  0
LINE
  5
B0
100
AcDbEntity
  8
0
100
AcDbLine
 10
0.628125
 20
13.078744
 30
0.0
 11
0.628125
 21
12.828744
 31
0.0
  0
LINE
  5
B1
100
AcDbEntity
  8
0
100
AcDbLine
 10
0.878125
 20
12.328744
 30
0.0
 11
0.628125
 21
12.328744
 31
0.0
  0
LINE
  5
B2
100
AcDbEntity
  8
0
100
AcDbLine
 10
0.878125
 20
12.578744
 30
0.0
 11
0.628125
 21
12.578744
 31
0.0
  0
LINE
  5
B3
100
AcDbEntity
  8
0
100
AcDbLine
 10
0.628125
 20
12.578744
 30
0.0
 11
0.628125
 21
12.328744
 31
0.0
  0
LINE
  5
B4
100
AcDbEntity
  8
0
100
AcDbLine
 10
0.878125
 20
11.828744
 30
0.0
 11
0.628125
 21
11.828744
 31
0.0
  0
LINE
  5
B5
100
AcDbEntity
  8
0
100
AcDbLine
 10
0.878125
 20
12.078744
 30
0.0
 11
0.628125
 21
12.078744
 31
0.0
  0
LINE
  5
B6
100
AcDbEntity
  8
0
100
AcDbLine
 10
0.628125
 20
12.078744
 30
0.0
 11
0.628125
 21
11.828744
 31
0.0
  0
LINE
  5
B7
100
AcDbEntity
  8
0
100
AcDbLine
 10
0.878125
 20
11.328744
 30
0.0
 11
0.628125
 21
11.328744
 31
0.0
  0
LINE
  5
B8
100
AcDbEntity
  8
0
100
AcDbLine
 10
0.878125
 20
11.578744
 30
0.0
 11
0.628125
 21
11.578744
 31
0.0
  0
LINE
  5
B9
100
AcDbEntity
  8
0
100
AcDbLine
 10
0.628125
 20
11.578744
 30
0.0
 11
0.628125
 21
11.328744
 31
0.0
  0
LINE
  5
BA
100
AcDbEntity
  8
0
100
AcDbLine
 10
0.878125
 20
10.828744
 30
0.0
 11
0.628125
 21
10.828744
 31
0.0
  0
LINE
  5
BB
100
AcDbEntity
  8
0
100
AcDbLine
 10
0.878125
 20
11.078744
 30
0.0
 11
0.628125
 21
11.078744
 31
0.0
  0
LINE
  5
BC
100
AcDbEntity
  8
0
100
AcDbLine
 10
0.628125
 20
11.078744
 30
0.0
 11
0.628125
 21
10.828744
 31
0.0
  0
TEXT
  5
BD
100
AcDbEntity
  8
TEXT
100
AcDbText
 10
0.712649
 20
13.391244
 30
0.0
 40
0.125
  1
1
 41
0.8
 51
10.0
  7
ROMANS
 72
     1
 11
0.753125
 21
13.391244
 31
0.0
100
AcDbText
  0
TEXT
  5
BE
100
AcDbEntity
  8
TEXT
100
AcDbText
 10
0.705506
 20
12.891244
 30
0.0
 40
0.125
  1
2
 41
0.8
 51
10.0
  7
ROMANS
 72
     1
 11
0.753125
 21
12.891244
 31
0.0
100
AcDbText
  0
TEXT
  5
BF
100
AcDbEntity
  8
TEXT
100
AcDbText
 10
0.705506
 20
12.391244
 30
0.0
 40
0.125
  1
3
 41
0.8
 51
10.0
  7
ROMANS
 72
     1
 11
0.753125
 21
12.391244
 31
0.0
100
AcDbText
  0
TEXT
  5
C0
100
AcDbEntity
  8
TEXT
100
AcDbText
 10
0.703125
 20
11.891244
 30
0.0
 40
0.125
  1
4
 41
0.8
 51
10.0
  7
ROMANS
 72
     1
 11
0.753125
 21
11.891244
 31
0.0
100
AcDbText
  0
TEXT
  5
C1
100
AcDbEntity
  8
TEXT
100
AcDbText
 10
0.705506
 20
11.391244
 30
0.0
 40
0.125
  1
5
 41
0.8
 51
10.0
  7
ROMANS
 72
     1
 11
0.753125
 21
11.391244
 31
0.0
100
AcDbText
  0
TEXT
  5
C2
100
AcDbEntity
  8
TEXT
100
AcDbText
 10
0.703125
 20
10.891244
 30
0.0
 40
0.125
  1
6
 41
0.8
 51
10.0
  7
ROMANS
 72
     1
 11
0.753125
 21
10.891244
 31
0.0
100
AcDbText
  0
TEXT
  5
C3
100
AcDbEntity
  8
TEXT
100
AcDbText
 10
1.213839
 20
14.556423
 30
0.0
 40
0.125
  1
CARD #--
 41
0.8
  7
ROMANS
 72
     4
 11
1.628125
 21
14.609994
 31
0.0
100
AcDbText
  0
TEXT
  5
C4
100
AcDbEntity
  8
TEXT
100
AcDbText
 10
1.013839
 20
14.345113
 30
0.0
 40
0.125
  1
ENCODER INPUT
 41
0.8
  7
ROMANS
 72
     4
 11
1.628125
 21
14.407613
 31
0.0
100
AcDbText
  0
TEXT
  5
C5
100
AcDbEntity
  8
TEXT
100
AcDbText
 10
1.028125
 20
14.142732
 30
0.0
 40
0.125
  1
502-03840-03
 41
0.8
  7
ROMANS
 72
     4
 11
1.628125
 21
14.205232
 31
0.0
100
AcDbText
  0
INSERT
  5
C6
100
AcDbEntity
  8
TEXT
100
AcDbBlockReference
  2
TEMP5
 10
2.440625
 20
14.109994
 30
0.0
  0
TEXT
  5
C7
100
AcDbEntity
  8
TEXT
100
AcDbText
 10
0.940625
 20
13.391244
 30
0.0
 40
0.125
  1
An Out Ch 1+
 41
0.8
 51
10.0
  7
ROMANS
100
AcDbText
  0
TEXT
  5
C8
100
AcDbEntity
  8
TEXT
100
AcDbText
 10
0.940625
 20
12.891244
 30
0.0
 40
0.125
  1
An Out Ch 1-
 41
0.8
 51
10.0
  7
ROMANS
100
AcDbText
  0
TEXT
  5
C9
100
AcDbEntity
  8
TEXT
100
AcDbText
 10
0.940625
 20
12.391244
 30
0.0
 40
0.125
  1
An Out Ch 2+
 41
0.8
 51
10.0
  7
ROMANS
100
AcDbText
  0
TEXT
  5
CA
100
AcDbEntity
  8
TEXT
100
AcDbText
 10
0.940625
 20
11.891244
 30
0.0
 40
0.125
  1
An Out Ch 2-
 41
0.8
 51
10.0
  7
ROMANS
100
AcDbText
  0
LINE
  5
CB
100
AcDbEntity
  8
DASH
100
AcDbLine
 10
2.378125
 20
5.703744
 30
0.0
 11
0.878125
 21
5.703744
 31
0.0
  0
LINE
  5
CC
100
AcDbEntity
  8
0
100
AcDbLine
 10
2.528125
 20
13.609994
 30
0.0
 11
2.528125
 21
9.828744
 31
0.0
  0
LINE
  5
CD
100
AcDbEntity
  8
0
100
AcDbLine
 10
2.528125
 20
9.828744
 30
0.0
 11
2.678125
 21
9.828744
 31
0.0
  0
LINE
  5
CE
100
AcDbEntity
  8
0
100
AcDbLine
 10
2.528125
 20
13.609994
 30
0.0
 11
2.678125
 21
13.609994
 31
0.0
  0
LINE
  5
CF
100
AcDbEntity
  8
0
100
AcDbLine
 10
0.878125
 20
5.828744
 30
0.0
 11
0.628125
 21
5.828744
 31
0.0
  0
TEXT
  5
D0
100
AcDbEntity
  8
TEXT
100
AcDbText
 10
0.650744
 20
5.891244
 30
0.0
 40
0.125
  1
16
 41
0.8
 51
10.0
  7
ROMANS
 72
     1
 11
0.753125
 21
5.891244
 31
0.0
100
AcDbText
  0
LINE
  5
D1
100
AcDbEntity
  8
0
100
AcDbLine
 10
0.878125
 20
6.078744
 30
0.0
 11
0.628125
 21
6.078744
 31
0.0
  0
LINE
  5
D2
100
AcDbEntity
  8
0
100
AcDbLine
 10
0.878125
 20
5.703744
 30
0.0
 11
0.878125
 21
14.109994
 31
0.0
  0
LINE
  5
D3
100
AcDbEntity
  8
0
100
AcDbLine
 10
2.378125
 20
14.109994
 30
0.0
 11
2.378125
 21
5.703744
 31
0.0
  0
TEXT
  5
D4
100
AcDbEntity
  8
TEXT
100
AcDbText
 10
0.650744
 20
6.391244
 30
0.0
 40
0.125
  1
15
 41
0.8
 51
10.0
  7
ROMANS
 72
     1
 11
0.753125
 21
6.391244
 31
0.0
100
AcDbText
  0
LINE
  5
D5
100
AcDbEntity
  8
0
100
AcDbLine
 10
0.878125
 20
6.328744
 30
0.0
 11
0.628125
 21
6.328744
 31
0.0
  0
LINE
  5
D6
100
AcDbEntity
  8
0
100
AcDbLine
 10
0.878125
 20
6.578744
 30
0.0
 11
0.628125
 21
6.578744
 31
0.0
  0
LINE
  5
D7
100
AcDbEntity
  8
0
100
AcDbLine
 10
0.628125
 20
6.578744
 30
0.0
 11
0.628125
 21
6.328744
 31
0.0
  0
TEXT
  5
D8
100
AcDbEntity
  8
TEXT
100
AcDbText
 10
0.648363
 20
6.891244
 30
0.0
 40
0.125
  1
14
 41
0.8
 51
10.0
  7
ROMANS
 72
     1
 11
0.753125
 21
6.891244
 31
0.0
100
AcDbText
  0
LINE
  5
D9
100
AcDbEntity
  8
0
100
AcDbLine
 10
0.878125
 20
6.828744
 30
0.0
 11
0.628125
 21
6.828744
 31
0.0
  0
LINE
  5
DA
100
AcDbEntity
  8
0
100
AcDbLine
 10
0.878125
 20
7.078744
 30
0.0
 11
0.628125
 21
7.078744
 31
0.0
  0
LINE
  5
DB
100
AcDbEntity
  8
0
100
AcDbLine
 10
0.628125
 20
7.078744
 30
0.0
 11
0.628125
 21
6.828744
 31
0.0
  0
TEXT
  5
DC
100
AcDbEntity
  8
TEXT
100
AcDbText
 10
0.650744
 20
7.391244
 30
0.0
 40
0.125
  1
13
 41
0.8
 51
10.0
  7
ROMANS
 72
     1
 11
0.753125
 21
7.391244
 31
0.0
100
AcDbText
  0
LINE
  5
DD
100
AcDbEntity
  8
0
100
AcDbLine
 10
0.878125
 20
7.328744
 30
0.0
 11
0.628125
 21
7.328744
 31
0.0
  0
LINE
  5
DE
100
AcDbEntity
  8
0
100
AcDbLine
 10
0.878125
 20
7.578744
 30
0.0
 11
0.628125
 21
7.578744
 31
0.0
  0
LINE
  5
DF
100
AcDbEntity
  8
0
100
AcDbLine
 10
0.628125
 20
7.578744
 30
0.0
 11
0.628125
 21
7.328744
 31
0.0
  0
TEXT
  5
E0
100
AcDbEntity
  8
TEXT
100
AcDbText
 10
0.650744
 20
7.891244
 30
0.0
 40
0.125
  1
12
 41
0.8
 51
10.0
  7
ROMANS
 72
     1
 11
0.753125
 21
7.891244
 31
0.0
100
AcDbText
  0
LINE
  5
E1
100
AcDbEntity
  8
0
100
AcDbLine
 10
0.878125
 20
7.828744
 30
0.0
 11
0.628125
 21
7.828744
 31
0.0
  0
LINE
  5
E2
100
AcDbEntity
  8
0
100
AcDbLine
 10
0.878125
 20
8.078744
 30
0.0
 11
0.628125
 21
8.078744
 31
0.0
  0
LINE
  5
E3
100
AcDbEntity
  8
0
100
AcDbLine
 10
0.628125
 20
8.078744
 30
0.0
 11
0.628125
 21
7.828744
 31
0.0
  0
TEXT
  5
E4
100
AcDbEntity
  8
TEXT
100
AcDbText
 10
0.66503
 20
8.391244
 30
0.0
 40
0.125
  1
11
 41
0.8
 51
10.0
  7
ROMANS
 72
     1
 11
0.753125
 21
8.391244
 31
0.0
100
AcDbText
  0
LINE
  5
E5
100
AcDbEntity
  8
0
100
AcDbLine
 10
0.878125
 20
8.328744
 30
0.0
 11
0.628125
 21
8.328744
 31
0.0
  0
LINE
  5
E6
100
AcDbEntity
  8
0
100
AcDbLine
 10
0.878125
 20
8.578744
 30
0.0
 11
0.628125
 21
8.578744
 31
0.0
  0
LINE
  5
E7
100
AcDbEntity
  8
0
100
AcDbLine
 10
0.628125
 20
8.578744
 30
0.0
 11
0.628125
 21
8.328744
 31
0.0
  0
TEXT
  5
E8
100
AcDbEntity
  8
TEXT
100
AcDbText
 10
0.650744
 20
8.891244
 30
0.0
 40
0.125
  1
10
 41
0.8
 51
10.0
  7
ROMANS
 72
     1
 11
0.753125
 21
8.891244
 31
0.0
100
AcDbText
  0
LINE
  5
E9
100
AcDbEntity
  8
0
100
AcDbLine
 10
0.878125
 20
8.828744
 30
0.0
 11
0.628125
 21
8.828744
 31
0.0
  0
LINE
  5
EA
100
AcDbEntity
  8
0
100
AcDbLine
 10
0.878125
 20
9.078744
 30
0.0
 11
0.628125
 21
9.078744
 31
0.0
  0
LINE
  5
EB
100
AcDbEntity
  8
0
100
AcDbLine
 10
0.628125
 20
9.078744
 30
0.0
 11
0.628125
 21
8.828744
 31
0.0
  0
TEXT
  5
EC
100
AcDbEntity
  8
TEXT
100
AcDbText
 10
0.707887
 20
9.391244
 30
0.0
 40
0.125
  1
9
 41
0.8
 51
10.0
  7
ROMANS
 72
     1
 11
0.753125
 21
9.391244
 31
0.0
100
AcDbText
  0
LINE
  5
ED
100
AcDbEntity
  8
0
100
AcDbLine
 10
0.878125
 20
9.328744
 30
0.0
 11
0.628125
 21
9.328744
 31
0.0
  0
LINE
  5
EE
100
AcDbEntity
  8
0
100
AcDbLine
 10
0.878125
 20
9.578744
 30
0.0
 11
0.628125
 21
9.578744
 31
0.0
  0
LINE
  5
EF
100
AcDbEntity
  8
0
100
AcDbLine
 10
0.628125
 20
9.578744
 30
0.0
 11
0.628125
 21
9.328744
 31
0.0
  0
TEXT
  5
F0
100
AcDbEntity
  8
TEXT
100
AcDbText
 10
0.705506
 20
9.891244
 30
0.0
 40
0.125
  1
8
 41
0.8
 51
10.0
  7
ROMANS
 72
     1
 11
0.753125
 21
9.891244
 31
0.0
100
AcDbText
  0
LINE
  5
F1
100
AcDbEntity
  8
0
100
AcDbLine
 10
0.878125
 20
9.828744
 30
0.0
 11
0.628125
 21
9.828744
 31
0.0
  0
LINE
  5
F2
100
AcDbEntity
  8
0
100
AcDbLine
 10
0.878125
 20
10.078744
 30
0.0
 11
0.628125
 21
10.078744
 31
0.0
  0
LINE
  5
F3
100
AcDbEntity
  8
0
100
AcDbLine
 10
0.628125
 20
10.078744
 30
0.0
 11
0.628125
 21
9.828744
 31
0.0
  0
TEXT
  5
F4
100
AcDbEntity
  8
TEXT
100
AcDbText
 10
0.705506
 20
10.391244
 30
0.0
 40
0.125
  1
7
 41
0.8
 51
10.0
  7
ROMANS
 72
     1
 11
0.753125
 21
10.391244
 31
0.0
100
AcDbText
  0
LINE
  5
F5
100
AcDbEntity
  8
0
100
AcDbLine
 10
0.878125
 20
10.328744
 30
0.0
 11
0.628125
 21
10.328744
 31
0.0
  0
LINE
  5
F6
100
AcDbEntity
  8
0
100
AcDbLine
 10
0.878125
 20
10.578744
 30
0.0
 11
0.628125
 21
10.578744
 31
0.0
  0
LINE
  5
F7
100
AcDbEntity
  8
0
100
AcDbLine
 10
0.628125
 20
10.578744
 30
0.0
 11
0.628125
 21
10.328744
 31
0.0
  0
LINE
  5
F8
100
AcDbEntity
  8
0
100
AcDbLine
 10
0.628125
 20
6.078744
 30
0.0
 11
0.628125
 21
5.828744
 31
0.0
  0
TEXT
  5
F9
100
AcDbEntity
  8
TEXT
100
AcDbText
 10
0.940625
 20
9.391244
 30
0.0
 40
0.125
  1
Shield
 41
0.8
 51
10.0
  7
ROMANS
100
AcDbText
  0
LINE
  5
FA
100
AcDbEntity
  8
DASH
100
AcDbLine
 10
2.378125
 20
9.703744
 30
0.0
 11
0.878125
 21
9.703744
 31
0.0
  0
LINE
  5
FB
100
AcDbEntity
  8
DASH
100
AcDbLine
 10
4.590625
 20
1.34375
 30
0.0
 11
4.590625
 21
15.5375
 31
0.0
  0
LINE
  5
FC
100
AcDbEntity
  8
0
100
AcDbLine
 10
5.578125
 20
9.578744
 30
0.0
 11
5.578125
 21
9.328744
 31
0.0
  0
LINE
  5
FD
100
AcDbEntity
  8
0
100
AcDbLine
 10
5.828125
 20
9.578744
 30
0.0
 11
5.578125
 21
9.578744
 31
0.0
  0
LINE
  5
FE
100
AcDbEntity
  8
0
100
AcDbLine
 10
5.828125
 20
9.328744
 30
0.0
 11
5.578125
 21
9.328744
 31
0.0
  0
LINE
  5
FF
100
AcDbEntity
  8
0
100
AcDbLine
 10
5.828125
 20
8.828744
 30
0.0
 11
5.578125
 21
8.828744
 31
0.0
  0
LINE
  5
100
100
AcDbEntity
  8
0
100
AcDbLine
 10
5.828125
 20
9.078744
 30
0.0
 11
5.578125
 21
9.078744
 31
0.0
  0
LINE
  5
101
100
AcDbEntity
  8
0
100
AcDbLine
 10
5.578125
 20
9.078744
 30
0.0
 11
5.578125
 21
8.828744
 31
0.0
  0
LINE
  5
102
100
AcDbEntity
  8
0
100
AcDbLine
 10
5.828125
 20
8.328744
 30
0.0
 11
5.578125
 21
8.328744
 31
0.0
  0
LINE
  5
103
100
AcDbEntity
  8
0
100
AcDbLine
 10
5.828125
 20
8.578744
 30
0.0
 11
5.578125
 21
8.578744
 31
0.0
  0
LINE
  5
104
100
AcDbEntity
  8
0
100
AcDbLine
 10
5.578125
 20
8.578744
 30
0.0
 11
5.578125
 21
8.328744
 31
0.0
  0
LINE
  5
105
100
AcDbEntity
  8
0
100
AcDbLine
 10
5.828125
 20
7.828744
 30
0.0
 11
5.578125
 21
7.828744
 31
0.0
  0
LINE
  5
106
100
AcDbEntity
  8
0
100
AcDbLine
 10
5.828125
 20
8.078744
 30
0.0
 11
5.578125
 21
8.078744
 31
0.0
  0
LINE
  5
107
100
AcDbEntity
  8
0
100
AcDbLine
 10
5.578125
 20
8.078744
 30
0.0
 11
5.578125
 21
7.828744
 31
0.0
  0
LINE
  5
108
100
AcDbEntity
  8
0
100
AcDbLine
 10
5.828125
 20
7.328744
 30
0.0
 11
5.578125
 21
7.328744
 31
0.0
  0
LINE
  5
109
100
AcDbEntity
  8
0
100
AcDbLine
 10
5.828125
 20
7.578744
 30
0.0
 11
5.578125
 21
7.578744
 31
0.0
  0
LINE
  5
10A
100
AcDbEntity
  8
0
100
AcDbLine
 10
5.578125
 20
7.578744
 30
0.0
 11
5.578125
 21
7.328744
 31
0.0
  0
LINE
  5
10B
100
AcDbEntity
  8
0
100
AcDbLine
 10
5.828125
 20
6.828744
 30
0.0
 11
5.578125
 21
6.828744
 31
0.0
  0
LINE
  5
10C
100
AcDbEntity
  8
0
100
AcDbLine
 10
5.828125
 20
7.078744
 30
0.0
 11
5.578125
 21
7.078744
 31
0.0
  0
LINE
  5
10D
100
AcDbEntity
  8
0
100
AcDbLine
 10
5.578125
 20
7.078744
 30
0.0
 11
5.578125
 21
6.828744
 31
0.0
  0
TEXT
  5
10E
100
AcDbEntity
  8
TEXT
100
AcDbText
 10
5.607887
 20
9.391244
 30
0.0
 40
0.125
  1
25
 41
0.8
 51
10.0
  7
ROMANS
 72
     1
 11
5.703125
 21
9.391244
 31
0.0
100
AcDbText
  0
TEXT
  5
10F
100
AcDbEntity
  8
TEXT
100
AcDbText
 10
5.607887
 20
8.891244
 30
0.0
 40
0.125
  1
26
 41
0.8
 51
10.0
  7
ROMANS
 72
     1
 11
5.703125
 21
8.891244
 31
0.0
100
AcDbText
  0
TEXT
  5
110
100
AcDbEntity
  8
TEXT
100
AcDbText
 10
5.607887
 20
8.391244
 30
0.0
 40
0.125
  1
27
 41
0.8
 51
10.0
  7
ROMANS
 72
     1
 11
5.703125
 21
8.391244
 31
0.0
100
AcDbText
  0
TEXT
  5
111
100
AcDbEntity
  8
TEXT
100
AcDbText
 10
5.607887
 20
7.891244
 30
0.0
 40
0.125
  1
28
 41
0.8
 51
10.0
  7
ROMANS
 72
     1
 11
5.703125
 21
7.891244
 31
0.0
100
AcDbText
  0
TEXT
  5
112
100
AcDbEntity
  8
TEXT
100
AcDbText
 10
5.610268
 20
7.391244
 30
0.0
 40
0.125
  1
29
 41
0.8
 51
10.0
  7
ROMANS
 72
     1
 11
5.703125
 21
7.391244
 31
0.0
100
AcDbText
  0
TEXT
  5
113
100
AcDbEntity
  8
TEXT
100
AcDbText
 10
5.607887
 20
6.891244
 30
0.0
 40
0.125
  1
30
 41
0.8
 51
10.0
  7
ROMANS
 72
     1
 11
5.703125
 21
6.891244
 31
0.0
100
AcDbText
  0
TEXT
  5
114
100
AcDbEntity
  8
TEXT
100
AcDbText
 10
6.163839
 20
14.556423
 30
0.0
 40
0.125
  1
CARD #--
 41
0.8
  7
ROMANS
 72
     4
 11
6.578125
 21
14.609994
 31
0.0
100
AcDbText
  0
TEXT
  5
115
100
AcDbEntity
  8
TEXT
100
AcDbText
 10
5.963839
 20
14.345113
 30
0.0
 40
0.125
  1
ENCODER INPUT
 41
0.8
  7
ROMANS
 72
     4
 11
6.578125
 21
14.407613
 31
0.0
100
AcDbText
  0
TEXT
  5
116
100
AcDbEntity
  8
TEXT
100
AcDbText
 10
5.978125
 20
14.142732
 30
0.0
 40
0.125
  1
502-03840-03
 41
0.8
  7
ROMANS
 72
     4
 11
6.578125
 21
14.205232
 31
0.0
100
AcDbText
  0
INSERT
  5
117
100
AcDbEntity
  8
TEXT
100
AcDbBlockReference
  2
TEMP5
 10
7.390625
 20
14.109994
 30
0.0
  0
TEXT
  5
118
100
AcDbEntity
  8
TEXT
100
AcDbText
 10
5.890625
 20
9.391244
 30
0.0
 40
0.125
  1
Enc Ch2 B
 41
0.8
 51
10.0
  7
ROMANS
100
AcDbText
  0
TEXT
  5
119
100
AcDbEntity
  8
TEXT
100
AcDbText
 10
5.890625
 20
8.891244
 30
0.0
 40
0.125
  1
Enc Ch2 /B
 41
0.8
 51
10.0
  7
ROMANS
100
AcDbText
  0
TEXT
  5
11A
100
AcDbEntity
  8
TEXT
100
AcDbText
 10
5.890625
 20
8.391244
 30
0.0
 40
0.125
  1
Enc Ch2 Index
 41
0.8
 51
10.0
  7
ROMANS
100
AcDbText
  0
TEXT
  5
11B
100
AcDbEntity
  8
TEXT
100
AcDbText
 10
5.890625
 20
7.891244
 30
0.0
 40
0.125
  1
Enc Ch2 /Index
 41
0.8
 51
10.0
  7
ROMANS
100
AcDbText
  0
LINE
  5
11C
100
AcDbEntity
  8
0
100
AcDbLine
 10
5.828125
 20
1.828744
 30
0.0
 11
5.578125
 21
1.828744
 31
0.0
  0
TEXT
  5
11D
100
AcDbEntity
  8
TEXT
100
AcDbText
 10
5.607887
 20
1.891244
 30
0.0
 40
0.125
  1
40
 41
0.8
 51
10.0
  7
ROMANS
 72
     1
 11
5.703125
 21
1.891244
 31
0.0
100
AcDbText
  0
LINE
  5
11E
100
AcDbEntity
  8
0
100
AcDbLine
 10
5.828125
 20
2.078744
 30
0.0
 11
5.578125
 21
2.078744
 31
0.0
  0
TEXT
  5
11F
100
AcDbEntity
  8
TEXT
100
AcDbText
 10
5.610268
 20
2.391244
 30
0.0
 40
0.125
  1
39
 41
0.8
 51
10.0
  7
ROMANS
 72
     1
 11
5.703125
 21
2.391244
 31
0.0
100
AcDbText
  0
LINE
  5
120
100
AcDbEntity
  8
0
100
AcDbLine
 10
5.828125
 20
2.328744
 30
0.0
 11
5.578125
 21
2.328744
 31
0.0
  0
LINE
  5
121
100
AcDbEntity
  8
0
100
AcDbLine
 10
5.828125
 20
2.578744
 30
0.0
 11
5.578125
 21
2.578744
 31
0.0
  0
LINE
  5
122
100
AcDbEntity
  8
0
100
AcDbLine
 10
5.578125
 20
2.578744
 30
0.0
 11
5.578125
 21
2.328744
 31
0.0
  0
TEXT
  5
123
100
AcDbEntity
  8
TEXT
100
AcDbText
 10
5.607887
 20
2.891244
 30
0.0
 40
0.125
  1
38
 41
0.8
 51
10.0
  7
ROMANS
 72
     1
 11
5.703125
 21
2.891244
 31
0.0
100
AcDbText
  0
LINE
  5
124
100
AcDbEntity
  8
0
100
AcDbLine
 10
5.828125
 20
2.828744
 30
0.0
 11
5.578125
 21
2.828744
 31
0.0
  0
LINE
  5
125
100
AcDbEntity
  8
0
100
AcDbLine
 10
5.828125
 20
3.078744
 30
0.0
 11
5.578125
 21
3.078744
 31
0.0
  0
LINE
  5
126
100
AcDbEntity
  8
0
100
AcDbLine
 10
5.578125
 20
3.078744
 30
0.0
 11
5.578125
 21
2.828744
 31
0.0
  0
TEXT
  5
127
100
AcDbEntity
  8
TEXT
100
AcDbText
 10
5.607887
 20
3.391244
 30
0.0
 40
0.125
  1
37
 41
0.8
 51
10.0
  7
ROMANS
 72
     1
 11
5.703125
 21
3.391244
 31
0.0
100
AcDbText
  0
LINE
  5
128
100
AcDbEntity
  8
0
100
AcDbLine
 10
5.828125
 20
3.328744
 30
0.0
 11
5.578125
 21
3.328744
 31
0.0
  0
LINE
  5
129
100
AcDbEntity
  8
0
100
AcDbLine
 10
5.828125
 20
3.578744
 30
0.0
 11
5.578125
 21
3.578744
 31
0.0
  0
LINE
  5
12A
100
AcDbEntity
  8
0
100
AcDbLine
 10
5.578125
 20
3.578744
 30
0.0
 11
5.578125
 21
3.328744
 31
0.0
  0
TEXT
  5
12B
100
AcDbEntity
  8
TEXT
100
AcDbText
 10
5.607887
 20
3.891244
 30
0.0
 40
0.125
  1
36
 41
0.8
 51
10.0
  7
ROMANS
 72
     1
 11
5.703125
 21
3.891244
 31
0.0
100
AcDbText
  0
LINE
  5
12C
100
AcDbEntity
  8
0
100
AcDbLine
 10
5.828125
 20
3.828744
 30
0.0
 11
5.578125
 21
3.828744
 31
0.0
  0
LINE
  5
12D
100
AcDbEntity
  8
0
100
AcDbLine
 10
5.828125
 20
4.078744
 30
0.0
 11
5.578125
 21
4.078744
 31
0.0
  0
LINE
  5
12E
100
AcDbEntity
  8
0
100
AcDbLine
 10
5.578125
 20
4.078744
 30
0.0
 11
5.578125
 21
3.828744
 31
0.0
  0
TEXT
  5
12F
100
AcDbEntity
  8
TEXT
100
AcDbText
 10
5.607887
 20
4.391244
 30
0.0
 40
0.125
  1
35
 41
0.8
 51
10.0
  7
ROMANS
 72
     1
 11
5.703125
 21
4.391244
 31
0.0
100
AcDbText
  0
LINE
  5
130
100
AcDbEntity
  8
0
100
AcDbLine
 10
5.828125
 20
4.328744
 30
0.0
 11
5.578125
 21
4.328744
 31
0.0
  0
LINE
  5
131
100
AcDbEntity
  8
0
100
AcDbLine
 10
5.828125
 20
4.578744
 30
0.0
 11
5.578125
 21
4.578744
 31
0.0
  0
LINE
  5
132
100
AcDbEntity
  8
0
100
AcDbLine
 10
5.578125
 20
4.578744
 30
0.0
 11
5.578125
 21
4.328744
 31
0.0
  0
TEXT
  5
133
100
AcDbEntity
  8
TEXT
100
AcDbText
 10
5.605506
 20
4.891244
 30
0.0
 40
0.125
  1
34
 41
0.8
 51
10.0
  7
ROMANS
 72
     1
 11
5.703125
 21
4.891244
 31
0.0
100
AcDbText
  0
LINE
  5
134
100
AcDbEntity
  8
0
100
AcDbLine
 10
5.828125
 20
4.828744
 30
0.0
 11
5.578125
 21
4.828744
 31
0.0
  0
LINE
  5
135
100
AcDbEntity
  8
0
100
AcDbLine
 10
5.828125
 20
5.078744
 30
0.0
 11
5.578125
 21
5.078744
 31
0.0
  0
LINE
  5
136
100
AcDbEntity
  8
0
100
AcDbLine
 10
5.578125
 20
5.078744
 30
0.0
 11
5.578125
 21
4.828744
 31
0.0
  0
TEXT
  5
137
100
AcDbEntity
  8
TEXT
100
AcDbText
 10
5.607887
 20
5.391244
 30
0.0
 40
0.125
  1
33
 41
0.8
 51
10.0
  7
ROMANS
 72
     1
 11
5.703125
 21
5.391244
 31
0.0
100
AcDbText
  0
LINE
  5
138
100
AcDbEntity
  8
0
100
AcDbLine
 10
5.828125
 20
5.328744
 30
0.0
 11
5.578125
 21
5.328744
 31
0.0
  0
LINE
  5
139
100
AcDbEntity
  8
0
100
AcDbLine
 10
5.828125
 20
5.578744
 30
0.0
 11
5.578125
 21
5.578744
 31
0.0
  0
LINE
  5
13A
100
AcDbEntity
  8
0
100
AcDbLine
 10
5.578125
 20
5.578744
 30
0.0
 11
5.578125
 21
5.328744
 31
0.0
  0
TEXT
  5
13B
100
AcDbEntity
  8
TEXT
100
AcDbText
 10
5.607887
 20
5.891244
 30
0.0
 40
0.125
  1
32
 41
0.8
 51
10.0
  7
ROMANS
 72
     1
 11
5.703125
 21
5.891244
 31
0.0
100
AcDbText
  0
LINE
  5
13C
100
AcDbEntity
  8
0
100
AcDbLine
 10
5.828125
 20
5.828744
 30
0.0
 11
5.578125
 21
5.828744
 31
0.0
  0
LINE
  5
13D
100
AcDbEntity
  8
0
100
AcDbLine
 10
5.828125
 20
6.078744
 30
0.0
 11
5.578125
 21
6.078744
 31
0.0
  0
LINE
  5
13E
100
AcDbEntity
  8
0
100
AcDbLine
 10
5.578125
 20
6.078744
 30
0.0
 11
5.578125
 21
5.828744
 31
0.0
  0
TEXT
  5
13F
100
AcDbEntity
  8
TEXT
100
AcDbText
 10
5.622173
 20
6.391244
 30
0.0
 40
0.125
  1
31
 41
0.8
 51
10.0
  7
ROMANS
 72
     1
 11
5.703125
 21
6.391244
 31
0.0
100
AcDbText
  0
LINE
  5
140
100
AcDbEntity
  8
0
100
AcDbLine
 10
5.828125
 20
6.328744
 30
0.0
 11
5.578125
 21
6.328744
 31
0.0
  0
LINE
  5
141
100
AcDbEntity
  8
0
100
AcDbLine
 10
5.828125
 20
6.578744
 30
0.0
 11
5.578125
 21
6.578744
 31
0.0
  0
LINE
  5
142
100
AcDbEntity
  8
0
100
AcDbLine
 10
5.578125
 20
6.578744
 30
0.0
 11
5.578125
 21
6.328744
 31
0.0
  0
LINE
  5
143
100
AcDbEntity
  8
0
100
AcDbLine
 10
5.578125
 20
2.078744
 30
0.0
 11
5.578125
 21
1.828744
 31
0.0
  0
TEXT
  5
144
100
AcDbEntity
  8
TEXT
100
AcDbText
 10
5.890625
 20
2.891244
 30
0.0
 40
0.125
  1
Enc Ch2 -Fast In
 41
0.8
 51
10.0
  7
ROMANS
100
AcDbText
  0
TEXT
  5
145
100
AcDbEntity
  8
TEXT
100
AcDbText
 10
5.890625
 20
3.391244
 30
0.0
 40
0.125
  1
Enc Ch2 +Fast In
 41
0.8
 51
10.0
  7
ROMANS
100
AcDbText
  0
TEXT
  5
146
100
AcDbEntity
  8
TEXT
100
AcDbText
 10
5.890625
 20
3.891244
 30
0.0
 40
0.125
  1
Enc Ch1 -Fast In
 41
0.8
 51
10.0
  7
ROMANS
100
AcDbText
  0
TEXT
  5
147
100
AcDbEntity
  8
TEXT
100
AcDbText
 10
5.890625
 20
4.391244
 30
0.0
 40
0.125
  1
Enc Ch1 +Fast In
 41
0.8
 51
10.0
  7
ROMANS
100
AcDbText
  0
LINE
  5
148
100
AcDbEntity
  8
0
100
AcDbLine
 10
7.478125
 20
1.703744
 30
0.0
 11
7.628125
 21
1.703744
 31
0.0
  0
LINE
  5
149
100
AcDbEntity
  8
0
100
AcDbLine
 10
5.578125
 20
10.078744
 30
0.0
 11
5.578125
 21
9.828744
 31
0.0
  0
LINE
  5
14A
100
AcDbEntity
  8
0
100
AcDbLine
 10
5.828125
 20
9.828744
 30
0.0
 11
5.578125
 21
9.828744
 31
0.0
  0
TEXT
  5
14B
100
AcDbEntity
  8
TEXT
100
AcDbText
 10
5.605506
 20
9.891244
 30
0.0
 40
0.125
  1
24
 41
0.8
 51
10.0
  7
ROMANS
 72
     1
 11
5.703125
 21
9.891244
 31
0.0
100
AcDbText
  0
LINE
  5
14C
100
AcDbEntity
  8
0
100
AcDbLine
 10
5.828125
 20
10.078744
 30
0.0
 11
5.578125
 21
10.078744
 31
0.0
  0
LINE
  5
14D
100
AcDbEntity
  8
0
100
AcDbLine
 10
5.578125
 20
10.578744
 30
0.0
 11
5.578125
 21
10.328744
 31
0.0
  0
LINE
  5
14E
100
AcDbEntity
  8
0
100
AcDbLine
 10
5.828125
 20
10.328744
 30
0.0
 11
5.578125
 21
10.328744
 31
0.0
  0
TEXT
  5
14F
100
AcDbEntity
  8
TEXT
100
AcDbText
 10
5.607887
 20
10.391244
 30
0.0
 40
0.125
  1
23
 41
0.8
 51
10.0
  7
ROMANS
 72
     1
 11
5.703125
 21
10.391244
 31
0.0
100
AcDbText
  0
LINE
  5
150
100
AcDbEntity
  8
0
100
AcDbLine
 10
5.828125
 20
10.578744
 30
0.0
 11
5.578125
 21
10.578744
 31
0.0
  0
LINE
  5
151
100
AcDbEntity
  8
0
100
AcDbLine
 10
5.578125
 20
11.078744
 30
0.0
 11
5.578125
 21
10.828744
 31
0.0
  0
LINE
  5
152
100
AcDbEntity
  8
0
100
AcDbLine
 10
5.828125
 20
10.828744
 30
0.0
 11
5.578125
 21
10.828744
 31
0.0
  0
TEXT
  5
153
100
AcDbEntity
  8
TEXT
100
AcDbText
 10
5.607887
 20
10.891244
 30
0.0
 40
0.125
  1
22
 41
0.8
 51
10.0
  7
ROMANS
 72
     1
 11
5.703125
 21
10.891244
 31
0.0
100
AcDbText
  0
LINE
  5
154
100
AcDbEntity
  8
0
100
AcDbLine
 10
5.828125
 20
11.078744
 30
0.0
 11
5.578125
 21
11.078744
 31
0.0
  0
LINE
  5
155
100
AcDbEntity
  8
0
100
AcDbLine
 10
5.578125
 20
11.578744
 30
0.0
 11
5.578125
 21
11.328744
 31
0.0
  0
LINE
  5
156
100
AcDbEntity
  8
0
100
AcDbLine
 10
5.828125
 20
11.328744
 30
0.0
 11
5.578125
 21
11.328744
 31
0.0
  0
TEXT
  5
157
100
AcDbEntity
  8
TEXT
100
AcDbText
 10
5.622173
 20
11.391244
 30
0.0
 40
0.125
  1
21
 41
0.8
 51
10.0
  7
ROMANS
 72
     1
 11
5.703125
 21
11.391244
 31
0.0
100
AcDbText
  0
LINE
  5
158
100
AcDbEntity
  8
0
100
AcDbLine
 10
5.828125
 20
11.578744
 30
0.0
 11
5.578125
 21
11.578744
 31
0.0
  0
LINE
  5
159
100
AcDbEntity
  8
0
100
AcDbLine
 10
5.578125
 20
12.078744
 30
0.0
 11
5.578125
 21
11.828744
 31
0.0
  0
LINE
  5
15A
100
AcDbEntity
  8
0
100
AcDbLine
 10
5.828125
 20
11.828744
 30
0.0
 11
5.578125
 21
11.828744
 31
0.0
  0
TEXT
  5
15B
100
AcDbEntity
  8
TEXT
100
AcDbText
 10
5.607887
 20
11.891244
 30
0.0
 40
0.125
  1
20
 41
0.8
 51
10.0
  7
ROMANS
 72
     1
 11
5.703125
 21
11.891244
 31
0.0
100
AcDbText
  0
LINE
  5
15C
100
AcDbEntity
  8
0
100
AcDbLine
 10
5.828125
 20
12.078744
 30
0.0
 11
5.578125
 21
12.078744
 31
0.0
  0
LINE
  5
15D
100
AcDbEntity
  8
0
100
AcDbLine
 10
5.578125
 20
12.578744
 30
0.0
 11
5.578125
 21
12.328744
 31
0.0
  0
LINE
  5
15E
100
AcDbEntity
  8
0
100
AcDbLine
 10
5.828125
 20
12.328744
 30
0.0
 11
5.578125
 21
12.328744
 31
0.0
  0
TEXT
  5
15F
100
AcDbEntity
  8
TEXT
100
AcDbText
 10
5.603125
 20
12.391244
 30
0.0
 40
0.125
  1
19
 41
0.8
 51
10.0
  7
ROMANS
 72
     1
 11
5.703125
 21
12.391244
 31
0.0
100
AcDbText
  0
LINE
  5
160
100
AcDbEntity
  8
0
100
AcDbLine
 10
5.828125
 20
12.578744
 30
0.0
 11
5.578125
 21
12.578744
 31
0.0
  0
LINE
  5
161
100
AcDbEntity
  8
0
100
AcDbLine
 10
5.578125
 20
13.078744
 30
0.0
 11
5.578125
 21
12.828744
 31
0.0
  0
LINE
  5
162
100
AcDbEntity
  8
0
100
AcDbLine
 10
5.828125
 20
12.828744
 30
0.0
 11
5.578125
 21
12.828744
 31
0.0
  0
TEXT
  5
163
100
AcDbEntity
  8
TEXT
100
AcDbText
 10
5.600744
 20
12.891244
 30
0.0
 40
0.125
  1
18
 41
0.8
 51
10.0
  7
ROMANS
 72
     1
 11
5.703125
 21
12.891244
 31
0.0
100
AcDbText
  0
LINE
  5
164
100
AcDbEntity
  8
0
100
AcDbLine
 10
5.828125
 20
13.078744
 30
0.0
 11
5.578125
 21
13.078744
 31
0.0
  0
LINE
  5
165
100
AcDbEntity
  8
0
100
AcDbLine
 10
5.578125
 20
13.578744
 30
0.0
 11
5.578125
 21
13.328744
 31
0.0
  0
LINE
  5
166
100
AcDbEntity
  8
0
100
AcDbLine
 10
5.828125
 20
13.328744
 30
0.0
 11
5.578125
 21
13.328744
 31
0.0
  0
TEXT
  5
167
100
AcDbEntity
  8
TEXT
100
AcDbText
 10
5.600744
 20
13.391244
 30
0.0
 40
0.125
  1
17
 41
0.8
 51
10.0
  7
ROMANS
 72
     1
 11
5.703125
 21
13.391244
 31
0.0
100
AcDbText
  0
LINE
  5
168
100
AcDbEntity
  8
0
100
AcDbLine
 10
5.828125
 20
13.578744
 30
0.0
 11
5.578125
 21
13.578744
 31
0.0
  0
LINE
  5
169
100
AcDbEntity
  8
0
100
AcDbLine
 10
5.828125
 20
1.703744
 30
0.0
 11
5.828125
 21
14.109994
 31
0.0
  0
LINE
  5
16A
100
AcDbEntity
  8
0
100
AcDbLine
 10
7.328125
 20
14.109994
 30
0.0
 11
7.328125
 21
1.703744
 31
0.0
  0
LINE
  5
16B
100
AcDbEntity
  8
DASH
100
AcDbLine
 10
7.328125
 20
14.109994
 30
0.0
 11
5.828125
 21
14.109994
 31
0.0
  0
TEXT
  5
16C
100
AcDbEntity
  8
TEXT
100
AcDbText
 10
5.890625
 20
9.891244
 30
0.0
 40
0.125
  1
Enc Ch2 /A
 41
0.8
 51
10.0
  7
ROMANS
100
AcDbText
  0
TEXT
  5
16D
100
AcDbEntity
  8
TEXT
100
AcDbText
 10
5.890625
 20
10.391244
 30
0.0
 40
0.125
  1
Enc Ch2 A
 41
0.8
 51
10.0
  7
ROMANS
100
AcDbText
  0
TEXT
  5
16E
100
AcDbEntity
  8
TEXT
100
AcDbText
 10
5.890625
 20
10.891244
 30
0.0
 40
0.125
  1
Enc Ch1 /Index
 41
0.8
 51
10.0
  7
ROMANS
100
AcDbText
  0
TEXT
  5
16F
100
AcDbEntity
  8
TEXT
100
AcDbText
 10
5.890625
 20
11.391244
 30
0.0
 40
0.125
  1
Enc Ch1 Index
 41
0.8
 51
10.0
  7
ROMANS
100
AcDbText
  0
TEXT
  5
170
100
AcDbEntity
  8
TEXT
100
AcDbText
 10
5.890625
 20
11.891244
 30
0.0
 40
0.125
  1
Enc Ch1 /B
 41
0.8
 51
10.0
  7
ROMANS
100
AcDbText
  0
TEXT
  5
171
100
AcDbEntity
  8
TEXT
100
AcDbText
 10
5.890625
 20
12.391244
 30
0.0
 40
0.125
  1
Enc Ch1 B
 41
0.8
 51
10.0
  7
ROMANS
100
AcDbText
  0
TEXT
  5
172
100
AcDbEntity
  8
TEXT
100
AcDbText
 10
5.890625
 20
12.891244
 30
0.0
 40
0.125
  1
Enc Ch1 /A
 41
0.8
 51
10.0
  7
ROMANS
100
AcDbText
  0
TEXT
  5
173
100
AcDbEntity
  8
TEXT
100
AcDbText
 10
5.890625
 20
13.391244
 30
0.0
 40
0.125
  1
Enc Ch1 A
 41
0.8
 51
10.0
  7
ROMANS
100
AcDbText
  0
LINE
  5
174
100
AcDbEntity
  8
DASH
100
AcDbLine
 10
7.328125
 20
4.703744
 30
0.0
 11
5.828125
 21
4.703744
 31
0.0
  0
LINE
  5
175
100
AcDbEntity
  8
0
100
AcDbLine
 10
7.478125
 20
13.578744
 30
0.0
 11
7.628125
 21
13.578744
 31
0.0
  0
LINE
  5
176
100
AcDbEntity
  8
0
100
AcDbLine
 10
7.478125
 20
13.578744
 30
0.0
 11
7.478125
 21
10.828744
 31
0.0
  0
LINE
  5
177
100
AcDbEntity
  8
0
100
AcDbLine
 10
7.478125
 20
4.703744
 30
0.0
 11
7.628125
 21
4.703744
 31
0.0
  0
TEXT
  5
178
100
AcDbEntity
  8
TEXT
100
AcDbText
 10
7.678125
 20
13.403744
 30
0.0
 40
0.1
  1
*
 41
0.8
  7
ROMANS
100
AcDbText
  0
TEXT
  5
17A
100
AcDbEntity
  8
TEXT
100
AcDbText
 10
7.678125
 20
7.903744
 30
0.0
 40
0.1
  1
*
 41
0.8
  7
ROMANS
100
AcDbText
  0
TEXT
  5
17B
100
AcDbEntity
  8
TEXT
100
AcDbText
 10
7.678125
 20
8.403744
 30
0.0
 40
0.1
  1
*
 41
0.8
  7
ROMANS
100
AcDbText
  0
TEXT
  5
17C
100
AcDbEntity
  8
TEXT
100
AcDbText
 10
7.678125
 20
8.903744
 30
0.0
 40
0.1
  1
*
 41
0.8
  7
ROMANS
100
AcDbText
  0
TEXT
  5
17D
100
AcDbEntity
  8
TEXT
100
AcDbText
 10
7.678125
 20
9.403744
 30
0.0
 40
0.1
  1
*
 41
0.8
  7
ROMANS
100
AcDbText
  0
TEXT
  5
17E
100
AcDbEntity
  8
TEXT
100
AcDbText
 10
7.678125
 20
9.903744
 30
0.0
 40
0.1
  1
*
 41
0.8
  7
ROMANS
100
AcDbText
  0
TEXT
  5
17F
100
AcDbEntity
  8
TEXT
100
AcDbText
 10
7.678125
 20
10.403744
 30
0.0
 40
0.1
  1
*
 41
0.8
  7
ROMANS
100
AcDbText
  0
TEXT
  5
180
100
AcDbEntity
  8
TEXT
100
AcDbText
 10
7.678125
 20
10.903744
 30
0.0
 40
0.1
  1
*
 41
0.8
  7
ROMANS
100
AcDbText
  0
TEXT
  5
181
100
AcDbEntity
  8
TEXT
100
AcDbText
 10
7.678125
 20
11.403744
 30
0.0
 40
0.1
  1
*
 41
0.8
  7
ROMANS
100
AcDbText
  0
TEXT
  5
182
100
AcDbEntity
  8
TEXT
100
AcDbText
 10
7.678125
 20
11.903744
 30
0.0
 40
0.1
  1
*
 41
0.8
  7
ROMANS
100
AcDbText
  0
TEXT
  5
183
100
AcDbEntity
  8
TEXT
100
AcDbText
 10
7.678125
 20
12.403744
 30
0.0
 40
0.1
  1
*
 41
0.8
  7
ROMANS
100
AcDbText
  0
TEXT
  5
184
100
AcDbEntity
  8
TEXT
100
AcDbText
 10
7.678125
 20
12.903744
 30
0.0
 40
0.1
  1
*
 41
0.8
  7
ROMANS
100
AcDbText
  0
LINE
  5
185
100
AcDbEntity
  8
0
100
AcDbLine
 10
7.478125
 20
10.578744
 30
0.0
 11
7.628125
 21
10.578744
 31
0.0
  0
LINE
  5
186
100
AcDbEntity
  8
0
100
AcDbLine
 10
7.478125
 20
10.828744
 30
0.0
 11
7.628125
 21
10.828744
 31
0.0
  0
LINE
  5
187
100
AcDbEntity
  8
0
100
AcDbLine
 10
7.478125
 20
10.578744
 30
0.0
 11
7.478125
 21
7.828744
 31
0.0
  0
LINE
  5
188
100
AcDbEntity
  8
0
100
AcDbLine
 10
7.478125
 20
7.828744
 30
0.0
 11
7.628125
 21
7.828744
 31
0.0
  0
LINE
  5
189
100
AcDbEntity
  8
0
100
AcDbLine
 10
7.478125
 20
7.578744
 30
0.0
 11
7.628125
 21
7.578744
 31
0.0
  0
LINE
  5
18A
100
AcDbEntity
  8
0
100
AcDbLine
 10
7.478125
 20
7.578744
 30
0.0
 11
7.478125
 21
4.703744
 31
0.0
  0
LINE
  5
18B
100
AcDbEntity
  8
0
100
AcDbLine
 10
7.478125
 20
4.578744
 30
0.0
 11
7.628125
 21
4.578744
 31
0.0
  0
LINE
  5
18C
100
AcDbEntity
  8
0
100
AcDbLine
 10
7.478125
 20
1.703744
 30
0.0
 11
7.478125
 21
2.578744
 31
0.0
  0
LINE
  5
18D
100
AcDbEntity
  8
0
100
AcDbLine
 10
7.478125
 20
3.828744
 30
0.0
 11
7.628125
 21
3.828744
 31
0.0
  0
LINE
  5
18E
100
AcDbEntity
  8
0
100
AcDbLine
 10
7.478125
 20
3.578744
 30
0.0
 11
7.628125
 21
3.578744
 31
0.0
  0
LINE
  5
18F
100
AcDbEntity
  8
0
100
AcDbLine
 10
7.478125
 20
2.828744
 30
0.0
 11
7.628125
 21
2.828744
 31
0.0
  0
LINE
  5
190
100
AcDbEntity
  8
0
100
AcDbLine
 10
7.478125
 20
2.578744
 30
0.0
 11
7.628125
 21
2.578744
 31
0.0
  0
LINE
  5
191
100
AcDbEntity
  8
0
100
AcDbLine
 10
7.478125
 20
3.828744
 30
0.0
 11
7.478125
 21
4.578744
 31
0.0
  0
LINE
  5
192
100
AcDbEntity
  8
0
100
AcDbLine
 10
7.478125
 20
2.828744
 30
0.0
 11
7.478125
 21
3.578744
 31
0.0
  0
TEXT
  5
193
100
AcDbEntity
  8
TEXT
100
AcDbText
 10
7.678125
 20
4.153744
 30
0.0
 40
0.1
  1
*
 41
0.8
  7
ROMANS
100
AcDbText
  0
TEXT
  5
194
100
AcDbEntity
  8
TEXT
100
AcDbText
 10
7.678125
 20
3.153744
 30
0.0
 40
0.1
  1
*
 41
0.8
  7
ROMANS
100
AcDbText
  0
TEXT
  5
195
100
AcDbEntity
  8
TEXT
100
AcDbText
 10
7.678125
 20
2.091244
 30
0.0
 40
0.1
  1
*
 41
0.8
  7
ROMANS
100
AcDbText
  0
LINE
  5
196
100
AcDbEntity
  8
0
100
AcDbLine
 10
5.828125
 20
1.703744
 30
0.0
 11
7.328125
 21
1.703744
 31
0.0
  0
TEXT
  5
197
100
AcDbEntity
  8
TEXT
100
AcDbText
 10
0.940625
 20
11.391244
 30
0.0
 40
0.125
  1
An Out Ch 3+
 41
0.8
 51
10.0
  7
ROMANS
100
AcDbText
  0
TEXT
  5
198
100
AcDbEntity
  8
TEXT
100
AcDbText
 10
0.940625
 20
10.891244
 30
0.0
 40
0.125
  1
An Out Ch 3-
 41
0.8
 51
10.0
  7
ROMANS
100
AcDbText
  0
TEXT
  5
199
100
AcDbEntity
  8
TEXT
100
AcDbText
 10
0.940625
 20
8.891244
 30
0.0
 40
0.125
  1
Shield
 41
0.8
 51
10.0
  7
ROMANS
100
AcDbText
  0
TEXT
  5
19A
100
AcDbEntity
  8
TEXT
100
AcDbText
 10
0.940625
 20
8.391244
 30
0.0
 40
0.125
  1
Shield
 41
0.8
 51
10.0
  7
ROMANS
100
AcDbText
  0
TEXT
  5
19B
100
AcDbEntity
  8
TEXT
100
AcDbText
 10
0.940625
 20
7.891244
 30
0.0
 40
0.125
  1
Shield
 41
0.8
 51
10.0
  7
ROMANS
100
AcDbText
  0
TEXT
  5
19C
100
AcDbEntity
  8
TEXT
100
AcDbText
 10
0.940625
 20
7.391244
 30
0.0
 40
0.125
  1
Shield
 41
0.8
 51
10.0
  7
ROMANS
100
AcDbText
  0
TEXT
  5
19D
100
AcDbEntity
  8
TEXT
100
AcDbText
 10
0.940625
 20
6.891244
 30
0.0
 40
0.125
  1
Shield
 41
0.8
 51
10.0
  7
ROMANS
100
AcDbText
  0
TEXT
  5
19E
100
AcDbEntity
  8
TEXT
100
AcDbText
 10
0.940625
 20
6.391244
 30
0.0
 40
0.125
  1
Shield
 41
0.8
 51
10.0
  7
ROMANS
100
AcDbText
  0
TEXT
  5
19F
100
AcDbEntity
  8
TEXT
100
AcDbText
 10
0.940625
 20
5.891244
 30
0.0
 40
0.125
  1
Shield
 41
0.8
 51
10.0
  7
ROMANS
100
AcDbText
  0
TEXT
  5
1A0
100
AcDbEntity
  8
TEXT
100
AcDbText
 10
2.728125
 20
12.153744
 30
0.0
 40
0.1
  1
*
 41
0.8
  7
ROMANS
100
AcDbText
  0
TEXT
  5
1A1
100
AcDbEntity
  8
TEXT
100
AcDbText
 10
2.728125
 20
11.153744
 30
0.0
 40
0.1
  1
*
 41
0.8
  7
ROMANS
100
AcDbText
  0
TEXT
  5
1BB
100
AcDbEntity
  8
TEXT
100
AcDbText
 10
0.940625
 20
10.391244
 30
0.0
 40
0.125
  1
An Out Ch 4+
 41
0.8
 51
10.0
  7
ROMANS
100
AcDbText
  0
TEXT
  5
1BC
100
AcDbEntity
  8
TEXT
100
AcDbText
 10
0.940625
 20
9.891244
 30
0.0
 40
0.125
  1
An Out Ch 4-
 41
0.8
 51
10.0
  7
ROMANS
100
AcDbText
  0
TEXT
  5
1BD
100
AcDbEntity
  8
TEXT
100
AcDbText
 10
2.728125
 20
10.153744
 30
0.0
 40
0.1
  1
*
 41
0.8
  7
ROMANS
100
AcDbText
  0
TEXT
  5
1C0
100
AcDbEntity
  8
TEXT
100
AcDbText
 10
5.890625
 20
1.891244
 30
0.0
 40
0.125
  1
Enc Ch3 -Fast In
 41
0.8
 51
10.0
  7
ROMANS
100
AcDbText
  0
TEXT
  5
1C1
100
AcDbEntity
  8
TEXT
100
AcDbText
 10
5.890625
 20
2.391244
 30
0.0
 40
0.125
  1
Enc Ch3 +Fast In
 41
0.8
 51
10.0
  7
ROMANS
100
AcDbText
  0
TEXT
  5
1C3
100
AcDbEntity
  8
TEXT
100
AcDbText
 10
5.890625
 20
6.891244
 30
0.0
 40
0.125
  1
Enc Ch3 /A
 41
0.8
 51
10.0
  7
ROMANS
100
AcDbText
  0
TEXT
  5
1C4
100
AcDbEntity
  8
TEXT
100
AcDbText
 10
5.890625
 20
4.891244
 30
0.0
 40
0.125
  1
Enc Ch3 /Index
 41
0.8
 51
10.0
  7
ROMANS
100
AcDbText
  0
TEXT
  5
1C5
100
AcDbEntity
  8
TEXT
100
AcDbText
 10
5.890625
 20
5.391244
 30
0.0
 40
0.125
  1
Enc Ch3 Index
 41
0.8
 51
10.0
  7
ROMANS
100
AcDbText
  0
TEXT
  5
1C6
100
AcDbEntity
  8
TEXT
100
AcDbText
 10
5.890625
 20
5.891244
 30
0.0
 40
0.125
  1
Enc Ch3 /B
 41
0.8
 51
10.0
  7
ROMANS
100
AcDbText
  0
TEXT
  5
1C7
100
AcDbEntity
  8
TEXT
100
AcDbText
 10
5.890625
 20
6.391244
 30
0.0
 40
0.125
  1
Enc Ch3 B
 41
0.8
 51
10.0
  7
ROMANS
100
AcDbText
  0
TEXT
  5
1C8
100
AcDbEntity
  8
TEXT
100
AcDbText
 10
5.890625
 20
7.391244
 30
0.0
 40
0.125
  1
Enc Ch3 A
 41
0.8
 51
10.0
  7
ROMANS
100
AcDbText
  0
TEXT
  5
1C9
100
AcDbEntity
  8
TEXT
100
AcDbText
 10
7.678125
 20
7.403744
 30
0.0
 40
0.1
  1
*
 41
0.8
  7
ROMANS
100
AcDbText
  0
TEXT
  5
1CA
100
AcDbEntity
  8
TEXT
100
AcDbText
 10
7.678125
 20
5.903744
 30
0.0
 40
0.1
  1
*
 41
0.8
  7
ROMANS
100
AcDbText
  0
TEXT
  5
1CB
100
AcDbEntity
  8
TEXT
100
AcDbText
 10
7.678125
 20
4.903744
 30
0.0
 40
0.1
  1
*
 41
0.8
  7
ROMANS
100
AcDbText
  0
TEXT
  5
1CC
100
AcDbEntity
  8
TEXT
100
AcDbText
 10
7.678125
 20
5.403744
 30
0.0
 40
0.1
  1
*
 41
0.8
  7
ROMANS
100
AcDbText
  0
TEXT
  5
1CD
100
AcDbEntity
  8
TEXT
100
AcDbText
 10
7.678125
 20
6.403744
 30
0.0
 40
0.1
  1
*
 41
0.8
  7
ROMANS
100
AcDbText
  0
TEXT
  5
1CE
100
AcDbEntity
  8
TEXT
100
AcDbText
 10
7.678125
 20
6.903744
 30
0.0
 40
0.1
  1
*
 41
0.8
  7
ROMANS
100
AcDbText
  0
TEXT
  5
24C
100
AcDbEntity
  8
0
100
AcDbText
 10
9.171875
 20
8.046875
 30
0.0
 40
0.1
  1

 72
     1
 11
9.171875
 21
8.046875
 31
0.0
100
AcDbText
  0
TEXT
  5
24D
100
AcDbEntity
  8
0
100
AcDbText
 10
15.320913
 20
4.90725
 30
0.0
 40
0.075
  1

100
AcDbText
  0
TEXT
  5
24E
100
AcDbEntity
  8
0
100
AcDbText
 10
14.973206
 20
4.90725
 30
0.0
 40
0.075
  1

100
AcDbText
  0
TEXT
  5
24F
100
AcDbEntity
  8
0
100
AcDbText
 10
14.88208
 20
14.438185
 30
0.0
 40
0.1
  1

 72
     1
 11
14.88208
 21
14.438185
 31
0.0
100
AcDbText
  0
TEXT
  5
250
100
AcDbEntity
  8
0
100
AcDbText
 10
21.031118
 20
11.29856
 30
0.0
 40
0.075
  1

100
AcDbText
  0
TEXT
  5
251
100
AcDbEntity
  8
0
100
AcDbText
 10
20.683411
 20
11.29856
 30
0.0
 40
0.075
  1

100
AcDbText
  0
TEXT
  5
252
100
AcDbEntity
  8
0
100
AcDbText
 10
20.760375
 20
8.08025
 30
0.0
 40
0.1
  1

 72
     1
 11
20.760375
 21
8.08025
 31
0.0
100
AcDbText
  0
TEXT
  5
253
100
AcDbEntity
  8
0
100
AcDbText
 10
26.909413
 20
4.940625
 30
0.0
 40
0.075
  1

100
AcDbText
  0
TEXT
  5
254
100
AcDbEntity
  8
0
100
AcDbText
 10
26.561706
 20
4.940625
 30
0.0
 40
0.075
  1

100
AcDbText
  0
TEXT
  5
255
100
AcDbEntity
  8
0
100
AcDbText
 10
26.47058
 20
14.47156
 30
0.0
 40
0.1
  1

 72
     1
 11
26.47058
 21
14.47156
 31
0.0
100
AcDbText
  0
TEXT
  5
256
100
AcDbEntity
  8
0
100
AcDbText
 10
32.619618
 20
11.331935
 30
0.0
 40
0.075
  1

100
AcDbText
  0
TEXT
  5
257
100
AcDbEntity
  8
0
100
AcDbText
 10
32.271911
 20
11.331935
 30
0.0
 40
0.075
  1

100
AcDbText
  0
TEXT
  5
267
100
AcDbEntity
  8
0
100
AcDbText
 10
13.1625
 20
9.750619
 30
0.0
 40
0.1
  1

 72
     1
 11
13.1625
 21
9.750619
 31
0.0
100
AcDbText
  0
TEXT
  5
268
100
AcDbEntity
  8
0
100
AcDbText
 10
19.311538
 20
6.610994
 30
0.0
 40
0.075
  1

100
AcDbText
  0
TEXT
  5
269
100
AcDbEntity
  8
0
100
AcDbText
 10
18.963831
 20
6.610994
 30
0.0
 40
0.075
  1

100
AcDbText
  0
TEXT
  5
26A
100
AcDbEntity
  8
0
100
AcDbText
 10
18.872705
 20
16.141929
 30
0.0
 40
0.1
  1

 72
     1
 11
18.872705
 21
16.141929
 31
0.0
100
AcDbText
  0
TEXT
  5
26B
100
AcDbEntity
  8
0
100
AcDbText
 10
25.021743
 20
13.002304
 30
0.0
 40
0.075
  1

100
AcDbText
  0
TEXT
  5
26C
100
AcDbEntity
  8
0
100
AcDbText
 10
24.674036
 20
13.002304
 30
0.0
 40
0.075
  1

100
AcDbText
  0
TEXT
  5
26D
100
AcDbEntity
  8
0
100
AcDbText
 10
24.751
 20
9.783994
 30
0.0
 40
0.1
  1

 72
     1
 11
24.751
 21
9.783994
 31
0.0
100
AcDbText
  0
TEXT
  5
26E
100
AcDbEntity
  8
0
100
AcDbText
 10
30.900038
 20
6.644369
 30
0.0
 40
0.075
  1

100
AcDbText
  0
TEXT
  5
26F
100
AcDbEntity
  8
0
100
AcDbText
 10
30.552331
 20
6.644369
 30
0.0
 40
0.075
  1

100
AcDbText
  0
TEXT
  5
270
100
AcDbEntity
  8
0
100
AcDbText
 10
30.461205
 20
16.175304
 30
0.0
 40
0.1
  1

 72
     1
 11
30.461205
 21
16.175304
 31
0.0
100
AcDbText
  0
TEXT
  5
271
100
AcDbEntity
  8
0
100
AcDbText
 10
36.610243
 20
13.035679
 30
0.0
 40
0.075
  1

100
AcDbText
  0
TEXT
  5
272
100
AcDbEntity
  8
0
100
AcDbText
 10
36.262536
 20
13.035679
 30
0.0
 40
0.075
  1

100
AcDbText
  0
TEXT
  5
273
100
AcDbEntity
  8
0
100
AcDbText
 10
17.142858
 20
16.611232
 30
0.0
 40
0.075
  1

 72
     1
 11
17.142858
 21
16.611232
 31
0.0
100
AcDbText
  0
TEXT
  5
274
100
AcDbEntity
  8
0
100
AcDbText
 10
17.142858
 20
16.111232
 30
0.0
 40
0.075
  1

 72
     1
 11
17.142858
 21
16.111232
 31
0.0
100
AcDbText
  0
TEXT
  5
275
100
AcDbEntity
  8
0
100
AcDbText
 10
17.142858
 20
15.611232
 30
0.0
 40
0.1
  1

 72
     1
 11
17.142858
 21
15.611232
 31
0.0
100
AcDbText
  0
TEXT
  5
276
100
AcDbEntity
  8
0
100
AcDbText
 10
16.955358
 20
9.611232
 30
0.0
 40
0.1
  1

100
AcDbText
  0
TEXT
  5
277
100
AcDbEntity
  8
0
100
AcDbText
 10
16.955358
 20
15.111232
 30
0.0
 40
0.1
  1

100
AcDbText
  0
TEXT
  5
278
100
AcDbEntity
  8
0
100
AcDbText
 10
27.468991
 20
16.611232
 30
0.0
 40
0.075
  1

 72
     1
 11
27.468991
 21
16.611232
 31
0.0
100
AcDbText
  0
TEXT
  5
279
100
AcDbEntity
  8
0
100
AcDbText
 10
27.468991
 20
16.111232
 30
0.0
 40
0.075
  1

 72
     1
 11
27.468991
 21
16.111232
 31
0.0
100
AcDbText
  0
TEXT
  5
27A
100
AcDbEntity
  8
0
100
AcDbText
 10
27.468991
 20
15.611232
 30
0.0
 40
0.1
  1

 72
     1
 11
27.468991
 21
15.611232
 31
0.0
100
AcDbText
  0
TEXT
  5
27B
100
AcDbEntity
  8
0
100
AcDbText
 10
27.281491
 20
9.611232
 30
0.0
 40
0.1
  1

100
AcDbText
  0
TEXT
  5
27C
100
AcDbEntity
  8
0
100
AcDbText
 10
27.281491
 20
15.111232
 30
0.0
 40
0.1
  1

100
AcDbText
  0
ENDSEC
  0
SECTION
  2
OBJECTS
  0
DICTIONARY
  5
C
100
AcDbDictionary
  3
ACAD_GROUP
350
D
  3
ACAD_MLINESTYLE
350
E
  3
ACDBVARIABLEDICTIONARY
350
314
  0
DICTIONARY
  5
D
102
{ACAD_REACTORS
330
C
102
}
100
AcDbDictionary
  0
DICTIONARY
  5
E
102
{ACAD_REACTORS
330
C
102
}
100
AcDbDictionary
  3
STANDARD
350
1B
  0
DICTIONARY
  5
314
102
{ACAD_REACTORS
330
C
102
}
100
AcDbDictionary
  3
SORTENTS
350
315
  0
MLINESTYLE
  5
1B
102
{ACAD_REACTORS
330
E
102
}
100
AcDbMlineStyle
  2
STANDARD
 70
     0
  3

 62
     0
 51
90.0
 52
90.0
 71
     2
 49
0.5
 62
   256
  6
BYLAYER
 49
-0.5
 62
   256
  6
BYLAYER
  0
DICTIONARYVAR
  5
315
102
{ACAD_REACTORS
330
314
102
}
100
DictionaryVariables
280
     0
  1
96
  0
ENDSEC
  0
EOF
