  0
SECTION
  2
HEADER
  9
$ACADVER
  1
AC1012
  9
$DWGCODEPAGE
  3
ANSI_1252
  9
$INSBASE
 10
0.359375
 20
0.0625
 30
0.0
  9
$EXTMIN
 10
1.613112
 20
1.9375
 30
0.0
  9
$EXTMAX
 10
8.393297
 20
15.49256
 30
0.0
  9
$LIMMIN
 10
0.0
 20
0.0
  9
$LIMMAX
 10
24.0
 20
18.0
  9
$ORTHOMODE
 70
     1
  9
$REGENMODE
 70
     1
  9
$FILLMODE
 70
     1
  9
$QTEXTMODE
 70
     0
  9
$MIRRTEXT
 70
     1
  9
$DRAGMODE
 70
     2
  9
$LTSCALE
 40
0.25
  9
$OSMODE
 70
     0
  9
$ATTMODE
 70
     1
  9
$TEXTSIZE
 40
0.1
  9
$TRACEWID
 40
0.05
  9
$TEXTSTYLE
  7
ROMANS
  9
$CLAYER
  8
0
  9
$CELTYPE
  6
BYLAYER
  9
$CECOLOR
 62
   256
  9
$CELTSCALE
 40
1.0
  9
$DELOBJ
 70
     1
  9
$DISPSILH
 70
     0
  9
$DIMSCALE
 40
1.0
  9
$DIMASZ
 40
0.18
  9
$DIMEXO
 40
0.0625
  9
$DIMDLI
 40
0.38
  9
$DIMRND
 40
0.0
  9
$DIMDLE
 40
0.0
  9
$DIMEXE
 40
0.18
  9
$DIMTP
 40
0.0
  9
$DIMTM
 40
0.0
  9
$DIMTXT
 40
0.18
  9
$DIMCEN
 40
0.09
  9
$DIMTSZ
 40
0.0
  9
$DIMTOL
 70
     0
  9
$DIMLIM
 70
     0
  9
$DIMTIH
 70
     1
  9
$DIMTOH
 70
     1
  9
$DIMSE1
 70
     0
  9
$DIMSE2
 70
     0
  9
$DIMTAD
 70
     0
  9
$DIMZIN
 70
     0
  9
$DIMBLK
  1

  9
$DIMASO
 70
     1
  9
$DIMSHO
 70
     0
  9
$DIMPOST
  1

  9
$DIMAPOST
  1

  9
$DIMALT
 70
     0
  9
$DIMALTD
 70
     2
  9
$DIMALTF
 40
25.4
  9
$DIMLFAC
 40
1.0
  9
$DIMTOFL
 70
     0
  9
$DIMTVP
 40
0.0
  9
$DIMTIX
 70
     0
  9
$DIMSOXD
 70
     0
  9
$DIMSAH
 70
     0
  9
$DIMBLK1
  1

  9
$DIMBLK2
  1

  9
$DIMSTYLE
  2
STANDARD
  9
$DIMCLRD
 70
     0
  9
$DIMCLRE
 70
     0
  9
$DIMCLRT
 70
     0
  9
$DIMTFAC
 40
1.0
  9
$DIMGAP
 40
0.09
  9
$DIMJUST
 70
     0
  9
$DIMSD1
 70
     0
  9
$DIMSD2
 70
     0
  9
$DIMTOLJ
 70
     1
  9
$DIMTZIN
 70
     0
  9
$DIMALTZ
 70
     0
  9
$DIMALTTZ
 70
     0
  9
$DIMFIT
 70
     5
  9
$DIMUPT
 70
     0
  9
$DIMUNIT
 70
     2
  9
$DIMDEC
 70
     4
  9
$DIMTDEC
 70
     4
  9
$DIMALTU
 70
     2
  9
$DIMALTTD
 70
     2
  9
$DIMTXSTY
  7
ROMANS
  9
$DIMAUNIT
 70
     0
  9
$LUNITS
 70
     2
  9
$LUPREC
 70
     4
  9
$SKETCHINC
 40
0.1
  9
$FILLETRAD
 40
0.0
  9
$AUNITS
 70
     0
  9
$AUPREC
 70
     0
  9
$MENU
  1
acad
  9
$ELEVATION
 40
0.0
  9
$PELEVATION
 40
0.0
  9
$THICKNESS
 40
0.0
  9
$LIMCHECK
 70
     0
  9
$BLIPMODE
 70
     0
  9
$CHAMFERA
 40
0.0
  9
$CHAMFERB
 40
0.0
  9
$CHAMFERC
 40
0.0
  9
$CHAMFERD
 40
0.0
  9
$SKPOLY
 70
     0
  9
$TDCREATE
 40
2449378.655709259
  9
$TDUPDATE
 40
2451092.643302661
  9
$TDINDWG
 40
0.3063807870
  9
$TDUSRTIMER
 40
0.3063807870
  9
$USRTIMER
 70
     1
  9
$ANGBASE
 50
0.0
  9
$ANGDIR
 70
     0
  9
$PDMODE
 70
     3
  9
$PDSIZE
 40
0.1
  9
$PLINEWID
 40
0.01
  9
$COORDS
 70
     2
  9
$SPLFRAME
 70
     0
  9
$SPLINETYPE
 70
     6
  9
$SPLINESEGS
 70
     8
  9
$ATTDIA
 70
     0
  9
$ATTREQ
 70
     1
  9
$HANDLING
 70
     1
  9
$HANDSEED
  5
570
  9
$SURFTAB1
 70
     6
  9
$SURFTAB2
 70
     6
  9
$SURFTYPE
 70
     6
  9
$SURFU
 70
     6
  9
$SURFV
 70
     6
  9
$UCSNAME
  2

  9
$UCSORG
 10
0.0
 20
0.0
 30
0.0
  9
$UCSXDIR
 10
1.0
 20
0.0
 30
0.0
  9
$UCSYDIR
 10
0.0
 20
1.0
 30
0.0
  9
$PUCSNAME
  2

  9
$PUCSORG
 10
0.0
 20
0.0
 30
0.0
  9
$PUCSXDIR
 10
1.0
 20
0.0
 30
0.0
  9
$PUCSYDIR
 10
0.0
 20
1.0
 30
0.0
  9
$USERI1
 70
     0
  9
$USERI2
 70
     0
  9
$USERI3
 70
     0
  9
$USERI4
 70
     0
  9
$USERI5
 70
     0
  9
$USERR1
 40
0.0
  9
$USERR2
 40
0.0
  9
$USERR3
 40
0.0
  9
$USERR4
 40
0.0
  9
$USERR5
 40
0.0
  9
$WORLDVIEW
 70
     1
  9
$SHADEDGE
 70
     3
  9
$SHADEDIF
 70
    70
  9
$TILEMODE
 70
     1
  9
$MAXACTVP
 70
    16
  9
$PINSBASE
 10
0.0
 20
0.0
 30
0.0
  9
$PLIMCHECK
 70
     0
  9
$PEXTMIN
 10
1.000000E+20
 20
1.000000E+20
 30
1.000000E+20
  9
$PEXTMAX
 10
-1.000000E+20
 20
-1.000000E+20
 30
-1.000000E+20
  9
$PLIMMIN
 10
0.0
 20
0.0
  9
$PLIMMAX
 10
12.0
 20
9.0
  9
$UNITMODE
 70
     0
  9
$VISRETAIN
 70
     0
  9
$PLINEGEN
 70
     0
  9
$PSLTSCALE
 70
     0
  9
$TREEDEPTH
 70
  3020
  9
$PICKSTYLE
 70
     1
  9
$CMLSTYLE
  2
STANDARD
  9
$CMLJUST
 70
     0
  9
$CMLSCALE
 40
1.0
  9
$SAVEIMAGES
 70
     1
  0
ENDSEC
  0
SECTION
  2
CLASSES
  0
CLASS
  1
DICTIONARYVAR
  2
AcDbDictionaryVar
  3
"AutoCAD"
 90
    32768
280
     0
281
     0
  0
CLASS
  1
LWPOLYLINE
  2
AcDbPolyline
  3
"AutoCAD"
 90
    32768
280
     0
281
     1
  0
ENDSEC
  0
SECTION
  2
TABLES
  0
TABLE
  2
VPORT
  5
8
100
AcDbSymbolTable
 70
     2
  0
VPORT
  5
56F
100
AcDbSymbolTableRecord
100
AcDbViewportTableRecord
  2
*ACTIVE
 70
     0
 10
0.0
 20
0.0
 11
1.0
 21
1.0
 12
14.349159
 22
7.935
 13
0.0
 23
0.0
 14
0.001
 24
0.001
 15
1.0
 25
1.0
 16
0.0
 26
0.0
 36
1.0
 17
0.0
 27
0.0
 37
0.0
 40
15.826
 41
1.810585
 42
50.0
 43
0.0
 44
0.0
 50
0.0
 51
0.0
 71
     0
 72
   100
 73
     1
 74
     0
 75
     1
 76
     0
 77
     0
 78
     0
  0
ENDTAB
  0
TABLE
  2
LTYPE
  5
5
100
AcDbSymbolTable
 70
     1
  0
LTYPE
  5
11
100
AcDbSymbolTableRecord
100
AcDbLinetypeTableRecord
  2
BYBLOCK
 70
     0
  3

 72
    65
 73
     0
 40
0.0
  0
LTYPE
  5
12
100
AcDbSymbolTableRecord
100
AcDbLinetypeTableRecord
  2
BYLAYER
 70
     0
  3

 72
    65
 73
     0
 40
0.0
  0
LTYPE
  5
13
100
AcDbSymbolTableRecord
100
AcDbLinetypeTableRecord
  2
CONTINUOUS
 70
     0
  3
Solid line
 72
    65
 73
     0
 40
0.0
  0
ENDTAB
  0
TABLE
  2
LAYER
  5
2
100
AcDbSymbolTable
 70
     2
  0
LAYER
  5
E
100
AcDbSymbolTableRecord
100
AcDbLayerTableRecord
  2
0
 70
     0
 62
     7
  6
CONTINUOUS
  0
LAYER
  5
4A7
100
AcDbSymbolTableRecord
100
AcDbLayerTableRecord
  2
TEXT
 70
     0
 62
     2
  6
CONTINUOUS
  0
ENDTAB
  0
TABLE
  2
STYLE
  5
3
100
AcDbSymbolTable
 70
     2
  0
STYLE
  5
F
100
AcDbSymbolTableRecord
100
AcDbTextStyleTableRecord
  2
STANDARD
 70
     0
 40
0.0
 41
1.0
 50
0.0
 71
     0
 42
0.2
  3
txt
  4

  0
STYLE
  5
1E
100
AcDbSymbolTableRecord
100
AcDbTextStyleTableRecord
  2
ROMANS
 70
     0
 40
0.0
 41
0.8
 50
10.0
 71
     0
 42
0.1
  3
romans
  4

  0
ENDTAB
  0
TABLE
  2
VIEW
  5
6
100
AcDbSymbolTable
 70
     0
  0
ENDTAB
  0
TABLE
  2
UCS
  5
7
100
AcDbSymbolTable
 70
     0
  0
ENDTAB
  0
TABLE
  2
APPID
  5
9
100
AcDbSymbolTable
 70
     1
  0
APPID
  5
10
100
AcDbSymbolTableRecord
100
AcDbRegAppTableRecord
  2
ACAD
 70
     0
  0
ENDTAB
  0
TABLE
  2
DIMSTYLE
  5
A
100
AcDbSymbolTable
 70
     1
  0
DIMSTYLE
105
39E
100
AcDbSymbolTableRecord
100
AcDbDimStyleTableRecord
  2
STANDARD
 70
     0
  3

  4

  5

  6

  7

 40
1.0
 41
0.18
 42
0.0625
 43
0.38
 44
0.18
 45
0.0
 46
0.0
 47
0.0
 48
0.0
140
0.18
141
0.09
142
0.0
143
25.4
144
1.0
145
0.0
146
1.0
147
0.09
 71
     0
 72
     0
 73
     1
 74
     1
 75
     0
 76
     0
 77
     0
 78
     0
170
     0
171
     2
172
     0
173
     0
174
     0
175
     0
176
     0
177
     0
178
     0
270
     2
271
     4
272
     4
273
     2
274
     2
340
F
275
     0
280
     0
281
     0
282
     0
283
     1
284
     0
285
     0
286
     0
287
     3
288
     0
  0
ENDTAB
  0
TABLE
  2
BLOCK_RECORD
  5
1
100
AcDbSymbolTable
 70
     1
  0
BLOCK_RECORD
  5
17
100
AcDbSymbolTableRecord
100
AcDbBlockTableRecord
  2
*MODEL_SPACE
  0
BLOCK_RECORD
  5
14
100
AcDbSymbolTableRecord
100
AcDbBlockTableRecord
  2
*PAPER_SPACE
  0
BLOCK_RECORD
  5
1D
100
AcDbSymbolTableRecord
100
AcDbBlockTableRecord
  2
DOT
  0
ENDTAB
  0
ENDSEC
  0
SECTION
  2
BLOCKS
  0
BLOCK
  5
26
100
AcDbEntity
  8
0
100
AcDbBlockBegin
  2
*MODEL_SPACE
 70
     0
 10
0.0
 20
0.0
 30
0.0
  3
*MODEL_SPACE
  1

  0
ENDBLK
  5
27
100
AcDbEntity
  8
0
100
AcDbBlockEnd
  0
BLOCK
  5
24
100
AcDbEntity
 67
     1
  8
0
100
AcDbBlockBegin
  2
*PAPER_SPACE
 70
     0
 10
0.0
 20
0.0
 30
0.0
  3
*PAPER_SPACE
  1

  0
ENDBLK
  5
25
100
AcDbEntity
 67
     1
  8
0
100
AcDbBlockEnd
  0
BLOCK
  5
30
100
AcDbEntity
  8
0
100
AcDbBlockBegin
  2
DOT
 70
     0
 10
0.0
 20
0.0
 30
0.0
  3
DOT
  1

  0
CIRCLE
  5
31
100
AcDbEntity
  8
0
100
AcDbCircle
 10
0.0
 20
0.0
 30
0.0
 40
0.0213
  0
CIRCLE
  5
32
100
AcDbEntity
  8
0
100
AcDbCircle
 10
0.0
 20
0.0
 30
0.0
 40
0.0113
  0
LINE
  5
33
100
AcDbEntity
  8
0
100
AcDbLine
 10
-0.001
 20
0.0
 30
0.0
 11
0.001
 21
0.0
 31
0.0
  0
LINE
  5
34
100
AcDbEntity
  8
0
100
AcDbLine
 10
0.0
 20
-0.001
 30
0.0
 11
0.0
 21
0.001
 31
0.0
  0
ENDBLK
  5
35
100
AcDbEntity
  8
0
100
AcDbBlockEnd
  0
ENDSEC
  0
SECTION
  2
ENTITIES
  0
LINE
  5
36
100
AcDbEntity
  8
0
100
AcDbLine
 10
8.140625
 20
14.84375
 30
0.0
 11
6.59375
 21
14.84375
 31
0.0
  0
LINE
  5
37
100
AcDbEntity
  8
0
100
AcDbLine
 10
8.140625
 20
1.9375
 30
0.0
 11
8.140625
 21
14.84375
 31
0.0
  0
LINE
  5
38
100
AcDbEntity
  8
0
100
AcDbLine
 10
6.59375
 20
1.9375
 30
0.0
 11
8.140625
 21
1.9375
 31
0.0
  0
LINE
  5
39
100
AcDbEntity
  8
0
100
AcDbLine
 10
6.59375
 20
14.84375
 30
0.0
 11
6.59375
 21
1.9375
 31
0.0
  0
LINE
  5
3A
100
AcDbEntity
  8
0
100
AcDbLine
 10
6.34375
 20
14.3125
 30
0.0
 11
6.34375
 21
14.0625
 31
0.0
  0
LINE
  5
3B
100
AcDbEntity
  8
0
100
AcDbLine
 10
6.59375
 20
14.3125
 30
0.0
 11
6.34375
 21
14.3125
 31
0.0
  0
LINE
  5
3C
100
AcDbEntity
  8
0
100
AcDbLine
 10
6.59375
 20
14.0625
 30
0.0
 11
6.34375
 21
14.0625
 31
0.0
  0
LINE
  5
3D
100
AcDbEntity
  8
0
100
AcDbLine
 10
6.59375
 20
13.5625
 30
0.0
 11
6.34375
 21
13.5625
 31
0.0
  0
LINE
  5
3E
100
AcDbEntity
  8
0
100
AcDbLine
 10
6.59375
 20
13.8125
 30
0.0
 11
6.34375
 21
13.8125
 31
0.0
  0
LINE
  5
3F
100
AcDbEntity
  8
0
100
AcDbLine
 10
6.34375
 20
13.8125
 30
0.0
 11
6.34375
 21
13.5625
 31
0.0
  0
LINE
  5
40
100
AcDbEntity
  8
0
100
AcDbLine
 10
6.59375
 20
13.0625
 30
0.0
 11
6.34375
 21
13.0625
 31
0.0
  0
LINE
  5
41
100
AcDbEntity
  8
0
100
AcDbLine
 10
6.59375
 20
13.3125
 30
0.0
 11
6.34375
 21
13.3125
 31
0.0
  0
LINE
  5
42
100
AcDbEntity
  8
0
100
AcDbLine
 10
6.34375
 20
13.3125
 30
0.0
 11
6.34375
 21
13.0625
 31
0.0
  0
LINE
  5
43
100
AcDbEntity
  8
0
100
AcDbLine
 10
6.59375
 20
12.5625
 30
0.0
 11
6.34375
 21
12.5625
 31
0.0
  0
LINE
  5
44
100
AcDbEntity
  8
0
100
AcDbLine
 10
6.59375
 20
12.8125
 30
0.0
 11
6.34375
 21
12.8125
 31
0.0
  0
LINE
  5
45
100
AcDbEntity
  8
0
100
AcDbLine
 10
6.34375
 20
12.8125
 30
0.0
 11
6.34375
 21
12.5625
 31
0.0
  0
LINE
  5
46
100
AcDbEntity
  8
0
100
AcDbLine
 10
6.59375
 20
12.0625
 30
0.0
 11
6.34375
 21
12.0625
 31
0.0
  0
LINE
  5
47
100
AcDbEntity
  8
0
100
AcDbLine
 10
6.59375
 20
12.3125
 30
0.0
 11
6.34375
 21
12.3125
 31
0.0
  0
LINE
  5
48
100
AcDbEntity
  8
0
100
AcDbLine
 10
6.34375
 20
12.3125
 30
0.0
 11
6.34375
 21
12.0625
 31
0.0
  0
LINE
  5
49
100
AcDbEntity
  8
0
100
AcDbLine
 10
6.59375
 20
11.5625
 30
0.0
 11
6.34375
 21
11.5625
 31
0.0
  0
LINE
  5
4A
100
AcDbEntity
  8
0
100
AcDbLine
 10
6.59375
 20
11.8125
 30
0.0
 11
6.34375
 21
11.8125
 31
0.0
  0
LINE
  5
4B
100
AcDbEntity
  8
0
100
AcDbLine
 10
6.34375
 20
11.8125
 30
0.0
 11
6.34375
 21
11.5625
 31
0.0
  0
LINE
  5
4C
100
AcDbEntity
  8
0
100
AcDbLine
 10
6.59375
 20
11.0625
 30
0.0
 11
6.34375
 21
11.0625
 31
0.0
  0
LINE
  5
4D
100
AcDbEntity
  8
0
100
AcDbLine
 10
6.59375
 20
11.3125
 30
0.0
 11
6.34375
 21
11.3125
 31
0.0
  0
LINE
  5
4E
100
AcDbEntity
  8
0
100
AcDbLine
 10
6.34375
 20
11.3125
 30
0.0
 11
6.34375
 21
11.0625
 31
0.0
  0
LINE
  5
4F
100
AcDbEntity
  8
0
100
AcDbLine
 10
6.59375
 20
10.5625
 30
0.0
 11
6.34375
 21
10.5625
 31
0.0
  0
LINE
  5
50
100
AcDbEntity
  8
0
100
AcDbLine
 10
6.59375
 20
10.8125
 30
0.0
 11
6.34375
 21
10.8125
 31
0.0
  0
LINE
  5
51
100
AcDbEntity
  8
0
100
AcDbLine
 10
6.34375
 20
10.8125
 30
0.0
 11
6.34375
 21
10.5625
 31
0.0
  0
LINE
  5
52
100
AcDbEntity
  8
0
100
AcDbLine
 10
6.59375
 20
10.0625
 30
0.0
 11
6.34375
 21
10.0625
 31
0.0
  0
LINE
  5
53
100
AcDbEntity
  8
0
100
AcDbLine
 10
6.59375
 20
10.3125
 30
0.0
 11
6.34375
 21
10.3125
 31
0.0
  0
LINE
  5
54
100
AcDbEntity
  8
0
100
AcDbLine
 10
6.34375
 20
10.3125
 30
0.0
 11
6.34375
 21
10.0625
 31
0.0
  0
LINE
  5
55
100
AcDbEntity
  8
0
100
AcDbLine
 10
6.59375
 20
9.5625
 30
0.0
 11
6.34375
 21
9.5625
 31
0.0
  0
LINE
  5
56
100
AcDbEntity
  8
0
100
AcDbLine
 10
6.59375
 20
9.8125
 30
0.0
 11
6.34375
 21
9.8125
 31
0.0
  0
LINE
  5
57
100
AcDbEntity
  8
0
100
AcDbLine
 10
6.34375
 20
9.8125
 30
0.0
 11
6.34375
 21
9.5625
 31
0.0
  0
LINE
  5
58
100
AcDbEntity
  8
0
100
AcDbLine
 10
6.59375
 20
9.0625
 30
0.0
 11
6.34375
 21
9.0625
 31
0.0
  0
LINE
  5
59
100
AcDbEntity
  8
0
100
AcDbLine
 10
6.59375
 20
9.3125
 30
0.0
 11
6.34375
 21
9.3125
 31
0.0
  0
LINE
  5
5A
100
AcDbEntity
  8
0
100
AcDbLine
 10
6.34375
 20
9.3125
 30
0.0
 11
6.34375
 21
9.0625
 31
0.0
  0
LINE
  5
5B
100
AcDbEntity
  8
0
100
AcDbLine
 10
6.59375
 20
8.5625
 30
0.0
 11
6.34375
 21
8.5625
 31
0.0
  0
LINE
  5
5C
100
AcDbEntity
  8
0
100
AcDbLine
 10
6.59375
 20
8.8125
 30
0.0
 11
6.34375
 21
8.8125
 31
0.0
  0
LINE
  5
5D
100
AcDbEntity
  8
0
100
AcDbLine
 10
6.34375
 20
8.8125
 30
0.0
 11
6.34375
 21
8.5625
 31
0.0
  0
LINE
  5
5E
100
AcDbEntity
  8
0
100
AcDbLine
 10
6.59375
 20
8.0625
 30
0.0
 11
6.34375
 21
8.0625
 31
0.0
  0
LINE
  5
5F
100
AcDbEntity
  8
0
100
AcDbLine
 10
6.59375
 20
8.3125
 30
0.0
 11
6.34375
 21
8.3125
 31
0.0
  0
LINE
  5
60
100
AcDbEntity
  8
0
100
AcDbLine
 10
6.34375
 20
8.3125
 30
0.0
 11
6.34375
 21
8.0625
 31
0.0
  0
LINE
  5
61
100
AcDbEntity
  8
0
100
AcDbLine
 10
6.59375
 20
7.5625
 30
0.0
 11
6.34375
 21
7.5625
 31
0.0
  0
LINE
  5
62
100
AcDbEntity
  8
0
100
AcDbLine
 10
6.59375
 20
7.8125
 30
0.0
 11
6.34375
 21
7.8125
 31
0.0
  0
LINE
  5
63
100
AcDbEntity
  8
0
100
AcDbLine
 10
6.34375
 20
7.8125
 30
0.0
 11
6.34375
 21
7.5625
 31
0.0
  0
LINE
  5
64
100
AcDbEntity
  8
0
100
AcDbLine
 10
6.59375
 20
7.0625
 30
0.0
 11
6.34375
 21
7.0625
 31
0.0
  0
LINE
  5
65
100
AcDbEntity
  8
0
100
AcDbLine
 10
6.59375
 20
7.3125
 30
0.0
 11
6.34375
 21
7.3125
 31
0.0
  0
LINE
  5
66
100
AcDbEntity
  8
0
100
AcDbLine
 10
6.34375
 20
7.3125
 30
0.0
 11
6.34375
 21
7.0625
 31
0.0
  0
LINE
  5
67
100
AcDbEntity
  8
0
100
AcDbLine
 10
6.59375
 20
6.5625
 30
0.0
 11
6.34375
 21
6.5625
 31
0.0
  0
LINE
  5
68
100
AcDbEntity
  8
0
100
AcDbLine
 10
6.59375
 20
6.8125
 30
0.0
 11
6.34375
 21
6.8125
 31
0.0
  0
LINE
  5
69
100
AcDbEntity
  8
0
100
AcDbLine
 10
6.34375
 20
6.8125
 30
0.0
 11
6.34375
 21
6.5625
 31
0.0
  0
LINE
  5
6A
100
AcDbEntity
  8
0
100
AcDbLine
 10
6.59375
 20
6.0625
 30
0.0
 11
6.34375
 21
6.0625
 31
0.0
  0
LINE
  5
6B
100
AcDbEntity
  8
0
100
AcDbLine
 10
6.59375
 20
6.3125
 30
0.0
 11
6.34375
 21
6.3125
 31
0.0
  0
LINE
  5
6C
100
AcDbEntity
  8
0
100
AcDbLine
 10
6.34375
 20
6.3125
 30
0.0
 11
6.34375
 21
6.0625
 31
0.0
  0
LINE
  5
6D
100
AcDbEntity
  8
0
100
AcDbLine
 10
6.59375
 20
5.5625
 30
0.0
 11
6.34375
 21
5.5625
 31
0.0
  0
LINE
  5
6E
100
AcDbEntity
  8
0
100
AcDbLine
 10
6.59375
 20
5.8125
 30
0.0
 11
6.34375
 21
5.8125
 31
0.0
  0
LINE
  5
6F
100
AcDbEntity
  8
0
100
AcDbLine
 10
6.34375
 20
5.8125
 30
0.0
 11
6.34375
 21
5.5625
 31
0.0
  0
LINE
  5
70
100
AcDbEntity
  8
0
100
AcDbLine
 10
6.59375
 20
5.0625
 30
0.0
 11
6.34375
 21
5.0625
 31
0.0
  0
LINE
  5
71
100
AcDbEntity
  8
0
100
AcDbLine
 10
6.59375
 20
5.3125
 30
0.0
 11
6.34375
 21
5.3125
 31
0.0
  0
LINE
  5
72
100
AcDbEntity
  8
0
100
AcDbLine
 10
6.34375
 20
5.3125
 30
0.0
 11
6.34375
 21
5.0625
 31
0.0
  0
LINE
  5
73
100
AcDbEntity
  8
0
100
AcDbLine
 10
6.59375
 20
4.5625
 30
0.0
 11
6.34375
 21
4.5625
 31
0.0
  0
LINE
  5
74
100
AcDbEntity
  8
0
100
AcDbLine
 10
6.59375
 20
4.8125
 30
0.0
 11
6.34375
 21
4.8125
 31
0.0
  0
LINE
  5
75
100
AcDbEntity
  8
0
100
AcDbLine
 10
6.34375
 20
4.8125
 30
0.0
 11
6.34375
 21
4.5625
 31
0.0
  0
LINE
  5
76
100
AcDbEntity
  8
0
100
AcDbLine
 10
6.59375
 20
4.0625
 30
0.0
 11
6.34375
 21
4.0625
 31
0.0
  0
LINE
  5
77
100
AcDbEntity
  8
0
100
AcDbLine
 10
6.59375
 20
4.3125
 30
0.0
 11
6.34375
 21
4.3125
 31
0.0
  0
LINE
  5
78
100
AcDbEntity
  8
0
100
AcDbLine
 10
6.34375
 20
4.3125
 30
0.0
 11
6.34375
 21
4.0625
 31
0.0
  0
LINE
  5
79
100
AcDbEntity
  8
0
100
AcDbLine
 10
6.59375
 20
3.5625
 30
0.0
 11
6.34375
 21
3.5625
 31
0.0
  0
LINE
  5
7A
100
AcDbEntity
  8
0
100
AcDbLine
 10
6.59375
 20
3.8125
 30
0.0
 11
6.34375
 21
3.8125
 31
0.0
  0
LINE
  5
7B
100
AcDbEntity
  8
0
100
AcDbLine
 10
6.34375
 20
3.8125
 30
0.0
 11
6.34375
 21
3.5625
 31
0.0
  0
LINE
  5
7C
100
AcDbEntity
  8
0
100
AcDbLine
 10
6.59375
 20
3.0625
 30
0.0
 11
6.34375
 21
3.0625
 31
0.0
  0
LINE
  5
7D
100
AcDbEntity
  8
0
100
AcDbLine
 10
6.59375
 20
3.3125
 30
0.0
 11
6.34375
 21
3.3125
 31
0.0
  0
LINE
  5
7E
100
AcDbEntity
  8
0
100
AcDbLine
 10
6.34375
 20
3.3125
 30
0.0
 11
6.34375
 21
3.0625
 31
0.0
  0
LINE
  5
7F
100
AcDbEntity
  8
0
100
AcDbLine
 10
6.59375
 20
2.5625
 30
0.0
 11
6.34375
 21
2.5625
 31
0.0
  0
LINE
  5
80
100
AcDbEntity
  8
0
100
AcDbLine
 10
6.59375
 20
2.8125
 30
0.0
 11
6.34375
 21
2.8125
 31
0.0
  0
LINE
  5
81
100
AcDbEntity
  8
0
100
AcDbLine
 10
6.34375
 20
2.8125
 30
0.0
 11
6.34375
 21
2.5625
 31
0.0
  0
TEXT
  5
82
100
AcDbEntity
  8
TEXT
100
AcDbText
 10
6.428274
 20
14.125
 30
0.0
 40
0.125
  1
1
 41
0.8
 51
10.0
  7
ROMANS
 72
     1
 11
6.46875
 21
14.125
 31
0.0
100
AcDbText
  0
TEXT
  5
84
100
AcDbEntity
  8
TEXT
100
AcDbText
 10
6.421131
 20
13.125
 30
0.0
 40
0.125
  1
2
 41
0.8
 51
10.0
  7
ROMANS
 72
     1
 11
6.46875
 21
13.125
 31
0.0
100
AcDbText
  0
TEXT
  5
85
100
AcDbEntity
  8
TEXT
100
AcDbText
 10
6.389881
 20
13.625
 30
0.0
 40
0.125
  1
3
 41
0.8
 51
10.0
  7
ROMANS
 72
     1
 11
6.4375
 21
13.625
 31
0.0
100
AcDbText
  0
TEXT
  5
86
100
AcDbEntity
  8
TEXT
100
AcDbText
 10
6.41875
 20
12.625
 30
0.0
 40
0.125
  1
4
 41
0.8
 51
10.0
  7
ROMANS
 72
     1
 11
6.46875
 21
12.625
 31
0.0
100
AcDbText
  0
TEXT
  5
87
100
AcDbEntity
  8
TEXT
100
AcDbText
 10
6.363988
 20
7.125
 30
0.0
 40
0.125
  1
14
 41
0.8
 51
10.0
  7
ROMANS
 72
     1
 11
6.46875
 21
7.125
 31
0.0
100
AcDbText
  0
TEXT
  5
88
100
AcDbEntity
  8
TEXT
100
AcDbText
 10
6.366369
 20
7.625
 30
0.0
 40
0.125
  1
15
 41
0.8
 51
10.0
  7
ROMANS
 72
     1
 11
6.46875
 21
7.625
 31
0.0
100
AcDbText
  0
TEXT
  5
89
100
AcDbEntity
  8
TEXT
100
AcDbText
 10
6.366369
 20
6.625
 30
0.0
 40
0.125
  1
16
 41
0.8
 51
10.0
  7
ROMANS
 72
     1
 11
6.46875
 21
6.625
 31
0.0
100
AcDbText
  0
TEXT
  5
8A
100
AcDbEntity
  8
TEXT
100
AcDbText
 10
6.75
 20
14.125
 30
0.0
 40
0.125
  1
CH-1+
 41
0.8
 51
10.0
  7
ROMANS
100
AcDbText
  0
TEXT
  5
8B
100
AcDbEntity
  8
TEXT
100
AcDbText
 10
6.71875
 20
13.625
 30
0.0
 40
0.125
  1
CH-1-
 41
0.8
 51
10.0
  7
ROMANS
100
AcDbText
  0
TEXT
  5
8C
100
AcDbEntity
  8
TEXT
100
AcDbText
 10
6.75
 20
13.125
 30
0.0
 40
0.125
  1
CH-2+
 41
0.8
 51
10.0
  7
ROMANS
100
AcDbText
  0
TEXT
  5
8D
100
AcDbEntity
  8
TEXT
100
AcDbText
 10
6.75
 20
12.625
 30
0.0
 40
0.125
  1
CH-2-
 41
0.8
 51
10.0
  7
ROMANS
100
AcDbText
  0
TEXT
  5
8E
100
AcDbEntity
  8
TEXT
100
AcDbText
 10
6.75
 20
9.625
 30
0.0
 40
0.125
  1
CH-5-
 41
0.8
 51
10.0
  7
ROMANS
100
AcDbText
  0
TEXT
  5
8F
100
AcDbEntity
  8
TEXT
100
AcDbText
 10
6.75
 20
10.125
 30
0.0
 40
0.125
  1
CH-5+
 41
0.8
 51
10.0
  7
ROMANS
100
AcDbText
  0
TEXT
  5
90
100
AcDbEntity
  8
TEXT
100
AcDbText
 10
6.75
 20
10.625
 30
0.0
 40
0.125
  1
CH-4-
 41
0.8
 51
10.0
  7
ROMANS
100
AcDbText
  0
TEXT
  5
91
100
AcDbEntity
  8
TEXT
100
AcDbText
 10
6.75
 20
11.625
 30
0.0
 40
0.125
  1
CH-3-
 41
0.8
 51
10.0
  7
ROMANS
100
AcDbText
  0
TEXT
  5
92
100
AcDbEntity
  8
TEXT
100
AcDbText
 10
6.75
 20
11.125
 30
0.0
 40
0.125
  1
CH-4+
 41
0.8
 51
10.0
  7
ROMANS
100
AcDbText
  0
TEXT
  5
93
100
AcDbEntity
  8
TEXT
100
AcDbText
 10
6.75
 20
12.125
 30
0.0
 40
0.125
  1
CH-3+
 41
0.8
 51
10.0
  7
ROMANS
100
AcDbText
  0
TEXT
  5
94
100
AcDbEntity
  8
TEXT
100
AcDbText
 10
6.991964
 20
15.34375
 30
0.0
 40
0.125
  1
CARD #--
 41
0.8
 51
10.0
  7
ROMANS
 72
     1
 11
7.40625
 21
15.34375
 31
0.0
100
AcDbText
  0
CIRCLE
  5
95
100
AcDbEntity
  8
0
100
AcDbCircle
 10
2.5625
 20
13.9375
 30
0.0
 40
0.040911
  0
CIRCLE
  5
96
100
AcDbEntity
  8
0
100
AcDbCircle
 10
2.5625
 20
13.9375
 30
0.0
 40
0.021455
  0
LINE
  5
97
100
AcDbEntity
  8
0
100
AcDbLine
 10
2.9375
 20
14.0625
 30
0.0
 11
2.9375
 21
14.1875
 31
0.0
  0
LINE
  5
98
100
AcDbEntity
  8
0
100
AcDbLine
 10
2.8125
 20
14.0625
 30
0.0
 11
2.9375
 21
14.0625
 31
0.0
  0
LINE
  5
99
100
AcDbEntity
  8
0
100
AcDbLine
 10
2.9375
 20
13.8125
 30
0.0
 11
2.9375
 21
13.6875
 31
0.0
  0
LINE
  5
9A
100
AcDbEntity
  8
0
100
AcDbLine
 10
2.8125
 20
13.8125
 30
0.0
 11
2.9375
 21
13.8125
 31
0.0
  0
LINE
  5
9B
100
AcDbEntity
  8
0
100
AcDbLine
 10
2.5625
 20
13.875
 30
0.0
 11
2.8125
 21
13.8125
 31
0.0
  0
LINE
  5
9C
100
AcDbEntity
  8
0
100
AcDbLine
 10
2.5625
 20
14.0
 30
0.0
 11
2.8125
 21
14.0625
 31
0.0
  0
CIRCLE
  5
9D
100
AcDbEntity
  8
0
100
AcDbCircle
 10
2.5625
 20
13.9375
 30
0.0
 40
0.0625
  0
LINE
  5
9E
100
AcDbEntity
  8
0
100
AcDbLine
 10
6.34375
 20
14.1875
 30
0.0
 11
5.10625
 21
14.1875
 31
0.0
  0
LINE
  5
9F
100
AcDbEntity
  8
0
100
AcDbLine
 10
6.34375
 20
13.6875
 30
0.0
 11
5.10625
 21
13.6875
 31
0.0
  0
TEXT
  5
A0
100
AcDbEntity
  8
TEXT
100
AcDbText
 10
3.747857
 20
14.210938
 30
0.0
 40
0.075
  1
WHITE
 41
0.8
 51
10.0
  7
ROMANS
 72
     1
 11
3.875
 21
14.210938
 31
0.0
100
AcDbText
  0
TEXT
  5
A1
100
AcDbEntity
  8
TEXT
100
AcDbText
 10
3.786429
 20
13.710938
 30
0.0
 40
0.075
  1
RED
 41
0.8
 51
10.0
  7
ROMANS
 72
     1
 11
3.875
 21
13.710938
 31
0.0
100
AcDbText
  0
TEXT
  5
A2
100
AcDbEntity
  8
TEXT
100
AcDbText
 10
1.710119
 20
13.875
 30
0.0
 40
0.125
  1
TC-1
 41
0.8
 51
10.0
  7
ROMANS
 72
     2
 11
2.0625
 21
13.875
 31
0.0
100
AcDbText
  0
TEXT
  5
A3
100
AcDbEntity
  8
TEXT
100
AcDbText
 10
3.786429
 20
12.710938
 30
0.0
 40
0.075
  1
RED
 41
0.8
 51
10.0
  7
ROMANS
 72
     1
 11
3.875
 21
12.710938
 31
0.0
100
AcDbText
  0
TEXT
  5
A4
100
AcDbEntity
  8
TEXT
100
AcDbText
 10
3.747857
 20
13.210938
 30
0.0
 40
0.075
  1
WHITE
 41
0.8
 51
10.0
  7
ROMANS
 72
     1
 11
3.875
 21
13.210938
 31
0.0
100
AcDbText
  0
LINE
  5
A5
100
AcDbEntity
  8
0
100
AcDbLine
 10
6.34375
 20
12.6875
 30
0.0
 11
5.10625
 21
12.6875
 31
0.0
  0
LINE
  5
A6
100
AcDbEntity
  8
0
100
AcDbLine
 10
6.34375
 20
13.1875
 30
0.0
 11
5.10625
 21
13.1875
 31
0.0
  0
CIRCLE
  5
A7
100
AcDbEntity
  8
0
100
AcDbCircle
 10
2.5625
 20
12.9375
 30
0.0
 40
0.0625
  0
LINE
  5
A8
100
AcDbEntity
  8
0
100
AcDbLine
 10
2.5625
 20
13.0
 30
0.0
 11
2.8125
 21
13.0625
 31
0.0
  0
LINE
  5
A9
100
AcDbEntity
  8
0
100
AcDbLine
 10
2.5625
 20
12.875
 30
0.0
 11
2.8125
 21
12.8125
 31
0.0
  0
LINE
  5
AA
100
AcDbEntity
  8
0
100
AcDbLine
 10
2.8125
 20
12.8125
 30
0.0
 11
2.9375
 21
12.8125
 31
0.0
  0
LINE
  5
AB
100
AcDbEntity
  8
0
100
AcDbLine
 10
2.9375
 20
12.8125
 30
0.0
 11
2.9375
 21
12.6875
 31
0.0
  0
LINE
  5
AC
100
AcDbEntity
  8
0
100
AcDbLine
 10
2.8125
 20
13.0625
 30
0.0
 11
2.9375
 21
13.0625
 31
0.0
  0
LINE
  5
AD
100
AcDbEntity
  8
0
100
AcDbLine
 10
2.9375
 20
13.0625
 30
0.0
 11
2.9375
 21
13.1875
 31
0.0
  0
CIRCLE
  5
AE
100
AcDbEntity
  8
0
100
AcDbCircle
 10
2.5625
 20
12.9375
 30
0.0
 40
0.021455
  0
CIRCLE
  5
AF
100
AcDbEntity
  8
0
100
AcDbCircle
 10
2.5625
 20
12.9375
 30
0.0
 40
0.040911
  0
TEXT
  5
B0
100
AcDbEntity
  8
TEXT
100
AcDbText
 10
3.786429
 20
11.710938
 30
0.0
 40
0.075
  1
RED
 41
0.8
 51
10.0
  7
ROMANS
 72
     1
 11
3.875
 21
11.710938
 31
0.0
100
AcDbText
  0
TEXT
  5
B1
100
AcDbEntity
  8
TEXT
100
AcDbText
 10
3.747857
 20
12.210938
 30
0.0
 40
0.075
  1
WHITE
 41
0.8
 51
10.0
  7
ROMANS
 72
     1
 11
3.875
 21
12.210938
 31
0.0
100
AcDbText
  0
LINE
  5
B2
100
AcDbEntity
  8
0
100
AcDbLine
 10
6.34375
 20
11.6875
 30
0.0
 11
5.10625
 21
11.6875
 31
0.0
  0
LINE
  5
B3
100
AcDbEntity
  8
0
100
AcDbLine
 10
6.34375
 20
12.1875
 30
0.0
 11
5.10625
 21
12.1875
 31
0.0
  0
CIRCLE
  5
B4
100
AcDbEntity
  8
0
100
AcDbCircle
 10
2.5625
 20
11.9375
 30
0.0
 40
0.0625
  0
LINE
  5
B5
100
AcDbEntity
  8
0
100
AcDbLine
 10
2.5625
 20
12.0
 30
0.0
 11
2.8125
 21
12.0625
 31
0.0
  0
LINE
  5
B6
100
AcDbEntity
  8
0
100
AcDbLine
 10
2.5625
 20
11.875
 30
0.0
 11
2.8125
 21
11.8125
 31
0.0
  0
LINE
  5
B7
100
AcDbEntity
  8
0
100
AcDbLine
 10
2.8125
 20
11.8125
 30
0.0
 11
2.9375
 21
11.8125
 31
0.0
  0
LINE
  5
B8
100
AcDbEntity
  8
0
100
AcDbLine
 10
2.9375
 20
11.8125
 30
0.0
 11
2.9375
 21
11.6875
 31
0.0
  0
LINE
  5
B9
100
AcDbEntity
  8
0
100
AcDbLine
 10
2.8125
 20
12.0625
 30
0.0
 11
2.9375
 21
12.0625
 31
0.0
  0
LINE
  5
BA
100
AcDbEntity
  8
0
100
AcDbLine
 10
2.9375
 20
12.0625
 30
0.0
 11
2.9375
 21
12.1875
 31
0.0
  0
CIRCLE
  5
BB
100
AcDbEntity
  8
0
100
AcDbCircle
 10
2.5625
 20
11.9375
 30
0.0
 40
0.021455
  0
CIRCLE
  5
BC
100
AcDbEntity
  8
0
100
AcDbCircle
 10
2.5625
 20
11.9375
 30
0.0
 40
0.040911
  0
LINE
  5
BF
100
AcDbEntity
  8
0
100
AcDbLine
 10
6.34375
 20
10.6875
 30
0.0
 11
5.10625
 21
10.6875
 31
0.0
  0
LINE
  5
C0
100
AcDbEntity
  8
0
100
AcDbLine
 10
6.34375
 20
11.1875
 30
0.0
 11
5.10625
 21
11.1875
 31
0.0
  0
LINE
  5
CC
100
AcDbEntity
  8
0
100
AcDbLine
 10
6.34375
 20
9.6875
 30
0.0
 11
5.10625
 21
9.6875
 31
0.0
  0
LINE
  5
CD
100
AcDbEntity
  8
0
100
AcDbLine
 10
6.34375
 20
10.1875
 30
0.0
 11
5.10625
 21
10.1875
 31
0.0
  0
LINE
  5
D9
100
AcDbEntity
  8
0
100
AcDbLine
 10
6.34375
 20
8.6875
 30
0.0
 11
5.10625
 21
8.6875
 31
0.0
  0
LINE
  5
DA
100
AcDbEntity
  8
0
100
AcDbLine
 10
6.34375
 20
9.1875
 30
0.0
 11
5.10625
 21
9.1875
 31
0.0
  0
LINE
  5
E6
100
AcDbEntity
  8
0
100
AcDbLine
 10
6.34375
 20
7.6875
 30
0.0
 11
5.10625
 21
7.6875
 31
0.0
  0
LINE
  5
E7
100
AcDbEntity
  8
0
100
AcDbLine
 10
6.34375
 20
8.1875
 30
0.0
 11
5.10625
 21
8.1875
 31
0.0
  0
LINE
  5
F1
100
AcDbEntity
  8
0
100
AcDbLine
 10
6.34375
 20
6.6875
 30
0.0
 11
5.10625
 21
6.6875
 31
0.0
  0
LINE
  5
F2
100
AcDbEntity
  8
0
100
AcDbLine
 10
6.34375
 20
7.1875
 30
0.0
 11
5.10625
 21
7.1875
 31
0.0
  0
TEXT
  5
F7
100
AcDbEntity
  8
TEXT
100
AcDbText
 10
3.786429
 20
6.710938
 30
0.0
 40
0.075
  1
RED
 41
0.8
 51
10.0
  7
ROMANS
 72
     1
 11
3.875
 21
6.710938
 31
0.0
100
AcDbText
  0
TEXT
  5
F8
100
AcDbEntity
  8
TEXT
100
AcDbText
 10
3.747857
 20
7.210938
 30
0.0
 40
0.075
  1
WHITE
 41
0.8
 51
10.0
  7
ROMANS
 72
     1
 11
3.875
 21
7.210938
 31
0.0
100
AcDbText
  0
CIRCLE
  5
FB
100
AcDbEntity
  8
0
100
AcDbCircle
 10
2.5625
 20
6.9375
 30
0.0
 40
0.0625
  0
LINE
  5
FC
100
AcDbEntity
  8
0
100
AcDbLine
 10
2.5625
 20
7.0
 30
0.0
 11
2.8125
 21
7.0625
 31
0.0
  0
LINE
  5
FD
100
AcDbEntity
  8
0
100
AcDbLine
 10
2.5625
 20
6.875
 30
0.0
 11
2.8125
 21
6.8125
 31
0.0
  0
LINE
  5
FE
100
AcDbEntity
  8
0
100
AcDbLine
 10
2.8125
 20
6.8125
 30
0.0
 11
2.9375
 21
6.8125
 31
0.0
  0
LINE
  5
FF
100
AcDbEntity
  8
0
100
AcDbLine
 10
2.9375
 20
6.8125
 30
0.0
 11
2.9375
 21
6.6875
 31
0.0
  0
LINE
  5
100
100
AcDbEntity
  8
0
100
AcDbLine
 10
2.8125
 20
7.0625
 30
0.0
 11
2.9375
 21
7.0625
 31
0.0
  0
LINE
  5
101
100
AcDbEntity
  8
0
100
AcDbLine
 10
2.9375
 20
7.0625
 30
0.0
 11
2.9375
 21
7.1875
 31
0.0
  0
CIRCLE
  5
102
100
AcDbEntity
  8
0
100
AcDbCircle
 10
2.5625
 20
6.9375
 30
0.0
 40
0.021455
  0
CIRCLE
  5
103
100
AcDbEntity
  8
0
100
AcDbCircle
 10
2.5625
 20
6.9375
 30
0.0
 40
0.040911
  0
TEXT
  5
111
100
AcDbEntity
  8
TEXT
100
AcDbText
 10
6.421131
 20
12.125
 30
0.0
 40
0.125
  1
5
 41
0.8
 51
10.0
  7
ROMANS
 72
     1
 11
6.46875
 21
12.125
 31
0.0
100
AcDbText
  0
TEXT
  5
112
100
AcDbEntity
  8
TEXT
100
AcDbText
 10
6.421131
 20
11.625
 30
0.0
 40
0.125
  1
7
 41
0.8
 51
10.0
  7
ROMANS
 72
     1
 11
6.46875
 21
11.625
 31
0.0
100
AcDbText
  0
TEXT
  5
113
100
AcDbEntity
  8
TEXT
100
AcDbText
 10
6.41875
 20
11.125
 30
0.0
 40
0.125
  1
6
 41
0.8
 51
10.0
  7
ROMANS
 72
     1
 11
6.46875
 21
11.125
 31
0.0
100
AcDbText
  0
TEXT
  5
114
100
AcDbEntity
  8
TEXT
100
AcDbText
 10
6.421131
 20
10.625
 30
0.0
 40
0.125
  1
8
 41
0.8
 51
10.0
  7
ROMANS
 72
     1
 11
6.46875
 21
10.625
 31
0.0
100
AcDbText
  0
TEXT
  5
115
100
AcDbEntity
  8
TEXT
100
AcDbText
 10
6.423512
 20
10.125
 30
0.0
 40
0.125
  1
9
 41
0.8
 51
10.0
  7
ROMANS
 72
     1
 11
6.46875
 21
10.125
 31
0.0
100
AcDbText
  0
TEXT
  5
116
100
AcDbEntity
  8
TEXT
100
AcDbText
 10
6.380655
 20
9.625
 30
0.0
 40
0.125
  1
11
 41
0.8
 51
10.0
  7
ROMANS
 72
     1
 11
6.46875
 21
9.625
 31
0.0
100
AcDbText
  0
TEXT
  5
117
100
AcDbEntity
  8
TEXT
100
AcDbText
 10
6.366369
 20
9.125
 30
0.0
 40
0.125
  1
10
 41
0.8
 51
10.0
  7
ROMANS
 72
     1
 11
6.46875
 21
9.125
 31
0.0
100
AcDbText
  0
TEXT
  5
118
100
AcDbEntity
  8
TEXT
100
AcDbText
 10
6.366369
 20
8.625
 30
0.0
 40
0.125
  1
12
 41
0.8
 51
10.0
  7
ROMANS
 72
     1
 11
6.46875
 21
8.625
 31
0.0
100
AcDbText
  0
TEXT
  5
119
100
AcDbEntity
  8
TEXT
100
AcDbText
 10
6.366369
 20
8.125
 30
0.0
 40
0.125
  1
13
 41
0.8
 51
10.0
  7
ROMANS
 72
     1
 11
6.46875
 21
8.125
 31
0.0
100
AcDbText
  0
TEXT
  5
11A
100
AcDbEntity
  8
TEXT
100
AcDbText
 10
6.366369
 20
6.125
 30
0.0
 40
0.125
  1
17
 41
0.8
 51
10.0
  7
ROMANS
 72
     1
 11
6.46875
 21
6.125
 31
0.0
100
AcDbText
  0
TEXT
  5
11B
100
AcDbEntity
  8
TEXT
100
AcDbText
 10
6.75
 20
8.125
 30
0.0
 40
0.125
  1
CH-7+
 41
0.8
 51
10.0
  7
ROMANS
100
AcDbText
  0
TEXT
  5
11C
100
AcDbEntity
  8
TEXT
100
AcDbText
 10
6.375
 20
5.625
 30
0.0
 40
0.125
  1
19
 41
0.8
 51
10.0
  7
ROMANS
100
AcDbText
  0
TEXT
  5
11D
100
AcDbEntity
  8
TEXT
100
AcDbText
 10
6.75
 20
7.625
 30
0.0
 40
0.125
  1
CH-7-
 41
0.8
 51
10.0
  7
ROMANS
100
AcDbText
  0
TEXT
  5
11E
100
AcDbEntity
  8
TEXT
100
AcDbText
 10
6.375
 20
5.125
 30
0.0
 40
0.125
  1
18
 41
0.8
 51
10.0
  7
ROMANS
100
AcDbText
  0
TEXT
  5
11F
100
AcDbEntity
  8
TEXT
100
AcDbText
 10
6.75
 20
7.125
 30
0.0
 40
0.125
  1
CH-8+
 41
0.8
 51
10.0
  7
ROMANS
100
AcDbText
  0
TEXT
  5
120
100
AcDbEntity
  8
TEXT
100
AcDbText
 10
6.375
 20
4.625
 30
0.0
 40
0.125
  1
20
 41
0.8
 51
10.0
  7
ROMANS
100
AcDbText
  0
TEXT
  5
121
100
AcDbEntity
  8
TEXT
100
AcDbText
 10
6.75
 20
6.625
 30
0.0
 40
0.125
  1
CH-8-
 41
0.8
 51
10.0
  7
ROMANS
100
AcDbText
  0
TEXT
  5
122
100
AcDbEntity
  8
TEXT
100
AcDbText
 10
6.375
 20
4.125
 30
0.0
 40
0.125
  1
21
 41
0.8
 51
10.0
  7
ROMANS
100
AcDbText
  0
TEXT
  5
123
100
AcDbEntity
  8
TEXT
100
AcDbText
 10
6.75
 20
6.125
 30
0.0
 40
0.125
  1
CH-9+
 41
0.8
 51
10.0
  7
ROMANS
100
AcDbText
  0
TEXT
  5
124
100
AcDbEntity
  8
TEXT
100
AcDbText
 10
6.375
 20
3.625
 30
0.0
 40
0.125
  1
23
 41
0.8
 51
10.0
  7
ROMANS
100
AcDbText
  0
TEXT
  5
125
100
AcDbEntity
  8
TEXT
100
AcDbText
 10
6.75
 20
5.625
 30
0.0
 40
0.125
  1
CH-9-
 41
0.8
 51
10.0
  7
ROMANS
100
AcDbText
  0
TEXT
  5
126
100
AcDbEntity
  8
TEXT
100
AcDbText
 10
6.375
 20
3.125
 30
0.0
 40
0.125
  1
22
 41
0.8
 51
10.0
  7
ROMANS
100
AcDbText
  0
TEXT
  5
127
100
AcDbEntity
  8
TEXT
100
AcDbText
 10
6.75
 20
5.125
 30
0.0
 40
0.125
  1
CH-10+
 41
0.8
 51
10.0
  7
ROMANS
100
AcDbText
  0
TEXT
  5
128
100
AcDbEntity
  8
TEXT
100
AcDbText
 10
6.375
 20
2.625
 30
0.0
 40
0.125
  1
24
 41
0.8
 51
10.0
  7
ROMANS
100
AcDbText
  0
TEXT
  5
129
100
AcDbEntity
  8
TEXT
100
AcDbText
 10
6.75
 20
4.625
 30
0.0
 40
0.125
  1
CH-10-
 41
0.8
 51
10.0
  7
ROMANS
100
AcDbText
  0
TEXT
  5
12A
100
AcDbEntity
  8
TEXT
100
AcDbText
 10
8.3125
 20
13.84375
 30
0.0
 40
0.125
  1
*
 41
0.8
 51
10.0
  7
ROMANS
100
AcDbText
  0
TEXT
  5
12B
100
AcDbEntity
  8
TEXT
100
AcDbText
 10
8.3125
 20
12.84375
 30
0.0
 40
0.125
  1
*
 41
0.8
 51
10.0
  7
ROMANS
100
AcDbText
  0
TEXT
  5
12C
100
AcDbEntity
  8
TEXT
100
AcDbText
 10
8.3125
 20
11.84375
 30
0.0
 40
0.125
  1
*
 41
0.8
 51
10.0
  7
ROMANS
100
AcDbText
  0
TEXT
  5
12D
100
AcDbEntity
  8
TEXT
100
AcDbText
 10
8.3125
 20
10.84375
 30
0.0
 40
0.125
  1
*
 41
0.8
 51
10.0
  7
ROMANS
100
AcDbText
  0
TEXT
  5
12E
100
AcDbEntity
  8
TEXT
100
AcDbText
 10
8.3125
 20
6.84375
 30
0.0
 40
0.125
  1
*
 41
0.8
 51
10.0
  7
ROMANS
100
AcDbText
  0
TEXT
  5
12F
100
AcDbEntity
  8
TEXT
100
AcDbText
 10
8.3125
 20
5.84375
 30
0.0
 40
0.125
  1
*
 41
0.8
 51
10.0
  7
ROMANS
100
AcDbText
  0
LINE
  5
130
100
AcDbEntity
  8
0
100
AcDbLine
 10
6.59375
 20
2.0625
 30
0.0
 11
6.34375
 21
2.0625
 31
0.0
  0
LINE
  5
131
100
AcDbEntity
  8
0
100
AcDbLine
 10
6.34375
 20
2.3125
 30
0.0
 11
6.34375
 21
2.0625
 31
0.0
  0
LINE
  5
132
100
AcDbEntity
  8
0
100
AcDbLine
 10
6.59375
 20
2.3125
 30
0.0
 11
6.34375
 21
2.3125
 31
0.0
  0
TEXT
  5
133
100
AcDbEntity
  8
TEXT
100
AcDbText
 10
6.375
 20
2.125
 30
0.0
 40
0.125
  1
25
 41
0.8
 51
10.0
  7
ROMANS
100
AcDbText
  0
LINE
  5
134
100
AcDbEntity
  8
0
100
AcDbLine
 10
6.34375
 20
2.1875
 30
0.0
 11
5.911
 21
2.1875
 31
0.0
  0
TEXT
  5
135
100
AcDbEntity
  8
TEXT
100
AcDbText
 10
4.915226
 20
2.125
 30
0.0
 40
0.125
  1
TO: SPG
 41
0.8
 51
10.0
  7
ROMANS
 72
     2
 11
5.52475
 21
2.125
 31
0.0
100
AcDbText
  0
TEXT
  5
136
100
AcDbEntity
  8
TEXT
100
AcDbText
 10
6.822917
 20
15.15625
 30
0.0
 40
0.125
  1
THERMOCOUPLE
 41
0.8
 51
10.0
  7
ROMANS
 72
     1
 11
7.40625
 21
15.15625
 31
0.0
100
AcDbText
  0
TEXT
  5
137
100
AcDbEntity
  8
TEXT
100
AcDbText
 10
7.144345
 20
14.953869
 30
0.0
 40
0.125
  1
INPUTS
 41
0.8
 51
10.0
  7
ROMANS
 72
     1
 11
7.40625
 21
14.953869
 31
0.0
100
AcDbText
  0
TEXT
  5
138
100
AcDbEntity
  8
TEXT
100
AcDbText
 10
6.75
 20
2.125
 30
0.0
 40
0.125
  1
COMMON
 41
0.8
 51
10.0
  7
ROMANS
100
AcDbText
  0
TEXT
  5
158
100
AcDbEntity
  8
TEXT
100
AcDbText
 10
6.775
 20
14.65625
 30
0.0
 40
0.125
  1
502-03809-02
 41
0.8
 51
10.0
  7
ROMANS
 72
     1
 11
7.375
 21
14.65625
 31
0.0
100
AcDbText
  0
TEXT
  5
159
100
AcDbEntity
  8
TEXT
100
AcDbText
 10
6.75
 20
2.625
 30
0.0
 40
0.125
  1
CH-12-
 41
0.8
 51
10.0
  7
ROMANS
100
AcDbText
  0
TEXT
  5
15A
100
AcDbEntity
  8
TEXT
100
AcDbText
 10
6.75
 20
3.125
 30
0.0
 40
0.125
  1
CH-12+
 41
0.8
 51
10.0
  7
ROMANS
100
AcDbText
  0
TEXT
  5
15B
100
AcDbEntity
  8
TEXT
100
AcDbText
 10
6.75
 20
3.625
 30
0.0
 40
0.125
  1
CH-11-
 41
0.8
 51
10.0
  7
ROMANS
100
AcDbText
  0
TEXT
  5
15C
100
AcDbEntity
  8
TEXT
100
AcDbText
 10
6.75
 20
4.125
 30
0.0
 40
0.125
  1
CH-11+
 41
0.8
 51
10.0
  7
ROMANS
100
AcDbText
  0
TEXT
  5
15D
100
AcDbEntity
  8
TEXT
100
AcDbText
 10
6.75
 20
8.625
 30
0.0
 40
0.125
  1
CH-6-
 41
0.8
 51
10.0
  7
ROMANS
100
AcDbText
  0
TEXT
  5
15E
100
AcDbEntity
  8
TEXT
100
AcDbText
 10
6.75
 20
9.125
 30
0.0
 40
0.125
  1
CH-6+
 41
0.8
 51
10.0
  7
ROMANS
100
AcDbText
  0
TEXT
  5
160
100
AcDbEntity
  8
TEXT
100
AcDbText
 10
1.681548
 20
12.875
 30
0.0
 40
0.125
  1
TC-2
 41
0.8
 51
10.0
  7
ROMANS
 72
     2
 11
2.0625
 21
12.875
 31
0.0
100
AcDbText
  0
TEXT
  5
161
100
AcDbEntity
  8
TEXT
100
AcDbText
 10
1.676786
 20
10.875
 30
0.0
 40
0.125
  1
TC-4
 41
0.8
 51
10.0
  7
ROMANS
 72
     2
 11
2.0625
 21
10.875
 31
0.0
100
AcDbText
  0
TEXT
  5
162
100
AcDbEntity
  8
TEXT
100
AcDbText
 10
1.681548
 20
11.875
 30
0.0
 40
0.125
  1
TC-3
 41
0.8
 51
10.0
  7
ROMANS
 72
     2
 11
2.0625
 21
11.875
 31
0.0
100
AcDbText
  0
TEXT
  5
163
100
AcDbEntity
  8
TEXT
100
AcDbText
 10
1.681548
 20
8.875
 30
0.0
 40
0.125
  1
TC-6
 41
0.8
 51
10.0
  7
ROMANS
 72
     2
 11
2.0625
 21
8.875
 31
0.0
100
AcDbText
  0
TEXT
  5
164
100
AcDbEntity
  8
TEXT
100
AcDbText
 10
1.681548
 20
7.875
 30
0.0
 40
0.125
  1
TC-7
 41
0.8
 51
10.0
  7
ROMANS
 72
     2
 11
2.0625
 21
7.875
 31
0.0
100
AcDbText
  0
TEXT
  5
165
100
AcDbEntity
  8
TEXT
100
AcDbText
 10
1.681548
 20
9.875
 30
0.0
 40
0.125
  1
TC-5
 41
0.8
 51
10.0
  7
ROMANS
 72
     2
 11
2.0625
 21
9.875
 31
0.0
100
AcDbText
  0
TEXT
  5
166
100
AcDbEntity
  8
TEXT
100
AcDbText
 10
1.68631
 20
5.875
 30
0.0
 40
0.125
  1
TC-9
 41
0.8
 51
10.0
  7
ROMANS
 72
     2
 11
2.0625
 21
5.875
 31
0.0
100
AcDbText
  0
TEXT
  5
167
100
AcDbEntity
  8
TEXT
100
AcDbText
 10
1.681548
 20
6.875
 30
0.0
 40
0.125
  1
TC-8
 41
0.8
 51
10.0
  7
ROMANS
 72
     2
 11
2.0625
 21
6.875
 31
0.0
100
AcDbText
  0
TEXT
  5
16F
100
AcDbEntity
  8
TEXT
100
AcDbText
 10
8.3125
 20
9.84375
 30
0.0
 40
0.125
  1
*
 41
0.8
 51
10.0
  7
ROMANS
100
AcDbText
  0
TEXT
  5
170
100
AcDbEntity
  8
TEXT
100
AcDbText
 10
8.3125
 20
7.84375
 30
0.0
 40
0.125
  1
*
 41
0.8
 51
10.0
  7
ROMANS
100
AcDbText
  0
TEXT
  5
171
100
AcDbEntity
  8
TEXT
100
AcDbText
 10
8.3125
 20
8.84375
 30
0.0
 40
0.125
  1
*
 41
0.8
 51
10.0
  7
ROMANS
100
AcDbText
  0
TEXT
  5
172
100
AcDbEntity
  8
TEXT
100
AcDbText
 10
8.3125
 20
4.84375
 30
0.0
 40
0.125
  1
*
 41
0.8
 51
10.0
  7
ROMANS
100
AcDbText
  0
TEXT
  5
175
100
AcDbEntity
  8
TEXT
100
AcDbText
 10
8.3125
 20
3.84375
 30
0.0
 40
0.125
  1
*
 41
0.8
 51
10.0
  7
ROMANS
100
AcDbText
  0
TEXT
  5
176
100
AcDbEntity
  8
TEXT
100
AcDbText
 10
8.3125
 20
2.84375
 30
0.0
 40
0.125
  1
*
 41
0.8
 51
10.0
  7
ROMANS
100
AcDbText
  0
LINE
  5
17C
100
AcDbEntity
  8
0
100
AcDbLine
 10
4.73125
 20
14.1875
 30
0.0
 11
2.9375
 21
14.1875
 31
0.0
  0
LINE
  5
182
100
AcDbEntity
  8
0
100
AcDbLine
 10
4.73125
 20
13.6875
 30
0.0
 11
2.9375
 21
13.6875
 31
0.0
  0
LINE
  5
18D
100
AcDbEntity
  8
0
100
AcDbLine
 10
4.73125
 20
13.1875
 30
0.0
 11
2.9375
 21
13.1875
 31
0.0
  0
LINE
  5
18E
100
AcDbEntity
  8
0
100
AcDbLine
 10
4.73125
 20
12.6875
 30
0.0
 11
2.9375
 21
12.6875
 31
0.0
  0
LINE
  5
1A3
100
AcDbEntity
  8
0
100
AcDbLine
 10
4.73125
 20
12.1875
 30
0.0
 11
2.9375
 21
12.1875
 31
0.0
  0
LINE
  5
1A4
100
AcDbEntity
  8
0
100
AcDbLine
 10
4.73125
 20
11.6875
 30
0.0
 11
2.9375
 21
11.6875
 31
0.0
  0
POLYLINE
  5
246
100
AcDbEntity
  8
0
100
AcDb2dPolyline
 66
     1
 10
0.0
 20
0.0
 30
0.0
 70
     1
  0
VERTEX
  5
53B
100
AcDbEntity
  8
0
100
AcDbVertex
100
AcDb2dVertex
 10
5.7235
 20
2.1875
 30
0.0
  0
VERTEX
  5
53C
100
AcDbEntity
  8
0
100
AcDbVertex
100
AcDb2dVertex
 10
5.911
 20
2.140625
 30
0.0
  0
VERTEX
  5
53D
100
AcDbEntity
  8
0
100
AcDbVertex
100
AcDb2dVertex
 10
5.911
 20
2.234375
 30
0.0
  0
SEQEND
  5
53E
100
AcDbEntity
  8
0
  0
TEXT
  5
27D
100
AcDbEntity
  8
TEXT
100
AcDbText
 10
1.643167
 20
14.875
 30
0.0
 40
0.125
  1
NOTE: TC's are type ??
 41
0.8
 51
10.0
  7
ROMANS
 72
     2
 11
3.4765
 21
14.875
 31
0.0
100
AcDbText
  0
LINE
  5
2A6
100
AcDbEntity
  8
0
100
AcDbLine
 10
4.73125
 20
7.1875
 30
0.0
 11
2.9375
 21
7.1875
 31
0.0
  0
LINE
  5
2A7
100
AcDbEntity
  8
0
100
AcDbLine
 10
4.73125
 20
6.6875
 30
0.0
 11
2.9375
 21
6.6875
 31
0.0
  0
LINE
  5
2A8
100
AcDbEntity
  8
0
100
AcDbLine
 10
4.471875
 20
7.1875
 30
0.0
 11
4.471875
 21
6.6875
 31
0.0
  0
LINE
  5
2A9
100
AcDbEntity
  8
0
100
AcDbLine
 10
4.371875
 20
7.1875
 30
0.0
 11
4.371875
 21
6.6875
 31
0.0
  0
LINE
  5
2AA
100
AcDbEntity
  8
0
100
AcDbLine
 10
4.421875
 20
6.6375
 30
0.0
 11
4.421875
 21
6.4375
 31
0.0
  0
ARC
  5
2AB
100
AcDbEntity
  8
0
100
AcDbCircle
 10
4.421875
 20
6.6875
 30
0.0
 40
0.05
100
AcDbArc
 50
180.0
 51
360.0
  0
INSERT
  5
2AC
100
AcDbEntity
  8
0
100
AcDbBlockReference
  2
DOT
 10
4.421875
 20
6.6375
 30
0.0
  0
ARC
  5
2AD
100
AcDbEntity
  8
0
100
AcDbCircle
 10
4.421875
 20
7.1875
 30
0.0
 40
0.05
100
AcDbArc
 50
0.0
 51
180.0
  0
LINE
  5
2AE
100
AcDbEntity
  8
0
100
AcDbLine
 10
4.421875
 20
6.4375
 30
0.0
 11
3.7
 21
6.4375
 31
0.0
  0
POLYLINE
  5
2AF
100
AcDbEntity
  8
0
100
AcDb2dPolyline
 66
     1
 10
0.0
 20
0.0
 30
0.0
 70
     1
  0
VERTEX
  5
53F
100
AcDbEntity
  8
0
100
AcDbVertex
100
AcDb2dVertex
 10
3.5125
 20
6.4375
 30
0.0
  0
VERTEX
  5
540
100
AcDbEntity
  8
0
100
AcDbVertex
100
AcDb2dVertex
 10
3.7
 20
6.390625
 30
0.0
  0
VERTEX
  5
541
100
AcDbEntity
  8
0
100
AcDbVertex
100
AcDb2dVertex
 10
3.7
 20
6.484375
 30
0.0
  0
SEQEND
  5
542
100
AcDbEntity
  8
0
  0
TEXT
  5
2B4
100
AcDbEntity
  8
TEXT
100
AcDbText
 10
2.704226
 20
6.375
 30
0.0
 40
0.125
  1
TO: SPG
 41
0.8
 51
10.0
  7
ROMANS
 72
     2
 11
3.31375
 21
6.375
 31
0.0
100
AcDbText
  0
LINE
  5
2C7
100
AcDbEntity
  8
0
100
AcDbLine
 10
4.371875
 20
14.1875
 30
0.0
 11
4.371875
 21
13.6875
 31
0.0
  0
LINE
  5
2C8
100
AcDbEntity
  8
0
100
AcDbLine
 10
4.471875
 20
14.1875
 30
0.0
 11
4.471875
 21
13.6875
 31
0.0
  0
LINE
  5
2C9
100
AcDbEntity
  8
0
100
AcDbLine
 10
4.421875
 20
13.6375
 30
0.0
 11
4.421875
 21
13.4375
 31
0.0
  0
INSERT
  5
2CA
100
AcDbEntity
  8
0
100
AcDbBlockReference
  2
DOT
 10
4.421875
 20
13.6375
 30
0.0
  0
ARC
  5
2CB
100
AcDbEntity
  8
0
100
AcDbCircle
 10
4.421875
 20
13.6875
 30
0.0
 40
0.05
100
AcDbArc
 50
180.0
 51
360.0
  0
ARC
  5
2CC
100
AcDbEntity
  8
0
100
AcDbCircle
 10
4.421875
 20
14.1875
 30
0.0
 40
0.05
100
AcDbArc
 50
0.0
 51
180.0
  0
LINE
  5
2CD
100
AcDbEntity
  8
0
100
AcDbLine
 10
4.371875
 20
13.1875
 30
0.0
 11
4.371875
 21
12.6875
 31
0.0
  0
LINE
  5
2CE
100
AcDbEntity
  8
0
100
AcDbLine
 10
4.471875
 20
13.1875
 30
0.0
 11
4.471875
 21
12.6875
 31
0.0
  0
LINE
  5
2CF
100
AcDbEntity
  8
0
100
AcDbLine
 10
4.421875
 20
12.6375
 30
0.0
 11
4.421875
 21
12.4375
 31
0.0
  0
INSERT
  5
2D0
100
AcDbEntity
  8
0
100
AcDbBlockReference
  2
DOT
 10
4.421875
 20
12.6375
 30
0.0
  0
ARC
  5
2D1
100
AcDbEntity
  8
0
100
AcDbCircle
 10
4.421875
 20
12.6875
 30
0.0
 40
0.05
100
AcDbArc
 50
180.0
 51
360.0
  0
ARC
  5
2D2
100
AcDbEntity
  8
0
100
AcDbCircle
 10
4.421875
 20
13.1875
 30
0.0
 40
0.05
100
AcDbArc
 50
0.0
 51
180.0
  0
LINE
  5
2D3
100
AcDbEntity
  8
0
100
AcDbLine
 10
4.371875
 20
12.1875
 30
0.0
 11
4.371875
 21
11.6875
 31
0.0
  0
LINE
  5
2D4
100
AcDbEntity
  8
0
100
AcDbLine
 10
4.471875
 20
12.1875
 30
0.0
 11
4.471875
 21
11.6875
 31
0.0
  0
LINE
  5
2D5
100
AcDbEntity
  8
0
100
AcDbLine
 10
4.421875
 20
11.6375
 30
0.0
 11
4.421875
 21
11.4375
 31
0.0
  0
INSERT
  5
2D6
100
AcDbEntity
  8
0
100
AcDbBlockReference
  2
DOT
 10
4.421875
 20
11.6375
 30
0.0
  0
ARC
  5
2D7
100
AcDbEntity
  8
0
100
AcDbCircle
 10
4.421875
 20
11.6875
 30
0.0
 40
0.05
100
AcDbArc
 50
180.0
 51
360.0
  0
ARC
  5
2D8
100
AcDbEntity
  8
0
100
AcDbCircle
 10
4.421875
 20
12.1875
 30
0.0
 40
0.05
100
AcDbArc
 50
0.0
 51
180.0
  0
POLYLINE
  5
2F3
100
AcDbEntity
  8
0
100
AcDb2dPolyline
 66
     1
 10
0.0
 20
0.0
 30
0.0
 70
     1
  0
VERTEX
  5
543
100
AcDbEntity
  8
0
100
AcDbVertex
100
AcDb2dVertex
 10
3.5125
 20
13.4375
 30
0.0
  0
VERTEX
  5
544
100
AcDbEntity
  8
0
100
AcDbVertex
100
AcDb2dVertex
 10
3.7
 20
13.390625
 30
0.0
  0
VERTEX
  5
545
100
AcDbEntity
  8
0
100
AcDbVertex
100
AcDb2dVertex
 10
3.7
 20
13.484375
 30
0.0
  0
SEQEND
  5
546
100
AcDbEntity
  8
0
  0
TEXT
  5
2F8
100
AcDbEntity
  8
TEXT
100
AcDbText
 10
2.704226
 20
13.375
 30
0.0
 40
0.125
  1
TO: SPG
 41
0.8
 51
10.0
  7
ROMANS
 72
     2
 11
3.31375
 21
13.375
 31
0.0
100
AcDbText
  0
LINE
  5
2F9
100
AcDbEntity
  8
0
100
AcDbLine
 10
4.421875
 20
13.4375
 30
0.0
 11
3.7
 21
13.4375
 31
0.0
  0
POLYLINE
  5
2FA
100
AcDbEntity
  8
0
100
AcDb2dPolyline
 66
     1
 10
0.0
 20
0.0
 30
0.0
 70
     1
  0
VERTEX
  5
547
100
AcDbEntity
  8
0
100
AcDbVertex
100
AcDb2dVertex
 10
3.5125
 20
12.4375
 30
0.0
  0
VERTEX
  5
548
100
AcDbEntity
  8
0
100
AcDbVertex
100
AcDb2dVertex
 10
3.7
 20
12.390625
 30
0.0
  0
VERTEX
  5
549
100
AcDbEntity
  8
0
100
AcDbVertex
100
AcDb2dVertex
 10
3.7
 20
12.484375
 30
0.0
  0
SEQEND
  5
54A
100
AcDbEntity
  8
0
  0
TEXT
  5
2FF
100
AcDbEntity
  8
TEXT
100
AcDbText
 10
2.704226
 20
12.375
 30
0.0
 40
0.125
  1
TO: SPG
 41
0.8
 51
10.0
  7
ROMANS
 72
     2
 11
3.31375
 21
12.375
 31
0.0
100
AcDbText
  0
LINE
  5
300
100
AcDbEntity
  8
0
100
AcDbLine
 10
4.421875
 20
12.4375
 30
0.0
 11
3.7
 21
12.4375
 31
0.0
  0
POLYLINE
  5
301
100
AcDbEntity
  8
0
100
AcDb2dPolyline
 66
     1
 10
0.0
 20
0.0
 30
0.0
 70
     1
  0
VERTEX
  5
54B
100
AcDbEntity
  8
0
100
AcDbVertex
100
AcDb2dVertex
 10
3.5125
 20
11.4375
 30
0.0
  0
VERTEX
  5
54C
100
AcDbEntity
  8
0
100
AcDbVertex
100
AcDb2dVertex
 10
3.7
 20
11.390625
 30
0.0
  0
VERTEX
  5
54D
100
AcDbEntity
  8
0
100
AcDbVertex
100
AcDb2dVertex
 10
3.7
 20
11.484375
 30
0.0
  0
SEQEND
  5
54E
100
AcDbEntity
  8
0
  0
TEXT
  5
306
100
AcDbEntity
  8
TEXT
100
AcDbText
 10
2.704226
 20
11.375
 30
0.0
 40
0.125
  1
TO: SPG
 41
0.8
 51
10.0
  7
ROMANS
 72
     2
 11
3.31375
 21
11.375
 31
0.0
100
AcDbText
  0
LINE
  5
307
100
AcDbEntity
  8
0
100
AcDbLine
 10
4.421875
 20
11.4375
 30
0.0
 11
3.7
 21
11.4375
 31
0.0
  0
TEXT
  5
39A
100
AcDbEntity
  8
0
100
AcDbText
 10
8.7055
 20
3.99375
 30
0.0
 40
0.125
  1
 
 41
0.8
 51
10.0
  7
ROMANS
100
AcDbText
  0
TEXT
  5
39B
100
AcDbEntity
  8
0
100
AcDbText
 10
8.7055
 20
4.99375
 30
0.0
 40
0.125
  1
 
 41
0.8
 51
10.0
  7
ROMANS
100
AcDbText
  0
TEXT
  5
39C
100
AcDbEntity
  8
0
100
AcDbText
 10
8.7055
 20
2.99375
 30
0.0
 40
0.125
  1
 
 41
0.8
 51
10.0
  7
ROMANS
100
AcDbText
  0
TEXT
  5
39D
100
AcDbEntity
  8
TEXT
100
AcDbText
 10
6.958333
 20
14.40625
 30
0.0
 40
0.125
  1
(Grounded)
 41
0.8
 51
10.0
  7
ROMANS
 72
     1
 11
7.375
 21
14.40625
 31
0.0
100
AcDbText
  0
LINE
  5
3A2
100
AcDbEntity
  8
0
100
AcDbLine
 10
4.73125
 20
5.6875
 30
0.0
 11
2.9375
 21
5.6875
 31
0.0
  0
LINE
  5
3A3
100
AcDbEntity
  8
0
100
AcDbLine
 10
4.73125
 20
6.1875
 30
0.0
 11
2.9375
 21
6.1875
 31
0.0
  0
LINE
  5
3A4
100
AcDbEntity
  8
0
100
AcDbLine
 10
2.5625
 20
5.875
 30
0.0
 11
2.8125
 21
5.8125
 31
0.0
  0
LINE
  5
3A5
100
AcDbEntity
  8
0
100
AcDbLine
 10
2.5625
 20
6.0
 30
0.0
 11
2.8125
 21
6.0625
 31
0.0
  0
CIRCLE
  5
3A6
100
AcDbEntity
  8
0
100
AcDbCircle
 10
2.5625
 20
5.9375
 30
0.0
 40
0.0625
  0
CIRCLE
  5
3A7
100
AcDbEntity
  8
0
100
AcDbCircle
 10
2.5625
 20
5.9375
 30
0.0
 40
0.040911
  0
CIRCLE
  5
3A8
100
AcDbEntity
  8
0
100
AcDbCircle
 10
2.5625
 20
5.9375
 30
0.0
 40
0.021455
  0
POLYLINE
  5
3A9
100
AcDbEntity
  8
0
100
AcDb2dPolyline
 66
     1
 10
0.0
 20
0.0
 30
0.0
 70
     1
  0
VERTEX
  5
54F
100
AcDbEntity
  8
0
100
AcDbVertex
100
AcDb2dVertex
 10
3.5125
 20
5.4375
 30
0.0
  0
VERTEX
  5
550
100
AcDbEntity
  8
0
100
AcDbVertex
100
AcDb2dVertex
 10
3.7
 20
5.390625
 30
0.0
  0
VERTEX
  5
551
100
AcDbEntity
  8
0
100
AcDbVertex
100
AcDb2dVertex
 10
3.7
 20
5.484375
 30
0.0
  0
SEQEND
  5
552
100
AcDbEntity
  8
0
  0
TEXT
  5
3AA
100
AcDbEntity
  8
TEXT
100
AcDbText
 10
2.704226
 20
5.375
 30
0.0
 40
0.125
  1
TO: SPG
 41
0.8
 51
10.0
  7
ROMANS
 72
     2
 11
3.31375
 21
5.375
 31
0.0
100
AcDbText
  0
LINE
  5
3AB
100
AcDbEntity
  8
0
100
AcDbLine
 10
2.8125
 20
5.8125
 30
0.0
 11
2.9375
 21
5.8125
 31
0.0
  0
LINE
  5
3AC
100
AcDbEntity
  8
0
100
AcDbLine
 10
2.9375
 20
5.8125
 30
0.0
 11
2.9375
 21
5.6875
 31
0.0
  0
LINE
  5
3AD
100
AcDbEntity
  8
0
100
AcDbLine
 10
2.8125
 20
6.0625
 30
0.0
 11
2.9375
 21
6.0625
 31
0.0
  0
LINE
  5
3AE
100
AcDbEntity
  8
0
100
AcDbLine
 10
2.9375
 20
6.0625
 30
0.0
 11
2.9375
 21
6.1875
 31
0.0
  0
LINE
  5
3AF
100
AcDbEntity
  8
0
100
AcDbLine
 10
4.371875
 20
6.1875
 30
0.0
 11
4.371875
 21
5.6875
 31
0.0
  0
LINE
  5
3B0
100
AcDbEntity
  8
0
100
AcDbLine
 10
4.471875
 20
6.1875
 30
0.0
 11
4.471875
 21
5.6875
 31
0.0
  0
LINE
  5
3B1
100
AcDbEntity
  8
0
100
AcDbLine
 10
4.421875
 20
5.4375
 30
0.0
 11
3.7
 21
5.4375
 31
0.0
  0
TEXT
  5
3B2
100
AcDbEntity
  8
TEXT
100
AcDbText
 10
3.786429
 20
5.710938
 30
0.0
 40
0.075
  1
RED
 41
0.8
 51
10.0
  7
ROMANS
 72
     1
 11
3.875
 21
5.710938
 31
0.0
100
AcDbText
  0
LINE
  5
3B3
100
AcDbEntity
  8
0
100
AcDbLine
 10
4.421875
 20
5.6375
 30
0.0
 11
4.421875
 21
5.4375
 31
0.0
  0
INSERT
  5
3B4
100
AcDbEntity
  8
0
100
AcDbBlockReference
  2
DOT
 10
4.421875
 20
5.6375
 30
0.0
  0
ARC
  5
3B5
100
AcDbEntity
  8
0
100
AcDbCircle
 10
4.421875
 20
5.6875
 30
0.0
 40
0.05
100
AcDbArc
 50
180.0
 51
360.0
  0
TEXT
  5
3B6
100
AcDbEntity
  8
TEXT
100
AcDbText
 10
3.747857
 20
6.210938
 30
0.0
 40
0.075
  1
WHITE
 41
0.8
 51
10.0
  7
ROMANS
 72
     1
 11
3.875
 21
6.210938
 31
0.0
100
AcDbText
  0
ARC
  5
3B7
100
AcDbEntity
  8
0
100
AcDbCircle
 10
4.421875
 20
6.1875
 30
0.0
 40
0.05
100
AcDbArc
 50
0.0
 51
180.0
  0
LINE
  5
3C2
100
AcDbEntity
  8
0
100
AcDbLine
 10
6.34375
 20
5.6875
 30
0.0
 11
5.10625
 21
5.6875
 31
0.0
  0
LINE
  5
3C3
100
AcDbEntity
  8
0
100
AcDbLine
 10
6.34375
 20
6.1875
 30
0.0
 11
5.10625
 21
6.1875
 31
0.0
  0
LINE
  5
3C4
100
AcDbEntity
  8
0
100
AcDbLine
 10
4.73125
 20
5.1875
 30
0.0
 11
2.9375
 21
5.1875
 31
0.0
  0
LINE
  5
3C5
100
AcDbEntity
  8
0
100
AcDbLine
 10
4.73125
 20
4.6875
 30
0.0
 11
2.9375
 21
4.6875
 31
0.0
  0
ARC
  5
3C6
100
AcDbEntity
  8
0
100
AcDbCircle
 10
4.421875
 20
5.1875
 30
0.0
 40
0.05
100
AcDbArc
 50
0.0
 51
180.0
  0
LINE
  5
3C7
100
AcDbEntity
  8
0
100
AcDbLine
 10
2.5625
 20
5.0
 30
0.0
 11
2.8125
 21
5.0625
 31
0.0
  0
LINE
  5
3C8
100
AcDbEntity
  8
0
100
AcDbLine
 10
2.5625
 20
4.875
 30
0.0
 11
2.8125
 21
4.8125
 31
0.0
  0
CIRCLE
  5
3C9
100
AcDbEntity
  8
0
100
AcDbCircle
 10
2.5625
 20
4.9375
 30
0.0
 40
0.021455
  0
CIRCLE
  5
3CA
100
AcDbEntity
  8
0
100
AcDbCircle
 10
2.5625
 20
4.9375
 30
0.0
 40
0.040911
  0
CIRCLE
  5
3CB
100
AcDbEntity
  8
0
100
AcDbCircle
 10
2.5625
 20
4.9375
 30
0.0
 40
0.0625
  0
POLYLINE
  5
3CC
100
AcDbEntity
  8
0
100
AcDb2dPolyline
 66
     1
 10
0.0
 20
0.0
 30
0.0
 70
     1
  0
VERTEX
  5
553
100
AcDbEntity
  8
0
100
AcDbVertex
100
AcDb2dVertex
 10
3.5125
 20
4.4375
 30
0.0
  0
VERTEX
  5
554
100
AcDbEntity
  8
0
100
AcDbVertex
100
AcDb2dVertex
 10
3.7
 20
4.390625
 30
0.0
  0
VERTEX
  5
555
100
AcDbEntity
  8
0
100
AcDbVertex
100
AcDb2dVertex
 10
3.7
 20
4.484375
 30
0.0
  0
SEQEND
  5
556
100
AcDbEntity
  8
0
  0
TEXT
  5
3CD
100
AcDbEntity
  8
TEXT
100
AcDbText
 10
2.704226
 20
4.375
 30
0.0
 40
0.125
  1
TO: SPG
 41
0.8
 51
10.0
  7
ROMANS
 72
     2
 11
3.31375
 21
4.375
 31
0.0
100
AcDbText
  0
LINE
  5
3CE
100
AcDbEntity
  8
0
100
AcDbLine
 10
2.8125
 20
4.8125
 30
0.0
 11
2.9375
 21
4.8125
 31
0.0
  0
LINE
  5
3CF
100
AcDbEntity
  8
0
100
AcDbLine
 10
2.9375
 20
4.8125
 30
0.0
 11
2.9375
 21
4.6875
 31
0.0
  0
LINE
  5
3D0
100
AcDbEntity
  8
0
100
AcDbLine
 10
2.8125
 20
5.0625
 30
0.0
 11
2.9375
 21
5.0625
 31
0.0
  0
LINE
  5
3D1
100
AcDbEntity
  8
0
100
AcDbLine
 10
2.9375
 20
5.0625
 30
0.0
 11
2.9375
 21
5.1875
 31
0.0
  0
LINE
  5
3D2
100
AcDbEntity
  8
0
100
AcDbLine
 10
4.421875
 20
4.6375
 30
0.0
 11
4.421875
 21
4.4375
 31
0.0
  0
LINE
  5
3D3
100
AcDbEntity
  8
0
100
AcDbLine
 10
4.421875
 20
4.4375
 30
0.0
 11
3.7
 21
4.4375
 31
0.0
  0
TEXT
  5
3D4
100
AcDbEntity
  8
TEXT
100
AcDbText
 10
3.786429
 20
4.710938
 30
0.0
 40
0.075
  1
RED
 41
0.8
 51
10.0
  7
ROMANS
 72
     1
 11
3.875
 21
4.710938
 31
0.0
100
AcDbText
  0
LINE
  5
3D5
100
AcDbEntity
  8
0
100
AcDbLine
 10
4.471875
 20
5.1875
 30
0.0
 11
4.471875
 21
4.6875
 31
0.0
  0
LINE
  5
3D6
100
AcDbEntity
  8
0
100
AcDbLine
 10
4.371875
 20
5.1875
 30
0.0
 11
4.371875
 21
4.6875
 31
0.0
  0
ARC
  5
3D7
100
AcDbEntity
  8
0
100
AcDbCircle
 10
4.421875
 20
4.6875
 30
0.0
 40
0.05
100
AcDbArc
 50
180.0
 51
360.0
  0
INSERT
  5
3D8
100
AcDbEntity
  8
0
100
AcDbBlockReference
  2
DOT
 10
4.421875
 20
4.6375
 30
0.0
  0
TEXT
  5
3D9
100
AcDbEntity
  8
TEXT
100
AcDbText
 10
3.747857
 20
5.210938
 30
0.0
 40
0.075
  1
WHITE
 41
0.8
 51
10.0
  7
ROMANS
 72
     1
 11
3.875
 21
5.210938
 31
0.0
100
AcDbText
  0
LINE
  5
3E4
100
AcDbEntity
  8
0
100
AcDbLine
 10
6.34375
 20
5.1875
 30
0.0
 11
5.10625
 21
5.1875
 31
0.0
  0
LINE
  5
3E5
100
AcDbEntity
  8
0
100
AcDbLine
 10
6.34375
 20
4.6875
 30
0.0
 11
5.10625
 21
4.6875
 31
0.0
  0
LINE
  5
3E6
100
AcDbEntity
  8
0
100
AcDbLine
 10
4.73125
 20
4.1875
 30
0.0
 11
2.9375
 21
4.1875
 31
0.0
  0
LINE
  5
3E7
100
AcDbEntity
  8
0
100
AcDbLine
 10
4.73125
 20
3.6875
 30
0.0
 11
2.9375
 21
3.6875
 31
0.0
  0
ARC
  5
3E8
100
AcDbEntity
  8
0
100
AcDbCircle
 10
4.421875
 20
4.1875
 30
0.0
 40
0.05
100
AcDbArc
 50
0.0
 51
180.0
  0
LINE
  5
3E9
100
AcDbEntity
  8
0
100
AcDbLine
 10
2.5625
 20
4.0
 30
0.0
 11
2.8125
 21
4.0625
 31
0.0
  0
LINE
  5
3EA
100
AcDbEntity
  8
0
100
AcDbLine
 10
2.5625
 20
3.875
 30
0.0
 11
2.8125
 21
3.8125
 31
0.0
  0
CIRCLE
  5
3EB
100
AcDbEntity
  8
0
100
AcDbCircle
 10
2.5625
 20
3.9375
 30
0.0
 40
0.021455
  0
CIRCLE
  5
3EC
100
AcDbEntity
  8
0
100
AcDbCircle
 10
2.5625
 20
3.9375
 30
0.0
 40
0.040911
  0
CIRCLE
  5
3ED
100
AcDbEntity
  8
0
100
AcDbCircle
 10
2.5625
 20
3.9375
 30
0.0
 40
0.0625
  0
POLYLINE
  5
3EE
100
AcDbEntity
  8
0
100
AcDb2dPolyline
 66
     1
 10
0.0
 20
0.0
 30
0.0
 70
     1
  0
VERTEX
  5
557
100
AcDbEntity
  8
0
100
AcDbVertex
100
AcDb2dVertex
 10
3.5125
 20
3.4375
 30
0.0
  0
VERTEX
  5
558
100
AcDbEntity
  8
0
100
AcDbVertex
100
AcDb2dVertex
 10
3.7
 20
3.390625
 30
0.0
  0
VERTEX
  5
559
100
AcDbEntity
  8
0
100
AcDbVertex
100
AcDb2dVertex
 10
3.7
 20
3.484375
 30
0.0
  0
SEQEND
  5
55A
100
AcDbEntity
  8
0
  0
TEXT
  5
3EF
100
AcDbEntity
  8
TEXT
100
AcDbText
 10
2.704226
 20
3.375
 30
0.0
 40
0.125
  1
TO: SPG
 41
0.8
 51
10.0
  7
ROMANS
 72
     2
 11
3.31375
 21
3.375
 31
0.0
100
AcDbText
  0
LINE
  5
3F0
100
AcDbEntity
  8
0
100
AcDbLine
 10
2.8125
 20
3.8125
 30
0.0
 11
2.9375
 21
3.8125
 31
0.0
  0
LINE
  5
3F1
100
AcDbEntity
  8
0
100
AcDbLine
 10
2.9375
 20
3.8125
 30
0.0
 11
2.9375
 21
3.6875
 31
0.0
  0
LINE
  5
3F2
100
AcDbEntity
  8
0
100
AcDbLine
 10
2.8125
 20
4.0625
 30
0.0
 11
2.9375
 21
4.0625
 31
0.0
  0
LINE
  5
3F3
100
AcDbEntity
  8
0
100
AcDbLine
 10
2.9375
 20
4.0625
 30
0.0
 11
2.9375
 21
4.1875
 31
0.0
  0
LINE
  5
3F4
100
AcDbEntity
  8
0
100
AcDbLine
 10
4.421875
 20
3.6375
 30
0.0
 11
4.421875
 21
3.4375
 31
0.0
  0
LINE
  5
3F5
100
AcDbEntity
  8
0
100
AcDbLine
 10
4.421875
 20
3.4375
 30
0.0
 11
3.7
 21
3.4375
 31
0.0
  0
TEXT
  5
3F6
100
AcDbEntity
  8
TEXT
100
AcDbText
 10
3.786429
 20
3.710938
 30
0.0
 40
0.075
  1
RED
 41
0.8
 51
10.0
  7
ROMANS
 72
     1
 11
3.875
 21
3.710938
 31
0.0
100
AcDbText
  0
LINE
  5
3F7
100
AcDbEntity
  8
0
100
AcDbLine
 10
4.471875
 20
4.1875
 30
0.0
 11
4.471875
 21
3.6875
 31
0.0
  0
LINE
  5
3F8
100
AcDbEntity
  8
0
100
AcDbLine
 10
4.371875
 20
4.1875
 30
0.0
 11
4.371875
 21
3.6875
 31
0.0
  0
ARC
  5
3F9
100
AcDbEntity
  8
0
100
AcDbCircle
 10
4.421875
 20
3.6875
 30
0.0
 40
0.05
100
AcDbArc
 50
180.0
 51
360.0
  0
INSERT
  5
3FA
100
AcDbEntity
  8
0
100
AcDbBlockReference
  2
DOT
 10
4.421875
 20
3.6375
 30
0.0
  0
TEXT
  5
3FB
100
AcDbEntity
  8
TEXT
100
AcDbText
 10
3.747857
 20
4.210938
 30
0.0
 40
0.075
  1
WHITE
 41
0.8
 51
10.0
  7
ROMANS
 72
     1
 11
3.875
 21
4.210938
 31
0.0
100
AcDbText
  0
LINE
  5
406
100
AcDbEntity
  8
0
100
AcDbLine
 10
6.34375
 20
4.1875
 30
0.0
 11
5.10625
 21
4.1875
 31
0.0
  0
LINE
  5
407
100
AcDbEntity
  8
0
100
AcDbLine
 10
6.34375
 20
3.6875
 30
0.0
 11
5.10625
 21
3.6875
 31
0.0
  0
LINE
  5
408
100
AcDbEntity
  8
0
100
AcDbLine
 10
4.73125
 20
3.1875
 30
0.0
 11
2.9375
 21
3.1875
 31
0.0
  0
LINE
  5
409
100
AcDbEntity
  8
0
100
AcDbLine
 10
4.73125
 20
2.6875
 30
0.0
 11
2.9375
 21
2.6875
 31
0.0
  0
ARC
  5
40A
100
AcDbEntity
  8
0
100
AcDbCircle
 10
4.421875
 20
3.1875
 30
0.0
 40
0.05
100
AcDbArc
 50
0.0
 51
180.0
  0
LINE
  5
40B
100
AcDbEntity
  8
0
100
AcDbLine
 10
2.5625
 20
3.0
 30
0.0
 11
2.8125
 21
3.0625
 31
0.0
  0
LINE
  5
40C
100
AcDbEntity
  8
0
100
AcDbLine
 10
2.5625
 20
2.875
 30
0.0
 11
2.8125
 21
2.8125
 31
0.0
  0
CIRCLE
  5
40D
100
AcDbEntity
  8
0
100
AcDbCircle
 10
2.5625
 20
2.9375
 30
0.0
 40
0.021455
  0
CIRCLE
  5
40E
100
AcDbEntity
  8
0
100
AcDbCircle
 10
2.5625
 20
2.9375
 30
0.0
 40
0.040911
  0
CIRCLE
  5
40F
100
AcDbEntity
  8
0
100
AcDbCircle
 10
2.5625
 20
2.9375
 30
0.0
 40
0.0625
  0
POLYLINE
  5
410
100
AcDbEntity
  8
0
100
AcDb2dPolyline
 66
     1
 10
0.0
 20
0.0
 30
0.0
 70
     1
  0
VERTEX
  5
55B
100
AcDbEntity
  8
0
100
AcDbVertex
100
AcDb2dVertex
 10
3.5125
 20
2.4375
 30
0.0
  0
VERTEX
  5
55C
100
AcDbEntity
  8
0
100
AcDbVertex
100
AcDb2dVertex
 10
3.7
 20
2.390625
 30
0.0
  0
VERTEX
  5
55D
100
AcDbEntity
  8
0
100
AcDbVertex
100
AcDb2dVertex
 10
3.7
 20
2.484375
 30
0.0
  0
SEQEND
  5
55E
100
AcDbEntity
  8
0
  0
TEXT
  5
411
100
AcDbEntity
  8
TEXT
100
AcDbText
 10
2.704226
 20
2.375
 30
0.0
 40
0.125
  1
TO: SPG
 41
0.8
 51
10.0
  7
ROMANS
 72
     2
 11
3.31375
 21
2.375
 31
0.0
100
AcDbText
  0
LINE
  5
412
100
AcDbEntity
  8
0
100
AcDbLine
 10
2.8125
 20
2.8125
 30
0.0
 11
2.9375
 21
2.8125
 31
0.0
  0
LINE
  5
413
100
AcDbEntity
  8
0
100
AcDbLine
 10
2.9375
 20
2.8125
 30
0.0
 11
2.9375
 21
2.6875
 31
0.0
  0
LINE
  5
414
100
AcDbEntity
  8
0
100
AcDbLine
 10
2.8125
 20
3.0625
 30
0.0
 11
2.9375
 21
3.0625
 31
0.0
  0
LINE
  5
415
100
AcDbEntity
  8
0
100
AcDbLine
 10
2.9375
 20
3.0625
 30
0.0
 11
2.9375
 21
3.1875
 31
0.0
  0
LINE
  5
416
100
AcDbEntity
  8
0
100
AcDbLine
 10
4.421875
 20
2.6375
 30
0.0
 11
4.421875
 21
2.4375
 31
0.0
  0
LINE
  5
417
100
AcDbEntity
  8
0
100
AcDbLine
 10
4.421875
 20
2.4375
 30
0.0
 11
3.7
 21
2.4375
 31
0.0
  0
TEXT
  5
418
100
AcDbEntity
  8
TEXT
100
AcDbText
 10
3.786429
 20
2.710938
 30
0.0
 40
0.075
  1
RED
 41
0.8
 51
10.0
  7
ROMANS
 72
     1
 11
3.875
 21
2.710938
 31
0.0
100
AcDbText
  0
LINE
  5
419
100
AcDbEntity
  8
0
100
AcDbLine
 10
4.471875
 20
3.1875
 30
0.0
 11
4.471875
 21
2.6875
 31
0.0
  0
LINE
  5
41A
100
AcDbEntity
  8
0
100
AcDbLine
 10
4.371875
 20
3.1875
 30
0.0
 11
4.371875
 21
2.6875
 31
0.0
  0
ARC
  5
41B
100
AcDbEntity
  8
0
100
AcDbCircle
 10
4.421875
 20
2.6875
 30
0.0
 40
0.05
100
AcDbArc
 50
180.0
 51
360.0
  0
INSERT
  5
41C
100
AcDbEntity
  8
0
100
AcDbBlockReference
  2
DOT
 10
4.421875
 20
2.6375
 30
0.0
  0
TEXT
  5
41D
100
AcDbEntity
  8
TEXT
100
AcDbText
 10
3.747857
 20
3.210938
 30
0.0
 40
0.075
  1
WHITE
 41
0.8
 51
10.0
  7
ROMANS
 72
     1
 11
3.875
 21
3.210938
 31
0.0
100
AcDbText
  0
LINE
  5
428
100
AcDbEntity
  8
0
100
AcDbLine
 10
6.34375
 20
3.1875
 30
0.0
 11
5.10625
 21
3.1875
 31
0.0
  0
LINE
  5
429
100
AcDbEntity
  8
0
100
AcDbLine
 10
6.34375
 20
2.6875
 30
0.0
 11
5.10625
 21
2.6875
 31
0.0
  0
LINE
  5
44C
100
AcDbEntity
  8
0
100
AcDbLine
 10
4.471875
 20
11.1875
 30
0.0
 11
4.471875
 21
10.6875
 31
0.0
  0
LINE
  5
44D
100
AcDbEntity
  8
0
100
AcDbLine
 10
4.371875
 20
11.1875
 30
0.0
 11
4.371875
 21
10.6875
 31
0.0
  0
LINE
  5
44E
100
AcDbEntity
  8
0
100
AcDbLine
 10
2.5625
 20
10.875
 30
0.0
 11
2.8125
 21
10.8125
 31
0.0
  0
POLYLINE
  5
44F
100
AcDbEntity
  8
0
100
AcDb2dPolyline
 66
     1
 10
0.0
 20
0.0
 30
0.0
 70
     1
  0
VERTEX
  5
55F
100
AcDbEntity
  8
0
100
AcDbVertex
100
AcDb2dVertex
 10
3.5125
 20
10.4375
 30
0.0
  0
VERTEX
  5
560
100
AcDbEntity
  8
0
100
AcDbVertex
100
AcDb2dVertex
 10
3.7
 20
10.390625
 30
0.0
  0
VERTEX
  5
561
100
AcDbEntity
  8
0
100
AcDbVertex
100
AcDb2dVertex
 10
3.7
 20
10.484375
 30
0.0
  0
SEQEND
  5
562
100
AcDbEntity
  8
0
  0
TEXT
  5
450
100
AcDbEntity
  8
TEXT
100
AcDbText
 10
2.704226
 20
10.375
 30
0.0
 40
0.125
  1
TO: SPG
 41
0.8
 51
10.0
  7
ROMANS
 72
     2
 11
3.31375
 21
10.375
 31
0.0
100
AcDbText
  0
LINE
  5
451
100
AcDbEntity
  8
0
100
AcDbLine
 10
2.8125
 20
10.8125
 30
0.0
 11
2.9375
 21
10.8125
 31
0.0
  0
LINE
  5
452
100
AcDbEntity
  8
0
100
AcDbLine
 10
2.9375
 20
10.8125
 30
0.0
 11
2.9375
 21
10.6875
 31
0.0
  0
LINE
  5
453
100
AcDbEntity
  8
0
100
AcDbLine
 10
4.421875
 20
10.4375
 30
0.0
 11
3.7
 21
10.4375
 31
0.0
  0
TEXT
  5
454
100
AcDbEntity
  8
TEXT
100
AcDbText
 10
3.786429
 20
10.710938
 30
0.0
 40
0.075
  1
RED
 41
0.8
 51
10.0
  7
ROMANS
 72
     1
 11
3.875
 21
10.710938
 31
0.0
100
AcDbText
  0
LINE
  5
455
100
AcDbEntity
  8
0
100
AcDbLine
 10
4.421875
 20
10.6375
 30
0.0
 11
4.421875
 21
10.4375
 31
0.0
  0
ARC
  5
456
100
AcDbEntity
  8
0
100
AcDbCircle
 10
4.421875
 20
10.6875
 30
0.0
 40
0.05
100
AcDbArc
 50
180.0
 51
360.0
  0
INSERT
  5
457
100
AcDbEntity
  8
0
100
AcDbBlockReference
  2
DOT
 10
4.421875
 20
10.6375
 30
0.0
  0
LINE
  5
458
100
AcDbEntity
  8
0
100
AcDbLine
 10
2.5625
 20
11.0
 30
0.0
 11
2.8125
 21
11.0625
 31
0.0
  0
CIRCLE
  5
459
100
AcDbEntity
  8
0
100
AcDbCircle
 10
2.5625
 20
10.9375
 30
0.0
 40
0.040911
  0
CIRCLE
  5
45A
100
AcDbEntity
  8
0
100
AcDbCircle
 10
2.5625
 20
10.9375
 30
0.0
 40
0.021455
  0
CIRCLE
  5
45B
100
AcDbEntity
  8
0
100
AcDbCircle
 10
2.5625
 20
10.9375
 30
0.0
 40
0.0625
  0
LINE
  5
45C
100
AcDbEntity
  8
0
100
AcDbLine
 10
2.9375
 20
11.0625
 30
0.0
 11
2.9375
 21
11.1875
 31
0.0
  0
LINE
  5
45D
100
AcDbEntity
  8
0
100
AcDbLine
 10
2.8125
 20
11.0625
 30
0.0
 11
2.9375
 21
11.0625
 31
0.0
  0
TEXT
  5
45E
100
AcDbEntity
  8
TEXT
100
AcDbText
 10
3.747857
 20
11.210938
 30
0.0
 40
0.075
  1
WHITE
 41
0.8
 51
10.0
  7
ROMANS
 72
     1
 11
3.875
 21
11.210938
 31
0.0
100
AcDbText
  0
ARC
  5
45F
100
AcDbEntity
  8
0
100
AcDbCircle
 10
4.421875
 20
11.1875
 30
0.0
 40
0.05
100
AcDbArc
 50
0.0
 51
180.0
  0
LINE
  5
460
100
AcDbEntity
  8
0
100
AcDbLine
 10
4.73125
 20
10.6875
 30
0.0
 11
2.9375
 21
10.6875
 31
0.0
  0
LINE
  5
461
100
AcDbEntity
  8
0
100
AcDbLine
 10
4.73125
 20
11.1875
 30
0.0
 11
2.9375
 21
11.1875
 31
0.0
  0
LINE
  5
462
100
AcDbEntity
  8
0
100
AcDbLine
 10
4.471875
 20
10.1875
 30
0.0
 11
4.471875
 21
9.6875
 31
0.0
  0
LINE
  5
463
100
AcDbEntity
  8
0
100
AcDbLine
 10
4.371875
 20
10.1875
 30
0.0
 11
4.371875
 21
9.6875
 31
0.0
  0
LINE
  5
464
100
AcDbEntity
  8
0
100
AcDbLine
 10
2.5625
 20
9.875
 30
0.0
 11
2.8125
 21
9.8125
 31
0.0
  0
POLYLINE
  5
465
100
AcDbEntity
  8
0
100
AcDb2dPolyline
 66
     1
 10
0.0
 20
0.0
 30
0.0
 70
     1
  0
VERTEX
  5
563
100
AcDbEntity
  8
0
100
AcDbVertex
100
AcDb2dVertex
 10
3.5125
 20
9.4375
 30
0.0
  0
VERTEX
  5
564
100
AcDbEntity
  8
0
100
AcDbVertex
100
AcDb2dVertex
 10
3.7
 20
9.390625
 30
0.0
  0
VERTEX
  5
565
100
AcDbEntity
  8
0
100
AcDbVertex
100
AcDb2dVertex
 10
3.7
 20
9.484375
 30
0.0
  0
SEQEND
  5
566
100
AcDbEntity
  8
0
  0
TEXT
  5
466
100
AcDbEntity
  8
TEXT
100
AcDbText
 10
2.704226
 20
9.375
 30
0.0
 40
0.125
  1
TO: SPG
 41
0.8
 51
10.0
  7
ROMANS
 72
     2
 11
3.31375
 21
9.375
 31
0.0
100
AcDbText
  0
LINE
  5
467
100
AcDbEntity
  8
0
100
AcDbLine
 10
2.8125
 20
9.8125
 30
0.0
 11
2.9375
 21
9.8125
 31
0.0
  0
LINE
  5
468
100
AcDbEntity
  8
0
100
AcDbLine
 10
2.9375
 20
9.8125
 30
0.0
 11
2.9375
 21
9.6875
 31
0.0
  0
LINE
  5
469
100
AcDbEntity
  8
0
100
AcDbLine
 10
4.421875
 20
9.4375
 30
0.0
 11
3.7
 21
9.4375
 31
0.0
  0
TEXT
  5
46A
100
AcDbEntity
  8
TEXT
100
AcDbText
 10
3.786429
 20
9.710938
 30
0.0
 40
0.075
  1
RED
 41
0.8
 51
10.0
  7
ROMANS
 72
     1
 11
3.875
 21
9.710938
 31
0.0
100
AcDbText
  0
LINE
  5
46B
100
AcDbEntity
  8
0
100
AcDbLine
 10
4.421875
 20
9.6375
 30
0.0
 11
4.421875
 21
9.4375
 31
0.0
  0
ARC
  5
46C
100
AcDbEntity
  8
0
100
AcDbCircle
 10
4.421875
 20
9.6875
 30
0.0
 40
0.05
100
AcDbArc
 50
180.0
 51
360.0
  0
INSERT
  5
46D
100
AcDbEntity
  8
0
100
AcDbBlockReference
  2
DOT
 10
4.421875
 20
9.6375
 30
0.0
  0
LINE
  5
46E
100
AcDbEntity
  8
0
100
AcDbLine
 10
2.5625
 20
10.0
 30
0.0
 11
2.8125
 21
10.0625
 31
0.0
  0
CIRCLE
  5
46F
100
AcDbEntity
  8
0
100
AcDbCircle
 10
2.5625
 20
9.9375
 30
0.0
 40
0.040911
  0
CIRCLE
  5
470
100
AcDbEntity
  8
0
100
AcDbCircle
 10
2.5625
 20
9.9375
 30
0.0
 40
0.021455
  0
CIRCLE
  5
471
100
AcDbEntity
  8
0
100
AcDbCircle
 10
2.5625
 20
9.9375
 30
0.0
 40
0.0625
  0
LINE
  5
472
100
AcDbEntity
  8
0
100
AcDbLine
 10
2.9375
 20
10.0625
 30
0.0
 11
2.9375
 21
10.1875
 31
0.0
  0
LINE
  5
473
100
AcDbEntity
  8
0
100
AcDbLine
 10
2.8125
 20
10.0625
 30
0.0
 11
2.9375
 21
10.0625
 31
0.0
  0
TEXT
  5
474
100
AcDbEntity
  8
TEXT
100
AcDbText
 10
3.747857
 20
10.210938
 30
0.0
 40
0.075
  1
WHITE
 41
0.8
 51
10.0
  7
ROMANS
 72
     1
 11
3.875
 21
10.210938
 31
0.0
100
AcDbText
  0
ARC
  5
475
100
AcDbEntity
  8
0
100
AcDbCircle
 10
4.421875
 20
10.1875
 30
0.0
 40
0.05
100
AcDbArc
 50
0.0
 51
180.0
  0
LINE
  5
476
100
AcDbEntity
  8
0
100
AcDbLine
 10
4.73125
 20
9.6875
 30
0.0
 11
2.9375
 21
9.6875
 31
0.0
  0
LINE
  5
477
100
AcDbEntity
  8
0
100
AcDbLine
 10
4.73125
 20
10.1875
 30
0.0
 11
2.9375
 21
10.1875
 31
0.0
  0
LINE
  5
478
100
AcDbEntity
  8
0
100
AcDbLine
 10
4.471875
 20
9.1875
 30
0.0
 11
4.471875
 21
8.6875
 31
0.0
  0
LINE
  5
479
100
AcDbEntity
  8
0
100
AcDbLine
 10
4.371875
 20
9.1875
 30
0.0
 11
4.371875
 21
8.6875
 31
0.0
  0
LINE
  5
47A
100
AcDbEntity
  8
0
100
AcDbLine
 10
2.5625
 20
8.875
 30
0.0
 11
2.8125
 21
8.8125
 31
0.0
  0
POLYLINE
  5
47B
100
AcDbEntity
  8
0
100
AcDb2dPolyline
 66
     1
 10
0.0
 20
0.0
 30
0.0
 70
     1
  0
VERTEX
  5
567
100
AcDbEntity
  8
0
100
AcDbVertex
100
AcDb2dVertex
 10
3.5125
 20
8.4375
 30
0.0
  0
VERTEX
  5
568
100
AcDbEntity
  8
0
100
AcDbVertex
100
AcDb2dVertex
 10
3.7
 20
8.390625
 30
0.0
  0
VERTEX
  5
569
100
AcDbEntity
  8
0
100
AcDbVertex
100
AcDb2dVertex
 10
3.7
 20
8.484375
 30
0.0
  0
SEQEND
  5
56A
100
AcDbEntity
  8
0
  0
TEXT
  5
47C
100
AcDbEntity
  8
TEXT
100
AcDbText
 10
2.704226
 20
8.375
 30
0.0
 40
0.125
  1
TO: SPG
 41
0.8
 51
10.0
  7
ROMANS
 72
     2
 11
3.31375
 21
8.375
 31
0.0
100
AcDbText
  0
LINE
  5
47D
100
AcDbEntity
  8
0
100
AcDbLine
 10
2.8125
 20
8.8125
 30
0.0
 11
2.9375
 21
8.8125
 31
0.0
  0
LINE
  5
47E
100
AcDbEntity
  8
0
100
AcDbLine
 10
2.9375
 20
8.8125
 30
0.0
 11
2.9375
 21
8.6875
 31
0.0
  0
LINE
  5
47F
100
AcDbEntity
  8
0
100
AcDbLine
 10
4.421875
 20
8.4375
 30
0.0
 11
3.7
 21
8.4375
 31
0.0
  0
TEXT
  5
480
100
AcDbEntity
  8
TEXT
100
AcDbText
 10
3.786429
 20
8.710938
 30
0.0
 40
0.075
  1
RED
 41
0.8
 51
10.0
  7
ROMANS
 72
     1
 11
3.875
 21
8.710938
 31
0.0
100
AcDbText
  0
LINE
  5
481
100
AcDbEntity
  8
0
100
AcDbLine
 10
4.421875
 20
8.6375
 30
0.0
 11
4.421875
 21
8.4375
 31
0.0
  0
ARC
  5
482
100
AcDbEntity
  8
0
100
AcDbCircle
 10
4.421875
 20
8.6875
 30
0.0
 40
0.05
100
AcDbArc
 50
180.0
 51
360.0
  0
INSERT
  5
483
100
AcDbEntity
  8
0
100
AcDbBlockReference
  2
DOT
 10
4.421875
 20
8.6375
 30
0.0
  0
LINE
  5
484
100
AcDbEntity
  8
0
100
AcDbLine
 10
2.5625
 20
9.0
 30
0.0
 11
2.8125
 21
9.0625
 31
0.0
  0
CIRCLE
  5
485
100
AcDbEntity
  8
0
100
AcDbCircle
 10
2.5625
 20
8.9375
 30
0.0
 40
0.040911
  0
CIRCLE
  5
486
100
AcDbEntity
  8
0
100
AcDbCircle
 10
2.5625
 20
8.9375
 30
0.0
 40
0.021455
  0
CIRCLE
  5
487
100
AcDbEntity
  8
0
100
AcDbCircle
 10
2.5625
 20
8.9375
 30
0.0
 40
0.0625
  0
LINE
  5
488
100
AcDbEntity
  8
0
100
AcDbLine
 10
2.9375
 20
9.0625
 30
0.0
 11
2.9375
 21
9.1875
 31
0.0
  0
LINE
  5
489
100
AcDbEntity
  8
0
100
AcDbLine
 10
2.8125
 20
9.0625
 30
0.0
 11
2.9375
 21
9.0625
 31
0.0
  0
TEXT
  5
48A
100
AcDbEntity
  8
TEXT
100
AcDbText
 10
3.747857
 20
9.210938
 30
0.0
 40
0.075
  1
WHITE
 41
0.8
 51
10.0
  7
ROMANS
 72
     1
 11
3.875
 21
9.210938
 31
0.0
100
AcDbText
  0
ARC
  5
48B
100
AcDbEntity
  8
0
100
AcDbCircle
 10
4.421875
 20
9.1875
 30
0.0
 40
0.05
100
AcDbArc
 50
0.0
 51
180.0
  0
LINE
  5
48C
100
AcDbEntity
  8
0
100
AcDbLine
 10
4.73125
 20
8.6875
 30
0.0
 11
2.9375
 21
8.6875
 31
0.0
  0
LINE
  5
48D
100
AcDbEntity
  8
0
100
AcDbLine
 10
4.73125
 20
9.1875
 30
0.0
 11
2.9375
 21
9.1875
 31
0.0
  0
LINE
  5
48E
100
AcDbEntity
  8
0
100
AcDbLine
 10
4.471875
 20
8.1875
 30
0.0
 11
4.471875
 21
7.6875
 31
0.0
  0
LINE
  5
48F
100
AcDbEntity
  8
0
100
AcDbLine
 10
4.371875
 20
8.1875
 30
0.0
 11
4.371875
 21
7.6875
 31
0.0
  0
LINE
  5
490
100
AcDbEntity
  8
0
100
AcDbLine
 10
2.5625
 20
7.875
 30
0.0
 11
2.8125
 21
7.8125
 31
0.0
  0
POLYLINE
  5
491
100
AcDbEntity
  8
0
100
AcDb2dPolyline
 66
     1
 10
0.0
 20
0.0
 30
0.0
 70
     1
  0
VERTEX
  5
56B
100
AcDbEntity
  8
0
100
AcDbVertex
100
AcDb2dVertex
 10
3.5125
 20
7.4375
 30
0.0
  0
VERTEX
  5
56C
100
AcDbEntity
  8
0
100
AcDbVertex
100
AcDb2dVertex
 10
3.7
 20
7.390625
 30
0.0
  0
VERTEX
  5
56D
100
AcDbEntity
  8
0
100
AcDbVertex
100
AcDb2dVertex
 10
3.7
 20
7.484375
 30
0.0
  0
SEQEND
  5
56E
100
AcDbEntity
  8
0
  0
TEXT
  5
492
100
AcDbEntity
  8
TEXT
100
AcDbText
 10
2.704226
 20
7.375
 30
0.0
 40
0.125
  1
TO: SPG
 41
0.8
 51
10.0
  7
ROMANS
 72
     2
 11
3.31375
 21
7.375
 31
0.0
100
AcDbText
  0
LINE
  5
493
100
AcDbEntity
  8
0
100
AcDbLine
 10
2.8125
 20
7.8125
 30
0.0
 11
2.9375
 21
7.8125
 31
0.0
  0
LINE
  5
494
100
AcDbEntity
  8
0
100
AcDbLine
 10
2.9375
 20
7.8125
 30
0.0
 11
2.9375
 21
7.6875
 31
0.0
  0
LINE
  5
495
100
AcDbEntity
  8
0
100
AcDbLine
 10
4.421875
 20
7.4375
 30
0.0
 11
3.7
 21
7.4375
 31
0.0
  0
TEXT
  5
496
100
AcDbEntity
  8
TEXT
100
AcDbText
 10
3.786429
 20
7.710938
 30
0.0
 40
0.075
  1
RED
 41
0.8
 51
10.0
  7
ROMANS
 72
     1
 11
3.875
 21
7.710938
 31
0.0
100
AcDbText
  0
LINE
  5
497
100
AcDbEntity
  8
0
100
AcDbLine
 10
4.421875
 20
7.6375
 30
0.0
 11
4.421875
 21
7.4375
 31
0.0
  0
ARC
  5
498
100
AcDbEntity
  8
0
100
AcDbCircle
 10
4.421875
 20
7.6875
 30
0.0
 40
0.05
100
AcDbArc
 50
180.0
 51
360.0
  0
INSERT
  5
499
100
AcDbEntity
  8
0
100
AcDbBlockReference
  2
DOT
 10
4.421875
 20
7.6375
 30
0.0
  0
LINE
  5
49A
100
AcDbEntity
  8
0
100
AcDbLine
 10
2.5625
 20
8.0
 30
0.0
 11
2.8125
 21
8.0625
 31
0.0
  0
CIRCLE
  5
49B
100
AcDbEntity
  8
0
100
AcDbCircle
 10
2.5625
 20
7.9375
 30
0.0
 40
0.040911
  0
CIRCLE
  5
49C
100
AcDbEntity
  8
0
100
AcDbCircle
 10
2.5625
 20
7.9375
 30
0.0
 40
0.021455
  0
CIRCLE
  5
49D
100
AcDbEntity
  8
0
100
AcDbCircle
 10
2.5625
 20
7.9375
 30
0.0
 40
0.0625
  0
LINE
  5
49E
100
AcDbEntity
  8
0
100
AcDbLine
 10
2.9375
 20
8.0625
 30
0.0
 11
2.9375
 21
8.1875
 31
0.0
  0
LINE
  5
49F
100
AcDbEntity
  8
0
100
AcDbLine
 10
2.8125
 20
8.0625
 30
0.0
 11
2.9375
 21
8.0625
 31
0.0
  0
TEXT
  5
4A0
100
AcDbEntity
  8
TEXT
100
AcDbText
 10
3.747857
 20
8.210938
 30
0.0
 40
0.075
  1
WHITE
 41
0.8
 51
10.0
  7
ROMANS
 72
     1
 11
3.875
 21
8.210938
 31
0.0
100
AcDbText
  0
ARC
  5
4A1
100
AcDbEntity
  8
0
100
AcDbCircle
 10
4.421875
 20
8.1875
 30
0.0
 40
0.05
100
AcDbArc
 50
0.0
 51
180.0
  0
LINE
  5
4A2
100
AcDbEntity
  8
0
100
AcDbLine
 10
4.73125
 20
7.6875
 30
0.0
 11
2.9375
 21
7.6875
 31
0.0
  0
LINE
  5
4A3
100
AcDbEntity
  8
0
100
AcDbLine
 10
4.73125
 20
8.1875
 30
0.0
 11
2.9375
 21
8.1875
 31
0.0
  0
TEXT
  5
4A4
100
AcDbEntity
  8
TEXT
100
AcDbText
 10
1.58631
 20
4.875
 30
0.0
 40
0.125
  1
TC-10
 41
0.8
 51
10.0
  7
ROMANS
 72
     2
 11
2.0625
 21
4.875
 31
0.0
100
AcDbText
  0
TEXT
  5
4A5
100
AcDbEntity
  8
TEXT
100
AcDbText
 10
1.614881
 20
3.875
 30
0.0
 40
0.125
  1
TC-11
 41
0.8
 51
10.0
  7
ROMANS
 72
     2
 11
2.0625
 21
3.875
 31
0.0
100
AcDbText
  0
TEXT
  5
4A6
100
AcDbEntity
  8
TEXT
100
AcDbText
 10
1.58631
 20
2.875
 30
0.0
 40
0.125
  1
TC-12
 41
0.8
 51
10.0
  7
ROMANS
 72
     2
 11
2.0625
 21
2.875
 31
0.0
100
AcDbText
  0
LINE
  5
4B9
100
AcDbEntity
  8
0
100
AcDbLine
 10
4.73125
 20
2.59375
 30
0.0
 11
5.10625
 21
2.59375
 31
0.0
  0
LINE
  5
4BA
100
AcDbEntity
  8
0
100
AcDbLine
 10
4.73125
 20
2.78125
 30
0.0
 11
5.10625
 21
2.78125
 31
0.0
  0
TEXT
  5
4BB
100
AcDbEntity
  8
TEXT
100
AcDbText
 10
4.785417
 20
2.6375
 30
0.0
 40
0.1
  1
---
 72
     1
 11
4.91875
 21
2.6375
 31
0.0
100
AcDbText
  0
LINE
  5
4BC
100
AcDbEntity
  8
0
100
AcDbLine
 10
4.73125
 20
2.78125
 30
0.0
 11
4.73125
 21
2.59375
 31
0.0
  0
LINE
  5
4BD
100
AcDbEntity
  8
0
100
AcDbLine
 10
5.10625
 20
2.78125
 30
0.0
 11
5.10625
 21
2.59375
 31
0.0
  0
LINE
  5
4BE
100
AcDbEntity
  8
0
100
AcDbLine
 10
5.10625
 20
3.28125
 30
0.0
 11
5.10625
 21
3.09375
 31
0.0
  0
LINE
  5
4BF
100
AcDbEntity
  8
0
100
AcDbLine
 10
4.73125
 20
3.28125
 30
0.0
 11
4.73125
 21
3.09375
 31
0.0
  0
LINE
  5
4C0
100
AcDbEntity
  8
0
100
AcDbLine
 10
4.73125
 20
3.09375
 30
0.0
 11
5.10625
 21
3.09375
 31
0.0
  0
TEXT
  5
4C1
100
AcDbEntity
  8
TEXT
100
AcDbText
 10
4.785417
 20
3.1375
 30
0.0
 40
0.1
  1
---
 72
     1
 11
4.91875
 21
3.1375
 31
0.0
100
AcDbText
  0
LINE
  5
4C2
100
AcDbEntity
  8
0
100
AcDbLine
 10
4.73125
 20
3.28125
 30
0.0
 11
5.10625
 21
3.28125
 31
0.0
  0
LINE
  5
4C3
100
AcDbEntity
  8
0
100
AcDbLine
 10
5.10625
 20
3.78125
 30
0.0
 11
5.10625
 21
3.59375
 31
0.0
  0
LINE
  5
4C4
100
AcDbEntity
  8
0
100
AcDbLine
 10
4.73125
 20
3.78125
 30
0.0
 11
4.73125
 21
3.59375
 31
0.0
  0
LINE
  5
4C5
100
AcDbEntity
  8
0
100
AcDbLine
 10
4.73125
 20
3.59375
 30
0.0
 11
5.10625
 21
3.59375
 31
0.0
  0
TEXT
  5
4C6
100
AcDbEntity
  8
TEXT
100
AcDbText
 10
4.785417
 20
3.6375
 30
0.0
 40
0.1
  1
---
 72
     1
 11
4.91875
 21
3.6375
 31
0.0
100
AcDbText
  0
LINE
  5
4C7
100
AcDbEntity
  8
0
100
AcDbLine
 10
4.73125
 20
3.78125
 30
0.0
 11
5.10625
 21
3.78125
 31
0.0
  0
LINE
  5
4C8
100
AcDbEntity
  8
0
100
AcDbLine
 10
5.10625
 20
4.28125
 30
0.0
 11
5.10625
 21
4.09375
 31
0.0
  0
LINE
  5
4C9
100
AcDbEntity
  8
0
100
AcDbLine
 10
4.73125
 20
4.28125
 30
0.0
 11
4.73125
 21
4.09375
 31
0.0
  0
LINE
  5
4CA
100
AcDbEntity
  8
0
100
AcDbLine
 10
4.73125
 20
4.09375
 30
0.0
 11
5.10625
 21
4.09375
 31
0.0
  0
TEXT
  5
4CB
100
AcDbEntity
  8
TEXT
100
AcDbText
 10
4.785417
 20
4.1375
 30
0.0
 40
0.1
  1
---
 72
     1
 11
4.91875
 21
4.1375
 31
0.0
100
AcDbText
  0
LINE
  5
4CC
100
AcDbEntity
  8
0
100
AcDbLine
 10
4.73125
 20
4.28125
 30
0.0
 11
5.10625
 21
4.28125
 31
0.0
  0
LINE
  5
4CD
100
AcDbEntity
  8
0
100
AcDbLine
 10
5.10625
 20
4.78125
 30
0.0
 11
5.10625
 21
4.59375
 31
0.0
  0
LINE
  5
4CE
100
AcDbEntity
  8
0
100
AcDbLine
 10
4.73125
 20
4.78125
 30
0.0
 11
4.73125
 21
4.59375
 31
0.0
  0
LINE
  5
4CF
100
AcDbEntity
  8
0
100
AcDbLine
 10
4.73125
 20
4.59375
 30
0.0
 11
5.10625
 21
4.59375
 31
0.0
  0
TEXT
  5
4D0
100
AcDbEntity
  8
TEXT
100
AcDbText
 10
4.785417
 20
4.6375
 30
0.0
 40
0.1
  1
---
 72
     1
 11
4.91875
 21
4.6375
 31
0.0
100
AcDbText
  0
LINE
  5
4D1
100
AcDbEntity
  8
0
100
AcDbLine
 10
4.73125
 20
4.78125
 30
0.0
 11
5.10625
 21
4.78125
 31
0.0
  0
LINE
  5
4D2
100
AcDbEntity
  8
0
100
AcDbLine
 10
5.10625
 20
5.28125
 30
0.0
 11
5.10625
 21
5.09375
 31
0.0
  0
LINE
  5
4D3
100
AcDbEntity
  8
0
100
AcDbLine
 10
4.73125
 20
5.28125
 30
0.0
 11
4.73125
 21
5.09375
 31
0.0
  0
LINE
  5
4D4
100
AcDbEntity
  8
0
100
AcDbLine
 10
4.73125
 20
5.09375
 30
0.0
 11
5.10625
 21
5.09375
 31
0.0
  0
TEXT
  5
4D5
100
AcDbEntity
  8
TEXT
100
AcDbText
 10
4.785417
 20
5.1375
 30
0.0
 40
0.1
  1
---
 72
     1
 11
4.91875
 21
5.1375
 31
0.0
100
AcDbText
  0
LINE
  5
4D6
100
AcDbEntity
  8
0
100
AcDbLine
 10
4.73125
 20
5.28125
 30
0.0
 11
5.10625
 21
5.28125
 31
0.0
  0
LINE
  5
4D7
100
AcDbEntity
  8
0
100
AcDbLine
 10
5.10625
 20
5.78125
 30
0.0
 11
5.10625
 21
5.59375
 31
0.0
  0
LINE
  5
4D8
100
AcDbEntity
  8
0
100
AcDbLine
 10
4.73125
 20
5.78125
 30
0.0
 11
4.73125
 21
5.59375
 31
0.0
  0
LINE
  5
4D9
100
AcDbEntity
  8
0
100
AcDbLine
 10
4.73125
 20
5.59375
 30
0.0
 11
5.10625
 21
5.59375
 31
0.0
  0
TEXT
  5
4DA
100
AcDbEntity
  8
TEXT
100
AcDbText
 10
4.785417
 20
5.6375
 30
0.0
 40
0.1
  1
---
 72
     1
 11
4.91875
 21
5.6375
 31
0.0
100
AcDbText
  0
LINE
  5
4DB
100
AcDbEntity
  8
0
100
AcDbLine
 10
4.73125
 20
5.78125
 30
0.0
 11
5.10625
 21
5.78125
 31
0.0
  0
LINE
  5
4DC
100
AcDbEntity
  8
0
100
AcDbLine
 10
5.10625
 20
6.28125
 30
0.0
 11
5.10625
 21
6.09375
 31
0.0
  0
LINE
  5
4DD
100
AcDbEntity
  8
0
100
AcDbLine
 10
4.73125
 20
6.28125
 30
0.0
 11
4.73125
 21
6.09375
 31
0.0
  0
LINE
  5
4DE
100
AcDbEntity
  8
0
100
AcDbLine
 10
4.73125
 20
6.09375
 30
0.0
 11
5.10625
 21
6.09375
 31
0.0
  0
TEXT
  5
4DF
100
AcDbEntity
  8
TEXT
100
AcDbText
 10
4.785417
 20
6.1375
 30
0.0
 40
0.1
  1
---
 72
     1
 11
4.91875
 21
6.1375
 31
0.0
100
AcDbText
  0
LINE
  5
4E0
100
AcDbEntity
  8
0
100
AcDbLine
 10
4.73125
 20
6.28125
 30
0.0
 11
5.10625
 21
6.28125
 31
0.0
  0
LINE
  5
4E1
100
AcDbEntity
  8
0
100
AcDbLine
 10
5.10625
 20
6.78125
 30
0.0
 11
5.10625
 21
6.59375
 31
0.0
  0
LINE
  5
4E2
100
AcDbEntity
  8
0
100
AcDbLine
 10
4.73125
 20
6.78125
 30
0.0
 11
4.73125
 21
6.59375
 31
0.0
  0
LINE
  5
4E3
100
AcDbEntity
  8
0
100
AcDbLine
 10
4.73125
 20
6.59375
 30
0.0
 11
5.10625
 21
6.59375
 31
0.0
  0
TEXT
  5
4E4
100
AcDbEntity
  8
TEXT
100
AcDbText
 10
4.785417
 20
6.6375
 30
0.0
 40
0.1
  1
---
 72
     1
 11
4.91875
 21
6.6375
 31
0.0
100
AcDbText
  0
LINE
  5
4E5
100
AcDbEntity
  8
0
100
AcDbLine
 10
4.73125
 20
6.78125
 30
0.0
 11
5.10625
 21
6.78125
 31
0.0
  0
LINE
  5
4E6
100
AcDbEntity
  8
0
100
AcDbLine
 10
5.10625
 20
7.28125
 30
0.0
 11
5.10625
 21
7.09375
 31
0.0
  0
LINE
  5
4E7
100
AcDbEntity
  8
0
100
AcDbLine
 10
4.73125
 20
7.28125
 30
0.0
 11
4.73125
 21
7.09375
 31
0.0
  0
LINE
  5
4E8
100
AcDbEntity
  8
0
100
AcDbLine
 10
4.73125
 20
7.09375
 30
0.0
 11
5.10625
 21
7.09375
 31
0.0
  0
TEXT
  5
4E9
100
AcDbEntity
  8
TEXT
100
AcDbText
 10
4.785417
 20
7.1375
 30
0.0
 40
0.1
  1
---
 72
     1
 11
4.91875
 21
7.1375
 31
0.0
100
AcDbText
  0
LINE
  5
4EA
100
AcDbEntity
  8
0
100
AcDbLine
 10
4.73125
 20
7.28125
 30
0.0
 11
5.10625
 21
7.28125
 31
0.0
  0
LINE
  5
4EB
100
AcDbEntity
  8
0
100
AcDbLine
 10
5.10625
 20
7.78125
 30
0.0
 11
5.10625
 21
7.59375
 31
0.0
  0
LINE
  5
4EC
100
AcDbEntity
  8
0
100
AcDbLine
 10
4.73125
 20
7.78125
 30
0.0
 11
4.73125
 21
7.59375
 31
0.0
  0
LINE
  5
4ED
100
AcDbEntity
  8
0
100
AcDbLine
 10
4.73125
 20
7.59375
 30
0.0
 11
5.10625
 21
7.59375
 31
0.0
  0
TEXT
  5
4EE
100
AcDbEntity
  8
TEXT
100
AcDbText
 10
4.785417
 20
7.6375
 30
0.0
 40
0.1
  1
---
 72
     1
 11
4.91875
 21
7.6375
 31
0.0
100
AcDbText
  0
LINE
  5
4EF
100
AcDbEntity
  8
0
100
AcDbLine
 10
4.73125
 20
7.78125
 30
0.0
 11
5.10625
 21
7.78125
 31
0.0
  0
LINE
  5
4F0
100
AcDbEntity
  8
0
100
AcDbLine
 10
5.10625
 20
8.28125
 30
0.0
 11
5.10625
 21
8.09375
 31
0.0
  0
LINE
  5
4F1
100
AcDbEntity
  8
0
100
AcDbLine
 10
4.73125
 20
8.28125
 30
0.0
 11
4.73125
 21
8.09375
 31
0.0
  0
LINE
  5
4F2
100
AcDbEntity
  8
0
100
AcDbLine
 10
4.73125
 20
8.09375
 30
0.0
 11
5.10625
 21
8.09375
 31
0.0
  0
TEXT
  5
4F3
100
AcDbEntity
  8
TEXT
100
AcDbText
 10
4.785417
 20
8.1375
 30
0.0
 40
0.1
  1
---
 72
     1
 11
4.91875
 21
8.1375
 31
0.0
100
AcDbText
  0
LINE
  5
4F4
100
AcDbEntity
  8
0
100
AcDbLine
 10
4.73125
 20
8.28125
 30
0.0
 11
5.10625
 21
8.28125
 31
0.0
  0
LINE
  5
4F5
100
AcDbEntity
  8
0
100
AcDbLine
 10
5.10625
 20
8.78125
 30
0.0
 11
5.10625
 21
8.59375
 31
0.0
  0
LINE
  5
4F6
100
AcDbEntity
  8
0
100
AcDbLine
 10
4.73125
 20
8.78125
 30
0.0
 11
4.73125
 21
8.59375
 31
0.0
  0
LINE
  5
4F7
100
AcDbEntity
  8
0
100
AcDbLine
 10
4.73125
 20
8.59375
 30
0.0
 11
5.10625
 21
8.59375
 31
0.0
  0
TEXT
  5
4F8
100
AcDbEntity
  8
TEXT
100
AcDbText
 10
4.785417
 20
8.6375
 30
0.0
 40
0.1
  1
---
 72
     1
 11
4.91875
 21
8.6375
 31
0.0
100
AcDbText
  0
LINE
  5
4F9
100
AcDbEntity
  8
0
100
AcDbLine
 10
4.73125
 20
8.78125
 30
0.0
 11
5.10625
 21
8.78125
 31
0.0
  0
LINE
  5
4FA
100
AcDbEntity
  8
0
100
AcDbLine
 10
5.10625
 20
9.28125
 30
0.0
 11
5.10625
 21
9.09375
 31
0.0
  0
LINE
  5
4FB
100
AcDbEntity
  8
0
100
AcDbLine
 10
4.73125
 20
9.28125
 30
0.0
 11
4.73125
 21
9.09375
 31
0.0
  0
LINE
  5
4FC
100
AcDbEntity
  8
0
100
AcDbLine
 10
4.73125
 20
9.09375
 30
0.0
 11
5.10625
 21
9.09375
 31
0.0
  0
TEXT
  5
4FD
100
AcDbEntity
  8
TEXT
100
AcDbText
 10
4.785417
 20
9.1375
 30
0.0
 40
0.1
  1
---
 72
     1
 11
4.91875
 21
9.1375
 31
0.0
100
AcDbText
  0
LINE
  5
4FE
100
AcDbEntity
  8
0
100
AcDbLine
 10
4.73125
 20
9.28125
 30
0.0
 11
5.10625
 21
9.28125
 31
0.0
  0
LINE
  5
4FF
100
AcDbEntity
  8
0
100
AcDbLine
 10
5.10625
 20
9.78125
 30
0.0
 11
5.10625
 21
9.59375
 31
0.0
  0
LINE
  5
500
100
AcDbEntity
  8
0
100
AcDbLine
 10
4.73125
 20
9.78125
 30
0.0
 11
4.73125
 21
9.59375
 31
0.0
  0
LINE
  5
501
100
AcDbEntity
  8
0
100
AcDbLine
 10
4.73125
 20
9.59375
 30
0.0
 11
5.10625
 21
9.59375
 31
0.0
  0
TEXT
  5
502
100
AcDbEntity
  8
TEXT
100
AcDbText
 10
4.785417
 20
9.6375
 30
0.0
 40
0.1
  1
---
 72
     1
 11
4.91875
 21
9.6375
 31
0.0
100
AcDbText
  0
LINE
  5
503
100
AcDbEntity
  8
0
100
AcDbLine
 10
4.73125
 20
9.78125
 30
0.0
 11
5.10625
 21
9.78125
 31
0.0
  0
LINE
  5
504
100
AcDbEntity
  8
0
100
AcDbLine
 10
5.10625
 20
10.28125
 30
0.0
 11
5.10625
 21
10.09375
 31
0.0
  0
LINE
  5
505
100
AcDbEntity
  8
0
100
AcDbLine
 10
4.73125
 20
10.28125
 30
0.0
 11
4.73125
 21
10.09375
 31
0.0
  0
LINE
  5
506
100
AcDbEntity
  8
0
100
AcDbLine
 10
4.73125
 20
10.09375
 30
0.0
 11
5.10625
 21
10.09375
 31
0.0
  0
TEXT
  5
507
100
AcDbEntity
  8
TEXT
100
AcDbText
 10
4.785417
 20
10.1375
 30
0.0
 40
0.1
  1
---
 72
     1
 11
4.91875
 21
10.1375
 31
0.0
100
AcDbText
  0
LINE
  5
508
100
AcDbEntity
  8
0
100
AcDbLine
 10
4.73125
 20
10.28125
 30
0.0
 11
5.10625
 21
10.28125
 31
0.0
  0
LINE
  5
509
100
AcDbEntity
  8
0
100
AcDbLine
 10
5.10625
 20
10.78125
 30
0.0
 11
5.10625
 21
10.59375
 31
0.0
  0
LINE
  5
50A
100
AcDbEntity
  8
0
100
AcDbLine
 10
4.73125
 20
10.78125
 30
0.0
 11
4.73125
 21
10.59375
 31
0.0
  0
LINE
  5
50B
100
AcDbEntity
  8
0
100
AcDbLine
 10
4.73125
 20
10.59375
 30
0.0
 11
5.10625
 21
10.59375
 31
0.0
  0
TEXT
  5
50C
100
AcDbEntity
  8
TEXT
100
AcDbText
 10
4.785417
 20
10.6375
 30
0.0
 40
0.1
  1
---
 72
     1
 11
4.91875
 21
10.6375
 31
0.0
100
AcDbText
  0
LINE
  5
50D
100
AcDbEntity
  8
0
100
AcDbLine
 10
4.73125
 20
10.78125
 30
0.0
 11
5.10625
 21
10.78125
 31
0.0
  0
LINE
  5
50E
100
AcDbEntity
  8
0
100
AcDbLine
 10
5.10625
 20
11.28125
 30
0.0
 11
5.10625
 21
11.09375
 31
0.0
  0
LINE
  5
50F
100
AcDbEntity
  8
0
100
AcDbLine
 10
4.73125
 20
11.28125
 30
0.0
 11
4.73125
 21
11.09375
 31
0.0
  0
LINE
  5
510
100
AcDbEntity
  8
0
100
AcDbLine
 10
4.73125
 20
11.09375
 30
0.0
 11
5.10625
 21
11.09375
 31
0.0
  0
TEXT
  5
511
100
AcDbEntity
  8
TEXT
100
AcDbText
 10
4.785417
 20
11.1375
 30
0.0
 40
0.1
  1
---
 72
     1
 11
4.91875
 21
11.1375
 31
0.0
100
AcDbText
  0
LINE
  5
512
100
AcDbEntity
  8
0
100
AcDbLine
 10
4.73125
 20
11.28125
 30
0.0
 11
5.10625
 21
11.28125
 31
0.0
  0
LINE
  5
513
100
AcDbEntity
  8
0
100
AcDbLine
 10
5.10625
 20
11.78125
 30
0.0
 11
5.10625
 21
11.59375
 31
0.0
  0
LINE
  5
514
100
AcDbEntity
  8
0
100
AcDbLine
 10
4.73125
 20
11.78125
 30
0.0
 11
4.73125
 21
11.59375
 31
0.0
  0
LINE
  5
515
100
AcDbEntity
  8
0
100
AcDbLine
 10
4.73125
 20
11.59375
 30
0.0
 11
5.10625
 21
11.59375
 31
0.0
  0
TEXT
  5
516
100
AcDbEntity
  8
TEXT
100
AcDbText
 10
4.785417
 20
11.6375
 30
0.0
 40
0.1
  1
---
 72
     1
 11
4.91875
 21
11.6375
 31
0.0
100
AcDbText
  0
LINE
  5
517
100
AcDbEntity
  8
0
100
AcDbLine
 10
4.73125
 20
11.78125
 30
0.0
 11
5.10625
 21
11.78125
 31
0.0
  0
LINE
  5
518
100
AcDbEntity
  8
0
100
AcDbLine
 10
5.10625
 20
12.28125
 30
0.0
 11
5.10625
 21
12.09375
 31
0.0
  0
LINE
  5
519
100
AcDbEntity
  8
0
100
AcDbLine
 10
4.73125
 20
12.28125
 30
0.0
 11
4.73125
 21
12.09375
 31
0.0
  0
LINE
  5
51A
100
AcDbEntity
  8
0
100
AcDbLine
 10
4.73125
 20
12.09375
 30
0.0
 11
5.10625
 21
12.09375
 31
0.0
  0
TEXT
  5
51B
100
AcDbEntity
  8
TEXT
100
AcDbText
 10
4.785417
 20
12.1375
 30
0.0
 40
0.1
  1
---
 72
     1
 11
4.91875
 21
12.1375
 31
0.0
100
AcDbText
  0
LINE
  5
51C
100
AcDbEntity
  8
0
100
AcDbLine
 10
4.73125
 20
12.28125
 30
0.0
 11
5.10625
 21
12.28125
 31
0.0
  0
LINE
  5
51D
100
AcDbEntity
  8
0
100
AcDbLine
 10
5.10625
 20
12.78125
 30
0.0
 11
5.10625
 21
12.59375
 31
0.0
  0
LINE
  5
51E
100
AcDbEntity
  8
0
100
AcDbLine
 10
4.73125
 20
12.78125
 30
0.0
 11
4.73125
 21
12.59375
 31
0.0
  0
LINE
  5
51F
100
AcDbEntity
  8
0
100
AcDbLine
 10
4.73125
 20
12.59375
 30
0.0
 11
5.10625
 21
12.59375
 31
0.0
  0
TEXT
  5
520
100
AcDbEntity
  8
TEXT
100
AcDbText
 10
4.785417
 20
12.6375
 30
0.0
 40
0.1
  1
---
 72
     1
 11
4.91875
 21
12.6375
 31
0.0
100
AcDbText
  0
LINE
  5
521
100
AcDbEntity
  8
0
100
AcDbLine
 10
4.73125
 20
12.78125
 30
0.0
 11
5.10625
 21
12.78125
 31
0.0
  0
LINE
  5
522
100
AcDbEntity
  8
0
100
AcDbLine
 10
5.10625
 20
13.28125
 30
0.0
 11
5.10625
 21
13.09375
 31
0.0
  0
LINE
  5
523
100
AcDbEntity
  8
0
100
AcDbLine
 10
4.73125
 20
13.28125
 30
0.0
 11
4.73125
 21
13.09375
 31
0.0
  0
LINE
  5
524
100
AcDbEntity
  8
0
100
AcDbLine
 10
4.73125
 20
13.09375
 30
0.0
 11
5.10625
 21
13.09375
 31
0.0
  0
TEXT
  5
525
100
AcDbEntity
  8
TEXT
100
AcDbText
 10
4.785417
 20
13.1375
 30
0.0
 40
0.1
  1
---
 72
     1
 11
4.91875
 21
13.1375
 31
0.0
100
AcDbText
  0
LINE
  5
526
100
AcDbEntity
  8
0
100
AcDbLine
 10
4.73125
 20
13.28125
 30
0.0
 11
5.10625
 21
13.28125
 31
0.0
  0
LINE
  5
527
100
AcDbEntity
  8
0
100
AcDbLine
 10
5.10625
 20
13.78125
 30
0.0
 11
5.10625
 21
13.59375
 31
0.0
  0
LINE
  5
528
100
AcDbEntity
  8
0
100
AcDbLine
 10
4.73125
 20
13.78125
 30
0.0
 11
4.73125
 21
13.59375
 31
0.0
  0
LINE
  5
529
100
AcDbEntity
  8
0
100
AcDbLine
 10
4.73125
 20
13.59375
 30
0.0
 11
5.10625
 21
13.59375
 31
0.0
  0
TEXT
  5
52A
100
AcDbEntity
  8
TEXT
100
AcDbText
 10
4.785417
 20
13.6375
 30
0.0
 40
0.1
  1
---
 72
     1
 11
4.91875
 21
13.6375
 31
0.0
100
AcDbText
  0
LINE
  5
52B
100
AcDbEntity
  8
0
100
AcDbLine
 10
4.73125
 20
13.78125
 30
0.0
 11
5.10625
 21
13.78125
 31
0.0
  0
LINE
  5
52C
100
AcDbEntity
  8
0
100
AcDbLine
 10
5.10625
 20
14.28125
 30
0.0
 11
5.10625
 21
14.09375
 31
0.0
  0
LINE
  5
52D
100
AcDbEntity
  8
0
100
AcDbLine
 10
4.73125
 20
14.28125
 30
0.0
 11
4.73125
 21
14.09375
 31
0.0
  0
LINE
  5
52E
100
AcDbEntity
  8
0
100
AcDbLine
 10
4.73125
 20
14.09375
 30
0.0
 11
5.10625
 21
14.09375
 31
0.0
  0
TEXT
  5
52F
100
AcDbEntity
  8
TEXT
100
AcDbText
 10
4.785417
 20
14.1375
 30
0.0
 40
0.1
  1
---
 72
     1
 11
4.91875
 21
14.1375
 31
0.0
100
AcDbText
  0
LINE
  5
530
100
AcDbEntity
  8
0
100
AcDbLine
 10
4.73125
 20
14.28125
 30
0.0
 11
5.10625
 21
14.28125
 31
0.0
  0
ENDSEC
  0
SECTION
  2
OBJECTS
  0
DICTIONARY
  5
C
100
AcDbDictionary
  3
ACAD_GROUP
350
D
  3
ACAD_MLINESTYLE
350
1A
  3
ACDBVARIABLEDICTIONARY
350
28
  0
DICTIONARY
  5
D
102
{ACAD_REACTORS
330
C
102
}
100
AcDbDictionary
  0
DICTIONARY
  5
1A
102
{ACAD_REACTORS
330
C
102
}
100
AcDbDictionary
  3
STANDARD
350
1B
  0
DICTIONARY
  5
28
102
{ACAD_REACTORS
330
C
102
}
100
AcDbDictionary
  3
DIMADEC
350
29
  0
MLINESTYLE
  5
1B
102
{ACAD_REACTORS
330
1A
102
}
100
AcDbMlineStyle
  2
STANDARD
 70
     0
  3

 62
   256
 51
90.0
 52
90.0
 71
     2
 49
0.5
 62
   256
  6
BYLAYER
 49
-0.5
 62
   256
  6
BYLAYER
  0
DICTIONARYVAR
  5
29
102
{ACAD_REACTORS
330
28
102
}
100
DictionaryVariables
280
     0
  1
0
  0
ENDSEC
  0
EOF
