  0
SECTION
  2
HEADER
  9
$ACADVER
  1
AC1012
  9
$DWGCODEPAGE
  3
ANSI_1252
  9
$INSBASE
 10
0.0
 20
0.0
 30
0.0
  9
$EXTMIN
 10
-0.293778
 20
1.447
 30
0.0
  9
$EXTMAX
 10
9.557054
 20
15.34075
 30
0.0
  9
$LIMMIN
 10
0.0
 20
0.0
  9
$LIMMAX
 10
9.755837
 20
15.725
  9
$ORTHOMODE
 70
     1
  9
$REGENMODE
 70
     1
  9
$FILLMODE
 70
     1
  9
$QTEXTMODE
 70
     0
  9
$MIRRTEXT
 70
     1
  9
$DRAGMODE
 70
     2
  9
$LTSCALE
 40
0.5
  9
$OSMODE
 70
     0
  9
$ATTMODE
 70
     1
  9
$TEXTSIZE
 40
0.1
  9
$TRACEWID
 40
0.05
  9
$TEXTSTYLE
  7
STANDARD
  9
$CLAYER
  8
0
  9
$CELTYPE
  6
BYLAYER
  9
$CECOLOR
 62
   256
  9
$CELTSCALE
 40
1.0
  9
$DELOBJ
 70
     1
  9
$DISPSILH
 70
     0
  9
$DIMSCALE
 40
1.0
  9
$DIMASZ
 40
0.18
  9
$DIMEXO
 40
0.0625
  9
$DIMDLI
 40
0.38
  9
$DIMRND
 40
0.0
  9
$DIMDLE
 40
0.0
  9
$DIMEXE
 40
0.18
  9
$DIMTP
 40
0.0
  9
$DIMTM
 40
0.0
  9
$DIMTXT
 40
0.18
  9
$DIMCEN
 40
0.09
  9
$DIMTSZ
 40
0.0
  9
$DIMTOL
 70
     0
  9
$DIMLIM
 70
     0
  9
$DIMTIH
 70
     1
  9
$DIMTOH
 70
     1
  9
$DIMSE1
 70
     0
  9
$DIMSE2
 70
     0
  9
$DIMTAD
 70
     0
  9
$DIMZIN
 70
     0
  9
$DIMBLK
  1

  9
$DIMASO
 70
     1
  9
$DIMSHO
 70
     1
  9
$DIMPOST
  1

  9
$DIMAPOST
  1

  9
$DIMALT
 70
     0
  9
$DIMALTD
 70
     2
  9
$DIMALTF
 40
25.4
  9
$DIMLFAC
 40
1.0
  9
$DIMTOFL
 70
     0
  9
$DIMTVP
 40
0.0
  9
$DIMTIX
 70
     0
  9
$DIMSOXD
 70
     0
  9
$DIMSAH
 70
     0
  9
$DIMBLK1
  1

  9
$DIMBLK2
  1

  9
$DIMSTYLE
  2
STANDARD
  9
$DIMCLRD
 70
     0
  9
$DIMCLRE
 70
     0
  9
$DIMCLRT
 70
     0
  9
$DIMTFAC
 40
1.0
  9
$DIMGAP
 40
0.09
  9
$DIMJUST
 70
     0
  9
$DIMSD1
 70
     0
  9
$DIMSD2
 70
     0
  9
$DIMTOLJ
 70
     1
  9
$DIMTZIN
 70
     0
  9
$DIMALTZ
 70
     0
  9
$DIMALTTZ
 70
     0
  9
$DIMFIT
 70
     3
  9
$DIMUPT
 70
     0
  9
$DIMUNIT
 70
     2
  9
$DIMDEC
 70
     4
  9
$DIMTDEC
 70
     4
  9
$DIMALTU
 70
     2
  9
$DIMALTTD
 70
     2
  9
$DIMTXSTY
  7
STANDARD
  9
$DIMAUNIT
 70
     0
  9
$LUNITS
 70
     2
  9
$LUPREC
 70
     4
  9
$SKETCHINC
 40
0.1
  9
$FILLETRAD
 40
0.125
  9
$AUNITS
 70
     0
  9
$AUPREC
 70
     0
  9
$MENU
  1
acad
  9
$ELEVATION
 40
0.0
  9
$PELEVATION
 40
0.0
  9
$THICKNESS
 40
0.0
  9
$LIMCHECK
 70
     0
  9
$BLIPMODE
 70
     1
  9
$CHAMFERA
 40
0.0
  9
$CHAMFERB
 40
0.0
  9
$CHAMFERC
 40
0.0
  9
$CHAMFERD
 40
0.0
  9
$SKPOLY
 70
     0
  9
$TDCREATE
 40
2450219.625278356
  9
$TDUPDATE
 40
2451087.539733796
  9
$TDINDWG
 40
0.4737221065
  9
$TDUSRTIMER
 40
0.4737221065
  9
$USRTIMER
 70
     1
  9
$ANGBASE
 50
0.0
  9
$ANGDIR
 70
     0
  9
$PDMODE
 70
     0
  9
$PDSIZE
 40
0.0
  9
$PLINEWID
 40
0.0
  9
$COORDS
 70
     0
  9
$SPLFRAME
 70
     0
  9
$SPLINETYPE
 70
     6
  9
$SPLINESEGS
 70
     8
  9
$ATTDIA
 70
     0
  9
$ATTREQ
 70
     1
  9
$HANDLING
 70
     1
  9
$HANDSEED
  5
1DEB
  9
$SURFTAB1
 70
     6
  9
$SURFTAB2
 70
     6
  9
$SURFTYPE
 70
     6
  9
$SURFU
 70
     6
  9
$SURFV
 70
     6
  9
$UCSNAME
  2

  9
$UCSORG
 10
0.0
 20
0.0
 30
0.0
  9
$UCSXDIR
 10
1.0
 20
0.0
 30
0.0
  9
$UCSYDIR
 10
0.0
 20
1.0
 30
0.0
  9
$PUCSNAME
  2

  9
$PUCSORG
 10
0.0
 20
0.0
 30
0.0
  9
$PUCSXDIR
 10
1.0
 20
0.0
 30
0.0
  9
$PUCSYDIR
 10
0.0
 20
1.0
 30
0.0
  9
$USERI1
 70
     0
  9
$USERI2
 70
     0
  9
$USERI3
 70
     0
  9
$USERI4
 70
     0
  9
$USERI5
 70
     0
  9
$USERR1
 40
0.0
  9
$USERR2
 40
0.0
  9
$USERR3
 40
0.0
  9
$USERR4
 40
0.0
  9
$USERR5
 40
0.0
  9
$WORLDVIEW
 70
     1
  9
$SHADEDGE
 70
     3
  9
$SHADEDIF
 70
    70
  9
$TILEMODE
 70
     1
  9
$MAXACTVP
 70
    16
  9
$PINSBASE
 10
0.0
 20
0.0
 30
0.0
  9
$PLIMCHECK
 70
     0
  9
$PEXTMIN
 10
1.000000E+20
 20
1.000000E+20
 30
1.000000E+20
  9
$PEXTMAX
 10
-1.000000E+20
 20
-1.000000E+20
 30
-1.000000E+20
  9
$PLIMMIN
 10
0.0
 20
0.0
  9
$PLIMMAX
 10
12.0
 20
9.0
  9
$UNITMODE
 70
     0
  9
$VISRETAIN
 70
     0
  9
$PLINEGEN
 70
     0
  9
$PSLTSCALE
 70
     1
  9
$TREEDEPTH
 70
  3020
  9
$PICKSTYLE
 70
     1
  9
$CMLSTYLE
  2
STANDARD
  9
$CMLJUST
 70
     0
  9
$CMLSCALE
 40
1.0
  9
$SAVEIMAGES
 70
     1
  0
ENDSEC
  0
SECTION
  2
CLASSES
  0
CLASS
  1
LWPOLYLINE
  2
AcDbPolyline
  3
"AutoCAD"
 90
    32768
280
     0
281
     1
  0
CLASS
  1
HATCH
  2
AcDbHatch
  3
"ACAD_SEDONA"
 90
    32768
280
     0
281
     1
  0
ENDSEC
  0
SECTION
  2
TABLES
  0
TABLE
  2
VPORT
  5
8
100
AcDbSymbolTable
 70
     2
  0
VPORT
  5
1DEA
100
AcDbSymbolTableRecord
100
AcDbViewportTableRecord
  2
*ACTIVE
 70
     0
 10
0.0
 20
0.0
 11
1.0
 21
1.0
 12
13.414567
 22
7.8625
 13
0.0
 23
0.0
 14
1.0
 24
1.0
 15
0.0
 25
0.0
 16
0.0
 26
0.0
 36
1.0
 17
0.0
 27
0.0
 37
0.0
 40
15.987083
 41
1.810585
 42
50.0
 43
0.0
 44
0.0
 50
0.0
 51
0.0
 71
     0
 72
   100
 73
     1
 74
     1
 75
     0
 76
     0
 77
     0
 78
     0
  0
ENDTAB
  0
TABLE
  2
LTYPE
  5
5
100
AcDbSymbolTable
 70
     2
  0
LTYPE
  5
12
100
AcDbSymbolTableRecord
100
AcDbLinetypeTableRecord
  2
BYBLOCK
 70
     0
  3

 72
    65
 73
     0
 40
0.0
  0
LTYPE
  5
13
100
AcDbSymbolTableRecord
100
AcDbLinetypeTableRecord
  2
BYLAYER
 70
     0
  3

 72
    65
 73
     0
 40
0.0
  0
LTYPE
  5
14
100
AcDbSymbolTableRecord
100
AcDbLinetypeTableRecord
  2
CONTINUOUS
 70
     0
  3
Solid line
 72
    65
 73
     0
 40
0.0
  0
LTYPE
  5
21
100
AcDbSymbolTableRecord
100
AcDbLinetypeTableRecord
  2
DASHED
 70
     0
  3
__ __ __ __ __ __ __ __ __ __ __ __ __ __ __ __
 72
    65
 73
     2
 40
0.75
 49
0.5
 74
     0
 49
-0.25
 74
     0
  0
ENDTAB
  0
TABLE
  2
LAYER
  5
2
100
AcDbSymbolTable
 70
     3
  0
LAYER
  5
F
100
AcDbSymbolTableRecord
100
AcDbLayerTableRecord
  2
0
 70
     0
 62
     7
  6
CONTINUOUS
  0
LAYER
  5
24
100
AcDbSymbolTableRecord
100
AcDbLayerTableRecord
  2
DASH
 70
     0
 62
     2
  6
DASHED
  0
LAYER
  5
25
100
AcDbSymbolTableRecord
100
AcDbLayerTableRecord
  2
TEXT
 70
     0
 62
     2
  6
CONTINUOUS
  0
ENDTAB
  0
TABLE
  2
STYLE
  5
3
100
AcDbSymbolTable
 70
     2
  0
STYLE
  5
10
100
AcDbSymbolTableRecord
100
AcDbTextStyleTableRecord
  2
STANDARD
 70
     0
 40
0.0
 41
1.0
 50
0.0
 71
     0
 42
0.1
  3
txt
  4

  0
STYLE
  5
1F
100
AcDbSymbolTableRecord
100
AcDbTextStyleTableRecord
  2
ROMANS
 70
     0
 40
0.0
 41
0.8
 50
0.0
 71
     0
 42
0.1
  3
ROMANS
  4

  0
ENDTAB
  0
TABLE
  2
VIEW
  5
6
100
AcDbSymbolTable
 70
     0
  0
ENDTAB
  0
TABLE
  2
UCS
  5
7
100
AcDbSymbolTable
 70
     0
  0
ENDTAB
  0
TABLE
  2
APPID
  5
9
100
AcDbSymbolTable
 70
     1
  0
APPID
  5
11
100
AcDbSymbolTableRecord
100
AcDbRegAppTableRecord
  2
ACAD
 70
     0
  0
ENDTAB
  0
TABLE
  2
DIMSTYLE
  5
A
100
AcDbSymbolTable
 70
     1
  0
DIMSTYLE
105
33F
100
AcDbSymbolTableRecord
100
AcDbDimStyleTableRecord
  2
STANDARD
 70
     0
  3

  4

  5

  6

  7

 40
1.0
 41
0.18
 42
0.0625
 43
0.38
 44
0.18
 45
0.0
 46
0.0
 47
0.0
 48
0.0
140
0.18
141
0.09
142
0.0
143
25.4
144
1.0
145
0.0
146
1.0
147
0.09
 71
     0
 72
     0
 73
     1
 74
     1
 75
     0
 76
     0
 77
     0
 78
     0
170
     0
171
     2
172
     0
173
     0
174
     0
175
     0
176
     0
177
     0
178
     0
270
     2
271
     4
272
     4
273
     2
274
     2
340
10
275
     0
280
     0
281
     0
282
     0
283
     1
284
     0
285
     0
286
     0
287
     3
288
     0
  0
ENDTAB
  0
TABLE
  2
BLOCK_RECORD
  5
1
100
AcDbSymbolTable
 70
     2
  0
BLOCK_RECORD
  5
18
100
AcDbSymbolTableRecord
100
AcDbBlockTableRecord
  2
*MODEL_SPACE
  0
BLOCK_RECORD
  5
15
100
AcDbSymbolTableRecord
100
AcDbBlockTableRecord
  2
*PAPER_SPACE
  0
BLOCK_RECORD
  5
1C
100
AcDbSymbolTableRecord
100
AcDbBlockTableRecord
  2
TEMP5
  0
BLOCK_RECORD
  5
1D
100
AcDbSymbolTableRecord
100
AcDbBlockTableRecord
  2
DOT
  0
ENDTAB
  0
ENDSEC
  0
SECTION
  2
BLOCKS
  0
BLOCK
  5
29
100
AcDbEntity
  8
0
100
AcDbBlockBegin
  2
*MODEL_SPACE
 70
     0
 10
0.0
 20
0.0
 30
0.0
  3
*MODEL_SPACE
  1

  0
ENDBLK
  5
2A
100
AcDbEntity
  8
0
100
AcDbBlockEnd
  0
BLOCK
  5
27
100
AcDbEntity
 67
     1
  8
0
100
AcDbBlockBegin
  2
*PAPER_SPACE
 70
     0
 10
0.0
 20
0.0
 30
0.0
  3
*PAPER_SPACE
  1

  0
ENDBLK
  5
28
100
AcDbEntity
 67
     1
  8
0
100
AcDbBlockEnd
  0
BLOCK
  5
2B
100
AcDbEntity
  8
0
100
AcDbBlockBegin
  2
TEMP5
 70
     0
 10
0.0
 20
0.0
 30
0.0
  3
TEMP5
  1

  0
TEXT
  5
2C
100
AcDbEntity
  8
0
100
AcDbText
 10
-1.467738
 20
-0.190625
 30
0.0
 40
0.1
  1
INTERNAL ADDRESSES
 41
0.8
  7
ROMANS
 72
     4
 11
-0.8125
 21
-0.140625
 31
0.0
100
AcDbText
  0
TEXT
  5
2D
100
AcDbEntity
  8
0
100
AcDbText
 10
-1.281071
 20
-0.35253
 30
0.0
 40
0.1
  1
LISTED BELOW 
 41
0.8
  7
ROMANS
 72
     4
 11
-0.8125
 21
-0.30253
 31
0.0
100
AcDbText
  0
ENDBLK
  5
2E
100
AcDbEntity
  8
0
100
AcDbBlockEnd
  0
BLOCK
  5
2F
100
AcDbEntity
  8
0
100
AcDbBlockBegin
  2
DOT
 70
     0
 10
0.0
 20
0.0
 30
0.0
  3
DOT
  1

  0
CIRCLE
  5
30
100
AcDbEntity
  8
0
100
AcDbCircle
 10
0.0
 20
0.0
 30
0.0
 40
0.0213
  0
CIRCLE
  5
31
100
AcDbEntity
  8
0
100
AcDbCircle
 10
0.0
 20
0.0
 30
0.0
 40
0.0113
  0
LINE
  5
32
100
AcDbEntity
  8
0
100
AcDbLine
 10
-0.001
 20
0.0
 30
0.0
 11
0.001
 21
0.0
 31
0.0
  0
LINE
  5
33
100
AcDbEntity
  8
0
100
AcDbLine
 10
0.0
 20
-0.001
 30
0.0
 11
0.0
 21
0.001
 31
0.0
  0
ENDBLK
  5
34
100
AcDbEntity
  8
0
100
AcDbBlockEnd
  0
ENDSEC
  0
SECTION
  2
ENTITIES
  0
TEXT
  5
FC
100
AcDbEntity
  8
0
100
AcDbText
 10
12.911608
 20
13.203744
 30
0.0
 40
0.075
  1

 72
     1
 11
12.911608
 21
13.203744
 31
0.0
100
AcDbText
  0
TEXT
  5
FD
100
AcDbEntity
  8
0
100
AcDbText
 10
12.911608
 20
12.703744
 30
0.0
 40
0.075
  1

 72
     1
 11
12.911608
 21
12.703744
 31
0.0
100
AcDbText
  0
TEXT
  5
FE
100
AcDbEntity
  8
0
100
AcDbText
 10
12.911608
 20
12.203744
 30
0.0
 40
0.1
  1

 72
     1
 11
12.911608
 21
12.203744
 31
0.0
100
AcDbText
  0
TEXT
  5
FF
100
AcDbEntity
  8
0
100
AcDbText
 10
12.724108
 20
6.203744
 30
0.0
 40
0.1
  1

100
AcDbText
  0
TEXT
  5
100
100
AcDbEntity
  8
0
100
AcDbText
 10
12.724108
 20
11.703744
 30
0.0
 40
0.1
  1

100
AcDbText
  0
TEXT
  5
101
100
AcDbEntity
  8
0
100
AcDbText
 10
23.237741
 20
13.203744
 30
0.0
 40
0.075
  1

 72
     1
 11
23.237741
 21
13.203744
 31
0.0
100
AcDbText
  0
TEXT
  5
102
100
AcDbEntity
  8
0
100
AcDbText
 10
23.237741
 20
12.703744
 30
0.0
 40
0.075
  1

 72
     1
 11
23.237741
 21
12.703744
 31
0.0
100
AcDbText
  0
TEXT
  5
103
100
AcDbEntity
  8
0
100
AcDbText
 10
23.237741
 20
12.203744
 30
0.0
 40
0.1
  1

 72
     1
 11
23.237741
 21
12.203744
 31
0.0
100
AcDbText
  0
TEXT
  5
104
100
AcDbEntity
  8
0
100
AcDbText
 10
23.050241
 20
6.203744
 30
0.0
 40
0.1
  1

100
AcDbText
  0
TEXT
  5
105
100
AcDbEntity
  8
0
100
AcDbText
 10
23.050241
 20
11.703744
 30
0.0
 40
0.1
  1

100
AcDbText
  0
TEXT
  5
106
100
AcDbEntity
  8
TEXT
100
AcDbText
 10
0.935863
 20
14.893429
 30
0.0
 40
0.125
  1
AXIS #--: 
 41
0.8
  7
ROMANS
 72
     4
 11
1.390625
 21
14.947
 31
0.0
100
AcDbText
  0
TEXT
  5
107
100
AcDbEntity
  8
TEXT
100
AcDbText
 10
0.547768
 20
14.682119
 30
0.0
 40
0.125
  1
Brushless Servo Drive
 41
0.8
  7
ROMANS
 72
     4
 11
1.390625
 21
14.744619
 31
0.0
100
AcDbText
  0
TEXT
  5
108
100
AcDbEntity
  8
TEXT
100
AcDbText
 10
1.071577
 20
14.500571
 30
0.0
 40
0.125
  1
Amplifier
 41
0.8
  7
ROMANS
 72
     4
 11
1.390625
 21
14.542238
 31
0.0
100
AcDbText
  0
LINE
  5
118
100
AcDbEntity
  8
0
100
AcDbLine
 10
0.140625
 20
1.54075
 30
0.0
 11
0.140625
 21
14.447
 31
0.0
  0
LINE
  5
119
100
AcDbEntity
  8
0
100
AcDbLine
 10
2.640625
 20
14.447
 30
0.0
 11
2.640625
 21
1.54075
 31
0.0
  0
LINE
  5
11A
100
AcDbEntity
  8
0
100
AcDbLine
 10
0.140625
 20
1.54075
 30
0.0
 11
2.640625
 21
1.54075
 31
0.0
  0
LINE
  5
122
100
AcDbEntity
  8
0
100
AcDbLine
 10
0.140625
 20
14.447
 30
0.0
 11
2.640625
 21
14.447
 31
0.0
  0
LINE
  5
125
100
AcDbEntity
  8
0
100
AcDbLine
 10
2.640625
 20
13.97825
 30
0.0
 11
2.765625
 21
13.97825
 31
0.0
  0
LINE
  5
126
100
AcDbEntity
  8
0
100
AcDbLine
 10
2.640625
 20
13.85325
 30
0.0
 11
2.765625
 21
13.85325
 31
0.0
  0
LINE
  5
127
100
AcDbEntity
  8
0
100
AcDbLine
 10
2.640625
 20
13.47825
 30
0.0
 11
2.765625
 21
13.47825
 31
0.0
  0
LINE
  5
128
100
AcDbEntity
  8
0
100
AcDbLine
 10
2.640625
 20
13.35325
 30
0.0
 11
2.765625
 21
13.35325
 31
0.0
  0
TEXT
  5
12B
100
AcDbEntity
  8
TEXT
100
AcDbText
 10
2.128125
 20
13.8845
 30
0.0
 40
0.075
  1
+5 VDC
 72
     2
 11
2.578125
 21
13.8845
 31
0.0
100
AcDbText
  0
TEXT
  5
227
100
AcDbEntity
  8
TEXT
100
AcDbText
 10
2.890625
 20
14.04075
 30
0.0
 40
0.075
  1
J1
100
AcDbText
  0
TEXT
  5
243
100
AcDbEntity
  8
TEXT
100
AcDbText
 10
-0.074402
 20
14.04075
 30
0.0
 40
0.075
  1
J2
100
AcDbText
  0
LINE
  5
245
100
AcDbEntity
  8
0
100
AcDbLine
 10
0.140625
 20
14.072
 30
0.0
 11
2.640625
 21
14.072
 31
0.0
  0
TEXT
  5
378
100
AcDbEntity
  8
0
100
AcDbText
 10
9.171875
 20
8.046875
 30
0.0
 40
0.1
  1

 72
     1
 11
9.171875
 21
8.046875
 31
0.0
100
AcDbText
  0
TEXT
  5
379
100
AcDbEntity
  8
0
100
AcDbText
 10
15.320913
 20
4.90725
 30
0.0
 40
0.075
  1

100
AcDbText
  0
TEXT
  5
37A
100
AcDbEntity
  8
0
100
AcDbText
 10
14.973206
 20
4.90725
 30
0.0
 40
0.075
  1

100
AcDbText
  0
TEXT
  5
37B
100
AcDbEntity
  8
0
100
AcDbText
 10
14.88208
 20
14.438185
 30
0.0
 40
0.1
  1

 72
     1
 11
14.88208
 21
14.438185
 31
0.0
100
AcDbText
  0
TEXT
  5
37C
100
AcDbEntity
  8
0
100
AcDbText
 10
21.031118
 20
11.29856
 30
0.0
 40
0.075
  1

100
AcDbText
  0
TEXT
  5
37D
100
AcDbEntity
  8
0
100
AcDbText
 10
20.683411
 20
11.29856
 30
0.0
 40
0.075
  1

100
AcDbText
  0
TEXT
  5
37E
100
AcDbEntity
  8
0
100
AcDbText
 10
20.760375
 20
8.08025
 30
0.0
 40
0.1
  1

 72
     1
 11
20.760375
 21
8.08025
 31
0.0
100
AcDbText
  0
TEXT
  5
37F
100
AcDbEntity
  8
0
100
AcDbText
 10
26.909413
 20
4.940625
 30
0.0
 40
0.075
  1

100
AcDbText
  0
TEXT
  5
380
100
AcDbEntity
  8
0
100
AcDbText
 10
26.561706
 20
4.940625
 30
0.0
 40
0.075
  1

100
AcDbText
  0
TEXT
  5
381
100
AcDbEntity
  8
0
100
AcDbText
 10
26.47058
 20
14.47156
 30
0.0
 40
0.1
  1

 72
     1
 11
26.47058
 21
14.47156
 31
0.0
100
AcDbText
  0
TEXT
  5
382
100
AcDbEntity
  8
0
100
AcDbText
 10
32.619618
 20
11.331935
 30
0.0
 40
0.075
  1

100
AcDbText
  0
TEXT
  5
383
100
AcDbEntity
  8
0
100
AcDbText
 10
32.271911
 20
11.331935
 30
0.0
 40
0.075
  1

100
AcDbText
  0
TEXT
  5
6F2
100
AcDbEntity
  8
0
100
AcDbText
 10
24.241939
 20
13.625548
 30
0.0
 40
0.075
  1

 72
     1
 11
24.241939
 21
13.625548
 31
0.0
100
AcDbText
  0
TEXT
  5
6F3
100
AcDbEntity
  8
0
100
AcDbText
 10
24.241939
 20
13.125548
 30
0.0
 40
0.075
  1

 72
     1
 11
24.241939
 21
13.125548
 31
0.0
100
AcDbText
  0
TEXT
  5
6F4
100
AcDbEntity
  8
0
100
AcDbText
 10
24.241939
 20
12.625548
 30
0.0
 40
0.1
  1

 72
     1
 11
24.241939
 21
12.625548
 31
0.0
100
AcDbText
  0
TEXT
  5
6F5
100
AcDbEntity
  8
0
100
AcDbText
 10
24.054439
 20
6.625548
 30
0.0
 40
0.1
  1

100
AcDbText
  0
TEXT
  5
6F6
100
AcDbEntity
  8
0
100
AcDbText
 10
24.054439
 20
12.125548
 30
0.0
 40
0.1
  1

100
AcDbText
  0
TEXT
  5
6F7
100
AcDbEntity
  8
0
100
AcDbText
 10
34.568072
 20
13.625548
 30
0.0
 40
0.075
  1

 72
     1
 11
34.568072
 21
13.625548
 31
0.0
100
AcDbText
  0
TEXT
  5
6F8
100
AcDbEntity
  8
0
100
AcDbText
 10
34.568072
 20
13.125548
 30
0.0
 40
0.075
  1

 72
     1
 11
34.568072
 21
13.125548
 31
0.0
100
AcDbText
  0
TEXT
  5
6F9
100
AcDbEntity
  8
0
100
AcDbText
 10
34.568072
 20
12.625548
 30
0.0
 40
0.1
  1

 72
     1
 11
34.568072
 21
12.625548
 31
0.0
100
AcDbText
  0
TEXT
  5
6FA
100
AcDbEntity
  8
0
100
AcDbText
 10
34.380572
 20
6.625548
 30
0.0
 40
0.1
  1

100
AcDbText
  0
TEXT
  5
6FB
100
AcDbEntity
  8
0
100
AcDbText
 10
34.380572
 20
12.125548
 30
0.0
 40
0.1
  1

100
AcDbText
  0
TEXT
  5
714
100
AcDbEntity
  8
TEXT
100
AcDbText
 10
0.203125
 20
13.8845
 30
0.0
 40
0.075
  1
Enc. Pwr
100
AcDbText
  0
TEXT
  5
849
100
AcDbEntity
  8
0
100
AcDbText
 10
20.502206
 20
8.468679
 30
0.0
 40
0.1
  1

 72
     1
 11
20.502206
 21
8.468679
 31
0.0
100
AcDbText
  0
TEXT
  5
84A
100
AcDbEntity
  8
0
100
AcDbText
 10
26.651244
 20
5.329054
 30
0.0
 40
0.075
  1

100
AcDbText
  0
TEXT
  5
84B
100
AcDbEntity
  8
0
100
AcDbText
 10
26.303537
 20
5.329054
 30
0.0
 40
0.075
  1

100
AcDbText
  0
TEXT
  5
84C
100
AcDbEntity
  8
0
100
AcDbText
 10
26.212412
 20
14.859989
 30
0.0
 40
0.1
  1

 72
     1
 11
26.212412
 21
14.859989
 31
0.0
100
AcDbText
  0
TEXT
  5
84D
100
AcDbEntity
  8
0
100
AcDbText
 10
32.36145
 20
11.720364
 30
0.0
 40
0.075
  1

100
AcDbText
  0
TEXT
  5
84E
100
AcDbEntity
  8
0
100
AcDbText
 10
32.013742
 20
11.720364
 30
0.0
 40
0.075
  1

100
AcDbText
  0
TEXT
  5
84F
100
AcDbEntity
  8
0
100
AcDbText
 10
32.090706
 20
8.502054
 30
0.0
 40
0.1
  1

 72
     1
 11
32.090706
 21
8.502054
 31
0.0
100
AcDbText
  0
TEXT
  5
850
100
AcDbEntity
  8
0
100
AcDbText
 10
38.239744
 20
5.362429
 30
0.0
 40
0.075
  1

100
AcDbText
  0
TEXT
  5
851
100
AcDbEntity
  8
0
100
AcDbText
 10
37.892037
 20
5.362429
 30
0.0
 40
0.075
  1

100
AcDbText
  0
TEXT
  5
852
100
AcDbEntity
  8
0
100
AcDbText
 10
37.800912
 20
14.893364
 30
0.0
 40
0.1
  1

 72
     1
 11
37.800912
 21
14.893364
 31
0.0
100
AcDbText
  0
TEXT
  5
853
100
AcDbEntity
  8
0
100
AcDbText
 10
43.94995
 20
11.753739
 30
0.0
 40
0.075
  1

100
AcDbText
  0
TEXT
  5
854
100
AcDbEntity
  8
0
100
AcDbText
 10
43.602242
 20
11.753739
 30
0.0
 40
0.075
  1

100
AcDbText
  0
TEXT
  5
856
100
AcDbEntity
  8
0
100
AcDbText
 10
29.942831
 20
11.209429
 30
0.0
 40
0.1
  1

 72
     1
 11
29.942831
 21
11.209429
 31
0.0
100
AcDbText
  0
TEXT
  5
857
100
AcDbEntity
  8
0
100
AcDbText
 10
36.091869
 20
8.069804
 30
0.0
 40
0.075
  1

100
AcDbText
  0
TEXT
  5
858
100
AcDbEntity
  8
0
100
AcDbText
 10
35.744162
 20
8.069804
 30
0.0
 40
0.075
  1

100
AcDbText
  0
TEXT
  5
859
100
AcDbEntity
  8
0
100
AcDbText
 10
35.653037
 20
17.600739
 30
0.0
 40
0.1
  1

 72
     1
 11
35.653037
 21
17.600739
 31
0.0
100
AcDbText
  0
TEXT
  5
85A
100
AcDbEntity
  8
0
100
AcDbText
 10
41.802075
 20
14.461114
 30
0.0
 40
0.075
  1

100
AcDbText
  0
TEXT
  5
85B
100
AcDbEntity
  8
0
100
AcDbText
 10
41.454367
 20
14.461114
 30
0.0
 40
0.075
  1

100
AcDbText
  0
TEXT
  5
85C
100
AcDbEntity
  8
0
100
AcDbText
 10
41.531331
 20
11.242804
 30
0.0
 40
0.1
  1

 72
     1
 11
41.531331
 21
11.242804
 31
0.0
100
AcDbText
  0
TEXT
  5
85D
100
AcDbEntity
  8
0
100
AcDbText
 10
47.680369
 20
8.103179
 30
0.0
 40
0.075
  1

100
AcDbText
  0
TEXT
  5
85E
100
AcDbEntity
  8
0
100
AcDbText
 10
47.332662
 20
8.103179
 30
0.0
 40
0.075
  1

100
AcDbText
  0
TEXT
  5
85F
100
AcDbEntity
  8
0
100
AcDbText
 10
47.241537
 20
17.634114
 30
0.0
 40
0.1
  1

 72
     1
 11
47.241537
 21
17.634114
 31
0.0
100
AcDbText
  0
TEXT
  5
860
100
AcDbEntity
  8
0
100
AcDbText
 10
53.390575
 20
14.494489
 30
0.0
 40
0.075
  1

100
AcDbText
  0
TEXT
  5
861
100
AcDbEntity
  8
0
100
AcDbText
 10
53.042867
 20
14.494489
 30
0.0
 40
0.075
  1

100
AcDbText
  0
TEXT
  5
862
100
AcDbEntity
  8
0
100
AcDbText
 10
33.923189
 20
18.070042
 30
0.0
 40
0.075
  1

 72
     1
 11
33.923189
 21
18.070042
 31
0.0
100
AcDbText
  0
TEXT
  5
863
100
AcDbEntity
  8
0
100
AcDbText
 10
33.923189
 20
17.570042
 30
0.0
 40
0.075
  1

 72
     1
 11
33.923189
 21
17.570042
 31
0.0
100
AcDbText
  0
TEXT
  5
864
100
AcDbEntity
  8
0
100
AcDbText
 10
33.923189
 20
17.070042
 30
0.0
 40
0.1
  1

 72
     1
 11
33.923189
 21
17.070042
 31
0.0
100
AcDbText
  0
TEXT
  5
865
100
AcDbEntity
  8
0
100
AcDbText
 10
33.735689
 20
11.070042
 30
0.0
 40
0.1
  1

100
AcDbText
  0
TEXT
  5
866
100
AcDbEntity
  8
0
100
AcDbText
 10
33.735689
 20
16.570042
 30
0.0
 40
0.1
  1

100
AcDbText
  0
TEXT
  5
867
100
AcDbEntity
  8
0
100
AcDbText
 10
44.249322
 20
18.070042
 30
0.0
 40
0.075
  1

 72
     1
 11
44.249322
 21
18.070042
 31
0.0
100
AcDbText
  0
TEXT
  5
868
100
AcDbEntity
  8
0
100
AcDbText
 10
44.249322
 20
17.570042
 30
0.0
 40
0.075
  1

 72
     1
 11
44.249322
 21
17.570042
 31
0.0
100
AcDbText
  0
TEXT
  5
869
100
AcDbEntity
  8
0
100
AcDbText
 10
44.249322
 20
17.070042
 30
0.0
 40
0.1
  1

 72
     1
 11
44.249322
 21
17.070042
 31
0.0
100
AcDbText
  0
TEXT
  5
86A
100
AcDbEntity
  8
0
100
AcDbText
 10
44.061822
 20
11.070042
 30
0.0
 40
0.1
  1

100
AcDbText
  0
TEXT
  5
86B
100
AcDbEntity
  8
0
100
AcDbText
 10
44.061822
 20
16.570042
 30
0.0
 40
0.1
  1

100
AcDbText
  0
TEXT
  5
88D
100
AcDbEntity
  8
TEXT
100
AcDbText
 10
1.057292
 20
14.182119
 30
0.0
 40
0.125
  1
DSM-***
 41
0.8
  7
ROMANS
 72
     4
 11
1.390625
 21
14.244619
 31
0.0
100
AcDbText
  0
TEXT
  5
DBB
100
AcDbEntity
  8
0
100
AcDbText
 10
13.03747
 20
13.725335
 30
0.0
 40
0.075
  1

 72
     1
 11
13.03747
 21
13.725335
 31
0.0
100
AcDbText
  0
TEXT
  5
DBF
100
AcDbEntity
  8
0
100
AcDbText
 10
13.03747
 20
13.225335
 30
0.0
 40
0.075
  1

 72
     1
 11
13.03747
 21
13.225335
 31
0.0
100
AcDbText
  0
TEXT
  5
DC1
100
AcDbEntity
  8
0
100
AcDbText
 10
13.03747
 20
12.725335
 30
0.0
 40
0.1
  1

 72
     1
 11
13.03747
 21
12.725335
 31
0.0
100
AcDbText
  0
TEXT
  5
DC2
100
AcDbEntity
  8
0
100
AcDbText
 10
12.84997
 20
6.725335
 30
0.0
 40
0.1
  1

100
AcDbText
  0
TEXT
  5
DC3
100
AcDbEntity
  8
0
100
AcDbText
 10
12.84997
 20
12.225335
 30
0.0
 40
0.1
  1

100
AcDbText
  0
TEXT
  5
DC4
100
AcDbEntity
  8
0
100
AcDbText
 10
13.17497
 20
8.725335
 30
0.0
 40
0.1
  1

 72
     1
 11
13.17497
 21
8.725335
 31
0.0
100
AcDbText
  0
TEXT
  5
E7F
100
AcDbEntity
  8
0
100
AcDbText
 10
14.378095
 20
24.516085
 30
0.0
 40
0.075
  1

 72
     1
 11
14.378095
 21
24.516085
 31
0.0
100
AcDbText
  0
TEXT
  5
E80
100
AcDbEntity
  8
0
100
AcDbText
 10
14.378095
 20
24.016085
 30
0.0
 40
0.075
  1

 72
     1
 11
14.378095
 21
24.016085
 31
0.0
100
AcDbText
  0
TEXT
  5
E83
100
AcDbEntity
  8
0
100
AcDbText
 10
14.378095
 20
23.516085
 30
0.0
 40
0.1
  1

 72
     1
 11
14.378095
 21
23.516085
 31
0.0
100
AcDbText
  0
TEXT
  5
E84
100
AcDbEntity
  8
0
100
AcDbText
 10
14.190595
 20
17.516085
 30
0.0
 40
0.1
  1

100
AcDbText
  0
TEXT
  5
E85
100
AcDbEntity
  8
0
100
AcDbText
 10
14.190595
 20
23.016085
 30
0.0
 40
0.1
  1

100
AcDbText
  0
TEXT
  5
E86
100
AcDbEntity
  8
0
100
AcDbText
 10
14.515595
 20
19.516085
 30
0.0
 40
0.1
  1

 72
     1
 11
14.515595
 21
19.516085
 31
0.0
100
AcDbText
  0
TEXT
  5
EC4
100
AcDbEntity
  8
0
100
AcDbText
 10
19.86872
 20
8.23146
 30
0.0
 40
0.1
  1

 72
     1
 11
19.86872
 21
8.23146
 31
0.0
100
AcDbText
  0
TEXT
  5
EC5
100
AcDbEntity
  8
0
100
AcDbText
 10
26.017758
 20
5.091835
 30
0.0
 40
0.075
  1

100
AcDbText
  0
TEXT
  5
EC6
100
AcDbEntity
  8
0
100
AcDbText
 10
25.67005
 20
5.091835
 30
0.0
 40
0.075
  1

100
AcDbText
  0
TEXT
  5
EC7
100
AcDbEntity
  8
0
100
AcDbText
 10
25.578925
 20
14.622771
 30
0.0
 40
0.1
  1

 72
     1
 11
25.578925
 21
14.622771
 31
0.0
100
AcDbText
  0
TEXT
  5
EC8
100
AcDbEntity
  8
0
100
AcDbText
 10
31.727963
 20
11.483146
 30
0.0
 40
0.075
  1

100
AcDbText
  0
TEXT
  5
EC9
100
AcDbEntity
  8
0
100
AcDbText
 10
31.380255
 20
11.483146
 30
0.0
 40
0.075
  1

100
AcDbText
  0
TEXT
  5
ECA
100
AcDbEntity
  8
0
100
AcDbText
 10
31.45722
 20
8.264835
 30
0.0
 40
0.1
  1

 72
     1
 11
31.45722
 21
8.264835
 31
0.0
100
AcDbText
  0
TEXT
  5
ECB
100
AcDbEntity
  8
0
100
AcDbText
 10
37.606258
 20
5.12521
 30
0.0
 40
0.075
  1

100
AcDbText
  0
TEXT
  5
ECC
100
AcDbEntity
  8
0
100
AcDbText
 10
37.25855
 20
5.12521
 30
0.0
 40
0.075
  1

100
AcDbText
  0
TEXT
  5
ECD
100
AcDbEntity
  8
0
100
AcDbText
 10
37.167425
 20
14.656146
 30
0.0
 40
0.1
  1

 72
     1
 11
37.167425
 21
14.656146
 31
0.0
100
AcDbText
  0
TEXT
  5
ECE
100
AcDbEntity
  8
0
100
AcDbText
 10
43.316463
 20
11.516521
 30
0.0
 40
0.075
  1

100
AcDbText
  0
TEXT
  5
ECF
100
AcDbEntity
  8
0
100
AcDbText
 10
42.968755
 20
11.516521
 30
0.0
 40
0.075
  1

100
AcDbText
  0
LINE
  5
1053
100
AcDbEntity
  8
0
100
AcDbLine
 10
2.640625
 20
13.72825
 30
0.0
 11
2.765625
 21
13.72825
 31
0.0
  0
LINE
  5
1054
100
AcDbEntity
  8
0
100
AcDbLine
 10
2.640625
 20
13.60325
 30
0.0
 11
2.765625
 21
13.60325
 31
0.0
  0
LINE
  5
105C
100
AcDbEntity
  8
0
100
AcDbLine
 10
2.640625
 20
12.97825
 30
0.0
 11
2.765625
 21
12.97825
 31
0.0
  0
LINE
  5
105D
100
AcDbEntity
  8
0
100
AcDbLine
 10
2.640625
 20
12.85325
 30
0.0
 11
2.765625
 21
12.85325
 31
0.0
  0
LINE
  5
1061
100
AcDbEntity
  8
0
100
AcDbLine
 10
2.640625
 20
13.10325
 30
0.0
 11
2.765625
 21
13.10325
 31
0.0
  0
LINE
  5
1062
100
AcDbEntity
  8
0
100
AcDbLine
 10
2.640625
 20
13.22825
 30
0.0
 11
2.765625
 21
13.22825
 31
0.0
  0
LINE
  5
1074
100
AcDbEntity
  8
0
100
AcDbLine
 10
2.640625
 20
12.47825
 30
0.0
 11
2.765625
 21
12.47825
 31
0.0
  0
LINE
  5
1075
100
AcDbEntity
  8
0
100
AcDbLine
 10
2.640625
 20
12.35325
 30
0.0
 11
2.765625
 21
12.35325
 31
0.0
  0
LINE
  5
1079
100
AcDbEntity
  8
0
100
AcDbLine
 10
2.640625
 20
12.60325
 30
0.0
 11
2.765625
 21
12.60325
 31
0.0
  0
LINE
  5
107A
100
AcDbEntity
  8
0
100
AcDbLine
 10
2.640625
 20
12.72825
 30
0.0
 11
2.765625
 21
12.72825
 31
0.0
  0
TEXT
  5
110E
100
AcDbEntity
  8
TEXT
100
AcDbText
 10
2.303125
 20
13.6345
 30
0.0
 40
0.075
  1
ECOM
 72
     2
 11
2.578125
 21
13.6345
 31
0.0
100
AcDbText
  0
TEXT
  5
110F
100
AcDbEntity
  8
TEXT
100
AcDbText
 10
2.128125
 20
13.3845
 30
0.0
 40
0.075
  1
+5 VDC
 72
     2
 11
2.578125
 21
13.3845
 31
0.0
100
AcDbText
  0
TEXT
  5
1110
100
AcDbEntity
  8
TEXT
100
AcDbText
 10
2.303125
 20
13.1345
 30
0.0
 40
0.075
  1
ECOM
 72
     2
 11
2.578125
 21
13.1345
 31
0.0
100
AcDbText
  0
TEXT
  5
1111
100
AcDbEntity
  8
TEXT
100
AcDbText
 10
2.053125
 20
12.8845
 30
0.0
 40
0.075
  1
+24 VDC
 72
     2
 11
2.578125
 21
12.8845
 31
0.0
100
AcDbText
  0
TEXT
  5
1112
100
AcDbEntity
  8
TEXT
100
AcDbText
 10
1.828125
 20
12.6345
 30
0.0
 40
0.075
  1
24 VDC Com
 72
     2
 11
2.578125
 21
12.6345
 31
0.0
100
AcDbText
  0
TEXT
  5
1113
100
AcDbEntity
  8
TEXT
100
AcDbText
 10
2.078125
 20
12.3845
 30
0.0
 40
0.075
  1
A OUT +
 72
     2
 11
2.578125
 21
12.3845
 31
0.0
100
AcDbText
  0
TEXT
  5
1115
100
AcDbEntity
  8
TEXT
100
AcDbText
 10
1.828125
 20
10.8845
 30
0.0
 40
0.075
  1
24 VDC Com
 72
     2
 11
2.578125
 21
10.8845
 31
0.0
100
AcDbText
  0
LINE
  5
1127
100
AcDbEntity
  8
0
100
AcDbLine
 10
2.765625
 20
11.41575
 30
0.0
 11
6.415625
 21
11.41575
 31
0.0
  0
LINE
  5
112A
100
AcDbEntity
  8
0
100
AcDbLine
 10
2.640625
 20
11.60325
 30
0.0
 11
2.765625
 21
11.60325
 31
0.0
  0
LINE
  5
112E
100
AcDbEntity
  8
0
100
AcDbLine
 10
2.640625
 20
11.72825
 30
0.0
 11
2.765625
 21
11.72825
 31
0.0
  0
LINE
  5
112F
100
AcDbEntity
  8
0
100
AcDbLine
 10
2.640625
 20
11.97825
 30
0.0
 11
2.765625
 21
11.97825
 31
0.0
  0
LINE
  5
1130
100
AcDbEntity
  8
0
100
AcDbLine
 10
2.640625
 20
11.85325
 30
0.0
 11
2.765625
 21
11.85325
 31
0.0
  0
LINE
  5
1134
100
AcDbEntity
  8
0
100
AcDbLine
 10
2.640625
 20
12.10325
 30
0.0
 11
2.765625
 21
12.10325
 31
0.0
  0
LINE
  5
1135
100
AcDbEntity
  8
0
100
AcDbLine
 10
2.640625
 20
12.22825
 30
0.0
 11
2.765625
 21
12.22825
 31
0.0
  0
TEXT
  5
1139
100
AcDbEntity
  8
TEXT
100
AcDbText
 10
1.740625
 20
8.3845
 30
0.0
 40
0.075
  1
Analog Cmd +
 72
     2
 11
2.578125
 21
8.3845
 31
0.0
100
AcDbText
  0
TEXT
  5
113A
100
AcDbEntity
  8
TEXT
100
AcDbText
 10
1.678125
 20
7.6345
 30
0.0
 40
0.075
  1
Drive Ready -
 72
     2
 11
2.578125
 21
7.6345
 31
0.0
100
AcDbText
  0
TEXT
  5
113B
100
AcDbEntity
  8
TEXT
100
AcDbText
 10
1.678125
 20
7.8845
 30
0.0
 40
0.075
  1
Drive Ready +
 72
     2
 11
2.578125
 21
7.8845
 31
0.0
100
AcDbText
  0
TEXT
  5
113C
100
AcDbEntity
  8
TEXT
100
AcDbText
 10
1.740625
 20
8.1345
 30
0.0
 40
0.075
  1
Analog Cmd -
 72
     2
 11
2.578125
 21
8.1345
 31
0.0
100
AcDbText
  0
TEXT
  5
113D
100
AcDbEntity
  8
TEXT
100
AcDbText
 10
1.890625
 20
8.6345
 30
0.0
 40
0.075
  1
Faul Reset
 72
     2
 11
2.578125
 21
8.6345
 31
0.0
100
AcDbText
  0
TEXT
  5
113E
100
AcDbEntity
  8
TEXT
100
AcDbText
 10
1.790625
 20
8.8845
 30
0.0
 40
0.075
  1
Drive Enable
 72
     2
 11
2.578125
 21
8.8845
 31
0.0
100
AcDbText
  0
TEXT
  5
113F
100
AcDbEntity
  8
TEXT
100
AcDbText
 10
1.878125
 20
9.1345
 30
0.0
 40
0.075
  1
Aux Ch I -
 72
     2
 11
2.578125
 21
9.1345
 31
0.0
100
AcDbText
  0
TEXT
  5
1140
100
AcDbEntity
  8
TEXT
100
AcDbText
 10
1.953125
 20
9.3845
 30
0.0
 40
0.075
  1
Aux Ch I+
 72
     2
 11
2.578125
 21
9.3845
 31
0.0
100
AcDbText
  0
TEXT
  5
116A
100
AcDbEntity
  8
TEXT
100
AcDbText
 10
1.928125
 20
9.8845
 30
0.0
 40
0.075
  1
Aux Ch B+
 72
     2
 11
2.578125
 21
9.8845
 31
0.0
100
AcDbText
  0
TEXT
  5
116B
100
AcDbEntity
  8
TEXT
100
AcDbText
 10
1.928125
 20
9.6345
 30
0.0
 40
0.075
  1
Aux Ch B-
 72
     2
 11
2.578125
 21
9.6345
 31
0.0
100
AcDbText
  0
TEXT
  5
116C
100
AcDbEntity
  8
TEXT
100
AcDbText
 10
1.928125
 20
10.1345
 30
0.0
 40
0.075
  1
Aus Ch A-
 72
     2
 11
2.578125
 21
10.1345
 31
0.0
100
AcDbText
  0
TEXT
  5
116D
100
AcDbEntity
  8
TEXT
100
AcDbText
 10
1.928125
 20
10.3845
 30
0.0
 40
0.075
  1
Aux Ch A+
 72
     2
 11
2.578125
 21
10.3845
 31
0.0
100
AcDbText
  0
TEXT
  5
1181
100
AcDbEntity
  8
TEXT
100
AcDbText
 10
1.703125
 20
1.8845
 30
0.0
 40
0.075
  1
Brake Enab +
 72
     2
 11
2.578125
 21
1.8845
 31
0.0
100
AcDbText
  0
TEXT
  5
1188
100
AcDbEntity
  8
TEXT
100
AcDbText
 10
2.278125
 20
2.1345
 30
0.0
 40
0.075
  1
RSVD
 72
     2
 11
2.578125
 21
2.1345
 31
0.0
100
AcDbText
  0
TEXT
  5
1189
100
AcDbEntity
  8
TEXT
100
AcDbText
 10
2.278125
 20
2.3845
 30
0.0
 40
0.075
  1
RSVD
 72
     2
 11
2.578125
 21
2.3845
 31
0.0
100
AcDbText
  0
TEXT
  5
118A
100
AcDbEntity
  8
TEXT
100
AcDbText
 10
2.278125
 20
2.6345
 30
0.0
 40
0.075
  1
RSVD
 72
     2
 11
2.578125
 21
2.6345
 31
0.0
100
AcDbText
  0
TEXT
  5
118D
100
AcDbEntity
  8
TEXT
100
AcDbText
 10
1.540625
 20
3.6345
 30
0.0
 40
0.075
  1
Select Output 1
 72
     2
 11
2.578125
 21
3.6345
 31
0.0
100
AcDbText
  0
TEXT
  5
1193
100
AcDbEntity
  8
TEXT
100
AcDbText
 10
2.278125
 20
5.1345
 30
0.0
 40
0.075
  1
RSVD
 72
     2
 11
2.578125
 21
5.1345
 31
0.0
100
AcDbText
  0
TEXT
  5
1196
100
AcDbEntity
  8
TEXT
100
AcDbText
 10
1.640625
 20
6.1345
 30
0.0
 40
0.075
  1
Select Input 1
 72
     2
 11
2.578125
 21
6.1345
 31
0.0
100
AcDbText
  0
TEXT
  5
1197
100
AcDbEntity
  8
TEXT
100
AcDbText
 10
1.515625
 20
6.3845
 30
0.0
 40
0.075
  1
Analog Output 2
 72
     2
 11
2.578125
 21
6.3845
 31
0.0
100
AcDbText
  0
TEXT
  5
1198
100
AcDbEntity
  8
TEXT
100
AcDbText
 10
1.540625
 20
6.6345
 30
0.0
 40
0.075
  1
Analog Output 1
 72
     2
 11
2.578125
 21
6.6345
 31
0.0
100
AcDbText
  0
TEXT
  5
11FA
100
AcDbEntity
  8
TEXT
100
AcDbText
 10
1.665625
 20
7.1345
 30
0.0
 40
0.075
  1
Analog Common
 72
     2
 11
2.578125
 21
7.1345
 31
0.0
100
AcDbText
  0
TEXT
  5
11FB
100
AcDbEntity
  8
TEXT
100
AcDbText
 10
1.428125
 20
6.8845
 30
0.0
 40
0.075
  1
Rev Current Limit
 72
     2
 11
2.578125
 21
6.8845
 31
0.0
100
AcDbText
  0
TEXT
  5
11FC
100
AcDbEntity
  8
TEXT
100
AcDbText
 10
1.428125
 20
7.3845
 30
0.0
 40
0.075
  1
Fwd Current Limit
 72
     2
 11
2.578125
 21
7.3845
 31
0.0
100
AcDbText
  0
TEXT
  5
1213
100
AcDbEntity
  8
TEXT
100
AcDbText
 10
1.703125
 20
1.6345
 30
0.0
 40
0.075
  1
Brake Enab -
 72
     2
 11
2.578125
 21
1.6345
 31
0.0
100
AcDbText
  0
LINE
  5
1226
100
AcDbEntity
  8
DASH
100
AcDbLine
 10
1.390625
 20
14.072
 30
0.0
 11
1.390625
 21
1.54075
 31
0.0
  0
TEXT
  5
1228
100
AcDbEntity
  8
TEXT
100
AcDbText
 10
2.078125
 20
12.1345
 30
0.0
 40
0.075
  1
A OUT -
 72
     2
 11
2.578125
 21
12.1345
 31
0.0
100
AcDbText
  0
TEXT
  5
1229
100
AcDbEntity
  8
TEXT
100
AcDbText
 10
2.078125
 20
11.8845
 30
0.0
 40
0.075
  1
B OUT +
 72
     2
 11
2.578125
 21
11.8845
 31
0.0
100
AcDbText
  0
TEXT
  5
122A
100
AcDbEntity
  8
TEXT
100
AcDbText
 10
2.078125
 20
11.6345
 30
0.0
 40
0.075
  1
B OUT -
 72
     2
 11
2.578125
 21
11.6345
 31
0.0
100
AcDbText
  0
TEXT
  5
122B
100
AcDbEntity
  8
TEXT
100
AcDbText
 10
2.103125
 20
11.3845
 30
0.0
 40
0.075
  1
I OUT +
 72
     2
 11
2.578125
 21
11.3845
 31
0.0
100
AcDbText
  0
TEXT
  5
122C
100
AcDbEntity
  8
TEXT
100
AcDbText
 10
2.103125
 20
11.1345
 30
0.0
 40
0.075
  1
I OUT -
 72
     2
 11
2.578125
 21
11.1345
 31
0.0
100
AcDbText
  0
TEXT
  5
122E
100
AcDbEntity
  8
TEXT
100
AcDbText
 10
1.615625
 20
5.8845
 30
0.0
 40
0.075
  1
Select Input 2
 72
     2
 11
2.578125
 21
5.8845
 31
0.0
100
AcDbText
  0
TEXT
  5
122F
100
AcDbEntity
  8
TEXT
100
AcDbText
 10
1.615625
 20
5.6345
 30
0.0
 40
0.075
  1
Select Input 3
 72
     2
 11
2.578125
 21
5.6345
 31
0.0
100
AcDbText
  0
TEXT
  5
1230
100
AcDbEntity
  8
TEXT
100
AcDbText
 10
1.615625
 20
5.3845
 30
0.0
 40
0.075
  1
Select Input 4
 72
     2
 11
2.578125
 21
5.3845
 31
0.0
100
AcDbText
  0
TEXT
  5
1231
100
AcDbEntity
  8
TEXT
100
AcDbText
 10
2.278125
 20
4.8845
 30
0.0
 40
0.075
  1
RSVD
 72
     2
 11
2.578125
 21
4.8845
 31
0.0
100
AcDbText
  0
TEXT
  5
1232
100
AcDbEntity
  8
TEXT
100
AcDbText
 10
2.278125
 20
4.6345
 30
0.0
 40
0.075
  1
RSVD
 72
     2
 11
2.578125
 21
4.6345
 31
0.0
100
AcDbText
  0
TEXT
  5
1233
100
AcDbEntity
  8
TEXT
100
AcDbText
 10
2.278125
 20
4.3845
 30
0.0
 40
0.075
  1
RSVD
 72
     2
 11
2.578125
 21
4.3845
 31
0.0
100
AcDbText
  0
TEXT
  5
1234
100
AcDbEntity
  8
TEXT
100
AcDbText
 10
2.278125
 20
4.1345
 30
0.0
 40
0.075
  1
RSVD
 72
     2
 11
2.578125
 21
4.1345
 31
0.0
100
AcDbText
  0
TEXT
  5
1235
100
AcDbEntity
  8
TEXT
100
AcDbText
 10
2.278125
 20
3.8845
 30
0.0
 40
0.075
  1
RSVD
 72
     2
 11
2.578125
 21
3.8845
 31
0.0
100
AcDbText
  0
TEXT
  5
1236
100
AcDbEntity
  8
TEXT
100
AcDbText
 10
1.515625
 20
3.3845
 30
0.0
 40
0.075
  1
Select Output 2
 72
     2
 11
2.578125
 21
3.3845
 31
0.0
100
AcDbText
  0
TEXT
  5
1237
100
AcDbEntity
  8
TEXT
100
AcDbText
 10
1.515625
 20
3.1345
 30
0.0
 40
0.075
  1
Select Output 3
 72
     2
 11
2.578125
 21
3.1345
 31
0.0
100
AcDbText
  0
TEXT
  5
1238
100
AcDbEntity
  8
TEXT
100
AcDbText
 10
1.515625
 20
2.8845
 30
0.0
 40
0.075
  1
Select Output 4
 72
     2
 11
2.578125
 21
2.8845
 31
0.0
100
AcDbText
  0
LINE
  5
1245
100
AcDbEntity
  8
0
100
AcDbLine
 10
0.015625
 20
13.91575
 30
0.0
 11
-0.109375
 21
13.91575
 31
0.0
  0
TEXT
  5
1246
100
AcDbEntity
  8
TEXT
100
AcDbText
 10
0.203125
 20
13.6345
 30
0.0
 40
0.075
  1
Enc. Com
100
AcDbText
  0
TEXT
  5
124C
100
AcDbEntity
  8
TEXT
100
AcDbText
 10
0.203125
 20
13.3845
 30
0.0
 40
0.075
  1
Enc. Pwr
100
AcDbText
  0
TEXT
  5
1252
100
AcDbEntity
  8
TEXT
100
AcDbText
 10
0.203125
 20
13.1345
 30
0.0
 40
0.075
  1
Enc. Com
100
AcDbText
  0
TEXT
  5
1258
100
AcDbEntity
  8
TEXT
100
AcDbText
 10
0.203125
 20
12.8845
 30
0.0
 40
0.075
  1
Enc Pwr Sense +
100
AcDbText
  0
TEXT
  5
125E
100
AcDbEntity
  8
TEXT
100
AcDbText
 10
0.203125
 20
12.3845
 30
0.0
 40
0.075
  1
Mot Enc IP Ch A+
100
AcDbText
  0
TEXT
  5
1283
100
AcDbEntity
  8
TEXT
100
AcDbText
 10
0.203125
 20
12.6345
 30
0.0
 40
0.075
  1
Enc Pwr Sense -
100
AcDbText
  0
TEXT
  5
1289
100
AcDbEntity
  8
TEXT
100
AcDbText
 10
0.203125
 20
12.1345
 30
0.0
 40
0.075
  1
Mot Enc IP Ch A-
100
AcDbText
  0
TEXT
  5
128A
100
AcDbEntity
  8
TEXT
100
AcDbText
 10
0.203125
 20
11.8845
 30
0.0
 40
0.075
  1
Mot Enc IP Ch B+
100
AcDbText
  0
TEXT
  5
128B
100
AcDbEntity
  8
TEXT
100
AcDbText
 10
0.203125
 20
11.6345
 30
0.0
 40
0.075
  1
Mot Enc IP Ch B-
100
AcDbText
  0
TEXT
  5
128C
100
AcDbEntity
  8
TEXT
100
AcDbText
 10
0.203125
 20
11.3845
 30
0.0
 40
0.075
  1
Mot Enc IP Ch I+
100
AcDbText
  0
TEXT
  5
128D
100
AcDbEntity
  8
TEXT
100
AcDbText
 10
0.203125
 20
11.1345
 30
0.0
 40
0.075
  1
Mot Enc IP Ch I-
100
AcDbText
  0
TEXT
  5
128E
100
AcDbEntity
  8
TEXT
100
AcDbText
 10
0.203125
 20
10.1345
 30
0.0
 40
0.075
  1
Absolute Postition
100
AcDbText
  0
TEXT
  5
1293
100
AcDbEntity
  8
TEXT
100
AcDbText
 10
0.203125
 20
9.1345
 30
0.0
 40
0.075
  1
Thermal Switch -
100
AcDbText
  0
TEXT
  5
1294
100
AcDbEntity
  8
TEXT
100
AcDbText
 10
0.203125
 20
9.3845
 30
0.0
 40
0.075
  1
Thermal Switch +
100
AcDbText
  0
TEXT
  5
1295
100
AcDbEntity
  8
TEXT
100
AcDbText
 10
0.203125
 20
9.6345
 30
0.0
 40
0.075
  1
RSVD
100
AcDbText
  0
TEXT
  5
1296
100
AcDbEntity
  8
TEXT
100
AcDbText
 10
0.203125
 20
9.8845
 30
0.0
 40
0.075
  1
RSVD
100
AcDbText
  0
TEXT
  5
12BB
100
AcDbEntity
  8
TEXT
100
AcDbText
 10
0.203125
 20
10.3845
 30
0.0
 40
0.075
  1
Hall W
100
AcDbText
  0
TEXT
  5
12BC
100
AcDbEntity
  8
TEXT
100
AcDbText
 10
0.203125
 20
10.8845
 30
0.0
 40
0.075
  1
Hall U
100
AcDbText
  0
TEXT
  5
12BD
100
AcDbEntity
  8
TEXT
100
AcDbText
 10
0.203125
 20
10.6345
 30
0.0
 40
0.075
  1
Hall V
100
AcDbText
  0
LINE
  5
12D9
100
AcDbEntity
  8
DASH
100
AcDbLine
 10
0.140625
 20
8.91575
 30
0.0
 11
1.390625
 21
8.91575
 31
0.0
  0
TEXT
  5
12DD
100
AcDbEntity
  8
TEXT
100
AcDbText
 10
0.203125
 20
7.6345
 30
0.0
 40
0.075
  1
COM
100
AcDbText
  0
TEXT
  5
1306
100
AcDbEntity
  8
TEXT
100
AcDbText
 10
0.203125
 20
6.6345
 30
0.0
 40
0.075
  1
RSVD
100
AcDbText
  0
TEXT
  5
1307
100
AcDbEntity
  8
TEXT
100
AcDbText
 10
0.203125
 20
6.8845
 30
0.0
 40
0.075
  1
XMT - RS 485
100
AcDbText
  0
TEXT
  5
1308
100
AcDbEntity
  8
TEXT
100
AcDbText
 10
0.203125
 20
7.1345
 30
0.0
 40
0.075
  1
RCV - RS 485
100
AcDbText
  0
TEXT
  5
1309
100
AcDbEntity
  8
TEXT
100
AcDbText
 10
0.203125
 20
7.3845
 30
0.0
 40
0.075
  1
RSVD
100
AcDbText
  0
TEXT
  5
133F
100
AcDbEntity
  8
TEXT
100
AcDbText
 10
0.203125
 20
7.8845
 30
0.0
 40
0.075
  1
XMT + RS 485
100
AcDbText
  0
TEXT
  5
1340
100
AcDbEntity
  8
TEXT
100
AcDbText
 10
0.203125
 20
8.3845
 30
0.0
 40
0.075
  1
RCV RS 232
100
AcDbText
  0
TEXT
  5
1341
100
AcDbEntity
  8
TEXT
100
AcDbText
 10
0.203125
 20
8.1345
 30
0.0
 40
0.075
  1
XMT RS 232
100
AcDbText
  0
TEXT
  5
1342
100
AcDbEntity
  8
TEXT
100
AcDbText
 10
0.203125
 20
8.6345
 30
0.0
 40
0.075
  1
RCV+ RS 485
100
AcDbText
  0
TEXT
  5
135A
100
AcDbEntity
  8
TEXT
100
AcDbText
 10
-0.293778
 20
8.773169
 30
0.0
 40
0.075
  1
J4/J5
100
AcDbText
  0
LINE
  5
135B
100
AcDbEntity
  8
DASH
100
AcDbLine
 10
0.140625
 20
6.41575
 30
0.0
 11
1.390625
 21
6.41575
 31
0.0
  0
LINE
  5
136B
100
AcDbEntity
  8
0
100
AcDbLine
 10
6.540625
 20
1.54075
 30
0.0
 11
6.540625
 21
14.447
 31
0.0
  0
LINE
  5
136C
100
AcDbEntity
  8
0
100
AcDbLine
 10
8.040625
 20
14.447
 30
0.0
 11
8.040625
 21
1.54075
 31
0.0
  0
LINE
  5
136F
100
AcDbEntity
  8
DASH
100
AcDbLine
 10
6.540625
 20
1.54075
 30
0.0
 11
8.040625
 21
1.54075
 31
0.0
  0
TEXT
  5
1387
100
AcDbEntity
  8
TEXT
100
AcDbText
 10
6.676339
 20
14.682119
 30
0.0
 40
0.125
  1
ENCODER INPUT
 41
0.8
  7
ROMANS
 72
     4
 11
7.290625
 21
14.744619
 31
0.0
100
AcDbText
  0
TEXT
  5
1388
100
AcDbEntity
  8
TEXT
100
AcDbText
 10
6.714435
 20
14.479738
 30
0.0
 40
0.125
  1
502-03???-??
 41
0.8
  7
ROMANS
 72
     4
 11
7.290625
 21
14.542238
 31
0.0
100
AcDbText
  0
INSERT
  5
1389
100
AcDbEntity
  8
TEXT
100
AcDbBlockReference
  2
TEMP5
 10
8.103125
 20
14.447
 30
0.0
  0
LINE
  5
138A
100
AcDbEntity
  8
DASH
100
AcDbLine
 10
8.040625
 20
14.447
 30
0.0
 11
6.540625
 21
14.447
 31
0.0
  0
TEXT
  5
138D
100
AcDbEntity
  8
TEXT
100
AcDbText
 10
6.876339
 20
14.893429
 30
0.0
 40
0.125
  1
CARD #--
 41
0.8
  7
ROMANS
 72
     4
 11
7.290625
 21
14.947
 31
0.0
100
AcDbText
  0
LINE
  5
1412
100
AcDbEntity
  8
0
100
AcDbLine
 10
2.765625
 20
11.16575
 30
0.0
 11
6.415625
 21
11.16575
 31
0.0
  0
LINE
  5
1415
100
AcDbEntity
  8
0
100
AcDbLine
 10
3.040625
 20
11.41575
 30
0.0
 11
3.040625
 21
11.39075
 31
0.0
  0
LINE
  5
1416
100
AcDbEntity
  8
0
100
AcDbLine
 10
2.990625
 20
11.41575
 30
0.0
 11
2.990625
 21
11.39075
 31
0.0
  0
ARC
  5
141A
100
AcDbEntity
  8
0
100
AcDbCircle
 10
3.015625
 20
11.41575
 30
0.0
 40
0.025
100
AcDbArc
 50
0.0
 51
180.0
  0
LINE
  5
141D
100
AcDbEntity
  8
0
100
AcDbLine
 10
3.040625
 20
11.39075
 30
0.0
 11
3.015625
 21
11.29075
 31
0.0
  0
LINE
  5
141E
100
AcDbEntity
  8
0
100
AcDbLine
 10
2.990625
 20
11.39075
 30
0.0
 11
3.015625
 21
11.29075
 31
0.0
  0
LINE
  5
141F
100
AcDbEntity
  8
0
100
AcDbLine
 10
2.990625
 20
11.19075
 30
0.0
 11
3.015625
 21
11.29075
 31
0.0
  0
LINE
  5
1420
100
AcDbEntity
  8
0
100
AcDbLine
 10
3.040625
 20
11.19075
 30
0.0
 11
3.015625
 21
11.29075
 31
0.0
  0
LINE
  5
1421
100
AcDbEntity
  8
0
100
AcDbLine
 10
3.040625
 20
11.16575
 30
0.0
 11
3.040625
 21
11.19075
 31
0.0
  0
LINE
  5
1422
100
AcDbEntity
  8
0
100
AcDbLine
 10
2.990625
 20
11.16575
 30
0.0
 11
2.990625
 21
11.19075
 31
0.0
  0
ARC
  5
1423
100
AcDbEntity
  8
0
100
AcDbCircle
 10
3.015625
 20
11.16575
 30
0.0
 40
0.025
100
AcDbArc
 50
180.0
 51
360.0
  0
LINE
  5
1427
100
AcDbEntity
  8
0
100
AcDbLine
 10
4.490625
 20
11.19075
 30
0.0
 11
4.515625
 21
11.29075
 31
0.0
  0
LINE
  5
1428
100
AcDbEntity
  8
0
100
AcDbLine
 10
4.540625
 20
11.19075
 30
0.0
 11
4.515625
 21
11.29075
 31
0.0
  0
ARC
  5
1429
100
AcDbEntity
  8
0
100
AcDbCircle
 10
4.515625
 20
11.16575
 30
0.0
 40
0.025
100
AcDbArc
 50
180.0
 51
360.0
  0
LINE
  5
142A
100
AcDbEntity
  8
0
100
AcDbLine
 10
4.540625
 20
11.16575
 30
0.0
 11
4.540625
 21
11.19075
 31
0.0
  0
LINE
  5
142B
100
AcDbEntity
  8
0
100
AcDbLine
 10
4.490625
 20
11.16575
 30
0.0
 11
4.490625
 21
11.19075
 31
0.0
  0
LINE
  5
142C
100
AcDbEntity
  8
0
100
AcDbLine
 10
4.540625
 20
11.39075
 30
0.0
 11
4.515625
 21
11.29075
 31
0.0
  0
LINE
  5
142D
100
AcDbEntity
  8
0
100
AcDbLine
 10
4.490625
 20
11.39075
 30
0.0
 11
4.515625
 21
11.29075
 31
0.0
  0
LINE
  5
142E
100
AcDbEntity
  8
0
100
AcDbLine
 10
4.490625
 20
11.41575
 30
0.0
 11
4.490625
 21
11.39075
 31
0.0
  0
LINE
  5
142F
100
AcDbEntity
  8
0
100
AcDbLine
 10
4.540625
 20
11.41575
 30
0.0
 11
4.540625
 21
11.39075
 31
0.0
  0
ARC
  5
1430
100
AcDbEntity
  8
0
100
AcDbCircle
 10
4.515625
 20
11.41575
 30
0.0
 40
0.025
100
AcDbArc
 50
0.0
 51
180.0
  0
TEXT
  5
1438
100
AcDbEntity
  8
TEXT
100
AcDbText
 10
3.378125
 20
11.19075
 30
0.0
 40
0.075
  1
White/Yellow
 72
     1
 11
3.765625
 21
11.16575
 31
0.0
100
AcDbText
 73
     1
  0
TEXT
  5
14F2
100
AcDbEntity
  8
TEXT
100
AcDbText
 10
3.590625
 20
11.44075
 30
0.0
 40
0.075
  1
Yellow
 72
     1
 11
3.765625
 21
11.41575
 31
0.0
100
AcDbText
 73
     1
  0
LINE
  5
14F3
100
AcDbEntity
  8
0
100
AcDbLine
 10
2.765625
 20
11.66575
 30
0.0
 11
6.415625
 21
11.66575
 31
0.0
  0
LINE
  5
14F4
100
AcDbEntity
  8
0
100
AcDbLine
 10
2.765625
 20
11.91575
 30
0.0
 11
6.415625
 21
11.91575
 31
0.0
  0
LINE
  5
14F5
100
AcDbEntity
  8
0
100
AcDbLine
 10
3.040625
 20
11.69075
 30
0.0
 11
3.015625
 21
11.79075
 31
0.0
  0
LINE
  5
14F6
100
AcDbEntity
  8
0
100
AcDbLine
 10
2.990625
 20
11.69075
 30
0.0
 11
3.015625
 21
11.79075
 31
0.0
  0
LINE
  5
14F7
100
AcDbEntity
  8
0
100
AcDbLine
 10
2.765625
 20
11.72825
 30
0.0
 11
2.765625
 21
11.60325
 31
0.0
  0
ARC
  5
14F8
100
AcDbEntity
  8
0
100
AcDbCircle
 10
3.015625
 20
11.66575
 30
0.0
 40
0.025
100
AcDbArc
 50
180.0
 51
360.0
  0
LINE
  5
14F9
100
AcDbEntity
  8
0
100
AcDbLine
 10
2.990625
 20
11.66575
 30
0.0
 11
2.990625
 21
11.69075
 31
0.0
  0
LINE
  5
14FA
100
AcDbEntity
  8
0
100
AcDbLine
 10
3.040625
 20
11.66575
 30
0.0
 11
3.040625
 21
11.69075
 31
0.0
  0
LINE
  5
14FB
100
AcDbEntity
  8
0
100
AcDbLine
 10
2.765625
 20
11.97825
 30
0.0
 11
2.765625
 21
11.85325
 31
0.0
  0
LINE
  5
14FC
100
AcDbEntity
  8
0
100
AcDbLine
 10
2.990625
 20
11.89075
 30
0.0
 11
3.015625
 21
11.79075
 31
0.0
  0
LINE
  5
14FD
100
AcDbEntity
  8
0
100
AcDbLine
 10
3.040625
 20
11.89075
 30
0.0
 11
3.015625
 21
11.79075
 31
0.0
  0
LINE
  5
14FE
100
AcDbEntity
  8
0
100
AcDbLine
 10
3.040625
 20
11.91575
 30
0.0
 11
3.040625
 21
11.89075
 31
0.0
  0
LINE
  5
14FF
100
AcDbEntity
  8
0
100
AcDbLine
 10
2.990625
 20
11.91575
 30
0.0
 11
2.990625
 21
11.89075
 31
0.0
  0
ARC
  5
1500
100
AcDbEntity
  8
0
100
AcDbCircle
 10
3.015625
 20
11.91575
 30
0.0
 40
0.025
100
AcDbArc
 50
0.0
 51
180.0
  0
TEXT
  5
1501
100
AcDbEntity
  8
TEXT
100
AcDbText
 10
3.434375
 20
11.69075
 30
0.0
 40
0.075
  1
White/Blue
 72
     1
 11
3.765625
 21
11.66575
 31
0.0
100
AcDbText
 73
     1
  0
TEXT
  5
1502
100
AcDbEntity
  8
TEXT
100
AcDbText
 10
3.646875
 20
11.94075
 30
0.0
 40
0.075
  1
Blue
 72
     1
 11
3.765625
 21
11.91575
 31
0.0
100
AcDbText
 73
     1
  0
LINE
  5
1503
100
AcDbEntity
  8
0
100
AcDbLine
 10
4.490625
 20
11.89075
 30
0.0
 11
4.515625
 21
11.79075
 31
0.0
  0
ARC
  5
1504
100
AcDbEntity
  8
0
100
AcDbCircle
 10
4.515625
 20
11.91575
 30
0.0
 40
0.025
100
AcDbArc
 50
0.0
 51
180.0
  0
ARC
  5
1505
100
AcDbEntity
  8
0
100
AcDbCircle
 10
4.515625
 20
11.66575
 30
0.0
 40
0.025
100
AcDbArc
 50
180.0
 51
360.0
  0
LINE
  5
1506
100
AcDbEntity
  8
0
100
AcDbLine
 10
4.490625
 20
11.69075
 30
0.0
 11
4.515625
 21
11.79075
 31
0.0
  0
LINE
  5
1507
100
AcDbEntity
  8
0
100
AcDbLine
 10
4.490625
 20
11.66575
 30
0.0
 11
4.490625
 21
11.69075
 31
0.0
  0
LINE
  5
1508
100
AcDbEntity
  8
0
100
AcDbLine
 10
4.490625
 20
11.91575
 30
0.0
 11
4.490625
 21
11.89075
 31
0.0
  0
LINE
  5
1509
100
AcDbEntity
  8
0
100
AcDbLine
 10
4.540625
 20
11.69075
 30
0.0
 11
4.515625
 21
11.79075
 31
0.0
  0
LINE
  5
150A
100
AcDbEntity
  8
0
100
AcDbLine
 10
4.540625
 20
11.66575
 30
0.0
 11
4.540625
 21
11.69075
 31
0.0
  0
LINE
  5
150B
100
AcDbEntity
  8
0
100
AcDbLine
 10
4.540625
 20
11.89075
 30
0.0
 11
4.515625
 21
11.79075
 31
0.0
  0
LINE
  5
150C
100
AcDbEntity
  8
0
100
AcDbLine
 10
4.540625
 20
11.91575
 30
0.0
 11
4.540625
 21
11.89075
 31
0.0
  0
LINE
  5
151B
100
AcDbEntity
  8
0
100
AcDbLine
 10
2.765625
 20
12.16575
 30
0.0
 11
6.415625
 21
12.16575
 31
0.0
  0
LINE
  5
151C
100
AcDbEntity
  8
0
100
AcDbLine
 10
2.765625
 20
12.41575
 30
0.0
 11
6.415625
 21
12.41575
 31
0.0
  0
LINE
  5
151D
100
AcDbEntity
  8
0
100
AcDbLine
 10
3.040625
 20
12.19075
 30
0.0
 11
3.015625
 21
12.29075
 31
0.0
  0
LINE
  5
151E
100
AcDbEntity
  8
0
100
AcDbLine
 10
2.990625
 20
12.19075
 30
0.0
 11
3.015625
 21
12.29075
 31
0.0
  0
LINE
  5
151F
100
AcDbEntity
  8
0
100
AcDbLine
 10
2.765625
 20
12.22825
 30
0.0
 11
2.765625
 21
12.10325
 31
0.0
  0
ARC
  5
1520
100
AcDbEntity
  8
0
100
AcDbCircle
 10
3.015625
 20
12.16575
 30
0.0
 40
0.025
100
AcDbArc
 50
180.0
 51
360.0
  0
LINE
  5
1521
100
AcDbEntity
  8
0
100
AcDbLine
 10
2.990625
 20
12.16575
 30
0.0
 11
2.990625
 21
12.19075
 31
0.0
  0
LINE
  5
1522
100
AcDbEntity
  8
0
100
AcDbLine
 10
3.040625
 20
12.16575
 30
0.0
 11
3.040625
 21
12.19075
 31
0.0
  0
LINE
  5
1523
100
AcDbEntity
  8
0
100
AcDbLine
 10
2.765625
 20
12.47825
 30
0.0
 11
2.765625
 21
12.35325
 31
0.0
  0
LINE
  5
1524
100
AcDbEntity
  8
0
100
AcDbLine
 10
2.990625
 20
12.39075
 30
0.0
 11
3.015625
 21
12.29075
 31
0.0
  0
LINE
  5
1525
100
AcDbEntity
  8
0
100
AcDbLine
 10
3.040625
 20
12.39075
 30
0.0
 11
3.015625
 21
12.29075
 31
0.0
  0
LINE
  5
1526
100
AcDbEntity
  8
0
100
AcDbLine
 10
3.040625
 20
12.41575
 30
0.0
 11
3.040625
 21
12.39075
 31
0.0
  0
LINE
  5
1527
100
AcDbEntity
  8
0
100
AcDbLine
 10
2.990625
 20
12.41575
 30
0.0
 11
2.990625
 21
12.39075
 31
0.0
  0
ARC
  5
1528
100
AcDbEntity
  8
0
100
AcDbCircle
 10
3.015625
 20
12.41575
 30
0.0
 40
0.025
100
AcDbArc
 50
0.0
 51
180.0
  0
TEXT
  5
1529
100
AcDbEntity
  8
TEXT
100
AcDbText
 10
3.340625
 20
12.19075
 30
0.0
 40
0.075
  1
White/Orange
 72
     1
 11
3.765625
 21
12.16575
 31
0.0
100
AcDbText
 73
     1
  0
TEXT
  5
152A
100
AcDbEntity
  8
TEXT
100
AcDbText
 10
3.553125
 20
12.44075
 30
0.0
 40
0.075
  1
Orange
 72
     1
 11
3.765625
 21
12.41575
 31
0.0
100
AcDbText
 73
     1
  0
LINE
  5
152B
100
AcDbEntity
  8
0
100
AcDbLine
 10
4.490625
 20
12.39075
 30
0.0
 11
4.515625
 21
12.29075
 31
0.0
  0
ARC
  5
152C
100
AcDbEntity
  8
0
100
AcDbCircle
 10
4.515625
 20
12.41575
 30
0.0
 40
0.025
100
AcDbArc
 50
0.0
 51
180.0
  0
ARC
  5
152D
100
AcDbEntity
  8
0
100
AcDbCircle
 10
4.515625
 20
12.16575
 30
0.0
 40
0.025
100
AcDbArc
 50
180.0
 51
360.0
  0
LINE
  5
152E
100
AcDbEntity
  8
0
100
AcDbLine
 10
4.490625
 20
12.19075
 30
0.0
 11
4.515625
 21
12.29075
 31
0.0
  0
LINE
  5
152F
100
AcDbEntity
  8
0
100
AcDbLine
 10
4.490625
 20
12.16575
 30
0.0
 11
4.490625
 21
12.19075
 31
0.0
  0
LINE
  5
1530
100
AcDbEntity
  8
0
100
AcDbLine
 10
4.490625
 20
12.41575
 30
0.0
 11
4.490625
 21
12.39075
 31
0.0
  0
LINE
  5
1531
100
AcDbEntity
  8
0
100
AcDbLine
 10
4.540625
 20
12.19075
 30
0.0
 11
4.515625
 21
12.29075
 31
0.0
  0
LINE
  5
1532
100
AcDbEntity
  8
0
100
AcDbLine
 10
4.540625
 20
12.16575
 30
0.0
 11
4.540625
 21
12.19075
 31
0.0
  0
LINE
  5
1533
100
AcDbEntity
  8
0
100
AcDbLine
 10
4.540625
 20
12.39075
 30
0.0
 11
4.515625
 21
12.29075
 31
0.0
  0
LINE
  5
1534
100
AcDbEntity
  8
0
100
AcDbLine
 10
4.540625
 20
12.41575
 30
0.0
 11
4.540625
 21
12.39075
 31
0.0
  0
LINE
  5
1543
100
AcDbEntity
  8
0
100
AcDbLine
 10
2.765625
 20
12.66575
 30
0.0
 11
4.640625
 21
12.66575
 31
0.0
  0
LINE
  5
1544
100
AcDbEntity
  8
0
100
AcDbLine
 10
2.765625
 20
12.91575
 30
0.0
 11
4.640625
 21
12.91575
 31
0.0
  0
LINE
  5
1545
100
AcDbEntity
  8
0
100
AcDbLine
 10
3.040625
 20
12.69075
 30
0.0
 11
3.015625
 21
12.79075
 31
0.0
  0
LINE
  5
1546
100
AcDbEntity
  8
0
100
AcDbLine
 10
2.990625
 20
12.69075
 30
0.0
 11
3.015625
 21
12.79075
 31
0.0
  0
LINE
  5
1547
100
AcDbEntity
  8
0
100
AcDbLine
 10
2.765625
 20
12.72825
 30
0.0
 11
2.765625
 21
12.60325
 31
0.0
  0
ARC
  5
1548
100
AcDbEntity
  8
0
100
AcDbCircle
 10
3.015625
 20
12.66575
 30
0.0
 40
0.025
100
AcDbArc
 50
180.0
 51
360.0
  0
LINE
  5
1549
100
AcDbEntity
  8
0
100
AcDbLine
 10
2.990625
 20
12.66575
 30
0.0
 11
2.990625
 21
12.69075
 31
0.0
  0
LINE
  5
154A
100
AcDbEntity
  8
0
100
AcDbLine
 10
3.040625
 20
12.66575
 30
0.0
 11
3.040625
 21
12.69075
 31
0.0
  0
LINE
  5
154B
100
AcDbEntity
  8
0
100
AcDbLine
 10
2.765625
 20
12.97825
 30
0.0
 11
2.765625
 21
12.85325
 31
0.0
  0
LINE
  5
154C
100
AcDbEntity
  8
0
100
AcDbLine
 10
2.990625
 20
12.89075
 30
0.0
 11
3.015625
 21
12.79075
 31
0.0
  0
LINE
  5
154D
100
AcDbEntity
  8
0
100
AcDbLine
 10
3.040625
 20
12.89075
 30
0.0
 11
3.015625
 21
12.79075
 31
0.0
  0
LINE
  5
154E
100
AcDbEntity
  8
0
100
AcDbLine
 10
3.040625
 20
12.91575
 30
0.0
 11
3.040625
 21
12.89075
 31
0.0
  0
LINE
  5
154F
100
AcDbEntity
  8
0
100
AcDbLine
 10
2.990625
 20
12.91575
 30
0.0
 11
2.990625
 21
12.89075
 31
0.0
  0
ARC
  5
1550
100
AcDbEntity
  8
0
100
AcDbCircle
 10
3.015625
 20
12.91575
 30
0.0
 40
0.025
100
AcDbArc
 50
0.0
 51
180.0
  0
TEXT
  5
1551
100
AcDbEntity
  8
TEXT
100
AcDbText
 10
3.378125
 20
12.69075
 30
0.0
 40
0.075
  1
White/Green
 72
     1
 11
3.765625
 21
12.66575
 31
0.0
100
AcDbText
 73
     1
  0
TEXT
  5
1552
100
AcDbEntity
  8
TEXT
100
AcDbText
 10
3.590625
 20
12.94075
 30
0.0
 40
0.075
  1
Green
 72
     1
 11
3.765625
 21
12.91575
 31
0.0
100
AcDbText
 73
     1
  0
LINE
  5
1553
100
AcDbEntity
  8
0
100
AcDbLine
 10
4.490625
 20
12.89075
 30
0.0
 11
4.515625
 21
12.79075
 31
0.0
  0
ARC
  5
1554
100
AcDbEntity
  8
0
100
AcDbCircle
 10
4.515625
 20
12.91575
 30
0.0
 40
0.025
100
AcDbArc
 50
0.0
 51
180.0
  0
ARC
  5
1555
100
AcDbEntity
  8
0
100
AcDbCircle
 10
4.515625
 20
12.66575
 30
0.0
 40
0.025
100
AcDbArc
 50
180.0
 51
360.0
  0
LINE
  5
1556
100
AcDbEntity
  8
0
100
AcDbLine
 10
4.490625
 20
12.69075
 30
0.0
 11
4.515625
 21
12.79075
 31
0.0
  0
LINE
  5
1557
100
AcDbEntity
  8
0
100
AcDbLine
 10
4.490625
 20
12.66575
 30
0.0
 11
4.490625
 21
12.69075
 31
0.0
  0
LINE
  5
1558
100
AcDbEntity
  8
0
100
AcDbLine
 10
4.490625
 20
12.91575
 30
0.0
 11
4.490625
 21
12.89075
 31
0.0
  0
LINE
  5
1559
100
AcDbEntity
  8
0
100
AcDbLine
 10
4.540625
 20
12.69075
 30
0.0
 11
4.515625
 21
12.79075
 31
0.0
  0
LINE
  5
155A
100
AcDbEntity
  8
0
100
AcDbLine
 10
4.540625
 20
12.66575
 30
0.0
 11
4.540625
 21
12.69075
 31
0.0
  0
LINE
  5
155B
100
AcDbEntity
  8
0
100
AcDbLine
 10
4.540625
 20
12.89075
 30
0.0
 11
4.515625
 21
12.79075
 31
0.0
  0
LINE
  5
155C
100
AcDbEntity
  8
0
100
AcDbLine
 10
4.540625
 20
12.91575
 30
0.0
 11
4.540625
 21
12.89075
 31
0.0
  0
LINE
  5
156B
100
AcDbEntity
  8
0
100
AcDbLine
 10
2.765625
 20
13.16575
 30
0.0
 11
4.640625
 21
13.16575
 31
0.0
  0
LINE
  5
156C
100
AcDbEntity
  8
0
100
AcDbLine
 10
2.765625
 20
13.41575
 30
0.0
 11
4.640625
 21
13.41575
 31
0.0
  0
LINE
  5
156D
100
AcDbEntity
  8
0
100
AcDbLine
 10
3.040625
 20
13.19075
 30
0.0
 11
3.015625
 21
13.29075
 31
0.0
  0
LINE
  5
156E
100
AcDbEntity
  8
0
100
AcDbLine
 10
2.990625
 20
13.19075
 30
0.0
 11
3.015625
 21
13.29075
 31
0.0
  0
LINE
  5
156F
100
AcDbEntity
  8
0
100
AcDbLine
 10
2.765625
 20
13.22825
 30
0.0
 11
2.765625
 21
13.10325
 31
0.0
  0
ARC
  5
1570
100
AcDbEntity
  8
0
100
AcDbCircle
 10
3.015625
 20
13.16575
 30
0.0
 40
0.025
100
AcDbArc
 50
180.0
 51
360.0
  0
LINE
  5
1571
100
AcDbEntity
  8
0
100
AcDbLine
 10
2.990625
 20
13.16575
 30
0.0
 11
2.990625
 21
13.19075
 31
0.0
  0
LINE
  5
1572
100
AcDbEntity
  8
0
100
AcDbLine
 10
3.040625
 20
13.16575
 30
0.0
 11
3.040625
 21
13.19075
 31
0.0
  0
LINE
  5
1573
100
AcDbEntity
  8
0
100
AcDbLine
 10
2.765625
 20
13.47825
 30
0.0
 11
2.765625
 21
13.35325
 31
0.0
  0
LINE
  5
1574
100
AcDbEntity
  8
0
100
AcDbLine
 10
2.990625
 20
13.39075
 30
0.0
 11
3.015625
 21
13.29075
 31
0.0
  0
LINE
  5
1575
100
AcDbEntity
  8
0
100
AcDbLine
 10
3.040625
 20
13.39075
 30
0.0
 11
3.015625
 21
13.29075
 31
0.0
  0
LINE
  5
1576
100
AcDbEntity
  8
0
100
AcDbLine
 10
3.040625
 20
13.41575
 30
0.0
 11
3.040625
 21
13.39075
 31
0.0
  0
LINE
  5
1577
100
AcDbEntity
  8
0
100
AcDbLine
 10
2.990625
 20
13.41575
 30
0.0
 11
2.990625
 21
13.39075
 31
0.0
  0
ARC
  5
1578
100
AcDbEntity
  8
0
100
AcDbCircle
 10
3.015625
 20
13.41575
 30
0.0
 40
0.025
100
AcDbArc
 50
0.0
 51
180.0
  0
TEXT
  5
1579
100
AcDbEntity
  8
TEXT
100
AcDbText
 10
3.453125
 20
13.19075
 30
0.0
 40
0.075
  1
White/Red
 72
     1
 11
3.765625
 21
13.16575
 31
0.0
100
AcDbText
 73
     1
  0
TEXT
  5
157A
100
AcDbEntity
  8
TEXT
100
AcDbText
 10
3.665625
 20
13.44075
 30
0.0
 40
0.075
  1
Red
 72
     1
 11
3.765625
 21
13.41575
 31
0.0
100
AcDbText
 73
     1
  0
LINE
  5
157B
100
AcDbEntity
  8
0
100
AcDbLine
 10
4.490625
 20
13.39075
 30
0.0
 11
4.515625
 21
13.29075
 31
0.0
  0
ARC
  5
157C
100
AcDbEntity
  8
0
100
AcDbCircle
 10
4.515625
 20
13.41575
 30
0.0
 40
0.025
100
AcDbArc
 50
0.0
 51
180.0
  0
ARC
  5
157D
100
AcDbEntity
  8
0
100
AcDbCircle
 10
4.515625
 20
13.16575
 30
0.0
 40
0.025
100
AcDbArc
 50
180.0
 51
360.0
  0
LINE
  5
157E
100
AcDbEntity
  8
0
100
AcDbLine
 10
4.490625
 20
13.19075
 30
0.0
 11
4.515625
 21
13.29075
 31
0.0
  0
LINE
  5
157F
100
AcDbEntity
  8
0
100
AcDbLine
 10
4.490625
 20
13.16575
 30
0.0
 11
4.490625
 21
13.19075
 31
0.0
  0
LINE
  5
1580
100
AcDbEntity
  8
0
100
AcDbLine
 10
4.490625
 20
13.41575
 30
0.0
 11
4.490625
 21
13.39075
 31
0.0
  0
LINE
  5
1581
100
AcDbEntity
  8
0
100
AcDbLine
 10
4.540625
 20
13.19075
 30
0.0
 11
4.515625
 21
13.29075
 31
0.0
  0
LINE
  5
1582
100
AcDbEntity
  8
0
100
AcDbLine
 10
4.540625
 20
13.16575
 30
0.0
 11
4.540625
 21
13.19075
 31
0.0
  0
LINE
  5
1583
100
AcDbEntity
  8
0
100
AcDbLine
 10
4.540625
 20
13.39075
 30
0.0
 11
4.515625
 21
13.29075
 31
0.0
  0
LINE
  5
1584
100
AcDbEntity
  8
0
100
AcDbLine
 10
4.540625
 20
13.41575
 30
0.0
 11
4.540625
 21
13.39075
 31
0.0
  0
LINE
  5
1593
100
AcDbEntity
  8
0
100
AcDbLine
 10
2.765625
 20
13.66575
 30
0.0
 11
4.640625
 21
13.66575
 31
0.0
  0
LINE
  5
1594
100
AcDbEntity
  8
0
100
AcDbLine
 10
2.765625
 20
13.91575
 30
0.0
 11
4.640625
 21
13.91575
 31
0.0
  0
LINE
  5
1595
100
AcDbEntity
  8
0
100
AcDbLine
 10
3.040625
 20
13.69075
 30
0.0
 11
3.015625
 21
13.79075
 31
0.0
  0
LINE
  5
1596
100
AcDbEntity
  8
0
100
AcDbLine
 10
2.990625
 20
13.69075
 30
0.0
 11
3.015625
 21
13.79075
 31
0.0
  0
LINE
  5
1597
100
AcDbEntity
  8
0
100
AcDbLine
 10
2.765625
 20
13.72825
 30
0.0
 11
2.765625
 21
13.60325
 31
0.0
  0
ARC
  5
1598
100
AcDbEntity
  8
0
100
AcDbCircle
 10
3.015625
 20
13.66575
 30
0.0
 40
0.025
100
AcDbArc
 50
180.0
 51
360.0
  0
LINE
  5
1599
100
AcDbEntity
  8
0
100
AcDbLine
 10
2.990625
 20
13.66575
 30
0.0
 11
2.990625
 21
13.69075
 31
0.0
  0
LINE
  5
159A
100
AcDbEntity
  8
0
100
AcDbLine
 10
3.040625
 20
13.66575
 30
0.0
 11
3.040625
 21
13.69075
 31
0.0
  0
LINE
  5
159B
100
AcDbEntity
  8
0
100
AcDbLine
 10
2.765625
 20
13.97825
 30
0.0
 11
2.765625
 21
13.85325
 31
0.0
  0
LINE
  5
159C
100
AcDbEntity
  8
0
100
AcDbLine
 10
2.990625
 20
13.89075
 30
0.0
 11
3.015625
 21
13.79075
 31
0.0
  0
LINE
  5
159D
100
AcDbEntity
  8
0
100
AcDbLine
 10
3.040625
 20
13.89075
 30
0.0
 11
3.015625
 21
13.79075
 31
0.0
  0
LINE
  5
159E
100
AcDbEntity
  8
0
100
AcDbLine
 10
3.040625
 20
13.91575
 30
0.0
 11
3.040625
 21
13.89075
 31
0.0
  0
LINE
  5
159F
100
AcDbEntity
  8
0
100
AcDbLine
 10
2.990625
 20
13.91575
 30
0.0
 11
2.990625
 21
13.89075
 31
0.0
  0
ARC
  5
15A0
100
AcDbEntity
  8
0
100
AcDbCircle
 10
3.015625
 20
13.91575
 30
0.0
 40
0.025
100
AcDbArc
 50
0.0
 51
180.0
  0
TEXT
  5
15A1
100
AcDbEntity
  8
TEXT
100
AcDbText
 10
3.396875
 20
13.69075
 30
0.0
 40
0.075
  1
White/Black
 72
     1
 11
3.765625
 21
13.66575
 31
0.0
100
AcDbText
 73
     1
  0
TEXT
  5
15A2
100
AcDbEntity
  8
TEXT
100
AcDbText
 10
3.609375
 20
13.94075
 30
0.0
 40
0.075
  1
Black
 72
     1
 11
3.765625
 21
13.91575
 31
0.0
100
AcDbText
 73
     1
  0
LINE
  5
15A3
100
AcDbEntity
  8
0
100
AcDbLine
 10
4.490625
 20
13.89075
 30
0.0
 11
4.515625
 21
13.79075
 31
0.0
  0
ARC
  5
15A4
100
AcDbEntity
  8
0
100
AcDbCircle
 10
4.515625
 20
13.91575
 30
0.0
 40
0.025
100
AcDbArc
 50
0.0
 51
180.0
  0
ARC
  5
15A5
100
AcDbEntity
  8
0
100
AcDbCircle
 10
4.515625
 20
13.66575
 30
0.0
 40
0.025
100
AcDbArc
 50
180.0
 51
360.0
  0
LINE
  5
15A6
100
AcDbEntity
  8
0
100
AcDbLine
 10
4.490625
 20
13.69075
 30
0.0
 11
4.515625
 21
13.79075
 31
0.0
  0
LINE
  5
15A7
100
AcDbEntity
  8
0
100
AcDbLine
 10
4.490625
 20
13.66575
 30
0.0
 11
4.490625
 21
13.69075
 31
0.0
  0
LINE
  5
15A8
100
AcDbEntity
  8
0
100
AcDbLine
 10
4.490625
 20
13.91575
 30
0.0
 11
4.490625
 21
13.89075
 31
0.0
  0
LINE
  5
15A9
100
AcDbEntity
  8
0
100
AcDbLine
 10
4.540625
 20
13.69075
 30
0.0
 11
4.515625
 21
13.79075
 31
0.0
  0
LINE
  5
15AA
100
AcDbEntity
  8
0
100
AcDbLine
 10
4.540625
 20
13.66575
 30
0.0
 11
4.540625
 21
13.69075
 31
0.0
  0
LINE
  5
15AB
100
AcDbEntity
  8
0
100
AcDbLine
 10
4.540625
 20
13.89075
 30
0.0
 11
4.515625
 21
13.79075
 31
0.0
  0
LINE
  5
15AC
100
AcDbEntity
  8
0
100
AcDbLine
 10
4.540625
 20
13.91575
 30
0.0
 11
4.540625
 21
13.89075
 31
0.0
  0
LINE
  5
15BB
100
AcDbEntity
  8
0
100
AcDbLine
 10
2.765625
 20
10.66575
 30
0.0
 11
4.640625
 21
10.66575
 31
0.0
  0
LINE
  5
15BC
100
AcDbEntity
  8
0
100
AcDbLine
 10
2.765625
 20
10.91575
 30
0.0
 11
4.640625
 21
10.91575
 31
0.0
  0
LINE
  5
15BD
100
AcDbEntity
  8
0
100
AcDbLine
 10
3.040625
 20
10.69075
 30
0.0
 11
3.015625
 21
10.79075
 31
0.0
  0
LINE
  5
15BE
100
AcDbEntity
  8
0
100
AcDbLine
 10
2.990625
 20
10.69075
 30
0.0
 11
3.015625
 21
10.79075
 31
0.0
  0
ARC
  5
15C0
100
AcDbEntity
  8
0
100
AcDbCircle
 10
3.015625
 20
10.66575
 30
0.0
 40
0.025
100
AcDbArc
 50
180.0
 51
360.0
  0
LINE
  5
15C1
100
AcDbEntity
  8
0
100
AcDbLine
 10
2.990625
 20
10.66575
 30
0.0
 11
2.990625
 21
10.69075
 31
0.0
  0
LINE
  5
15C2
100
AcDbEntity
  8
0
100
AcDbLine
 10
3.040625
 20
10.66575
 30
0.0
 11
3.040625
 21
10.69075
 31
0.0
  0
LINE
  5
15C4
100
AcDbEntity
  8
0
100
AcDbLine
 10
2.990625
 20
10.89075
 30
0.0
 11
3.015625
 21
10.79075
 31
0.0
  0
LINE
  5
15C5
100
AcDbEntity
  8
0
100
AcDbLine
 10
3.040625
 20
10.89075
 30
0.0
 11
3.015625
 21
10.79075
 31
0.0
  0
LINE
  5
15C6
100
AcDbEntity
  8
0
100
AcDbLine
 10
3.040625
 20
10.91575
 30
0.0
 11
3.040625
 21
10.89075
 31
0.0
  0
LINE
  5
15C7
100
AcDbEntity
  8
0
100
AcDbLine
 10
2.990625
 20
10.91575
 30
0.0
 11
2.990625
 21
10.89075
 31
0.0
  0
ARC
  5
15C8
100
AcDbEntity
  8
0
100
AcDbCircle
 10
3.015625
 20
10.91575
 30
0.0
 40
0.025
100
AcDbArc
 50
0.0
 51
180.0
  0
TEXT
  5
15C9
100
AcDbEntity
  8
TEXT
100
AcDbText
 10
3.378125
 20
10.69075
 30
0.0
 40
0.075
  1
White/Brown
 72
     1
 11
3.765625
 21
10.66575
 31
0.0
100
AcDbText
 73
     1
  0
TEXT
  5
15CA
100
AcDbEntity
  8
TEXT
100
AcDbText
 10
3.590625
 20
10.94075
 30
0.0
 40
0.075
  1
Brown
 72
     1
 11
3.765625
 21
10.91575
 31
0.0
100
AcDbText
 73
     1
  0
LINE
  5
15CB
100
AcDbEntity
  8
0
100
AcDbLine
 10
4.490625
 20
10.89075
 30
0.0
 11
4.515625
 21
10.79075
 31
0.0
  0
ARC
  5
15CC
100
AcDbEntity
  8
0
100
AcDbCircle
 10
4.515625
 20
10.91575
 30
0.0
 40
0.025
100
AcDbArc
 50
0.0
 51
180.0
  0
ARC
  5
15CD
100
AcDbEntity
  8
0
100
AcDbCircle
 10
4.515625
 20
10.66575
 30
0.0
 40
0.025
100
AcDbArc
 50
180.0
 51
360.0
  0
LINE
  5
15CE
100
AcDbEntity
  8
0
100
AcDbLine
 10
4.490625
 20
10.69075
 30
0.0
 11
4.515625
 21
10.79075
 31
0.0
  0
LINE
  5
15CF
100
AcDbEntity
  8
0
100
AcDbLine
 10
4.490625
 20
10.66575
 30
0.0
 11
4.490625
 21
10.69075
 31
0.0
  0
LINE
  5
15D0
100
AcDbEntity
  8
0
100
AcDbLine
 10
4.490625
 20
10.91575
 30
0.0
 11
4.490625
 21
10.89075
 31
0.0
  0
LINE
  5
15D1
100
AcDbEntity
  8
0
100
AcDbLine
 10
4.540625
 20
10.69075
 30
0.0
 11
4.515625
 21
10.79075
 31
0.0
  0
LINE
  5
15D2
100
AcDbEntity
  8
0
100
AcDbLine
 10
4.540625
 20
10.66575
 30
0.0
 11
4.540625
 21
10.69075
 31
0.0
  0
LINE
  5
15D3
100
AcDbEntity
  8
0
100
AcDbLine
 10
4.540625
 20
10.89075
 30
0.0
 11
4.515625
 21
10.79075
 31
0.0
  0
LINE
  5
15D4
100
AcDbEntity
  8
0
100
AcDbLine
 10
4.540625
 20
10.91575
 30
0.0
 11
4.540625
 21
10.89075
 31
0.0
  0
LINE
  5
15E5
100
AcDbEntity
  8
0
100
AcDbLine
 10
3.040625
 20
10.19075
 30
0.0
 11
3.015625
 21
10.29075
 31
0.0
  0
LINE
  5
15E6
100
AcDbEntity
  8
0
100
AcDbLine
 10
2.990625
 20
10.19075
 30
0.0
 11
3.015625
 21
10.29075
 31
0.0
  0
ARC
  5
15E8
100
AcDbEntity
  8
0
100
AcDbCircle
 10
3.015625
 20
10.16575
 30
0.0
 40
0.025
100
AcDbArc
 50
180.0
 51
360.0
  0
LINE
  5
15E9
100
AcDbEntity
  8
0
100
AcDbLine
 10
2.990625
 20
10.16575
 30
0.0
 11
2.990625
 21
10.19075
 31
0.0
  0
LINE
  5
15EA
100
AcDbEntity
  8
0
100
AcDbLine
 10
3.040625
 20
10.16575
 30
0.0
 11
3.040625
 21
10.19075
 31
0.0
  0
LINE
  5
15EC
100
AcDbEntity
  8
0
100
AcDbLine
 10
2.990625
 20
10.39075
 30
0.0
 11
3.015625
 21
10.29075
 31
0.0
  0
LINE
  5
15ED
100
AcDbEntity
  8
0
100
AcDbLine
 10
3.040625
 20
10.39075
 30
0.0
 11
3.015625
 21
10.29075
 31
0.0
  0
LINE
  5
15EE
100
AcDbEntity
  8
0
100
AcDbLine
 10
3.040625
 20
10.41575
 30
0.0
 11
3.040625
 21
10.39075
 31
0.0
  0
LINE
  5
15EF
100
AcDbEntity
  8
0
100
AcDbLine
 10
2.990625
 20
10.41575
 30
0.0
 11
2.990625
 21
10.39075
 31
0.0
  0
ARC
  5
15F0
100
AcDbEntity
  8
0
100
AcDbCircle
 10
3.015625
 20
10.41575
 30
0.0
 40
0.025
100
AcDbArc
 50
0.0
 51
180.0
  0
TEXT
  5
15F1
100
AcDbEntity
  8
TEXT
100
AcDbText
 10
3.371875
 20
10.19075
 30
0.0
 40
0.075
  1
White/Violet
 72
     1
 11
3.765625
 21
10.16575
 31
0.0
100
AcDbText
 73
     1
  0
TEXT
  5
15F2
100
AcDbEntity
  8
TEXT
100
AcDbText
 10
3.584375
 20
10.44075
 30
0.0
 40
0.075
  1
Violet
 72
     1
 11
3.765625
 21
10.41575
 31
0.0
100
AcDbText
 73
     1
  0
LINE
  5
15F3
100
AcDbEntity
  8
0
100
AcDbLine
 10
4.490625
 20
10.39075
 30
0.0
 11
4.515625
 21
10.29075
 31
0.0
  0
ARC
  5
15F4
100
AcDbEntity
  8
0
100
AcDbCircle
 10
4.515625
 20
10.41575
 30
0.0
 40
0.025
100
AcDbArc
 50
0.0
 51
180.0
  0
ARC
  5
15F5
100
AcDbEntity
  8
0
100
AcDbCircle
 10
4.515625
 20
10.16575
 30
0.0
 40
0.025
100
AcDbArc
 50
180.0
 51
360.0
  0
LINE
  5
15F6
100
AcDbEntity
  8
0
100
AcDbLine
 10
4.490625
 20
10.19075
 30
0.0
 11
4.515625
 21
10.29075
 31
0.0
  0
LINE
  5
15F7
100
AcDbEntity
  8
0
100
AcDbLine
 10
4.490625
 20
10.16575
 30
0.0
 11
4.490625
 21
10.19075
 31
0.0
  0
LINE
  5
15F8
100
AcDbEntity
  8
0
100
AcDbLine
 10
4.490625
 20
10.41575
 30
0.0
 11
4.490625
 21
10.39075
 31
0.0
  0
LINE
  5
15F9
100
AcDbEntity
  8
0
100
AcDbLine
 10
4.540625
 20
10.19075
 30
0.0
 11
4.515625
 21
10.29075
 31
0.0
  0
LINE
  5
15FA
100
AcDbEntity
  8
0
100
AcDbLine
 10
4.540625
 20
10.16575
 30
0.0
 11
4.540625
 21
10.19075
 31
0.0
  0
LINE
  5
15FB
100
AcDbEntity
  8
0
100
AcDbLine
 10
4.540625
 20
10.39075
 30
0.0
 11
4.515625
 21
10.29075
 31
0.0
  0
LINE
  5
15FC
100
AcDbEntity
  8
0
100
AcDbLine
 10
4.540625
 20
10.41575
 30
0.0
 11
4.540625
 21
10.39075
 31
0.0
  0
TEXT
  5
1609
100
AcDbEntity
  8
TEXT
100
AcDbText
 10
6.603125
 20
12.1345
 30
0.0
 40
0.075
  1
Enc Ch 1 NOT "A"
100
AcDbText
  0
TEXT
  5
160A
100
AcDbEntity
  8
TEXT
100
AcDbText
 10
6.603125
 20
12.3845
 30
0.0
 40
0.075
  1
Enc Ch 1 "A"
100
AcDbText
  0
LINE
  5
160B
100
AcDbEntity
  8
0
100
AcDbLine
 10
4.540625
 20
8.69075
 30
0.0
 11
4.515625
 21
8.79075
 31
0.0
  0
LINE
  5
160C
100
AcDbEntity
  8
0
100
AcDbLine
 10
4.490625
 20
8.69075
 30
0.0
 11
4.515625
 21
8.79075
 31
0.0
  0
LINE
  5
160D
100
AcDbEntity
  8
0
100
AcDbLine
 10
2.990625
 20
8.69075
 30
0.0
 11
3.015625
 21
8.79075
 31
0.0
  0
LINE
  5
160E
100
AcDbEntity
  8
0
100
AcDbLine
 10
3.040625
 20
8.69075
 30
0.0
 11
3.015625
 21
8.79075
 31
0.0
  0
LINE
  5
160F
100
AcDbEntity
  8
0
100
AcDbLine
 10
2.765625
 20
6.41575
 30
0.0
 11
4.640625
 21
6.41575
 31
0.0
  0
LINE
  5
1610
100
AcDbEntity
  8
0
100
AcDbLine
 10
2.765625
 20
6.16575
 30
0.0
 11
4.640625
 21
6.16575
 31
0.0
  0
LINE
  5
1611
100
AcDbEntity
  8
0
100
AcDbLine
 10
2.765625
 20
6.91575
 30
0.0
 11
4.640625
 21
6.91575
 31
0.0
  0
LINE
  5
1612
100
AcDbEntity
  8
0
100
AcDbLine
 10
2.765625
 20
6.66575
 30
0.0
 11
4.640625
 21
6.66575
 31
0.0
  0
LINE
  5
1613
100
AcDbEntity
  8
0
100
AcDbLine
 10
2.765625
 20
8.66575
 30
0.0
 11
4.640625
 21
8.66575
 31
0.0
  0
LINE
  5
1614
100
AcDbEntity
  8
0
100
AcDbLine
 10
2.765625
 20
8.41575
 30
0.0
 11
6.415625
 21
8.41575
 31
0.0
  0
LINE
  5
1615
100
AcDbEntity
  8
0
100
AcDbLine
 10
2.765625
 20
8.16575
 30
0.0
 11
6.415625
 21
8.16575
 31
0.0
  0
LINE
  5
1616
100
AcDbEntity
  8
0
100
AcDbLine
 10
2.765625
 20
7.91575
 30
0.0
 11
4.640625
 21
7.91575
 31
0.0
  0
LINE
  5
1617
100
AcDbEntity
  8
0
100
AcDbLine
 10
2.765625
 20
7.66575
 30
0.0
 11
4.640625
 21
7.66575
 31
0.0
  0
LINE
  5
1618
100
AcDbEntity
  8
0
100
AcDbLine
 10
2.765625
 20
7.16575
 30
0.0
 11
4.640625
 21
7.16575
 31
0.0
  0
LINE
  5
1619
100
AcDbEntity
  8
0
100
AcDbLine
 10
2.765625
 20
7.41575
 30
0.0
 11
4.640625
 21
7.41575
 31
0.0
  0
LINE
  5
161A
100
AcDbEntity
  8
0
100
AcDbLine
 10
4.540625
 20
6.39075
 30
0.0
 11
4.515625
 21
6.29075
 31
0.0
  0
LINE
  5
161B
100
AcDbEntity
  8
0
100
AcDbLine
 10
4.490625
 20
6.39075
 30
0.0
 11
4.515625
 21
6.29075
 31
0.0
  0
LINE
  5
161C
100
AcDbEntity
  8
0
100
AcDbLine
 10
3.040625
 20
6.39075
 30
0.0
 11
3.015625
 21
6.29075
 31
0.0
  0
LINE
  5
161D
100
AcDbEntity
  8
0
100
AcDbLine
 10
2.990625
 20
6.39075
 30
0.0
 11
3.015625
 21
6.29075
 31
0.0
  0
LINE
  5
161F
100
AcDbEntity
  8
0
100
AcDbLine
 10
3.040625
 20
6.16575
 30
0.0
 11
3.040625
 21
6.19075
 31
0.0
  0
LINE
  5
1620
100
AcDbEntity
  8
0
100
AcDbLine
 10
2.990625
 20
6.16575
 30
0.0
 11
2.990625
 21
6.19075
 31
0.0
  0
ARC
  5
1621
100
AcDbEntity
  8
0
100
AcDbCircle
 10
3.015625
 20
6.16575
 30
0.0
 40
0.025
100
AcDbArc
 50
180.0
 51
360.0
  0
LINE
  5
1622
100
AcDbEntity
  8
0
100
AcDbLine
 10
2.990625
 20
6.19075
 30
0.0
 11
3.015625
 21
6.29075
 31
0.0
  0
LINE
  5
1623
100
AcDbEntity
  8
0
100
AcDbLine
 10
3.040625
 20
6.19075
 30
0.0
 11
3.015625
 21
6.29075
 31
0.0
  0
TEXT
  5
1624
100
AcDbEntity
  8
TEXT
100
AcDbText
 10
3.440625
 20
6.19075
 30
0.0
 40
0.075
  1
Yellow/Red
 72
     1
 11
3.765625
 21
6.16575
 31
0.0
100
AcDbText
 73
     1
  0
LINE
  5
1625
100
AcDbEntity
  8
0
100
AcDbLine
 10
4.490625
 20
6.19075
 30
0.0
 11
4.515625
 21
6.29075
 31
0.0
  0
ARC
  5
1626
100
AcDbEntity
  8
0
100
AcDbCircle
 10
4.515625
 20
6.16575
 30
0.0
 40
0.025
100
AcDbArc
 50
180.0
 51
360.0
  0
LINE
  5
1627
100
AcDbEntity
  8
0
100
AcDbLine
 10
4.490625
 20
6.16575
 30
0.0
 11
4.490625
 21
6.19075
 31
0.0
  0
LINE
  5
1628
100
AcDbEntity
  8
0
100
AcDbLine
 10
4.540625
 20
6.16575
 30
0.0
 11
4.540625
 21
6.19075
 31
0.0
  0
LINE
  5
1629
100
AcDbEntity
  8
0
100
AcDbLine
 10
4.540625
 20
6.19075
 30
0.0
 11
4.515625
 21
6.29075
 31
0.0
  0
LINE
  5
162A
100
AcDbEntity
  8
0
100
AcDbLine
 10
2.990625
 20
6.91575
 30
0.0
 11
2.990625
 21
6.89075
 31
0.0
  0
LINE
  5
162B
100
AcDbEntity
  8
0
100
AcDbLine
 10
3.040625
 20
6.91575
 30
0.0
 11
3.040625
 21
6.89075
 31
0.0
  0
ARC
  5
162E
100
AcDbEntity
  8
0
100
AcDbCircle
 10
3.015625
 20
6.41575
 30
0.0
 40
0.025
100
AcDbArc
 50
0.0
 51
180.0
  0
LINE
  5
162F
100
AcDbEntity
  8
0
100
AcDbLine
 10
2.990625
 20
6.41575
 30
0.0
 11
2.990625
 21
6.39075
 31
0.0
  0
LINE
  5
1630
100
AcDbEntity
  8
0
100
AcDbLine
 10
3.040625
 20
6.41575
 30
0.0
 11
3.040625
 21
6.39075
 31
0.0
  0
LINE
  5
1632
100
AcDbEntity
  8
0
100
AcDbLine
 10
3.040625
 20
6.89075
 30
0.0
 11
3.015625
 21
6.79075
 31
0.0
  0
LINE
  5
1633
100
AcDbEntity
  8
0
100
AcDbLine
 10
2.990625
 20
6.89075
 30
0.0
 11
3.015625
 21
6.79075
 31
0.0
  0
LINE
  5
1634
100
AcDbEntity
  8
0
100
AcDbLine
 10
3.040625
 20
6.66575
 30
0.0
 11
3.040625
 21
6.69075
 31
0.0
  0
LINE
  5
1635
100
AcDbEntity
  8
0
100
AcDbLine
 10
2.990625
 20
6.66575
 30
0.0
 11
2.990625
 21
6.69075
 31
0.0
  0
ARC
  5
1636
100
AcDbEntity
  8
0
100
AcDbCircle
 10
3.015625
 20
6.66575
 30
0.0
 40
0.025
100
AcDbArc
 50
180.0
 51
360.0
  0
LINE
  5
1637
100
AcDbEntity
  8
0
100
AcDbLine
 10
2.990625
 20
6.69075
 30
0.0
 11
3.015625
 21
6.79075
 31
0.0
  0
LINE
  5
1638
100
AcDbEntity
  8
0
100
AcDbLine
 10
3.040625
 20
6.69075
 30
0.0
 11
3.015625
 21
6.79075
 31
0.0
  0
LINE
  5
1639
100
AcDbEntity
  8
0
100
AcDbLine
 10
3.040625
 20
7.19075
 30
0.0
 11
3.015625
 21
7.29075
 31
0.0
  0
LINE
  5
163A
100
AcDbEntity
  8
0
100
AcDbLine
 10
2.990625
 20
7.19075
 30
0.0
 11
3.015625
 21
7.29075
 31
0.0
  0
ARC
  5
163C
100
AcDbEntity
  8
0
100
AcDbCircle
 10
3.015625
 20
6.91575
 30
0.0
 40
0.025
100
AcDbArc
 50
0.0
 51
180.0
  0
ARC
  5
163D
100
AcDbEntity
  8
0
100
AcDbCircle
 10
3.015625
 20
7.16575
 30
0.0
 40
0.025
100
AcDbArc
 50
180.0
 51
360.0
  0
LINE
  5
163E
100
AcDbEntity
  8
0
100
AcDbLine
 10
2.990625
 20
7.16575
 30
0.0
 11
2.990625
 21
7.19075
 31
0.0
  0
LINE
  5
163F
100
AcDbEntity
  8
0
100
AcDbLine
 10
3.040625
 20
7.16575
 30
0.0
 11
3.040625
 21
7.19075
 31
0.0
  0
LINE
  5
1641
100
AcDbEntity
  8
0
100
AcDbLine
 10
2.990625
 20
7.39075
 30
0.0
 11
3.015625
 21
7.29075
 31
0.0
  0
LINE
  5
1642
100
AcDbEntity
  8
0
100
AcDbLine
 10
3.040625
 20
7.39075
 30
0.0
 11
3.015625
 21
7.29075
 31
0.0
  0
LINE
  5
1643
100
AcDbEntity
  8
0
100
AcDbLine
 10
3.040625
 20
7.41575
 30
0.0
 11
3.040625
 21
7.39075
 31
0.0
  0
LINE
  5
1644
100
AcDbEntity
  8
0
100
AcDbLine
 10
2.990625
 20
7.41575
 30
0.0
 11
2.990625
 21
7.39075
 31
0.0
  0
ARC
  5
1645
100
AcDbEntity
  8
0
100
AcDbCircle
 10
3.015625
 20
7.41575
 30
0.0
 40
0.025
100
AcDbArc
 50
0.0
 51
180.0
  0
ARC
  5
1646
100
AcDbEntity
  8
0
100
AcDbCircle
 10
3.015625
 20
8.16575
 30
0.0
 40
0.025
100
AcDbArc
 50
180.0
 51
360.0
  0
LINE
  5
1648
100
AcDbEntity
  8
0
100
AcDbLine
 10
3.040625
 20
7.89075
 30
0.0
 11
3.015625
 21
7.79075
 31
0.0
  0
LINE
  5
1649
100
AcDbEntity
  8
0
100
AcDbLine
 10
2.990625
 20
7.89075
 30
0.0
 11
3.015625
 21
7.79075
 31
0.0
  0
LINE
  5
164B
100
AcDbEntity
  8
0
100
AcDbLine
 10
3.040625
 20
7.66575
 30
0.0
 11
3.040625
 21
7.69075
 31
0.0
  0
LINE
  5
164C
100
AcDbEntity
  8
0
100
AcDbLine
 10
2.990625
 20
7.66575
 30
0.0
 11
2.990625
 21
7.69075
 31
0.0
  0
ARC
  5
164D
100
AcDbEntity
  8
0
100
AcDbCircle
 10
3.015625
 20
7.66575
 30
0.0
 40
0.025
100
AcDbArc
 50
180.0
 51
360.0
  0
LINE
  5
164E
100
AcDbEntity
  8
0
100
AcDbLine
 10
2.990625
 20
7.69075
 30
0.0
 11
3.015625
 21
7.79075
 31
0.0
  0
LINE
  5
164F
100
AcDbEntity
  8
0
100
AcDbLine
 10
3.040625
 20
7.69075
 30
0.0
 11
3.015625
 21
7.79075
 31
0.0
  0
ARC
  5
1651
100
AcDbEntity
  8
0
100
AcDbCircle
 10
3.015625
 20
7.91575
 30
0.0
 40
0.025
100
AcDbArc
 50
0.0
 51
180.0
  0
LINE
  5
1652
100
AcDbEntity
  8
0
100
AcDbLine
 10
2.990625
 20
7.91575
 30
0.0
 11
2.990625
 21
7.89075
 31
0.0
  0
LINE
  5
1653
100
AcDbEntity
  8
0
100
AcDbLine
 10
3.040625
 20
7.91575
 30
0.0
 11
3.040625
 21
7.89075
 31
0.0
  0
ARC
  5
1655
100
AcDbEntity
  8
0
100
AcDbCircle
 10
3.015625
 20
8.41575
 30
0.0
 40
0.025
100
AcDbArc
 50
0.0
 51
180.0
  0
LINE
  5
1656
100
AcDbEntity
  8
0
100
AcDbLine
 10
2.990625
 20
8.41575
 30
0.0
 11
2.990625
 21
8.39075
 31
0.0
  0
LINE
  5
1657
100
AcDbEntity
  8
0
100
AcDbLine
 10
3.040625
 20
8.41575
 30
0.0
 11
3.040625
 21
8.39075
 31
0.0
  0
LINE
  5
1658
100
AcDbEntity
  8
0
100
AcDbLine
 10
3.040625
 20
8.39075
 30
0.0
 11
3.015625
 21
8.29075
 31
0.0
  0
LINE
  5
1659
100
AcDbEntity
  8
0
100
AcDbLine
 10
2.990625
 20
8.39075
 30
0.0
 11
3.015625
 21
8.29075
 31
0.0
  0
LINE
  5
165A
100
AcDbEntity
  8
0
100
AcDbLine
 10
3.040625
 20
8.16575
 30
0.0
 11
3.040625
 21
8.19075
 31
0.0
  0
LINE
  5
165B
100
AcDbEntity
  8
0
100
AcDbLine
 10
2.990625
 20
8.16575
 30
0.0
 11
2.990625
 21
8.19075
 31
0.0
  0
LINE
  5
165C
100
AcDbEntity
  8
0
100
AcDbLine
 10
2.990625
 20
8.19075
 30
0.0
 11
3.015625
 21
8.29075
 31
0.0
  0
LINE
  5
165D
100
AcDbEntity
  8
0
100
AcDbLine
 10
3.040625
 20
8.19075
 30
0.0
 11
3.015625
 21
8.29075
 31
0.0
  0
LINE
  5
165F
100
AcDbEntity
  8
0
100
AcDbLine
 10
3.040625
 20
8.66575
 30
0.0
 11
3.040625
 21
8.69075
 31
0.0
  0
LINE
  5
1660
100
AcDbEntity
  8
0
100
AcDbLine
 10
2.990625
 20
8.66575
 30
0.0
 11
2.990625
 21
8.69075
 31
0.0
  0
ARC
  5
1661
100
AcDbEntity
  8
0
100
AcDbCircle
 10
3.015625
 20
8.66575
 30
0.0
 40
0.025
100
AcDbArc
 50
180.0
 51
360.0
  0
TEXT
  5
1662
100
AcDbEntity
  8
TEXT
100
AcDbText
 10
3.440625
 20
6.44075
 30
0.0
 40
0.075
  1
Green/Red
 72
     1
 11
3.765625
 21
6.41575
 31
0.0
100
AcDbText
 73
     1
  0
TEXT
  5
1663
100
AcDbEntity
  8
TEXT
100
AcDbText
 10
3.440625
 20
6.69075
 30
0.0
 40
0.075
  1
Blue/Black
 72
     1
 11
3.765625
 21
6.66575
 31
0.0
100
AcDbText
 73
     1
  0
TEXT
  5
1664
100
AcDbEntity
  8
TEXT
100
AcDbText
 10
3.384375
 20
7.19075
 30
0.0
 40
0.075
  1
Green/Black
 72
     1
 11
3.765625
 21
7.16575
 31
0.0
100
AcDbText
 73
     1
  0
TEXT
  5
1665
100
AcDbEntity
  8
TEXT
100
AcDbText
 10
3.228125
 20
6.94075
 30
0.0
 40
0.075
  1
White/Black/Blue
 72
     1
 11
3.765625
 21
6.91575
 31
0.0
100
AcDbText
 73
     1
  0
TEXT
  5
1666
100
AcDbEntity
  8
TEXT
100
AcDbText
 10
3.171875
 20
7.44075
 30
0.0
 40
0.075
  1
White/Black/Green
 72
     1
 11
3.765625
 21
7.41575
 31
0.0
100
AcDbText
 73
     1
  0
LINE
  5
1667
100
AcDbEntity
  8
0
100
AcDbLine
 10
4.540625
 20
6.91575
 30
0.0
 11
4.540625
 21
6.89075
 31
0.0
  0
LINE
  5
1668
100
AcDbEntity
  8
0
100
AcDbLine
 10
4.490625
 20
6.91575
 30
0.0
 11
4.490625
 21
6.89075
 31
0.0
  0
ARC
  5
1669
100
AcDbEntity
  8
0
100
AcDbCircle
 10
4.515625
 20
6.41575
 30
0.0
 40
0.025
100
AcDbArc
 50
0.0
 51
180.0
  0
LINE
  5
166A
100
AcDbEntity
  8
0
100
AcDbLine
 10
4.490625
 20
6.69075
 30
0.0
 11
4.515625
 21
6.79075
 31
0.0
  0
ARC
  5
166B
100
AcDbEntity
  8
0
100
AcDbCircle
 10
4.515625
 20
6.66575
 30
0.0
 40
0.025
100
AcDbArc
 50
180.0
 51
360.0
  0
LINE
  5
166C
100
AcDbEntity
  8
0
100
AcDbLine
 10
4.490625
 20
6.89075
 30
0.0
 11
4.515625
 21
6.79075
 31
0.0
  0
LINE
  5
166D
100
AcDbEntity
  8
0
100
AcDbLine
 10
4.490625
 20
6.41575
 30
0.0
 11
4.490625
 21
6.39075
 31
0.0
  0
LINE
  5
166E
100
AcDbEntity
  8
0
100
AcDbLine
 10
4.490625
 20
6.66575
 30
0.0
 11
4.490625
 21
6.69075
 31
0.0
  0
LINE
  5
166F
100
AcDbEntity
  8
0
100
AcDbLine
 10
4.540625
 20
6.41575
 30
0.0
 11
4.540625
 21
6.39075
 31
0.0
  0
LINE
  5
1670
100
AcDbEntity
  8
0
100
AcDbLine
 10
4.540625
 20
6.89075
 30
0.0
 11
4.515625
 21
6.79075
 31
0.0
  0
LINE
  5
1671
100
AcDbEntity
  8
0
100
AcDbLine
 10
4.540625
 20
6.66575
 30
0.0
 11
4.540625
 21
6.69075
 31
0.0
  0
LINE
  5
1672
100
AcDbEntity
  8
0
100
AcDbLine
 10
4.540625
 20
6.69075
 30
0.0
 11
4.515625
 21
6.79075
 31
0.0
  0
ARC
  5
1673
100
AcDbEntity
  8
0
100
AcDbCircle
 10
4.515625
 20
6.91575
 30
0.0
 40
0.025
100
AcDbArc
 50
0.0
 51
180.0
  0
LINE
  5
1674
100
AcDbEntity
  8
0
100
AcDbLine
 10
4.490625
 20
7.39075
 30
0.0
 11
4.515625
 21
7.29075
 31
0.0
  0
ARC
  5
1675
100
AcDbEntity
  8
0
100
AcDbCircle
 10
4.515625
 20
7.41575
 30
0.0
 40
0.025
100
AcDbArc
 50
0.0
 51
180.0
  0
ARC
  5
1676
100
AcDbEntity
  8
0
100
AcDbCircle
 10
4.515625
 20
7.16575
 30
0.0
 40
0.025
100
AcDbArc
 50
180.0
 51
360.0
  0
LINE
  5
1677
100
AcDbEntity
  8
0
100
AcDbLine
 10
4.490625
 20
7.19075
 30
0.0
 11
4.515625
 21
7.29075
 31
0.0
  0
LINE
  5
1678
100
AcDbEntity
  8
0
100
AcDbLine
 10
4.490625
 20
7.16575
 30
0.0
 11
4.490625
 21
7.19075
 31
0.0
  0
LINE
  5
1679
100
AcDbEntity
  8
0
100
AcDbLine
 10
4.490625
 20
7.41575
 30
0.0
 11
4.490625
 21
7.39075
 31
0.0
  0
LINE
  5
167A
100
AcDbEntity
  8
0
100
AcDbLine
 10
4.540625
 20
7.19075
 30
0.0
 11
4.515625
 21
7.29075
 31
0.0
  0
LINE
  5
167B
100
AcDbEntity
  8
0
100
AcDbLine
 10
4.540625
 20
7.16575
 30
0.0
 11
4.540625
 21
7.19075
 31
0.0
  0
LINE
  5
167C
100
AcDbEntity
  8
0
100
AcDbLine
 10
4.540625
 20
7.39075
 30
0.0
 11
4.515625
 21
7.29075
 31
0.0
  0
LINE
  5
167D
100
AcDbEntity
  8
0
100
AcDbLine
 10
4.540625
 20
7.41575
 30
0.0
 11
4.540625
 21
7.39075
 31
0.0
  0
TEXT
  5
167E
100
AcDbEntity
  8
TEXT
100
AcDbText
 10
3.384375
 20
7.69075
 30
0.0
 40
0.075
  1
Yellow/Black
 72
     1
 11
3.765625
 21
7.66575
 31
0.0
100
AcDbText
 73
     1
  0
TEXT
  5
167F
100
AcDbEntity
  8
TEXT
100
AcDbText
 10
3.171875
 20
7.94075
 30
0.0
 40
0.075
  1
White/Black/Yellow
 72
     1
 11
3.765625
 21
7.91575
 31
0.0
100
AcDbText
 73
     1
  0
TEXT
  5
1680
100
AcDbEntity
  8
TEXT
100
AcDbText
 10
3.134375
 20
8.44075
 30
0.0
 40
0.075
  1
White/Black/Orange
 72
     1
 11
3.765625
 21
8.41575
 31
0.0
100
AcDbText
 73
     1
  0
TEXT
  5
1681
100
AcDbEntity
  8
TEXT
100
AcDbText
 10
3.346875
 20
8.19075
 30
0.0
 40
0.075
  1
Orange/Black
 72
     1
 11
3.765625
 21
8.16575
 31
0.0
100
AcDbText
 73
     1
  0
TEXT
  5
1682
100
AcDbEntity
  8
TEXT
100
AcDbText
 10
3.459375
 20
8.69075
 30
0.0
 40
0.075
  1
Red/Black
 72
     1
 11
3.765625
 21
8.66575
 31
0.0
100
AcDbText
 73
     1
  0
ARC
  5
1683
100
AcDbEntity
  8
0
100
AcDbCircle
 10
4.515625
 20
8.16575
 30
0.0
 40
0.025
100
AcDbArc
 50
180.0
 51
360.0
  0
LINE
  5
1684
100
AcDbEntity
  8
0
100
AcDbLine
 10
4.490625
 20
7.69075
 30
0.0
 11
4.515625
 21
7.79075
 31
0.0
  0
ARC
  5
1685
100
AcDbEntity
  8
0
100
AcDbCircle
 10
4.515625
 20
7.66575
 30
0.0
 40
0.025
100
AcDbArc
 50
180.0
 51
360.0
  0
ARC
  5
1686
100
AcDbEntity
  8
0
100
AcDbCircle
 10
4.515625
 20
7.91575
 30
0.0
 40
0.025
100
AcDbArc
 50
0.0
 51
180.0
  0
LINE
  5
1687
100
AcDbEntity
  8
0
100
AcDbLine
 10
4.490625
 20
7.89075
 30
0.0
 11
4.515625
 21
7.79075
 31
0.0
  0
LINE
  5
1688
100
AcDbEntity
  8
0
100
AcDbLine
 10
4.490625
 20
7.66575
 30
0.0
 11
4.490625
 21
7.69075
 31
0.0
  0
LINE
  5
1689
100
AcDbEntity
  8
0
100
AcDbLine
 10
4.490625
 20
7.91575
 30
0.0
 11
4.490625
 21
7.89075
 31
0.0
  0
LINE
  5
168A
100
AcDbEntity
  8
0
100
AcDbLine
 10
4.540625
 20
7.89075
 30
0.0
 11
4.515625
 21
7.79075
 31
0.0
  0
LINE
  5
168B
100
AcDbEntity
  8
0
100
AcDbLine
 10
4.540625
 20
7.66575
 30
0.0
 11
4.540625
 21
7.69075
 31
0.0
  0
LINE
  5
168C
100
AcDbEntity
  8
0
100
AcDbLine
 10
4.540625
 20
7.69075
 30
0.0
 11
4.515625
 21
7.79075
 31
0.0
  0
LINE
  5
168D
100
AcDbEntity
  8
0
100
AcDbLine
 10
4.540625
 20
7.91575
 30
0.0
 11
4.540625
 21
7.89075
 31
0.0
  0
ARC
  5
168E
100
AcDbEntity
  8
0
100
AcDbCircle
 10
4.515625
 20
8.66575
 30
0.0
 40
0.025
100
AcDbArc
 50
180.0
 51
360.0
  0
LINE
  5
168F
100
AcDbEntity
  8
0
100
AcDbLine
 10
4.490625
 20
8.19075
 30
0.0
 11
4.515625
 21
8.29075
 31
0.0
  0
ARC
  5
1690
100
AcDbEntity
  8
0
100
AcDbCircle
 10
4.515625
 20
8.41575
 30
0.0
 40
0.025
100
AcDbArc
 50
0.0
 51
180.0
  0
LINE
  5
1691
100
AcDbEntity
  8
0
100
AcDbLine
 10
4.490625
 20
8.39075
 30
0.0
 11
4.515625
 21
8.29075
 31
0.0
  0
LINE
  5
1692
100
AcDbEntity
  8
0
100
AcDbLine
 10
4.490625
 20
8.41575
 30
0.0
 11
4.490625
 21
8.39075
 31
0.0
  0
LINE
  5
1693
100
AcDbEntity
  8
0
100
AcDbLine
 10
4.490625
 20
8.16575
 30
0.0
 11
4.490625
 21
8.19075
 31
0.0
  0
LINE
  5
1694
100
AcDbEntity
  8
0
100
AcDbLine
 10
4.490625
 20
8.66575
 30
0.0
 11
4.490625
 21
8.69075
 31
0.0
  0
LINE
  5
1695
100
AcDbEntity
  8
0
100
AcDbLine
 10
4.540625
 20
8.41575
 30
0.0
 11
4.540625
 21
8.39075
 31
0.0
  0
LINE
  5
1696
100
AcDbEntity
  8
0
100
AcDbLine
 10
4.540625
 20
8.39075
 30
0.0
 11
4.515625
 21
8.29075
 31
0.0
  0
LINE
  5
1697
100
AcDbEntity
  8
0
100
AcDbLine
 10
4.540625
 20
8.16575
 30
0.0
 11
4.540625
 21
8.19075
 31
0.0
  0
LINE
  5
1698
100
AcDbEntity
  8
0
100
AcDbLine
 10
4.540625
 20
8.19075
 30
0.0
 11
4.515625
 21
8.29075
 31
0.0
  0
LINE
  5
1699
100
AcDbEntity
  8
0
100
AcDbLine
 10
4.540625
 20
8.66575
 30
0.0
 11
4.540625
 21
8.69075
 31
0.0
  0
LINE
  5
16B5
100
AcDbEntity
  8
0
100
AcDbLine
 10
2.765625
 20
8.91575
 30
0.0
 11
4.640625
 21
8.91575
 31
0.0
  0
LINE
  5
16B6
100
AcDbEntity
  8
0
100
AcDbLine
 10
3.040625
 20
9.39075
 30
0.0
 11
3.015625
 21
9.29075
 31
0.0
  0
LINE
  5
16B7
100
AcDbEntity
  8
0
100
AcDbLine
 10
2.990625
 20
9.39075
 30
0.0
 11
3.015625
 21
9.29075
 31
0.0
  0
ARC
  5
16BA
100
AcDbEntity
  8
0
100
AcDbCircle
 10
3.015625
 20
8.91575
 30
0.0
 40
0.025
100
AcDbArc
 50
0.0
 51
180.0
  0
LINE
  5
16BB
100
AcDbEntity
  8
0
100
AcDbLine
 10
2.990625
 20
8.91575
 30
0.0
 11
2.990625
 21
8.89075
 31
0.0
  0
LINE
  5
16BC
100
AcDbEntity
  8
0
100
AcDbLine
 10
3.040625
 20
8.91575
 30
0.0
 11
3.040625
 21
8.89075
 31
0.0
  0
LINE
  5
16BD
100
AcDbEntity
  8
0
100
AcDbLine
 10
3.040625
 20
8.89075
 30
0.0
 11
3.015625
 21
8.79075
 31
0.0
  0
LINE
  5
16BE
100
AcDbEntity
  8
0
100
AcDbLine
 10
2.990625
 20
8.89075
 30
0.0
 11
3.015625
 21
8.79075
 31
0.0
  0
LINE
  5
16C0
100
AcDbEntity
  8
0
100
AcDbLine
 10
3.040625
 20
9.16575
 30
0.0
 11
3.040625
 21
9.19075
 31
0.0
  0
LINE
  5
16C1
100
AcDbEntity
  8
0
100
AcDbLine
 10
2.990625
 20
9.16575
 30
0.0
 11
2.990625
 21
9.19075
 31
0.0
  0
ARC
  5
16C2
100
AcDbEntity
  8
0
100
AcDbCircle
 10
3.015625
 20
9.16575
 30
0.0
 40
0.025
100
AcDbArc
 50
180.0
 51
360.0
  0
LINE
  5
16C3
100
AcDbEntity
  8
0
100
AcDbLine
 10
2.990625
 20
9.19075
 30
0.0
 11
3.015625
 21
9.29075
 31
0.0
  0
LINE
  5
16C4
100
AcDbEntity
  8
0
100
AcDbLine
 10
3.040625
 20
9.19075
 30
0.0
 11
3.015625
 21
9.29075
 31
0.0
  0
LINE
  5
16C5
100
AcDbEntity
  8
0
100
AcDbLine
 10
3.040625
 20
9.66575
 30
0.0
 11
3.040625
 21
9.69075
 31
0.0
  0
LINE
  5
16C6
100
AcDbEntity
  8
0
100
AcDbLine
 10
2.990625
 20
9.66575
 30
0.0
 11
2.990625
 21
9.69075
 31
0.0
  0
ARC
  5
16C8
100
AcDbEntity
  8
0
100
AcDbCircle
 10
3.015625
 20
9.66575
 30
0.0
 40
0.025
100
AcDbArc
 50
180.0
 51
360.0
  0
ARC
  5
16C9
100
AcDbEntity
  8
0
100
AcDbCircle
 10
3.015625
 20
9.41575
 30
0.0
 40
0.025
100
AcDbArc
 50
0.0
 51
180.0
  0
LINE
  5
16CA
100
AcDbEntity
  8
0
100
AcDbLine
 10
2.990625
 20
9.41575
 30
0.0
 11
2.990625
 21
9.39075
 31
0.0
  0
LINE
  5
16CB
100
AcDbEntity
  8
0
100
AcDbLine
 10
3.040625
 20
9.41575
 30
0.0
 11
3.040625
 21
9.39075
 31
0.0
  0
ARC
  5
16CD
100
AcDbEntity
  8
0
100
AcDbCircle
 10
3.015625
 20
9.91575
 30
0.0
 40
0.025
100
AcDbArc
 50
0.0
 51
180.0
  0
LINE
  5
16CE
100
AcDbEntity
  8
0
100
AcDbLine
 10
2.990625
 20
9.91575
 30
0.0
 11
2.990625
 21
9.89075
 31
0.0
  0
LINE
  5
16CF
100
AcDbEntity
  8
0
100
AcDbLine
 10
3.040625
 20
9.91575
 30
0.0
 11
3.040625
 21
9.89075
 31
0.0
  0
LINE
  5
16D0
100
AcDbEntity
  8
0
100
AcDbLine
 10
3.040625
 20
9.89075
 30
0.0
 11
3.015625
 21
9.79075
 31
0.0
  0
LINE
  5
16D1
100
AcDbEntity
  8
0
100
AcDbLine
 10
2.990625
 20
9.89075
 30
0.0
 11
3.015625
 21
9.79075
 31
0.0
  0
LINE
  5
16D2
100
AcDbEntity
  8
0
100
AcDbLine
 10
2.990625
 20
9.69075
 30
0.0
 11
3.015625
 21
9.79075
 31
0.0
  0
LINE
  5
16D3
100
AcDbEntity
  8
0
100
AcDbLine
 10
3.040625
 20
9.69075
 30
0.0
 11
3.015625
 21
9.79075
 31
0.0
  0
TEXT
  5
16D4
100
AcDbEntity
  8
TEXT
100
AcDbText
 10
3.628125
 20
9.94075
 30
0.0
 40
0.075
  1
Gray
 72
     1
 11
3.765625
 21
9.91575
 31
0.0
100
AcDbText
 73
     1
  0
TEXT
  5
16D5
100
AcDbEntity
  8
TEXT
100
AcDbText
 10
3.246875
 20
8.94075
 30
0.0
 40
0.075
  1
White/Black/Red
 72
     1
 11
3.765625
 21
8.91575
 31
0.0
100
AcDbText
 73
     1
  0
TEXT
  5
16D6
100
AcDbEntity
  8
TEXT
100
AcDbText
 10
3.440625
 20
9.19075
 30
0.0
 40
0.075
  1
White/Pink
 72
     1
 11
3.765625
 21
9.16575
 31
0.0
100
AcDbText
 73
     1
  0
TEXT
  5
16D7
100
AcDbEntity
  8
TEXT
100
AcDbText
 10
3.653125
 20
9.44075
 30
0.0
 40
0.075
  1
Pink
 72
     1
 11
3.765625
 21
9.41575
 31
0.0
100
AcDbText
 73
     1
  0
TEXT
  5
16D8
100
AcDbEntity
  8
TEXT
100
AcDbText
 10
3.415625
 20
9.69075
 30
0.0
 40
0.075
  1
White/Gray
 72
     1
 11
3.765625
 21
9.66575
 31
0.0
100
AcDbText
 73
     1
  0
LINE
  5
16D9
100
AcDbEntity
  8
0
100
AcDbLine
 10
4.540625
 20
9.39075
 30
0.0
 11
4.515625
 21
9.29075
 31
0.0
  0
LINE
  5
16DA
100
AcDbEntity
  8
0
100
AcDbLine
 10
4.490625
 20
9.39075
 30
0.0
 11
4.515625
 21
9.29075
 31
0.0
  0
LINE
  5
16DB
100
AcDbEntity
  8
0
100
AcDbLine
 10
4.490625
 20
9.19075
 30
0.0
 11
4.515625
 21
9.29075
 31
0.0
  0
ARC
  5
16DC
100
AcDbEntity
  8
0
100
AcDbCircle
 10
4.515625
 20
9.16575
 30
0.0
 40
0.025
100
AcDbArc
 50
180.0
 51
360.0
  0
ARC
  5
16DD
100
AcDbEntity
  8
0
100
AcDbCircle
 10
4.515625
 20
8.91575
 30
0.0
 40
0.025
100
AcDbArc
 50
0.0
 51
180.0
  0
LINE
  5
16DE
100
AcDbEntity
  8
0
100
AcDbLine
 10
4.490625
 20
8.89075
 30
0.0
 11
4.515625
 21
8.79075
 31
0.0
  0
LINE
  5
16DF
100
AcDbEntity
  8
0
100
AcDbLine
 10
4.490625
 20
8.91575
 30
0.0
 11
4.490625
 21
8.89075
 31
0.0
  0
LINE
  5
16E0
100
AcDbEntity
  8
0
100
AcDbLine
 10
4.490625
 20
9.16575
 30
0.0
 11
4.490625
 21
9.19075
 31
0.0
  0
LINE
  5
16E1
100
AcDbEntity
  8
0
100
AcDbLine
 10
4.540625
 20
8.91575
 30
0.0
 11
4.540625
 21
8.89075
 31
0.0
  0
LINE
  5
16E2
100
AcDbEntity
  8
0
100
AcDbLine
 10
4.540625
 20
8.89075
 30
0.0
 11
4.515625
 21
8.79075
 31
0.0
  0
LINE
  5
16E3
100
AcDbEntity
  8
0
100
AcDbLine
 10
4.540625
 20
9.16575
 30
0.0
 11
4.540625
 21
9.19075
 31
0.0
  0
LINE
  5
16E4
100
AcDbEntity
  8
0
100
AcDbLine
 10
4.540625
 20
9.19075
 30
0.0
 11
4.515625
 21
9.29075
 31
0.0
  0
LINE
  5
16E5
100
AcDbEntity
  8
0
100
AcDbLine
 10
4.490625
 20
9.69075
 30
0.0
 11
4.515625
 21
9.79075
 31
0.0
  0
ARC
  5
16E6
100
AcDbEntity
  8
0
100
AcDbCircle
 10
4.515625
 20
9.66575
 30
0.0
 40
0.025
100
AcDbArc
 50
180.0
 51
360.0
  0
ARC
  5
16E7
100
AcDbEntity
  8
0
100
AcDbCircle
 10
4.515625
 20
9.91575
 30
0.0
 40
0.025
100
AcDbArc
 50
0.0
 51
180.0
  0
LINE
  5
16E8
100
AcDbEntity
  8
0
100
AcDbLine
 10
4.490625
 20
9.89075
 30
0.0
 11
4.515625
 21
9.79075
 31
0.0
  0
ARC
  5
16E9
100
AcDbEntity
  8
0
100
AcDbCircle
 10
4.515625
 20
9.41575
 30
0.0
 40
0.025
100
AcDbArc
 50
0.0
 51
180.0
  0
LINE
  5
16EA
100
AcDbEntity
  8
0
100
AcDbLine
 10
4.490625
 20
9.66575
 30
0.0
 11
4.490625
 21
9.69075
 31
0.0
  0
LINE
  5
16EB
100
AcDbEntity
  8
0
100
AcDbLine
 10
4.490625
 20
9.41575
 30
0.0
 11
4.490625
 21
9.39075
 31
0.0
  0
LINE
  5
16EC
100
AcDbEntity
  8
0
100
AcDbLine
 10
4.490625
 20
9.91575
 30
0.0
 11
4.490625
 21
9.89075
 31
0.0
  0
LINE
  5
16ED
100
AcDbEntity
  8
0
100
AcDbLine
 10
4.540625
 20
9.66575
 30
0.0
 11
4.540625
 21
9.69075
 31
0.0
  0
LINE
  5
16EE
100
AcDbEntity
  8
0
100
AcDbLine
 10
4.540625
 20
9.41575
 30
0.0
 11
4.540625
 21
9.39075
 31
0.0
  0
LINE
  5
16EF
100
AcDbEntity
  8
0
100
AcDbLine
 10
4.540625
 20
9.91575
 30
0.0
 11
4.540625
 21
9.89075
 31
0.0
  0
LINE
  5
16F0
100
AcDbEntity
  8
0
100
AcDbLine
 10
4.540625
 20
9.89075
 30
0.0
 11
4.515625
 21
9.79075
 31
0.0
  0
LINE
  5
16F1
100
AcDbEntity
  8
0
100
AcDbLine
 10
4.540625
 20
9.69075
 30
0.0
 11
4.515625
 21
9.79075
 31
0.0
  0
TEXT
  5
1747
100
AcDbEntity
  8
TEXT
100
AcDbText
 10
6.603125
 20
8.3845
 30
0.0
 40
0.075
  1
An Out Ch 1 +
100
AcDbText
  0
TEXT
  5
1748
100
AcDbEntity
  8
TEXT
100
AcDbText
 10
6.603125
 20
8.1345
 30
0.0
 40
0.075
  1
An Out Ch 1 -
100
AcDbText
  0
LINE
  5
176B
100
AcDbEntity
  8
0
100
AcDbLine
 10
4.540625
 20
4.89075
 30
0.0
 11
4.515625
 21
4.79075
 31
0.0
  0
LINE
  5
176C
100
AcDbEntity
  8
0
100
AcDbLine
 10
4.490625
 20
4.89075
 30
0.0
 11
4.515625
 21
4.79075
 31
0.0
  0
LINE
  5
176D
100
AcDbEntity
  8
0
100
AcDbLine
 10
2.990625
 20
4.89075
 30
0.0
 11
3.015625
 21
4.79075
 31
0.0
  0
LINE
  5
176E
100
AcDbEntity
  8
0
100
AcDbLine
 10
3.040625
 20
4.89075
 30
0.0
 11
3.015625
 21
4.79075
 31
0.0
  0
LINE
  5
176F
100
AcDbEntity
  8
0
100
AcDbLine
 10
2.765625
 20
4.41575
 30
0.0
 11
4.640625
 21
4.41575
 31
0.0
  0
LINE
  5
1770
100
AcDbEntity
  8
0
100
AcDbLine
 10
2.765625
 20
4.16575
 30
0.0
 11
4.640625
 21
4.16575
 31
0.0
  0
LINE
  5
1771
100
AcDbEntity
  8
0
100
AcDbLine
 10
2.765625
 20
4.66575
 30
0.0
 11
4.640625
 21
4.66575
 31
0.0
  0
LINE
  5
1772
100
AcDbEntity
  8
0
100
AcDbLine
 10
2.765625
 20
3.66575
 30
0.0
 11
4.640625
 21
3.66575
 31
0.0
  0
LINE
  5
1773
100
AcDbEntity
  8
0
100
AcDbLine
 10
2.765625
 20
3.91575
 30
0.0
 11
4.640625
 21
3.91575
 31
0.0
  0
LINE
  5
1774
100
AcDbEntity
  8
0
100
AcDbLine
 10
2.765625
 20
3.16575
 30
0.0
 11
4.640625
 21
3.16575
 31
0.0
  0
LINE
  5
1775
100
AcDbEntity
  8
0
100
AcDbLine
 10
2.765625
 20
3.41575
 30
0.0
 11
4.640625
 21
3.41575
 31
0.0
  0
LINE
  5
1776
100
AcDbEntity
  8
0
100
AcDbLine
 10
3.040625
 20
3.19075
 30
0.0
 11
3.015625
 21
3.29075
 31
0.0
  0
LINE
  5
1777
100
AcDbEntity
  8
0
100
AcDbLine
 10
2.990625
 20
3.19075
 30
0.0
 11
3.015625
 21
3.29075
 31
0.0
  0
ARC
  5
1779
100
AcDbEntity
  8
0
100
AcDbCircle
 10
3.015625
 20
3.16575
 30
0.0
 40
0.025
100
AcDbArc
 50
180.0
 51
360.0
  0
LINE
  5
177A
100
AcDbEntity
  8
0
100
AcDbLine
 10
2.990625
 20
3.16575
 30
0.0
 11
2.990625
 21
3.19075
 31
0.0
  0
LINE
  5
177B
100
AcDbEntity
  8
0
100
AcDbLine
 10
3.040625
 20
3.16575
 30
0.0
 11
3.040625
 21
3.19075
 31
0.0
  0
LINE
  5
177D
100
AcDbEntity
  8
0
100
AcDbLine
 10
3.040625
 20
3.41575
 30
0.0
 11
3.040625
 21
3.39075
 31
0.0
  0
LINE
  5
177E
100
AcDbEntity
  8
0
100
AcDbLine
 10
2.990625
 20
3.41575
 30
0.0
 11
2.990625
 21
3.39075
 31
0.0
  0
ARC
  5
177F
100
AcDbEntity
  8
0
100
AcDbCircle
 10
3.015625
 20
3.41575
 30
0.0
 40
0.025
100
AcDbArc
 50
0.0
 51
180.0
  0
LINE
  5
1780
100
AcDbEntity
  8
0
100
AcDbLine
 10
2.990625
 20
3.39075
 30
0.0
 11
3.015625
 21
3.29075
 31
0.0
  0
LINE
  5
1781
100
AcDbEntity
  8
0
100
AcDbLine
 10
3.040625
 20
3.39075
 30
0.0
 11
3.015625
 21
3.29075
 31
0.0
  0
LINE
  5
1783
100
AcDbEntity
  8
0
100
AcDbLine
 10
2.990625
 20
4.19075
 30
0.0
 11
3.015625
 21
4.29075
 31
0.0
  0
LINE
  5
1784
100
AcDbEntity
  8
0
100
AcDbLine
 10
3.040625
 20
4.19075
 30
0.0
 11
3.015625
 21
4.29075
 31
0.0
  0
LINE
  5
1786
100
AcDbEntity
  8
0
100
AcDbLine
 10
3.040625
 20
3.91575
 30
0.0
 11
3.040625
 21
3.89075
 31
0.0
  0
LINE
  5
1787
100
AcDbEntity
  8
0
100
AcDbLine
 10
2.990625
 20
3.91575
 30
0.0
 11
2.990625
 21
3.89075
 31
0.0
  0
LINE
  5
1789
100
AcDbEntity
  8
0
100
AcDbLine
 10
3.040625
 20
3.69075
 30
0.0
 11
3.015625
 21
3.79075
 31
0.0
  0
LINE
  5
178A
100
AcDbEntity
  8
0
100
AcDbLine
 10
2.990625
 20
3.69075
 30
0.0
 11
3.015625
 21
3.79075
 31
0.0
  0
ARC
  5
178B
100
AcDbEntity
  8
0
100
AcDbCircle
 10
3.015625
 20
3.66575
 30
0.0
 40
0.025
100
AcDbArc
 50
180.0
 51
360.0
  0
LINE
  5
178C
100
AcDbEntity
  8
0
100
AcDbLine
 10
2.990625
 20
3.66575
 30
0.0
 11
2.990625
 21
3.69075
 31
0.0
  0
LINE
  5
178D
100
AcDbEntity
  8
0
100
AcDbLine
 10
3.040625
 20
3.66575
 30
0.0
 11
3.040625
 21
3.69075
 31
0.0
  0
LINE
  5
178E
100
AcDbEntity
  8
0
100
AcDbLine
 10
2.990625
 20
3.89075
 30
0.0
 11
3.015625
 21
3.79075
 31
0.0
  0
LINE
  5
178F
100
AcDbEntity
  8
0
100
AcDbLine
 10
3.040625
 20
3.89075
 30
0.0
 11
3.015625
 21
3.79075
 31
0.0
  0
LINE
  5
1790
100
AcDbEntity
  8
0
100
AcDbLine
 10
3.040625
 20
4.16575
 30
0.0
 11
3.040625
 21
4.19075
 31
0.0
  0
LINE
  5
1791
100
AcDbEntity
  8
0
100
AcDbLine
 10
2.990625
 20
4.16575
 30
0.0
 11
2.990625
 21
4.19075
 31
0.0
  0
ARC
  5
1792
100
AcDbEntity
  8
0
100
AcDbCircle
 10
3.015625
 20
4.16575
 30
0.0
 40
0.025
100
AcDbArc
 50
180.0
 51
360.0
  0
ARC
  5
1793
100
AcDbEntity
  8
0
100
AcDbCircle
 10
3.015625
 20
3.91575
 30
0.0
 40
0.025
100
AcDbArc
 50
0.0
 51
180.0
  0
ARC
  5
1795
100
AcDbEntity
  8
0
100
AcDbCircle
 10
3.015625
 20
4.41575
 30
0.0
 40
0.025
100
AcDbArc
 50
0.0
 51
180.0
  0
LINE
  5
1796
100
AcDbEntity
  8
0
100
AcDbLine
 10
2.990625
 20
4.41575
 30
0.0
 11
2.990625
 21
4.39075
 31
0.0
  0
LINE
  5
1797
100
AcDbEntity
  8
0
100
AcDbLine
 10
3.040625
 20
4.41575
 30
0.0
 11
3.040625
 21
4.39075
 31
0.0
  0
LINE
  5
1798
100
AcDbEntity
  8
0
100
AcDbLine
 10
3.040625
 20
4.39075
 30
0.0
 11
3.015625
 21
4.29075
 31
0.0
  0
LINE
  5
1799
100
AcDbEntity
  8
0
100
AcDbLine
 10
2.990625
 20
4.39075
 30
0.0
 11
3.015625
 21
4.29075
 31
0.0
  0
LINE
  5
179B
100
AcDbEntity
  8
0
100
AcDbLine
 10
3.040625
 20
4.69075
 30
0.0
 11
3.015625
 21
4.79075
 31
0.0
  0
LINE
  5
179C
100
AcDbEntity
  8
0
100
AcDbLine
 10
2.990625
 20
4.69075
 30
0.0
 11
3.015625
 21
4.79075
 31
0.0
  0
ARC
  5
179D
100
AcDbEntity
  8
0
100
AcDbCircle
 10
3.015625
 20
4.66575
 30
0.0
 40
0.025
100
AcDbArc
 50
180.0
 51
360.0
  0
LINE
  5
179E
100
AcDbEntity
  8
0
100
AcDbLine
 10
2.990625
 20
4.66575
 30
0.0
 11
2.990625
 21
4.69075
 31
0.0
  0
LINE
  5
179F
100
AcDbEntity
  8
0
100
AcDbLine
 10
3.040625
 20
4.66575
 30
0.0
 11
3.040625
 21
4.69075
 31
0.0
  0
TEXT
  5
17A0
100
AcDbEntity
  8
TEXT
100
AcDbText
 10
3.440625
 20
3.19075
 30
0.0
 40
0.075
  1
Green/Red
 72
     1
 11
3.765625
 21
3.16575
 31
0.0
100
AcDbText
 73
     1
  0
TEXT
  5
17A1
100
AcDbEntity
  8
TEXT
100
AcDbText
 10
3.496875
 20
3.44075
 30
0.0
 40
0.075
  1
Blue/Red
 72
     1
 11
3.765625
 21
3.41575
 31
0.0
100
AcDbText
 73
     1
  0
ARC
  5
17A2
100
AcDbEntity
  8
0
100
AcDbCircle
 10
4.515625
 20
3.41575
 30
0.0
 40
0.025
100
AcDbArc
 50
0.0
 51
180.0
  0
ARC
  5
17A3
100
AcDbEntity
  8
0
100
AcDbCircle
 10
4.515625
 20
3.16575
 30
0.0
 40
0.025
100
AcDbArc
 50
180.0
 51
360.0
  0
LINE
  5
17A4
100
AcDbEntity
  8
0
100
AcDbLine
 10
4.490625
 20
3.19075
 30
0.0
 11
4.515625
 21
3.29075
 31
0.0
  0
LINE
  5
17A5
100
AcDbEntity
  8
0
100
AcDbLine
 10
4.490625
 20
3.39075
 30
0.0
 11
4.515625
 21
3.29075
 31
0.0
  0
LINE
  5
17A6
100
AcDbEntity
  8
0
100
AcDbLine
 10
4.490625
 20
3.16575
 30
0.0
 11
4.490625
 21
3.19075
 31
0.0
  0
LINE
  5
17A7
100
AcDbEntity
  8
0
100
AcDbLine
 10
4.490625
 20
3.41575
 30
0.0
 11
4.490625
 21
3.39075
 31
0.0
  0
LINE
  5
17A8
100
AcDbEntity
  8
0
100
AcDbLine
 10
4.540625
 20
3.19075
 30
0.0
 11
4.515625
 21
3.29075
 31
0.0
  0
LINE
  5
17A9
100
AcDbEntity
  8
0
100
AcDbLine
 10
4.540625
 20
3.16575
 30
0.0
 11
4.540625
 21
3.19075
 31
0.0
  0
LINE
  5
17AA
100
AcDbEntity
  8
0
100
AcDbLine
 10
4.540625
 20
3.41575
 30
0.0
 11
4.540625
 21
3.39075
 31
0.0
  0
LINE
  5
17AB
100
AcDbEntity
  8
0
100
AcDbLine
 10
4.540625
 20
3.39075
 30
0.0
 11
4.515625
 21
3.29075
 31
0.0
  0
TEXT
  5
17AC
100
AcDbEntity
  8
TEXT
100
AcDbText
 10
3.328125
 20
4.19075
 30
0.0
 40
0.075
  1
Yellow/Orange
 72
     1
 11
3.765625
 21
4.16575
 31
0.0
100
AcDbText
 73
     1
  0
TEXT
  5
17AD
100
AcDbEntity
  8
TEXT
100
AcDbText
 10
3.378125
 20
3.69075
 30
0.0
 40
0.075
  1
Yellow/White
 72
     1
 11
3.765625
 21
3.66575
 31
0.0
100
AcDbText
 73
     1
  0
TEXT
  5
17AE
100
AcDbEntity
  8
TEXT
100
AcDbText
 10
3.415625
 20
3.94075
 30
0.0
 40
0.075
  1
Gray/White
 72
     1
 11
3.765625
 21
3.91575
 31
0.0
100
AcDbText
 73
     1
  0
TEXT
  5
17AF
100
AcDbEntity
  8
TEXT
100
AcDbText
 10
3.365625
 20
4.44075
 30
0.0
 40
0.075
  1
Gray/Orange
 72
     1
 11
3.765625
 21
4.41575
 31
0.0
100
AcDbText
 73
     1
  0
TEXT
  5
17B0
100
AcDbEntity
  8
TEXT
100
AcDbText
 10
3.365625
 20
4.69075
 30
0.0
 40
0.075
  1
Yellow/Green
 72
     1
 11
3.765625
 21
4.66575
 31
0.0
100
AcDbText
 73
     1
  0
LINE
  5
17B1
100
AcDbEntity
  8
0
100
AcDbLine
 10
4.540625
 20
4.19075
 30
0.0
 11
4.515625
 21
4.29075
 31
0.0
  0
LINE
  5
17B2
100
AcDbEntity
  8
0
100
AcDbLine
 10
4.490625
 20
4.19075
 30
0.0
 11
4.515625
 21
4.29075
 31
0.0
  0
ARC
  5
17B3
100
AcDbEntity
  8
0
100
AcDbCircle
 10
4.515625
 20
4.16575
 30
0.0
 40
0.025
100
AcDbArc
 50
180.0
 51
360.0
  0
ARC
  5
17B4
100
AcDbEntity
  8
0
100
AcDbCircle
 10
4.515625
 20
3.91575
 30
0.0
 40
0.025
100
AcDbArc
 50
0.0
 51
180.0
  0
LINE
  5
17B5
100
AcDbEntity
  8
0
100
AcDbLine
 10
4.490625
 20
3.89075
 30
0.0
 11
4.515625
 21
3.79075
 31
0.0
  0
ARC
  5
17B6
100
AcDbEntity
  8
0
100
AcDbCircle
 10
4.515625
 20
3.66575
 30
0.0
 40
0.025
100
AcDbArc
 50
180.0
 51
360.0
  0
LINE
  5
17B7
100
AcDbEntity
  8
0
100
AcDbLine
 10
4.490625
 20
3.69075
 30
0.0
 11
4.515625
 21
3.79075
 31
0.0
  0
LINE
  5
17B8
100
AcDbEntity
  8
0
100
AcDbLine
 10
4.490625
 20
3.91575
 30
0.0
 11
4.490625
 21
3.89075
 31
0.0
  0
LINE
  5
17B9
100
AcDbEntity
  8
0
100
AcDbLine
 10
4.490625
 20
3.66575
 30
0.0
 11
4.490625
 21
3.69075
 31
0.0
  0
LINE
  5
17BA
100
AcDbEntity
  8
0
100
AcDbLine
 10
4.490625
 20
4.16575
 30
0.0
 11
4.490625
 21
4.19075
 31
0.0
  0
LINE
  5
17BB
100
AcDbEntity
  8
0
100
AcDbLine
 10
4.540625
 20
3.91575
 30
0.0
 11
4.540625
 21
3.89075
 31
0.0
  0
LINE
  5
17BC
100
AcDbEntity
  8
0
100
AcDbLine
 10
4.540625
 20
3.69075
 30
0.0
 11
4.515625
 21
3.79075
 31
0.0
  0
LINE
  5
17BD
100
AcDbEntity
  8
0
100
AcDbLine
 10
4.540625
 20
3.66575
 30
0.0
 11
4.540625
 21
3.69075
 31
0.0
  0
LINE
  5
17BE
100
AcDbEntity
  8
0
100
AcDbLine
 10
4.540625
 20
3.89075
 30
0.0
 11
4.515625
 21
3.79075
 31
0.0
  0
LINE
  5
17BF
100
AcDbEntity
  8
0
100
AcDbLine
 10
4.540625
 20
4.16575
 30
0.0
 11
4.540625
 21
4.19075
 31
0.0
  0
ARC
  5
17C0
100
AcDbEntity
  8
0
100
AcDbCircle
 10
4.515625
 20
4.66575
 30
0.0
 40
0.025
100
AcDbArc
 50
180.0
 51
360.0
  0
LINE
  5
17C1
100
AcDbEntity
  8
0
100
AcDbLine
 10
4.490625
 20
4.69075
 30
0.0
 11
4.515625
 21
4.79075
 31
0.0
  0
ARC
  5
17C2
100
AcDbEntity
  8
0
100
AcDbCircle
 10
4.515625
 20
4.41575
 30
0.0
 40
0.025
100
AcDbArc
 50
0.0
 51
180.0
  0
LINE
  5
17C3
100
AcDbEntity
  8
0
100
AcDbLine
 10
4.490625
 20
4.39075
 30
0.0
 11
4.515625
 21
4.29075
 31
0.0
  0
LINE
  5
17C4
100
AcDbEntity
  8
0
100
AcDbLine
 10
4.490625
 20
4.41575
 30
0.0
 11
4.490625
 21
4.39075
 31
0.0
  0
LINE
  5
17C5
100
AcDbEntity
  8
0
100
AcDbLine
 10
4.490625
 20
4.66575
 30
0.0
 11
4.490625
 21
4.69075
 31
0.0
  0
LINE
  5
17C6
100
AcDbEntity
  8
0
100
AcDbLine
 10
4.540625
 20
4.41575
 30
0.0
 11
4.540625
 21
4.39075
 31
0.0
  0
LINE
  5
17C7
100
AcDbEntity
  8
0
100
AcDbLine
 10
4.540625
 20
4.39075
 30
0.0
 11
4.515625
 21
4.29075
 31
0.0
  0
LINE
  5
17C8
100
AcDbEntity
  8
0
100
AcDbLine
 10
4.540625
 20
4.69075
 30
0.0
 11
4.515625
 21
4.79075
 31
0.0
  0
LINE
  5
17C9
100
AcDbEntity
  8
0
100
AcDbLine
 10
4.540625
 20
4.66575
 30
0.0
 11
4.540625
 21
4.69075
 31
0.0
  0
LINE
  5
17FD
100
AcDbEntity
  8
0
100
AcDbLine
 10
2.765625
 20
5.91575
 30
0.0
 11
4.640625
 21
5.91575
 31
0.0
  0
LINE
  5
17FE
100
AcDbEntity
  8
0
100
AcDbLine
 10
2.765625
 20
4.91575
 30
0.0
 11
4.640625
 21
4.91575
 31
0.0
  0
LINE
  5
17FF
100
AcDbEntity
  8
0
100
AcDbLine
 10
2.765625
 20
5.16575
 30
0.0
 11
4.640625
 21
5.16575
 31
0.0
  0
LINE
  5
1800
100
AcDbEntity
  8
0
100
AcDbLine
 10
2.765625
 20
5.41575
 30
0.0
 11
4.640625
 21
5.41575
 31
0.0
  0
LINE
  5
1801
100
AcDbEntity
  8
0
100
AcDbLine
 10
2.765625
 20
5.66575
 30
0.0
 11
4.640625
 21
5.66575
 31
0.0
  0
LINE
  5
1805
100
AcDbEntity
  8
0
100
AcDbLine
 10
3.040625
 20
4.91575
 30
0.0
 11
3.040625
 21
4.89075
 31
0.0
  0
LINE
  5
1806
100
AcDbEntity
  8
0
100
AcDbLine
 10
2.990625
 20
4.91575
 30
0.0
 11
2.990625
 21
4.89075
 31
0.0
  0
ARC
  5
1807
100
AcDbEntity
  8
0
100
AcDbCircle
 10
3.015625
 20
4.91575
 30
0.0
 40
0.025
100
AcDbArc
 50
0.0
 51
180.0
  0
LINE
  5
1808
100
AcDbEntity
  8
0
100
AcDbLine
 10
3.040625
 20
5.19075
 30
0.0
 11
3.015625
 21
5.29075
 31
0.0
  0
LINE
  5
1809
100
AcDbEntity
  8
0
100
AcDbLine
 10
2.990625
 20
5.19075
 30
0.0
 11
3.015625
 21
5.29075
 31
0.0
  0
LINE
  5
180A
100
AcDbEntity
  8
0
100
AcDbLine
 10
2.990625
 20
5.16575
 30
0.0
 11
2.990625
 21
5.19075
 31
0.0
  0
LINE
  5
180B
100
AcDbEntity
  8
0
100
AcDbLine
 10
3.040625
 20
5.16575
 30
0.0
 11
3.040625
 21
5.19075
 31
0.0
  0
LINE
  5
180C
100
AcDbEntity
  8
0
100
AcDbLine
 10
2.990625
 20
5.39075
 30
0.0
 11
3.015625
 21
5.29075
 31
0.0
  0
LINE
  5
180D
100
AcDbEntity
  8
0
100
AcDbLine
 10
3.040625
 20
5.39075
 30
0.0
 11
3.015625
 21
5.29075
 31
0.0
  0
LINE
  5
180E
100
AcDbEntity
  8
0
100
AcDbLine
 10
3.040625
 20
5.41575
 30
0.0
 11
3.040625
 21
5.39075
 31
0.0
  0
LINE
  5
180F
100
AcDbEntity
  8
0
100
AcDbLine
 10
2.990625
 20
5.41575
 30
0.0
 11
2.990625
 21
5.39075
 31
0.0
  0
ARC
  5
1810
100
AcDbEntity
  8
0
100
AcDbCircle
 10
3.015625
 20
5.41575
 30
0.0
 40
0.025
100
AcDbArc
 50
0.0
 51
180.0
  0
ARC
  5
1811
100
AcDbEntity
  8
0
100
AcDbCircle
 10
3.015625
 20
5.16575
 30
0.0
 40
0.025
100
AcDbArc
 50
180.0
 51
360.0
  0
LINE
  5
1812
100
AcDbEntity
  8
0
100
AcDbLine
 10
3.040625
 20
5.69075
 30
0.0
 11
3.015625
 21
5.79075
 31
0.0
  0
LINE
  5
1813
100
AcDbEntity
  8
0
100
AcDbLine
 10
2.990625
 20
5.69075
 30
0.0
 11
3.015625
 21
5.79075
 31
0.0
  0
ARC
  5
1815
100
AcDbEntity
  8
0
100
AcDbCircle
 10
3.015625
 20
5.66575
 30
0.0
 40
0.025
100
AcDbArc
 50
180.0
 51
360.0
  0
LINE
  5
1816
100
AcDbEntity
  8
0
100
AcDbLine
 10
2.990625
 20
5.66575
 30
0.0
 11
2.990625
 21
5.69075
 31
0.0
  0
LINE
  5
1817
100
AcDbEntity
  8
0
100
AcDbLine
 10
3.040625
 20
5.66575
 30
0.0
 11
3.040625
 21
5.69075
 31
0.0
  0
LINE
  5
1819
100
AcDbEntity
  8
0
100
AcDbLine
 10
2.990625
 20
5.89075
 30
0.0
 11
3.015625
 21
5.79075
 31
0.0
  0
LINE
  5
181A
100
AcDbEntity
  8
0
100
AcDbLine
 10
3.040625
 20
5.89075
 30
0.0
 11
3.015625
 21
5.79075
 31
0.0
  0
LINE
  5
181B
100
AcDbEntity
  8
0
100
AcDbLine
 10
3.040625
 20
5.91575
 30
0.0
 11
3.040625
 21
5.89075
 31
0.0
  0
LINE
  5
181C
100
AcDbEntity
  8
0
100
AcDbLine
 10
2.990625
 20
5.91575
 30
0.0
 11
2.990625
 21
5.89075
 31
0.0
  0
ARC
  5
181D
100
AcDbEntity
  8
0
100
AcDbCircle
 10
3.015625
 20
5.91575
 30
0.0
 40
0.025
100
AcDbArc
 50
0.0
 51
180.0
  0
TEXT
  5
181E
100
AcDbEntity
  8
TEXT
100
AcDbText
 10
3.403125
 20
4.94075
 30
0.0
 40
0.075
  1
Gray/Green
 72
     1
 11
3.765625
 21
4.91575
 31
0.0
100
AcDbText
 73
     1
  0
TEXT
  5
181F
100
AcDbEntity
  8
TEXT
100
AcDbText
 10
3.365625
 20
5.19075
 30
0.0
 40
0.075
  1
Yellow/Brown
 72
     1
 11
3.765625
 21
5.16575
 31
0.0
100
AcDbText
 73
     1
  0
TEXT
  5
1820
100
AcDbEntity
  8
TEXT
100
AcDbText
 10
3.421875
 20
5.69075
 30
0.0
 40
0.075
  1
Yellow/Blue
 72
     1
 11
3.765625
 21
5.66575
 31
0.0
100
AcDbText
 73
     1
  0
TEXT
  5
1821
100
AcDbEntity
  8
TEXT
100
AcDbText
 10
3.403125
 20
5.44075
 30
0.0
 40
0.075
  1
Gray/Brown
 72
     1
 11
3.765625
 21
5.41575
 31
0.0
100
AcDbText
 73
     1
  0
TEXT
  5
1822
100
AcDbEntity
  8
TEXT
100
AcDbText
 10
3.459375
 20
5.94075
 30
0.0
 40
0.075
  1
Gray/Blue
 72
     1
 11
3.765625
 21
5.91575
 31
0.0
100
AcDbText
 73
     1
  0
LINE
  5
1823
100
AcDbEntity
  8
0
100
AcDbLine
 10
4.490625
 20
5.39075
 30
0.0
 11
4.515625
 21
5.29075
 31
0.0
  0
ARC
  5
1824
100
AcDbEntity
  8
0
100
AcDbCircle
 10
4.515625
 20
5.41575
 30
0.0
 40
0.025
100
AcDbArc
 50
0.0
 51
180.0
  0
LINE
  5
1825
100
AcDbEntity
  8
0
100
AcDbLine
 10
4.490625
 20
5.19075
 30
0.0
 11
4.515625
 21
5.29075
 31
0.0
  0
ARC
  5
1826
100
AcDbEntity
  8
0
100
AcDbCircle
 10
4.515625
 20
4.91575
 30
0.0
 40
0.025
100
AcDbArc
 50
0.0
 51
180.0
  0
ARC
  5
1827
100
AcDbEntity
  8
0
100
AcDbCircle
 10
4.515625
 20
5.16575
 30
0.0
 40
0.025
100
AcDbArc
 50
180.0
 51
360.0
  0
LINE
  5
1828
100
AcDbEntity
  8
0
100
AcDbLine
 10
4.490625
 20
4.91575
 30
0.0
 11
4.490625
 21
4.89075
 31
0.0
  0
LINE
  5
1829
100
AcDbEntity
  8
0
100
AcDbLine
 10
4.490625
 20
5.16575
 30
0.0
 11
4.490625
 21
5.19075
 31
0.0
  0
LINE
  5
182A
100
AcDbEntity
  8
0
100
AcDbLine
 10
4.490625
 20
5.41575
 30
0.0
 11
4.490625
 21
5.39075
 31
0.0
  0
LINE
  5
182B
100
AcDbEntity
  8
0
100
AcDbLine
 10
4.540625
 20
4.91575
 30
0.0
 11
4.540625
 21
4.89075
 31
0.0
  0
LINE
  5
182C
100
AcDbEntity
  8
0
100
AcDbLine
 10
4.540625
 20
5.19075
 30
0.0
 11
4.515625
 21
5.29075
 31
0.0
  0
LINE
  5
182D
100
AcDbEntity
  8
0
100
AcDbLine
 10
4.540625
 20
5.16575
 30
0.0
 11
4.540625
 21
5.19075
 31
0.0
  0
LINE
  5
182E
100
AcDbEntity
  8
0
100
AcDbLine
 10
4.540625
 20
5.39075
 30
0.0
 11
4.515625
 21
5.29075
 31
0.0
  0
LINE
  5
182F
100
AcDbEntity
  8
0
100
AcDbLine
 10
4.540625
 20
5.41575
 30
0.0
 11
4.540625
 21
5.39075
 31
0.0
  0
LINE
  5
1830
100
AcDbEntity
  8
0
100
AcDbLine
 10
4.490625
 20
5.89075
 30
0.0
 11
4.515625
 21
5.79075
 31
0.0
  0
ARC
  5
1831
100
AcDbEntity
  8
0
100
AcDbCircle
 10
4.515625
 20
5.91575
 30
0.0
 40
0.025
100
AcDbArc
 50
0.0
 51
180.0
  0
ARC
  5
1832
100
AcDbEntity
  8
0
100
AcDbCircle
 10
4.515625
 20
5.66575
 30
0.0
 40
0.025
100
AcDbArc
 50
180.0
 51
360.0
  0
LINE
  5
1833
100
AcDbEntity
  8
0
100
AcDbLine
 10
4.490625
 20
5.69075
 30
0.0
 11
4.515625
 21
5.79075
 31
0.0
  0
LINE
  5
1834
100
AcDbEntity
  8
0
100
AcDbLine
 10
4.490625
 20
5.66575
 30
0.0
 11
4.490625
 21
5.69075
 31
0.0
  0
LINE
  5
1835
100
AcDbEntity
  8
0
100
AcDbLine
 10
4.490625
 20
5.91575
 30
0.0
 11
4.490625
 21
5.89075
 31
0.0
  0
LINE
  5
1836
100
AcDbEntity
  8
0
100
AcDbLine
 10
4.540625
 20
5.69075
 30
0.0
 11
4.515625
 21
5.79075
 31
0.0
  0
LINE
  5
1837
100
AcDbEntity
  8
0
100
AcDbLine
 10
4.540625
 20
5.66575
 30
0.0
 11
4.540625
 21
5.69075
 31
0.0
  0
LINE
  5
1838
100
AcDbEntity
  8
0
100
AcDbLine
 10
4.540625
 20
5.89075
 30
0.0
 11
4.515625
 21
5.79075
 31
0.0
  0
LINE
  5
1839
100
AcDbEntity
  8
0
100
AcDbLine
 10
4.540625
 20
5.91575
 30
0.0
 11
4.540625
 21
5.89075
 31
0.0
  0
LINE
  5
185B
100
AcDbEntity
  8
0
100
AcDbLine
 10
2.765625
 20
2.41575
 30
0.0
 11
4.640625
 21
2.41575
 31
0.0
  0
LINE
  5
185C
100
AcDbEntity
  8
0
100
AcDbLine
 10
2.765625
 20
2.16575
 30
0.0
 11
4.640625
 21
2.16575
 31
0.0
  0
LINE
  5
185D
100
AcDbEntity
  8
0
100
AcDbLine
 10
2.765625
 20
2.91575
 30
0.0
 11
4.640625
 21
2.91575
 31
0.0
  0
LINE
  5
185E
100
AcDbEntity
  8
0
100
AcDbLine
 10
2.765625
 20
2.66575
 30
0.0
 11
4.640625
 21
2.66575
 31
0.0
  0
LINE
  5
1860
100
AcDbEntity
  8
0
100
AcDbLine
 10
2.990625
 20
2.19075
 30
0.0
 11
3.015625
 21
2.29075
 31
0.0
  0
LINE
  5
1861
100
AcDbEntity
  8
0
100
AcDbLine
 10
3.040625
 20
2.19075
 30
0.0
 11
3.015625
 21
2.29075
 31
0.0
  0
LINE
  5
1862
100
AcDbEntity
  8
0
100
AcDbLine
 10
3.040625
 20
2.16575
 30
0.0
 11
3.040625
 21
2.19075
 31
0.0
  0
LINE
  5
1863
100
AcDbEntity
  8
0
100
AcDbLine
 10
2.990625
 20
2.16575
 30
0.0
 11
2.990625
 21
2.19075
 31
0.0
  0
ARC
  5
1864
100
AcDbEntity
  8
0
100
AcDbCircle
 10
3.015625
 20
2.16575
 30
0.0
 40
0.025
100
AcDbArc
 50
180.0
 51
360.0
  0
LINE
  5
1866
100
AcDbEntity
  8
0
100
AcDbLine
 10
3.040625
 20
2.39075
 30
0.0
 11
3.015625
 21
2.29075
 31
0.0
  0
LINE
  5
1867
100
AcDbEntity
  8
0
100
AcDbLine
 10
2.990625
 20
2.39075
 30
0.0
 11
3.015625
 21
2.29075
 31
0.0
  0
ARC
  5
1868
100
AcDbEntity
  8
0
100
AcDbCircle
 10
3.015625
 20
2.41575
 30
0.0
 40
0.025
100
AcDbArc
 50
0.0
 51
180.0
  0
LINE
  5
1869
100
AcDbEntity
  8
0
100
AcDbLine
 10
2.990625
 20
2.41575
 30
0.0
 11
2.990625
 21
2.39075
 31
0.0
  0
LINE
  5
186A
100
AcDbEntity
  8
0
100
AcDbLine
 10
3.040625
 20
2.41575
 30
0.0
 11
3.040625
 21
2.39075
 31
0.0
  0
LINE
  5
186B
100
AcDbEntity
  8
0
100
AcDbLine
 10
3.040625
 20
2.89075
 30
0.0
 11
3.015625
 21
2.79075
 31
0.0
  0
LINE
  5
186C
100
AcDbEntity
  8
0
100
AcDbLine
 10
2.990625
 20
2.89075
 30
0.0
 11
3.015625
 21
2.79075
 31
0.0
  0
LINE
  5
186E
100
AcDbEntity
  8
0
100
AcDbLine
 10
3.040625
 20
2.66575
 30
0.0
 11
3.040625
 21
2.69075
 31
0.0
  0
LINE
  5
186F
100
AcDbEntity
  8
0
100
AcDbLine
 10
2.990625
 20
2.66575
 30
0.0
 11
2.990625
 21
2.69075
 31
0.0
  0
ARC
  5
1870
100
AcDbEntity
  8
0
100
AcDbCircle
 10
3.015625
 20
2.66575
 30
0.0
 40
0.025
100
AcDbArc
 50
180.0
 51
360.0
  0
LINE
  5
1871
100
AcDbEntity
  8
0
100
AcDbLine
 10
2.990625
 20
2.69075
 30
0.0
 11
3.015625
 21
2.79075
 31
0.0
  0
LINE
  5
1872
100
AcDbEntity
  8
0
100
AcDbLine
 10
3.040625
 20
2.69075
 30
0.0
 11
3.015625
 21
2.79075
 31
0.0
  0
ARC
  5
1874
100
AcDbEntity
  8
0
100
AcDbCircle
 10
3.015625
 20
2.91575
 30
0.0
 40
0.025
100
AcDbArc
 50
0.0
 51
180.0
  0
LINE
  5
1875
100
AcDbEntity
  8
0
100
AcDbLine
 10
2.990625
 20
2.91575
 30
0.0
 11
2.990625
 21
2.89075
 31
0.0
  0
LINE
  5
1876
100
AcDbEntity
  8
0
100
AcDbLine
 10
3.040625
 20
2.91575
 30
0.0
 11
3.040625
 21
2.89075
 31
0.0
  0
TEXT
  5
1877
100
AcDbEntity
  8
TEXT
100
AcDbText
 10
3.421875
 20
2.44075
 30
0.0
 40
0.075
  1
Blue/Yellow
 72
     1
 11
3.765625
 21
2.41575
 31
0.0
100
AcDbText
 73
     1
  0
TEXT
  5
1878
100
AcDbEntity
  8
TEXT
100
AcDbText
 10
3.365625
 20
2.19075
 30
0.0
 40
0.075
  1
Green/Yellow
 72
     1
 11
3.765625
 21
2.16575
 31
0.0
100
AcDbText
 73
     1
  0
TEXT
  5
1879
100
AcDbEntity
  8
TEXT
100
AcDbText
 10
3.328125
 20
2.69075
 30
0.0
 40
0.075
  1
Green/Orange
 72
     1
 11
3.765625
 21
2.66575
 31
0.0
100
AcDbText
 73
     1
  0
TEXT
  5
187A
100
AcDbEntity
  8
TEXT
100
AcDbText
 10
3.384375
 20
2.94075
 30
0.0
 40
0.075
  1
Blue/Orange
 72
     1
 11
3.765625
 21
2.91575
 31
0.0
100
AcDbText
 73
     1
  0
LINE
  5
187B
100
AcDbEntity
  8
0
100
AcDbLine
 10
4.490625
 20
2.39075
 30
0.0
 11
4.515625
 21
2.29075
 31
0.0
  0
LINE
  5
187C
100
AcDbEntity
  8
0
100
AcDbLine
 10
4.490625
 20
2.19075
 30
0.0
 11
4.515625
 21
2.29075
 31
0.0
  0
ARC
  5
187D
100
AcDbEntity
  8
0
100
AcDbCircle
 10
4.515625
 20
2.16575
 30
0.0
 40
0.025
100
AcDbArc
 50
180.0
 51
360.0
  0
ARC
  5
187E
100
AcDbEntity
  8
0
100
AcDbCircle
 10
4.515625
 20
2.41575
 30
0.0
 40
0.025
100
AcDbArc
 50
0.0
 51
180.0
  0
LINE
  5
187F
100
AcDbEntity
  8
0
100
AcDbLine
 10
4.490625
 20
2.16575
 30
0.0
 11
4.490625
 21
2.19075
 31
0.0
  0
LINE
  5
1880
100
AcDbEntity
  8
0
100
AcDbLine
 10
4.490625
 20
2.41575
 30
0.0
 11
4.490625
 21
2.39075
 31
0.0
  0
LINE
  5
1881
100
AcDbEntity
  8
0
100
AcDbLine
 10
4.540625
 20
2.19075
 30
0.0
 11
4.515625
 21
2.29075
 31
0.0
  0
LINE
  5
1882
100
AcDbEntity
  8
0
100
AcDbLine
 10
4.540625
 20
2.16575
 30
0.0
 11
4.540625
 21
2.19075
 31
0.0
  0
LINE
  5
1883
100
AcDbEntity
  8
0
100
AcDbLine
 10
4.540625
 20
2.39075
 30
0.0
 11
4.515625
 21
2.29075
 31
0.0
  0
LINE
  5
1884
100
AcDbEntity
  8
0
100
AcDbLine
 10
4.540625
 20
2.41575
 30
0.0
 11
4.540625
 21
2.39075
 31
0.0
  0
LINE
  5
1885
100
AcDbEntity
  8
0
100
AcDbLine
 10
4.490625
 20
2.69075
 30
0.0
 11
4.515625
 21
2.79075
 31
0.0
  0
ARC
  5
1886
100
AcDbEntity
  8
0
100
AcDbCircle
 10
4.515625
 20
2.66575
 30
0.0
 40
0.025
100
AcDbArc
 50
180.0
 51
360.0
  0
LINE
  5
1887
100
AcDbEntity
  8
0
100
AcDbLine
 10
4.490625
 20
2.89075
 30
0.0
 11
4.515625
 21
2.79075
 31
0.0
  0
ARC
  5
1888
100
AcDbEntity
  8
0
100
AcDbCircle
 10
4.515625
 20
2.91575
 30
0.0
 40
0.025
100
AcDbArc
 50
0.0
 51
180.0
  0
LINE
  5
1889
100
AcDbEntity
  8
0
100
AcDbLine
 10
4.490625
 20
2.66575
 30
0.0
 11
4.490625
 21
2.69075
 31
0.0
  0
LINE
  5
188A
100
AcDbEntity
  8
0
100
AcDbLine
 10
4.490625
 20
2.91575
 30
0.0
 11
4.490625
 21
2.89075
 31
0.0
  0
LINE
  5
188B
100
AcDbEntity
  8
0
100
AcDbLine
 10
4.540625
 20
2.89075
 30
0.0
 11
4.515625
 21
2.79075
 31
0.0
  0
LINE
  5
188C
100
AcDbEntity
  8
0
100
AcDbLine
 10
4.540625
 20
2.66575
 30
0.0
 11
4.540625
 21
2.69075
 31
0.0
  0
LINE
  5
188D
100
AcDbEntity
  8
0
100
AcDbLine
 10
4.540625
 20
2.69075
 30
0.0
 11
4.515625
 21
2.79075
 31
0.0
  0
LINE
  5
188E
100
AcDbEntity
  8
0
100
AcDbLine
 10
4.540625
 20
2.91575
 30
0.0
 11
4.540625
 21
2.89075
 31
0.0
  0
LINE
  5
18AB
100
AcDbEntity
  8
0
100
AcDbLine
 10
2.765625
 20
1.66575
 30
0.0
 11
4.640625
 21
1.66575
 31
0.0
  0
LINE
  5
18AC
100
AcDbEntity
  8
0
100
AcDbLine
 10
2.765625
 20
1.91575
 30
0.0
 11
4.640625
 21
1.91575
 31
0.0
  0
LINE
  5
18AD
100
AcDbEntity
  8
0
100
AcDbLine
 10
3.040625
 20
1.69075
 30
0.0
 11
3.015625
 21
1.79075
 31
0.0
  0
LINE
  5
18AE
100
AcDbEntity
  8
0
100
AcDbLine
 10
2.990625
 20
1.69075
 30
0.0
 11
3.015625
 21
1.79075
 31
0.0
  0
ARC
  5
18B0
100
AcDbEntity
  8
0
100
AcDbCircle
 10
3.015625
 20
1.66575
 30
0.0
 40
0.025
100
AcDbArc
 50
180.0
 51
360.0
  0
LINE
  5
18B1
100
AcDbEntity
  8
0
100
AcDbLine
 10
2.990625
 20
1.66575
 30
0.0
 11
2.990625
 21
1.69075
 31
0.0
  0
LINE
  5
18B2
100
AcDbEntity
  8
0
100
AcDbLine
 10
3.040625
 20
1.66575
 30
0.0
 11
3.040625
 21
1.69075
 31
0.0
  0
LINE
  5
18B4
100
AcDbEntity
  8
0
100
AcDbLine
 10
3.040625
 20
1.91575
 30
0.0
 11
3.040625
 21
1.89075
 31
0.0
  0
LINE
  5
18B5
100
AcDbEntity
  8
0
100
AcDbLine
 10
2.990625
 20
1.91575
 30
0.0
 11
2.990625
 21
1.89075
 31
0.0
  0
ARC
  5
18B6
100
AcDbEntity
  8
0
100
AcDbCircle
 10
3.015625
 20
1.91575
 30
0.0
 40
0.025
100
AcDbArc
 50
0.0
 51
180.0
  0
LINE
  5
18B7
100
AcDbEntity
  8
0
100
AcDbLine
 10
2.990625
 20
1.89075
 30
0.0
 11
3.015625
 21
1.79075
 31
0.0
  0
LINE
  5
18B8
100
AcDbEntity
  8
0
100
AcDbLine
 10
3.040625
 20
1.89075
 30
0.0
 11
3.015625
 21
1.79075
 31
0.0
  0
TEXT
  5
18B9
100
AcDbEntity
  8
TEXT
100
AcDbText
 10
3.378125
 20
1.69075
 30
0.0
 40
0.075
  1
Green/White
 72
     1
 11
3.765625
 21
1.66575
 31
0.0
100
AcDbText
 73
     1
  0
TEXT
  5
18BA
100
AcDbEntity
  8
TEXT
100
AcDbText
 10
3.434375
 20
1.94075
 30
0.0
 40
0.075
  1
Blue/White
 72
     1
 11
3.765625
 21
1.91575
 31
0.0
100
AcDbText
 73
     1
  0
LINE
  5
18BB
100
AcDbEntity
  8
0
100
AcDbLine
 10
4.540625
 20
1.69075
 30
0.0
 11
4.515625
 21
1.79075
 31
0.0
  0
LINE
  5
18BC
100
AcDbEntity
  8
0
100
AcDbLine
 10
4.490625
 20
1.69075
 30
0.0
 11
4.515625
 21
1.79075
 31
0.0
  0
ARC
  5
18BD
100
AcDbEntity
  8
0
100
AcDbCircle
 10
4.515625
 20
1.66575
 30
0.0
 40
0.025
100
AcDbArc
 50
180.0
 51
360.0
  0
LINE
  5
18BE
100
AcDbEntity
  8
0
100
AcDbLine
 10
4.490625
 20
1.66575
 30
0.0
 11
4.490625
 21
1.69075
 31
0.0
  0
LINE
  5
18BF
100
AcDbEntity
  8
0
100
AcDbLine
 10
4.540625
 20
1.66575
 30
0.0
 11
4.540625
 21
1.69075
 31
0.0
  0
ARC
  5
18C0
100
AcDbEntity
  8
0
100
AcDbCircle
 10
4.515625
 20
1.91575
 30
0.0
 40
0.025
100
AcDbArc
 50
0.0
 51
180.0
  0
LINE
  5
18C1
100
AcDbEntity
  8
0
100
AcDbLine
 10
4.490625
 20
1.89075
 30
0.0
 11
4.515625
 21
1.79075
 31
0.0
  0
LINE
  5
18C2
100
AcDbEntity
  8
0
100
AcDbLine
 10
4.490625
 20
1.91575
 30
0.0
 11
4.490625
 21
1.89075
 31
0.0
  0
LINE
  5
18C3
100
AcDbEntity
  8
0
100
AcDbLine
 10
4.540625
 20
1.91575
 30
0.0
 11
4.540625
 21
1.89075
 31
0.0
  0
LINE
  5
18C4
100
AcDbEntity
  8
0
100
AcDbLine
 10
4.540625
 20
1.89075
 30
0.0
 11
4.515625
 21
1.79075
 31
0.0
  0
TEXT
  5
18D4
100
AcDbEntity
  8
TEXT
100
AcDbText
 10
1.978125
 20
10.6345
 30
0.0
 40
0.075
  1
+ 24 VDC
 72
     2
 11
2.578125
 21
10.6345
 31
0.0
100
AcDbText
  0
TEXT
  5
18EC
100
AcDbEntity
  8
TEXT
100
AcDbText
 10
5.006698
 20
2.71575
 30
0.0
 40
0.075
  1
 
100
AcDbText
  0
TEXT
  5
18F3
100
AcDbEntity
  8
TEXT
100
AcDbText
 10
5.82
 20
2.71575
 30
0.0
 40
0.075
  1
 
100
AcDbText
  0
LINE
  5
18F4
100
AcDbEntity
  8
0
100
AcDbLine
 10
5.765625
 20
2.66575
 30
0.0
 11
5.915625
 21
2.66575
 31
0.0
  0
LINE
  5
18F5
100
AcDbEntity
  8
0
100
AcDbLine
 10
5.528125
 20
2.700125
 30
0.0
 11
5.45
 21
2.77825
 31
0.0
  0
LINE
  5
18F6
100
AcDbEntity
  8
0
100
AcDbLine
 10
5.45
 20
2.77825
 30
0.0
 11
5.528125
 21
2.856375
 31
0.0
  0
LINE
  5
18F7
100
AcDbEntity
  8
0
100
AcDbLine
 10
5.253125
 20
2.86575
 30
0.0
 11
5.803125
 21
2.86575
 31
0.0
  0
LINE
  5
18F8
100
AcDbEntity
  8
0
100
AcDbLine
 10
5.253125
 20
2.50325
 30
0.0
 11
5.803125
 21
2.50325
 31
0.0
  0
LINE
  5
18F9
100
AcDbEntity
  8
0
100
AcDbLine
 10
5.390625
 20
2.66575
 30
0.0
 11
5.765625
 21
2.53099
 31
0.0
  0
LINE
  5
18FA
100
AcDbEntity
  8
0
100
AcDbLine
 10
5.390625
 20
2.66575
 30
0.0
 11
5.602158
 21
2.517066
 31
0.0
  0
LINE
  5
18FB
100
AcDbEntity
  8
0
100
AcDbLine
 10
5.253125
 20
2.50325
 30
0.0
 11
5.253125
 21
2.86575
 31
0.0
  0
CIRCLE
  5
18FC
100
AcDbEntity
  8
0
100
AcDbCircle
 10
5.340625
 20
2.66575
 30
0.0
 40
0.05
  0
LINE
  5
18FD
100
AcDbEntity
  8
0
100
AcDbLine
 10
5.489063
 20
2.739188
 30
0.0
 11
5.489063
 21
2.817313
 31
0.0
  0
LINE
  5
18FE
100
AcDbEntity
  8
0
100
AcDbLine
 10
5.803125
 20
2.50325
 30
0.0
 11
5.803125
 21
2.86575
 31
0.0
  0
LINE
  5
18FF
100
AcDbEntity
  8
0
100
AcDbLine
 10
5.641374
 20
2.575641
 30
0.0
 11
5.601842
 21
2.516594
 31
0.0
  0
CIRCLE
  5
1900
100
AcDbEntity
  8
0
100
AcDbCircle
 10
5.715625
 20
2.66575
 30
0.0
 40
0.05
  0
LINE
  5
1901
100
AcDbEntity
  8
0
100
AcDbLine
 10
5.567188
 20
2.739188
 30
0.0
 11
5.567188
 21
2.817313
 31
0.0
  0
LINE
  5
1902
100
AcDbEntity
  8
0
100
AcDbLine
 10
5.528125
 20
2.616338
 30
0.0
 11
5.528125
 21
2.700125
 31
0.0
  0
LINE
  5
1903
100
AcDbEntity
  8
0
100
AcDbLine
 10
5.60625
 20
2.77825
 30
0.0
 11
5.528125
 21
2.700125
 31
0.0
  0
LINE
  5
1904
100
AcDbEntity
  8
0
100
AcDbLine
 10
5.528125
 20
2.856375
 30
0.0
 11
5.60625
 21
2.77825
 31
0.0
  0
TEXT
  5
190B
100
AcDbEntity
  8
TEXT
100
AcDbText
 10
5.305401
 20
2.91575
 30
0.0
 40
0.1
  1
PX-??
100
AcDbText
  0
TEXT
  5
191B
100
AcDbEntity
  8
TEXT
100
AcDbText
 10
6.603125
 20
1.8845
 30
0.0
 40
0.075
  1
Enc Ch1 - Fast In
100
AcDbText
  0
TEXT
  5
191C
100
AcDbEntity
  8
TEXT
100
AcDbText
 10
6.603125
 20
2.1345
 30
0.0
 40
0.075
  1
Enc Ch1 + Fast In
100
AcDbText
  0
TEXT
  5
191F
100
AcDbEntity
  8
TEXT
100
AcDbText
 10
8.265625
 20
1.99075
 30
0.0
 40
0.1
  1
Axis #--: Home Px.
 41
0.8
  7
ROMANS
100
AcDbText
  0
LINE
  5
192D
100
AcDbEntity
  8
0
100
AcDbLine
 10
8.190625
 20
1.79075
 30
0.0
 11
8.190625
 21
2.29075
 31
0.0
  0
LINE
  5
1930
100
AcDbEntity
  8
0
100
AcDbLine
 10
8.190625
 20
2.29075
 30
0.0
 11
8.340625
 21
2.29075
 31
0.0
  0
LINE
  5
1931
100
AcDbEntity
  8
0
100
AcDbLine
 10
8.190625
 20
1.79075
 30
0.0
 11
8.340625
 21
1.79075
 31
0.0
  0
LINE
  5
193A
100
AcDbEntity
  8
0
100
AcDbLine
 10
6.103125
 20
2.16575
 30
0.0
 11
6.415625
 21
2.16575
 31
0.0
  0
LINE
  5
193B
100
AcDbEntity
  8
0
100
AcDbLine
 10
5.140625
 20
2.66575
 30
0.0
 11
5.290625
 21
2.66575
 31
0.0
  0
LINE
  5
193D
100
AcDbEntity
  8
0
100
AcDbLine
 10
6.415625
 20
1.91575
 30
0.0
 11
5.328125
 21
1.91575
 31
0.0
  0
LINE
  5
193E
100
AcDbEntity
  8
DASH
100
AcDbLine
 10
6.540625
 20
2.79075
 30
0.0
 11
7.890625
 21
2.79075
 31
0.0
  0
LINE
  5
1949
100
AcDbEntity
  8
0
100
AcDbLine
 10
3.090625
 20
13.91575
 30
0.0
 11
3.090625
 21
1.66575
 31
0.0
  0
LINE
  5
194B
100
AcDbEntity
  8
0
100
AcDbLine
 10
3.140625
 20
13.91575
 30
0.0
 11
3.140625
 21
1.66575
 31
0.0
  0
ARC
  5
194E
100
AcDbEntity
  8
0
100
AcDbCircle
 10
3.115625
 20
13.91575
 30
0.0
 40
0.025
100
AcDbArc
 50
360.0
 51
180.0
  0
ARC
  5
1951
100
AcDbEntity
  8
0
100
AcDbCircle
 10
3.115625
 20
1.66575
 30
0.0
 40
0.025
100
AcDbArc
 50
180.0
 51
0.0
  0
LINE
  5
1952
100
AcDbEntity
  8
0
100
AcDbLine
 10
3.115625
 20
1.64075
 30
0.0
 11
3.115625
 21
1.54075
 31
0.0
  0
LINE
  5
1976
100
AcDbEntity
  8
0
100
AcDbLine
 10
3.115625
 20
1.54075
 30
0.0
 11
4.953125
 21
1.54075
 31
0.0
  0
INSERT
  5
197B
100
AcDbEntity
  8
0
100
AcDbBlockReference
  2
DOT
 10
3.115625
 20
1.64075
 30
0.0
 41
0.5
 42
0.5
 43
0.5
  0
TEXT
  5
1982
100
AcDbEntity
  8
TEXT
100
AcDbText
 10
6.603125
 20
11.6345
 30
0.0
 40
0.075
  1
Enc Ch 1 NOT "B"
100
AcDbText
  0
TEXT
  5
1983
100
AcDbEntity
  8
TEXT
100
AcDbText
 10
6.603125
 20
11.8845
 30
0.0
 40
0.075
  1
Enc Ch 1 "B"
100
AcDbText
  0
TEXT
  5
1984
100
AcDbEntity
  8
TEXT
100
AcDbText
 10
6.603125
 20
11.1345
 30
0.0
 40
0.075
  1
Enc Ch 1 NOT "I"
100
AcDbText
  0
TEXT
  5
1985
100
AcDbEntity
  8
TEXT
100
AcDbText
 10
6.603125
 20
11.3845
 30
0.0
 40
0.075
  1
Enc Ch 1 "I"
100
AcDbText
  0
LINE
  5
1987
100
AcDbEntity
  8
DASH
100
AcDbLine
 10
6.540625
 20
11.04075
 30
0.0
 11
7.890625
 21
11.04075
 31
0.0
  0
LINE
  5
1988
100
AcDbEntity
  8
DASH
100
AcDbLine
 10
6.540625
 20
12.54075
 30
0.0
 11
7.890625
 21
12.54075
 31
0.0
  0
LINE
  5
198A
100
AcDbEntity
  8
DASH
100
AcDbLine
 10
6.540625
 20
8.54075
 30
0.0
 11
7.890625
 21
8.54075
 31
0.0
  0
LINE
  5
198B
100
AcDbEntity
  8
DASH
100
AcDbLine
 10
6.540625
 20
8.04075
 30
0.0
 11
7.890625
 21
8.04075
 31
0.0
  0
TEXT
  5
198D
100
AcDbEntity
  8
TEXT
100
AcDbText
 10
8.265625
 20
8.24075
 30
0.0
 40
0.1
  1
Axis #--: Vref
 41
0.8
  7
ROMANS
100
AcDbText
  0
LINE
  5
198E
100
AcDbEntity
  8
0
100
AcDbLine
 10
8.190625
 20
8.447
 30
0.0
 11
8.340625
 21
8.447
 31
0.0
  0
LINE
  5
198F
100
AcDbEntity
  8
0
100
AcDbLine
 10
8.190625
 20
8.1345
 30
0.0
 11
8.340625
 21
8.1345
 31
0.0
  0
LINE
  5
1990
100
AcDbEntity
  8
0
100
AcDbLine
 10
8.190625
 20
8.447
 30
0.0
 11
8.190625
 21
8.1345
 31
0.0
  0
TEXT
  5
1991
100
AcDbEntity
  8
TEXT
100
AcDbText
 10
8.265625
 20
11.74075
 30
0.0
 40
0.1
  1
Axis #--: Position
 41
0.8
  7
ROMANS
100
AcDbText
  0
LINE
  5
1992
100
AcDbEntity
  8
0
100
AcDbLine
 10
8.190625
 20
12.447
 30
0.0
 11
8.190625
 21
11.1345
 31
0.0
  0
LINE
  5
1993
100
AcDbEntity
  8
0
100
AcDbLine
 10
8.190625
 20
11.1345
 30
0.0
 11
8.340625
 21
11.1345
 31
0.0
  0
LINE
  5
1994
100
AcDbEntity
  8
0
100
AcDbLine
 10
8.190625
 20
12.447
 30
0.0
 11
8.340625
 21
12.447
 31
0.0
  0
LINE
  5
19BD
100
AcDbEntity
  8
0
100
AcDbLine
 10
5.728125
 20
2.2595
 30
0.0
 11
6.103125
 21
2.2595
 31
0.0
  0
LINE
  5
19BE
100
AcDbEntity
  8
0
100
AcDbLine
 10
5.728125
 20
2.072
 30
0.0
 11
6.103125
 21
2.072
 31
0.0
  0
LINE
  5
19BF
100
AcDbEntity
  8
0
100
AcDbLine
 10
5.728125
 20
2.2595
 30
0.0
 11
5.728125
 21
2.072
 31
0.0
  0
LINE
  5
19C1
100
AcDbEntity
  8
0
100
AcDbLine
 10
6.103125
 20
2.2595
 30
0.0
 11
6.103125
 21
2.072
 31
0.0
  0
TEXT
  5
19C3
100
AcDbEntity
  8
TEXT
100
AcDbText
 10
5.782292
 20
2.11575
 30
0.0
 40
0.1
  1
---
 72
     1
 11
5.915625
 21
2.11575
 31
0.0
100
AcDbText
  0
LINE
  5
19C6
100
AcDbEntity
  8
0
100
AcDbLine
 10
4.953125
 20
2.2595
 30
0.0
 11
5.328125
 21
2.2595
 31
0.0
  0
LINE
  5
19C7
100
AcDbEntity
  8
0
100
AcDbLine
 10
4.953125
 20
2.072
 30
0.0
 11
5.328125
 21
2.072
 31
0.0
  0
LINE
  5
19C8
100
AcDbEntity
  8
0
100
AcDbLine
 10
4.953125
 20
2.2595
 30
0.0
 11
4.953125
 21
2.072
 31
0.0
  0
LINE
  5
19CA
100
AcDbEntity
  8
0
100
AcDbLine
 10
5.328125
 20
2.2595
 30
0.0
 11
5.328125
 21
2.072
 31
0.0
  0
TEXT
  5
19CC
100
AcDbEntity
  8
TEXT
100
AcDbText
 10
5.007292
 20
2.11575
 30
0.0
 40
0.1
  1
---
 72
     1
 11
5.140625
 21
2.11575
 31
0.0
100
AcDbText
  0
LINE
  5
19D0
100
AcDbEntity
  8
0
100
AcDbLine
 10
5.915625
 20
2.2595
 30
0.0
 11
5.915625
 21
2.66575
 31
0.0
  0
LINE
  5
19D1
100
AcDbEntity
  8
0
100
AcDbLine
 10
5.140625
 20
2.2595
 30
0.0
 11
5.140625
 21
2.66575
 31
0.0
  0
LINE
  5
19D2
100
AcDbEntity
  8
0
100
AcDbLine
 10
4.953125
 20
2.0095
 30
0.0
 11
5.328125
 21
2.0095
 31
0.0
  0
LINE
  5
19D3
100
AcDbEntity
  8
0
100
AcDbLine
 10
4.953125
 20
1.822
 30
0.0
 11
5.328125
 21
1.822
 31
0.0
  0
TEXT
  5
19D4
100
AcDbEntity
  8
TEXT
100
AcDbText
 10
5.007292
 20
1.86575
 30
0.0
 40
0.1
  1
---
 72
     1
 11
5.140625
 21
1.86575
 31
0.0
100
AcDbText
  0
LINE
  5
19D5
100
AcDbEntity
  8
0
100
AcDbLine
 10
4.953125
 20
2.0095
 30
0.0
 11
4.953125
 21
1.822
 31
0.0
  0
LINE
  5
19D6
100
AcDbEntity
  8
0
100
AcDbLine
 10
5.328125
 20
2.0095
 30
0.0
 11
5.328125
 21
1.822
 31
0.0
  0
TEXT
  5
19D7
100
AcDbEntity
  8
TEXT
100
AcDbText
 10
5.007292
 20
1.49075
 30
0.0
 40
0.1
  1
SPG
 72
     1
 11
5.140625
 21
1.49075
 31
0.0
100
AcDbText
  0
LINE
  5
19D8
100
AcDbEntity
  8
0
100
AcDbLine
 10
4.953125
 20
1.447
 30
0.0
 11
5.328125
 21
1.447
 31
0.0
  0
LINE
  5
19D9
100
AcDbEntity
  8
0
100
AcDbLine
 10
4.953125
 20
1.6345
 30
0.0
 11
5.328125
 21
1.6345
 31
0.0
  0
LINE
  5
19DA
100
AcDbEntity
  8
0
100
AcDbLine
 10
4.953125
 20
1.6345
 30
0.0
 11
4.953125
 21
1.447
 31
0.0
  0
LINE
  5
19DB
100
AcDbEntity
  8
0
100
AcDbLine
 10
5.328125
 20
1.6345
 30
0.0
 11
5.328125
 21
1.447
 31
0.0
  0
LINE
  5
19DD
100
AcDbEntity
  8
0
100
AcDbLine
 10
3.340625
 20
14.16575
 30
0.0
 11
3.181916
 21
14.007041
 31
0.0
  0
TEXT
  5
19DE
100
AcDbEntity
  8
TEXT
100
AcDbText
 10
3.503125
 20
14.14172
 30
0.0
 40
0.05
  1
Cable # C:--
100
AcDbText
  0
LINE
  5
19DF
100
AcDbEntity
  8
0
100
AcDbLine
 10
3.453125
 20
14.27825
 30
0.0
 11
3.453125
 21
14.05325
 31
0.0
  0
LINE
  5
19E0
100
AcDbEntity
  8
0
100
AcDbLine
 10
4.203125
 20
14.27825
 30
0.0
 11
4.203125
 21
14.05325
 31
0.0
  0
LINE
  5
19E1
100
AcDbEntity
  8
0
100
AcDbLine
 10
3.453125
 20
14.05325
 30
0.0
 11
4.203125
 21
14.05325
 31
0.0
  0
LINE
  5
19E3
100
AcDbEntity
  8
0
100
AcDbLine
 10
3.164071
 20
14.024816
 30
0.0
 11
3.199497
 21
13.989531
 31
0.0
  0
LINE
  5
19E4
100
AcDbEntity
  8
0
100
AcDbLine
 10
3.199497
 20
13.989531
 30
0.0
 11
3.115625
 21
13.94075
 31
0.0
  0
LINE
  5
19E5
100
AcDbEntity
  8
0
100
AcDbLine
 10
3.115625
 20
13.94075
 30
0.0
 11
3.164071
 21
14.024816
 31
0.0
  0
LINE
  5
19E6
100
AcDbEntity
  8
0
100
AcDbLine
 10
3.453125
 20
14.27825
 30
0.0
 11
4.203125
 21
14.27825
 31
0.0
  0
LINE
  5
19E7
100
AcDbEntity
  8
0
100
AcDbLine
 10
3.453125
 20
14.16575
 30
0.0
 11
3.340625
 21
14.16575
 31
0.0
  0
LINE
  5
19F1
100
AcDbEntity
  8
DASH
100
AcDbLine
 10
7.890625
 20
12.54075
 30
0.0
 11
7.890625
 21
11.04075
 31
0.0
  0
LINE
  5
19F3
100
AcDbEntity
  8
DASH
100
AcDbLine
 10
7.890625
 20
8.54075
 30
0.0
 11
7.890625
 21
8.04075
 31
0.0
  0
LINE
  5
19F4
100
AcDbEntity
  8
DASH
100
AcDbLine
 10
7.890625
 20
2.79075
 30
0.0
 11
7.890625
 21
1.54075
 31
0.0
  0
TEXT
  5
1A06
100
AcDbEntity
  8
TEXT
100
AcDbText
 10
4.694792
 20
12.61575
 30
0.0
 40
0.1
  1
---
 72
     1
 11
4.828125
 21
12.61575
 31
0.0
100
AcDbText
  0
LINE
  5
1A07
100
AcDbEntity
  8
0
100
AcDbLine
 10
4.640625
 20
12.572
 30
0.0
 11
5.015625
 21
12.572
 31
0.0
  0
LINE
  5
1A08
100
AcDbEntity
  8
0
100
AcDbLine
 10
4.640625
 20
12.7595
 30
0.0
 11
5.015625
 21
12.7595
 31
0.0
  0
LINE
  5
1A09
100
AcDbEntity
  8
0
100
AcDbLine
 10
4.640625
 20
12.7595
 30
0.0
 11
4.640625
 21
12.572
 31
0.0
  0
LINE
  5
1A0A
100
AcDbEntity
  8
0
100
AcDbLine
 10
5.015625
 20
12.7595
 30
0.0
 11
5.015625
 21
12.572
 31
0.0
  0
TEXT
  5
1A0B
100
AcDbEntity
  8
TEXT
100
AcDbText
 10
4.694792
 20
12.86575
 30
0.0
 40
0.1
  1
---
 72
     1
 11
4.828125
 21
12.86575
 31
0.0
100
AcDbText
  0
LINE
  5
1A0C
100
AcDbEntity
  8
0
100
AcDbLine
 10
4.640625
 20
13.0095
 30
0.0
 11
5.015625
 21
13.0095
 31
0.0
  0
LINE
  5
1A0D
100
AcDbEntity
  8
0
100
AcDbLine
 10
4.640625
 20
12.822
 30
0.0
 11
5.015625
 21
12.822
 31
0.0
  0
LINE
  5
1A0E
100
AcDbEntity
  8
0
100
AcDbLine
 10
4.640625
 20
13.0095
 30
0.0
 11
4.640625
 21
12.822
 31
0.0
  0
LINE
  5
1A0F
100
AcDbEntity
  8
0
100
AcDbLine
 10
5.015625
 20
13.0095
 30
0.0
 11
5.015625
 21
12.822
 31
0.0
  0
TEXT
  5
1A10
100
AcDbEntity
  8
TEXT
100
AcDbText
 10
4.694792
 20
10.61575
 30
0.0
 40
0.1
  1
---
 72
     1
 11
4.828125
 21
10.61575
 31
0.0
100
AcDbText
  0
LINE
  5
1A11
100
AcDbEntity
  8
0
100
AcDbLine
 10
4.640625
 20
10.7595
 30
0.0
 11
5.015625
 21
10.7595
 31
0.0
  0
LINE
  5
1A12
100
AcDbEntity
  8
0
100
AcDbLine
 10
4.640625
 20
10.572
 30
0.0
 11
5.015625
 21
10.572
 31
0.0
  0
LINE
  5
1A13
100
AcDbEntity
  8
0
100
AcDbLine
 10
4.640625
 20
10.7595
 30
0.0
 11
4.640625
 21
10.572
 31
0.0
  0
LINE
  5
1A14
100
AcDbEntity
  8
0
100
AcDbLine
 10
5.015625
 20
10.7595
 30
0.0
 11
5.015625
 21
10.572
 31
0.0
  0
TEXT
  5
1A15
100
AcDbEntity
  8
TEXT
100
AcDbText
 10
4.694792
 20
10.86575
 30
0.0
 40
0.1
  1
---
 72
     1
 11
4.828125
 21
10.86575
 31
0.0
100
AcDbText
  0
LINE
  5
1A16
100
AcDbEntity
  8
0
100
AcDbLine
 10
4.640625
 20
10.822
 30
0.0
 11
5.015625
 21
10.822
 31
0.0
  0
LINE
  5
1A17
100
AcDbEntity
  8
0
100
AcDbLine
 10
4.640625
 20
11.0095
 30
0.0
 11
5.015625
 21
11.0095
 31
0.0
  0
LINE
  5
1A18
100
AcDbEntity
  8
0
100
AcDbLine
 10
4.640625
 20
11.0095
 30
0.0
 11
4.640625
 21
10.822
 31
0.0
  0
LINE
  5
1A19
100
AcDbEntity
  8
0
100
AcDbLine
 10
5.015625
 20
11.0095
 30
0.0
 11
5.015625
 21
10.822
 31
0.0
  0
LINE
  5
1A1D
100
AcDbEntity
  8
DASH
100
AcDbLine
 10
6.540625
 20
14.04075
 30
0.0
 11
7.890625
 21
14.04075
 31
0.0
  0
LINE
  5
1A24
100
AcDbEntity
  8
0
100
AcDbLine
 10
4.640625
 20
13.2595
 30
0.0
 11
5.015625
 21
13.2595
 31
0.0
  0
LINE
  5
1A25
100
AcDbEntity
  8
0
100
AcDbLine
 10
4.640625
 20
13.072
 30
0.0
 11
5.015625
 21
13.072
 31
0.0
  0
TEXT
  5
1A26
100
AcDbEntity
  8
TEXT
100
AcDbText
 10
4.694792
 20
13.11575
 30
0.0
 40
0.1
  1
---
 72
     1
 11
4.828125
 21
13.11575
 31
0.0
100
AcDbText
  0
LINE
  5
1A27
100
AcDbEntity
  8
0
100
AcDbLine
 10
4.640625
 20
13.2595
 30
0.0
 11
4.640625
 21
13.072
 31
0.0
  0
LINE
  5
1A28
100
AcDbEntity
  8
0
100
AcDbLine
 10
5.015625
 20
13.2595
 30
0.0
 11
5.015625
 21
13.072
 31
0.0
  0
LINE
  5
1A29
100
AcDbEntity
  8
0
100
AcDbLine
 10
4.640625
 20
13.322
 30
0.0
 11
5.015625
 21
13.322
 31
0.0
  0
LINE
  5
1A2A
100
AcDbEntity
  8
0
100
AcDbLine
 10
4.640625
 20
13.5095
 30
0.0
 11
5.015625
 21
13.5095
 31
0.0
  0
TEXT
  5
1A2B
100
AcDbEntity
  8
TEXT
100
AcDbText
 10
4.694792
 20
13.36575
 30
0.0
 40
0.1
  1
---
 72
     1
 11
4.828125
 21
13.36575
 31
0.0
100
AcDbText
  0
LINE
  5
1A2C
100
AcDbEntity
  8
0
100
AcDbLine
 10
4.640625
 20
13.5095
 30
0.0
 11
4.640625
 21
13.322
 31
0.0
  0
LINE
  5
1A2D
100
AcDbEntity
  8
0
100
AcDbLine
 10
5.015625
 20
13.5095
 30
0.0
 11
5.015625
 21
13.322
 31
0.0
  0
LINE
  5
1A4C
100
AcDbEntity
  8
0
100
AcDbLine
 10
4.640625
 20
8.7595
 30
0.0
 11
5.015625
 21
8.7595
 31
0.0
  0
LINE
  5
1A4D
100
AcDbEntity
  8
0
100
AcDbLine
 10
4.640625
 20
8.572
 30
0.0
 11
5.015625
 21
8.572
 31
0.0
  0
LINE
  5
1A4E
100
AcDbEntity
  8
0
100
AcDbLine
 10
4.640625
 20
8.7595
 30
0.0
 11
4.640625
 21
8.572
 31
0.0
  0
LINE
  5
1A50
100
AcDbEntity
  8
0
100
AcDbLine
 10
5.015625
 20
8.7595
 30
0.0
 11
5.015625
 21
8.572
 31
0.0
  0
TEXT
  5
1A52
100
AcDbEntity
  8
TEXT
100
AcDbText
 10
4.694792
 20
8.61575
 30
0.0
 40
0.1
  1
---
 72
     1
 11
4.828125
 21
8.61575
 31
0.0
100
AcDbText
  0
LINE
  5
1A55
100
AcDbEntity
  8
0
100
AcDbLine
 10
4.640625
 20
9.0095
 30
0.0
 11
5.015625
 21
9.0095
 31
0.0
  0
LINE
  5
1A56
100
AcDbEntity
  8
0
100
AcDbLine
 10
4.640625
 20
8.822
 30
0.0
 11
5.015625
 21
8.822
 31
0.0
  0
TEXT
  5
1A57
100
AcDbEntity
  8
TEXT
100
AcDbText
 10
4.694792
 20
8.86575
 30
0.0
 40
0.1
  1
---
 72
     1
 11
4.828125
 21
8.86575
 31
0.0
100
AcDbText
  0
LINE
  5
1A58
100
AcDbEntity
  8
0
100
AcDbLine
 10
4.640625
 20
9.0095
 30
0.0
 11
4.640625
 21
8.822
 31
0.0
  0
LINE
  5
1A59
100
AcDbEntity
  8
0
100
AcDbLine
 10
5.015625
 20
9.0095
 30
0.0
 11
5.015625
 21
8.822
 31
0.0
  0
TEXT
  5
1A6C
100
AcDbEntity
  8
TEXT
100
AcDbText
 10
5.490625
 20
8.96575
 30
0.0
 40
0.075
  1
 
100
AcDbText
  0
TEXT
  5
1A6D
100
AcDbEntity
  8
TEXT
100
AcDbText
 10
6.301252
 20
8.880086
 30
0.0
 40
0.075
  1
 
 72
     1
 11
6.338752
 21
8.880086
 31
0.0
100
AcDbText
  0
TEXT
  5
1A6E
100
AcDbEntity
  8
TEXT
100
AcDbText
 10
5.215625
 20
8.96575
 30
0.0
 40
0.075
  1
 
 72
     2
 11
5.290625
 21
8.96575
 31
0.0
100
AcDbText
  0
TEXT
  5
1A79
100
AcDbEntity
  8
TEXT
100
AcDbText
 10
5.490625
 20
8.71575
 30
0.0
 40
0.075
  1
 
100
AcDbText
  0
TEXT
  5
1A7A
100
AcDbEntity
  8
TEXT
100
AcDbText
 10
6.301252
 20
8.630086
 30
0.0
 40
0.075
  1
 
 72
     1
 11
6.338752
 21
8.630086
 31
0.0
100
AcDbText
  0
TEXT
  5
1A7B
100
AcDbEntity
  8
TEXT
100
AcDbText
 10
5.215625
 20
8.71575
 30
0.0
 40
0.075
  1
 
 72
     2
 11
5.290625
 21
8.71575
 31
0.0
100
AcDbText
  0
TEXT
  5
1A8A
100
AcDbEntity
  8
TEXT
100
AcDbText
 10
4.694792
 20
7.86575
 30
0.0
 40
0.1
  1
---
 72
     1
 11
4.828125
 21
7.86575
 31
0.0
100
AcDbText
  0
LINE
  5
1A8B
100
AcDbEntity
  8
0
100
AcDbLine
 10
4.640625
 20
7.822
 30
0.0
 11
5.015625
 21
7.822
 31
0.0
  0
LINE
  5
1A8C
100
AcDbEntity
  8
0
100
AcDbLine
 10
4.640625
 20
8.0095
 30
0.0
 11
5.015625
 21
8.0095
 31
0.0
  0
LINE
  5
1A8D
100
AcDbEntity
  8
0
100
AcDbLine
 10
4.640625
 20
7.7595
 30
0.0
 11
5.015625
 21
7.7595
 31
0.0
  0
LINE
  5
1A8E
100
AcDbEntity
  8
0
100
AcDbLine
 10
4.640625
 20
7.572
 30
0.0
 11
5.015625
 21
7.572
 31
0.0
  0
TEXT
  5
1A8F
100
AcDbEntity
  8
TEXT
100
AcDbText
 10
4.694792
 20
7.61575
 30
0.0
 40
0.1
  1
---
 72
     1
 11
4.828125
 21
7.61575
 31
0.0
100
AcDbText
  0
LINE
  5
1A90
100
AcDbEntity
  8
0
100
AcDbLine
 10
4.640625
 20
7.7595
 30
0.0
 11
4.640625
 21
7.572
 31
0.0
  0
LINE
  5
1A91
100
AcDbEntity
  8
0
100
AcDbLine
 10
4.640625
 20
8.0095
 30
0.0
 11
4.640625
 21
7.822
 31
0.0
  0
LINE
  5
1A92
100
AcDbEntity
  8
0
100
AcDbLine
 10
5.015625
 20
7.7595
 30
0.0
 11
5.015625
 21
7.572
 31
0.0
  0
LINE
  5
1A93
100
AcDbEntity
  8
0
100
AcDbLine
 10
5.015625
 20
8.0095
 30
0.0
 11
5.015625
 21
7.822
 31
0.0
  0
TEXT
  5
1ABB
100
AcDbEntity
  8
TEXT
100
AcDbText
 10
5.187177
 20
13.106285
 30
0.0
 40
0.375
  1
}
100
AcDbText
  0
TEXT
  5
1AC2
100
AcDbEntity
  8
TEXT
100
AcDbText
 10
5.390625
 20
13.30325
 30
0.0
 40
0.1
  1
From +5vdc
 11
5.390625
 21
13.35325
 31
0.0
100
AcDbText
 73
     2
  0
TEXT
  5
1AC4
100
AcDbEntity
  8
TEXT
100
AcDbText
 10
5.187177
 20
12.606285
 30
0.0
 40
0.375
  1
}
100
AcDbText
  0
TEXT
  5
1AC6
100
AcDbEntity
  8
TEXT
100
AcDbText
 10
5.187177
 20
10.606285
 30
0.0
 40
0.375
  1
}
100
AcDbText
  0
LINE
  5
1AD2
100
AcDbEntity
  8
0
100
AcDbLine
 10
-0.234375
 20
15.16575
 30
0.0
 11
-0.234375
 21
9.29075
 31
0.0
  0
ARC
  5
1AD4
100
AcDbEntity
  8
0
100
AcDbCircle
 10
-0.109375
 20
14.04075
 30
0.0
 40
0.125
100
AcDbArc
 50
180.0
 51
270.0
  0
LINE
  5
1AD7
100
AcDbEntity
  8
0
100
AcDbLine
 10
0.578125
 20
15.29075
 30
0.0
 11
-0.109375
 21
15.29075
 31
0.0
  0
ARC
  5
1AD9
100
AcDbEntity
  8
0
100
AcDbCircle
 10
-0.109375
 20
15.16575
 30
0.0
 40
0.125
100
AcDbArc
 50
90.0
 51
180.0
  0
TEXT
  5
1ADA
100
AcDbEntity
  8
TEXT
100
AcDbText
 10
0.894877
 20
15.24075
 30
0.0
 40
0.1
  1
To / From Encoder (See Sheet #--)
 11
0.894877
 21
15.29075
 31
0.0
100
AcDbText
 73
     2
  0
LINE
  5
1AE4
100
AcDbEntity
  8
0
100
AcDbLine
 10
0.578125
 20
15.24075
 30
0.0
 11
0.578125
 21
15.34075
 31
0.0
  0
LINE
  5
1AE5
100
AcDbEntity
  8
0
100
AcDbLine
 10
0.578125
 20
15.34075
 30
0.0
 11
0.765625
 21
15.29075
 31
0.0
  0
LINE
  5
1AE6
100
AcDbEntity
  8
0
100
AcDbLine
 10
0.765625
 20
15.29075
 30
0.0
 11
0.578125
 21
15.24075
 31
0.0
  0
LINE
  5
1AE7
100
AcDbEntity
  8
0
100
AcDbLine
 10
0.015625
 20
13.66575
 30
0.0
 11
-0.109375
 21
13.66575
 31
0.0
  0
ARC
  5
1AE8
100
AcDbEntity
  8
0
100
AcDbCircle
 10
-0.109375
 20
13.79075
 30
0.0
 40
0.125
100
AcDbArc
 50
180.0
 51
270.0
  0
LINE
  5
1AEA
100
AcDbEntity
  8
0
100
AcDbLine
 10
0.015625
 20
13.41575
 30
0.0
 11
-0.109375
 21
13.41575
 31
0.0
  0
ARC
  5
1AEB
100
AcDbEntity
  8
0
100
AcDbCircle
 10
-0.109375
 20
13.54075
 30
0.0
 40
0.125
100
AcDbArc
 50
180.0
 51
270.0
  0
LINE
  5
1AED
100
AcDbEntity
  8
0
100
AcDbLine
 10
0.015625
 20
13.16575
 30
0.0
 11
-0.109375
 21
13.16575
 31
0.0
  0
ARC
  5
1AEE
100
AcDbEntity
  8
0
100
AcDbCircle
 10
-0.109375
 20
13.29075
 30
0.0
 40
0.125
100
AcDbArc
 50
180.0
 51
270.0
  0
LINE
  5
1AF0
100
AcDbEntity
  8
0
100
AcDbLine
 10
0.015625
 20
12.91575
 30
0.0
 11
-0.109375
 21
12.91575
 31
0.0
  0
ARC
  5
1AF1
100
AcDbEntity
  8
0
100
AcDbCircle
 10
-0.109375
 20
13.04075
 30
0.0
 40
0.125
100
AcDbArc
 50
180.0
 51
270.0
  0
LINE
  5
1AF3
100
AcDbEntity
  8
0
100
AcDbLine
 10
0.015625
 20
12.66575
 30
0.0
 11
-0.109375
 21
12.66575
 31
0.0
  0
ARC
  5
1AF4
100
AcDbEntity
  8
0
100
AcDbCircle
 10
-0.109375
 20
12.79075
 30
0.0
 40
0.125
100
AcDbArc
 50
180.0
 51
270.0
  0
LINE
  5
1AF6
100
AcDbEntity
  8
0
100
AcDbLine
 10
0.015625
 20
12.41575
 30
0.0
 11
-0.109375
 21
12.41575
 31
0.0
  0
ARC
  5
1AF7
100
AcDbEntity
  8
0
100
AcDbCircle
 10
-0.109375
 20
12.54075
 30
0.0
 40
0.125
100
AcDbArc
 50
180.0
 51
270.0
  0
LINE
  5
1AF9
100
AcDbEntity
  8
0
100
AcDbLine
 10
0.015625
 20
12.16575
 30
0.0
 11
-0.109375
 21
12.16575
 31
0.0
  0
ARC
  5
1AFA
100
AcDbEntity
  8
0
100
AcDbCircle
 10
-0.109375
 20
12.29075
 30
0.0
 40
0.125
100
AcDbArc
 50
180.0
 51
270.0
  0
LINE
  5
1AFC
100
AcDbEntity
  8
0
100
AcDbLine
 10
0.015625
 20
11.91575
 30
0.0
 11
-0.109375
 21
11.91575
 31
0.0
  0
ARC
  5
1AFD
100
AcDbEntity
  8
0
100
AcDbCircle
 10
-0.109375
 20
12.04075
 30
0.0
 40
0.125
100
AcDbArc
 50
180.0
 51
270.0
  0
LINE
  5
1AFF
100
AcDbEntity
  8
0
100
AcDbLine
 10
0.015625
 20
11.66575
 30
0.0
 11
-0.109375
 21
11.66575
 31
0.0
  0
ARC
  5
1B00
100
AcDbEntity
  8
0
100
AcDbCircle
 10
-0.109375
 20
11.79075
 30
0.0
 40
0.125
100
AcDbArc
 50
180.0
 51
270.0
  0
LINE
  5
1B02
100
AcDbEntity
  8
0
100
AcDbLine
 10
0.015625
 20
11.41575
 30
0.0
 11
-0.109375
 21
11.41575
 31
0.0
  0
ARC
  5
1B03
100
AcDbEntity
  8
0
100
AcDbCircle
 10
-0.109375
 20
11.54075
 30
0.0
 40
0.125
100
AcDbArc
 50
180.0
 51
270.0
  0
LINE
  5
1B05
100
AcDbEntity
  8
0
100
AcDbLine
 10
0.015625
 20
11.16575
 30
0.0
 11
-0.109375
 21
11.16575
 31
0.0
  0
ARC
  5
1B06
100
AcDbEntity
  8
0
100
AcDbCircle
 10
-0.109375
 20
11.29075
 30
0.0
 40
0.125
100
AcDbArc
 50
180.0
 51
270.0
  0
LINE
  5
1B08
100
AcDbEntity
  8
0
100
AcDbLine
 10
0.015625
 20
10.91575
 30
0.0
 11
-0.109375
 21
10.91575
 31
0.0
  0
ARC
  5
1B09
100
AcDbEntity
  8
0
100
AcDbCircle
 10
-0.109375
 20
11.04075
 30
0.0
 40
0.125
100
AcDbArc
 50
180.0
 51
270.0
  0
LINE
  5
1B0B
100
AcDbEntity
  8
0
100
AcDbLine
 10
0.015625
 20
10.66575
 30
0.0
 11
-0.109375
 21
10.66575
 31
0.0
  0
ARC
  5
1B0C
100
AcDbEntity
  8
0
100
AcDbCircle
 10
-0.109375
 20
10.79075
 30
0.0
 40
0.125
100
AcDbArc
 50
180.0
 51
270.0
  0
LINE
  5
1B0E
100
AcDbEntity
  8
0
100
AcDbLine
 10
0.015625
 20
10.41575
 30
0.0
 11
-0.109375
 21
10.41575
 31
0.0
  0
ARC
  5
1B0F
100
AcDbEntity
  8
0
100
AcDbCircle
 10
-0.109375
 20
10.54075
 30
0.0
 40
0.125
100
AcDbArc
 50
180.0
 51
270.0
  0
LINE
  5
1B11
100
AcDbEntity
  8
0
100
AcDbLine
 10
0.015625
 20
10.16575
 30
0.0
 11
-0.109375
 21
10.16575
 31
0.0
  0
ARC
  5
1B12
100
AcDbEntity
  8
0
100
AcDbCircle
 10
-0.109375
 20
10.29075
 30
0.0
 40
0.125
100
AcDbArc
 50
180.0
 51
270.0
  0
LINE
  5
1B14
100
AcDbEntity
  8
0
100
AcDbLine
 10
0.015625
 20
9.91575
 30
0.0
 11
-0.109375
 21
9.91575
 31
0.0
  0
ARC
  5
1B15
100
AcDbEntity
  8
0
100
AcDbCircle
 10
-0.109375
 20
10.04075
 30
0.0
 40
0.125
100
AcDbArc
 50
180.0
 51
270.0
  0
LINE
  5
1B17
100
AcDbEntity
  8
0
100
AcDbLine
 10
0.015625
 20
9.66575
 30
0.0
 11
-0.109375
 21
9.66575
 31
0.0
  0
ARC
  5
1B18
100
AcDbEntity
  8
0
100
AcDbCircle
 10
-0.109375
 20
9.79075
 30
0.0
 40
0.125
100
AcDbArc
 50
180.0
 51
270.0
  0
LINE
  5
1B1A
100
AcDbEntity
  8
0
100
AcDbLine
 10
0.015625
 20
9.41575
 30
0.0
 11
-0.109375
 21
9.41575
 31
0.0
  0
ARC
  5
1B1B
100
AcDbEntity
  8
0
100
AcDbCircle
 10
-0.109375
 20
9.54075
 30
0.0
 40
0.125
100
AcDbArc
 50
180.0
 51
270.0
  0
LINE
  5
1B1D
100
AcDbEntity
  8
0
100
AcDbLine
 10
0.015625
 20
9.16575
 30
0.0
 11
-0.109375
 21
9.16575
 31
0.0
  0
ARC
  5
1B1E
100
AcDbEntity
  8
0
100
AcDbCircle
 10
-0.109375
 20
9.29075
 30
0.0
 40
0.125
100
AcDbArc
 50
180.0
 51
270.0
  0
TEXT
  5
1B24
100
AcDbEntity
  8
TEXT
100
AcDbText
 10
5.390625
 20
13.17825
 30
0.0
 40
0.1
  1
Source
 11
5.390625
 21
13.22825
 31
0.0
100
AcDbText
 73
     2
  0
TEXT
  5
1B25
100
AcDbEntity
  8
TEXT
100
AcDbText
 10
5.390625
 20
12.80325
 30
0.0
 40
0.1
  1
From 24vdc
 11
5.390625
 21
12.85325
 31
0.0
100
AcDbText
 73
     2
  0
TEXT
  5
1B26
100
AcDbEntity
  8
TEXT
100
AcDbText
 10
5.390625
 20
12.67825
 30
0.0
 40
0.1
  1
Source
 11
5.390625
 21
12.72825
 31
0.0
100
AcDbText
 73
     2
  0
TEXT
  5
1B2C
100
AcDbEntity
  8
TEXT
100
AcDbText
 10
5.390625
 20
10.80325
 30
0.0
 40
0.1
  1
From 24vdc
 11
5.390625
 21
10.85325
 31
0.0
100
AcDbText
 73
     2
  0
TEXT
  5
1B2D
100
AcDbEntity
  8
TEXT
100
AcDbText
 10
5.390625
 20
10.67825
 30
0.0
 40
0.1
  1
Source
 11
5.390625
 21
10.72825
 31
0.0
100
AcDbText
 73
     2
  0
TEXT
  5
1B3E
100
AcDbEntity
  8
TEXT
100
AcDbText
 10
2.650625
 20
11.61325
 30
0.0
 40
0.1
  1
10
 41
0.9
 72
     5
 11
2.755625
 21
11.61325
 31
0.0
100
AcDbText
  0
TEXT
  5
1B3F
100
AcDbEntity
  8
TEXT
100
AcDbText
 10
2.650625
 20
11.86325
 30
0.0
 40
0.1
  1
9
 41
1.575
 72
     5
 11
2.755625
 21
11.86325
 31
0.0
100
AcDbText
  0
TEXT
  5
1B40
100
AcDbEntity
  8
TEXT
100
AcDbText
 10
2.650625
 20
12.11325
 30
0.0
 40
0.1
  1
8
 41
1.575
 72
     5
 11
2.755625
 21
12.11325
 31
0.0
100
AcDbText
  0
TEXT
  5
1B41
100
AcDbEntity
  8
TEXT
100
AcDbText
 10
2.650625
 20
12.36325
 30
0.0
 40
0.1
  1
7
 41
1.575
 72
     5
 11
2.755625
 21
12.36325
 31
0.0
100
AcDbText
  0
TEXT
  5
1B45
100
AcDbEntity
  8
TEXT
100
AcDbText
 10
2.650625
 20
12.61325
 30
0.0
 40
0.1
  1
6
 41
1.575
 72
     5
 11
2.755625
 21
12.61325
 31
0.0
100
AcDbText
  0
TEXT
  5
1B49
100
AcDbEntity
  8
TEXT
100
AcDbText
 10
2.650625
 20
12.86325
 30
0.0
 40
0.1
  1
5
 41
1.575
 72
     5
 11
2.755625
 21
12.86325
 31
0.0
100
AcDbText
  0
TEXT
  5
1B4A
100
AcDbEntity
  8
TEXT
100
AcDbText
 10
2.650625
 20
13.11325
 30
0.0
 40
0.1
  1
4
 41
1.575
 72
     5
 11
2.755625
 21
13.11325
 31
0.0
100
AcDbText
  0
TEXT
  5
1B4B
100
AcDbEntity
  8
TEXT
100
AcDbText
 10
2.650625
 20
13.36325
 30
0.0
 40
0.1
  1
3
 41
1.575
 72
     5
 11
2.755625
 21
13.36325
 31
0.0
100
AcDbText
  0
TEXT
  5
1B4C
100
AcDbEntity
  8
TEXT
100
AcDbText
 10
2.650625
 20
13.61325
 30
0.0
 40
0.1
  1
2
 41
1.575
 72
     5
 11
2.755625
 21
13.61325
 31
0.0
100
AcDbText
  0
TEXT
  5
1B4D
100
AcDbEntity
  8
TEXT
100
AcDbText
 10
2.650625
 20
13.86325
 30
0.0
 40
0.1
  1
1
 41
3.15
 72
     5
 11
2.755625
 21
13.86325
 31
0.0
100
AcDbText
  0
TEXT
  5
1B51
100
AcDbEntity
  8
TEXT
100
AcDbText
 10
2.650625
 20
10.11325
 30
0.0
 40
0.1
  1
15
 41
0.7875
 72
     5
 11
2.755625
 21
10.11325
 31
0.0
100
AcDbText
  0
TEXT
  5
1B52
100
AcDbEntity
  8
TEXT
100
AcDbText
 10
2.650625
 20
9.86325
 30
0.0
 40
0.1
  1
16
 41
0.7875
 72
     5
 11
2.755625
 21
9.86325
 31
0.0
100
AcDbText
  0
TEXT
  5
1B53
100
AcDbEntity
  8
TEXT
100
AcDbText
 10
2.650625
 20
9.61325
 30
0.0
 40
0.1
  1
17
 41
0.7875
 72
     5
 11
2.755625
 21
9.61325
 31
0.0
100
AcDbText
  0
TEXT
  5
1B54
100
AcDbEntity
  8
TEXT
100
AcDbText
 10
2.650625
 20
9.36325
 30
0.0
 40
0.1
  1
18
 41
0.7875
 72
     5
 11
2.755625
 21
9.36325
 31
0.0
100
AcDbText
  0
TEXT
  5
1B55
100
AcDbEntity
  8
TEXT
100
AcDbText
 10
2.650625
 20
9.11325
 30
0.0
 40
0.1
  1
19
 41
0.7875
 72
     5
 11
2.755625
 21
9.11325
 31
0.0
100
AcDbText
  0
LINE
  5
1B56
100
AcDbEntity
  8
0
100
AcDbLine
 10
2.640625
 20
9.72825
 30
0.0
 11
2.765625
 21
9.72825
 31
0.0
  0
LINE
  5
1B57
100
AcDbEntity
  8
0
100
AcDbLine
 10
2.640625
 20
9.60325
 30
0.0
 11
2.765625
 21
9.60325
 31
0.0
  0
LINE
  5
1B58
100
AcDbEntity
  8
0
100
AcDbLine
 10
2.640625
 20
9.35325
 30
0.0
 11
2.765625
 21
9.35325
 31
0.0
  0
LINE
  5
1B59
100
AcDbEntity
  8
0
100
AcDbLine
 10
2.640625
 20
9.47825
 30
0.0
 11
2.765625
 21
9.47825
 31
0.0
  0
LINE
  5
1B5A
100
AcDbEntity
  8
0
100
AcDbLine
 10
2.640625
 20
9.22825
 30
0.0
 11
2.765625
 21
9.22825
 31
0.0
  0
LINE
  5
1B5B
100
AcDbEntity
  8
0
100
AcDbLine
 10
2.640625
 20
9.10325
 30
0.0
 11
2.765625
 21
9.10325
 31
0.0
  0
LINE
  5
1B5C
100
AcDbEntity
  8
0
100
AcDbLine
 10
2.640625
 20
10.22825
 30
0.0
 11
2.765625
 21
10.22825
 31
0.0
  0
LINE
  5
1B5D
100
AcDbEntity
  8
0
100
AcDbLine
 10
2.640625
 20
10.10325
 30
0.0
 11
2.765625
 21
10.10325
 31
0.0
  0
LINE
  5
1B5E
100
AcDbEntity
  8
0
100
AcDbLine
 10
2.640625
 20
9.85325
 30
0.0
 11
2.765625
 21
9.85325
 31
0.0
  0
LINE
  5
1B5F
100
AcDbEntity
  8
0
100
AcDbLine
 10
2.640625
 20
9.97825
 30
0.0
 11
2.765625
 21
9.97825
 31
0.0
  0
LINE
  5
1B60
100
AcDbEntity
  8
0
100
AcDbLine
 10
2.765625
 20
9.72825
 30
0.0
 11
2.765625
 21
9.60325
 31
0.0
  0
LINE
  5
1B61
100
AcDbEntity
  8
0
100
AcDbLine
 10
2.765625
 20
9.22825
 30
0.0
 11
2.765625
 21
9.10325
 31
0.0
  0
LINE
  5
1B62
100
AcDbEntity
  8
0
100
AcDbLine
 10
2.765625
 20
9.47825
 30
0.0
 11
2.765625
 21
9.35325
 31
0.0
  0
LINE
  5
1B63
100
AcDbEntity
  8
0
100
AcDbLine
 10
2.765625
 20
9.97825
 30
0.0
 11
2.765625
 21
9.85325
 31
0.0
  0
LINE
  5
1B64
100
AcDbEntity
  8
0
100
AcDbLine
 10
2.765625
 20
10.22825
 30
0.0
 11
2.765625
 21
10.10325
 31
0.0
  0
TEXT
  5
1B65
100
AcDbEntity
  8
TEXT
100
AcDbText
 10
2.650625
 20
11.36325
 30
0.0
 40
0.1
  1
11
 41
1.05
 72
     5
 11
2.755625
 21
11.36325
 31
0.0
100
AcDbText
  0
TEXT
  5
1B66
100
AcDbEntity
  8
TEXT
100
AcDbText
 10
2.650625
 20
11.11325
 30
0.0
 40
0.1
  1
12
 41
0.7875
 72
     5
 11
2.755625
 21
11.11325
 31
0.0
100
AcDbText
  0
TEXT
  5
1B67
100
AcDbEntity
  8
TEXT
100
AcDbText
 10
2.650625
 20
10.86325
 30
0.0
 40
0.1
  1
13
 41
0.7875
 72
     5
 11
2.755625
 21
10.86325
 31
0.0
100
AcDbText
  0
TEXT
  5
1B68
100
AcDbEntity
  8
TEXT
100
AcDbText
 10
2.650625
 20
10.61325
 30
0.0
 40
0.1
  1
26
 41
0.63
 72
     5
 11
2.755625
 21
10.61325
 31
0.0
100
AcDbText
  0
TEXT
  5
1B6C
100
AcDbEntity
  8
TEXT
100
AcDbText
 10
2.650625
 20
10.36325
 30
0.0
 40
0.1
  1
14
 41
0.7875
 72
     5
 11
2.755625
 21
10.36325
 31
0.0
100
AcDbText
  0
LINE
  5
1B6D
100
AcDbEntity
  8
0
100
AcDbLine
 10
2.640625
 20
10.72825
 30
0.0
 11
2.765625
 21
10.72825
 31
0.0
  0
LINE
  5
1B6E
100
AcDbEntity
  8
0
100
AcDbLine
 10
2.640625
 20
10.60325
 30
0.0
 11
2.765625
 21
10.60325
 31
0.0
  0
LINE
  5
1B6F
100
AcDbEntity
  8
0
100
AcDbLine
 10
2.640625
 20
10.35325
 30
0.0
 11
2.765625
 21
10.35325
 31
0.0
  0
LINE
  5
1B70
100
AcDbEntity
  8
0
100
AcDbLine
 10
2.640625
 20
10.47825
 30
0.0
 11
2.765625
 21
10.47825
 31
0.0
  0
LINE
  5
1B71
100
AcDbEntity
  8
0
100
AcDbLine
 10
2.640625
 20
11.10325
 30
0.0
 11
2.765625
 21
11.10325
 31
0.0
  0
LINE
  5
1B72
100
AcDbEntity
  8
0
100
AcDbLine
 10
2.640625
 20
11.22825
 30
0.0
 11
2.765625
 21
11.22825
 31
0.0
  0
LINE
  5
1B73
100
AcDbEntity
  8
0
100
AcDbLine
 10
2.640625
 20
10.85325
 30
0.0
 11
2.765625
 21
10.85325
 31
0.0
  0
LINE
  5
1B74
100
AcDbEntity
  8
0
100
AcDbLine
 10
2.640625
 20
10.97825
 30
0.0
 11
2.765625
 21
10.97825
 31
0.0
  0
LINE
  5
1B75
100
AcDbEntity
  8
0
100
AcDbLine
 10
2.640625
 20
11.35325
 30
0.0
 11
2.765625
 21
11.35325
 31
0.0
  0
LINE
  5
1B76
100
AcDbEntity
  8
0
100
AcDbLine
 10
2.640625
 20
11.47825
 30
0.0
 11
2.765625
 21
11.47825
 31
0.0
  0
LINE
  5
1B77
100
AcDbEntity
  8
0
100
AcDbLine
 10
2.765625
 20
10.97825
 30
0.0
 11
2.765625
 21
10.85325
 31
0.0
  0
LINE
  5
1B78
100
AcDbEntity
  8
0
100
AcDbLine
 10
2.765625
 20
10.47825
 30
0.0
 11
2.765625
 21
10.35325
 31
0.0
  0
LINE
  5
1B79
100
AcDbEntity
  8
0
100
AcDbLine
 10
2.765625
 20
10.72825
 30
0.0
 11
2.765625
 21
10.60325
 31
0.0
  0
LINE
  5
1B7A
100
AcDbEntity
  8
0
100
AcDbLine
 10
2.765625
 20
11.22825
 30
0.0
 11
2.765625
 21
11.10325
 31
0.0
  0
LINE
  5
1B7B
100
AcDbEntity
  8
0
100
AcDbLine
 10
2.765625
 20
11.47825
 30
0.0
 11
2.765625
 21
11.35325
 31
0.0
  0
TEXT
  5
1B7F
100
AcDbEntity
  8
TEXT
100
AcDbText
 10
2.650625
 20
7.61325
 30
0.0
 40
0.1
  1
25
 41
0.63
 72
     5
 11
2.755625
 21
7.61325
 31
0.0
100
AcDbText
  0
TEXT
  5
1B80
100
AcDbEntity
  8
TEXT
100
AcDbText
 10
2.650625
 20
7.36325
 30
0.0
 40
0.1
  1
27
 41
0.63
 72
     5
 11
2.755625
 21
7.36325
 31
0.0
100
AcDbText
  0
TEXT
  5
1B81
100
AcDbEntity
  8
TEXT
100
AcDbText
 10
2.650625
 20
7.11325
 30
0.0
 40
0.1
  1
28
 41
0.63
 72
     5
 11
2.755625
 21
7.11325
 31
0.0
100
AcDbText
  0
TEXT
  5
1B82
100
AcDbEntity
  8
TEXT
100
AcDbText
 10
2.650625
 20
6.86325
 30
0.0
 40
0.1
  1
29
 41
0.63
 72
     5
 11
2.755625
 21
6.86325
 31
0.0
100
AcDbText
  0
TEXT
  5
1B83
100
AcDbEntity
  8
TEXT
100
AcDbText
 10
2.650625
 20
6.61325
 30
0.0
 40
0.1
  1
30
 41
0.7
 72
     5
 11
2.755625
 21
6.61325
 31
0.0
100
AcDbText
  0
LINE
  5
1B84
100
AcDbEntity
  8
0
100
AcDbLine
 10
2.640625
 20
7.22825
 30
0.0
 11
2.765625
 21
7.22825
 31
0.0
  0
LINE
  5
1B85
100
AcDbEntity
  8
0
100
AcDbLine
 10
2.640625
 20
7.10325
 30
0.0
 11
2.765625
 21
7.10325
 31
0.0
  0
LINE
  5
1B86
100
AcDbEntity
  8
0
100
AcDbLine
 10
2.640625
 20
6.85325
 30
0.0
 11
2.765625
 21
6.85325
 31
0.0
  0
LINE
  5
1B87
100
AcDbEntity
  8
0
100
AcDbLine
 10
2.640625
 20
6.97825
 30
0.0
 11
2.765625
 21
6.97825
 31
0.0
  0
LINE
  5
1B88
100
AcDbEntity
  8
0
100
AcDbLine
 10
2.640625
 20
6.72825
 30
0.0
 11
2.765625
 21
6.72825
 31
0.0
  0
LINE
  5
1B89
100
AcDbEntity
  8
0
100
AcDbLine
 10
2.640625
 20
6.60325
 30
0.0
 11
2.765625
 21
6.60325
 31
0.0
  0
LINE
  5
1B8A
100
AcDbEntity
  8
0
100
AcDbLine
 10
2.640625
 20
7.72825
 30
0.0
 11
2.765625
 21
7.72825
 31
0.0
  0
LINE
  5
1B8B
100
AcDbEntity
  8
0
100
AcDbLine
 10
2.640625
 20
7.60325
 30
0.0
 11
2.765625
 21
7.60325
 31
0.0
  0
LINE
  5
1B8C
100
AcDbEntity
  8
0
100
AcDbLine
 10
2.640625
 20
7.35325
 30
0.0
 11
2.765625
 21
7.35325
 31
0.0
  0
LINE
  5
1B8D
100
AcDbEntity
  8
0
100
AcDbLine
 10
2.640625
 20
7.47825
 30
0.0
 11
2.765625
 21
7.47825
 31
0.0
  0
LINE
  5
1B8E
100
AcDbEntity
  8
0
100
AcDbLine
 10
2.765625
 20
7.22825
 30
0.0
 11
2.765625
 21
7.10325
 31
0.0
  0
LINE
  5
1B8F
100
AcDbEntity
  8
0
100
AcDbLine
 10
2.765625
 20
6.72825
 30
0.0
 11
2.765625
 21
6.60325
 31
0.0
  0
LINE
  5
1B90
100
AcDbEntity
  8
0
100
AcDbLine
 10
2.765625
 20
6.97825
 30
0.0
 11
2.765625
 21
6.85325
 31
0.0
  0
LINE
  5
1B91
100
AcDbEntity
  8
0
100
AcDbLine
 10
2.765625
 20
7.47825
 30
0.0
 11
2.765625
 21
7.35325
 31
0.0
  0
LINE
  5
1B92
100
AcDbEntity
  8
0
100
AcDbLine
 10
2.765625
 20
7.72825
 30
0.0
 11
2.765625
 21
7.60325
 31
0.0
  0
TEXT
  5
1B93
100
AcDbEntity
  8
TEXT
100
AcDbText
 10
2.650625
 20
8.86325
 30
0.0
 40
0.1
  1
20
 41
0.7
 72
     5
 11
2.755625
 21
8.86325
 31
0.0
100
AcDbText
  0
TEXT
  5
1B94
100
AcDbEntity
  8
TEXT
100
AcDbText
 10
2.650625
 20
8.61325
 30
0.0
 40
0.1
  1
21
 41
0.7875
 72
     5
 11
2.755625
 21
8.61325
 31
0.0
100
AcDbText
  0
TEXT
  5
1B95
100
AcDbEntity
  8
TEXT
100
AcDbText
 10
2.650625
 20
8.36325
 30
0.0
 40
0.1
  1
22
 41
0.63
 72
     5
 11
2.755625
 21
8.36325
 31
0.0
100
AcDbText
  0
TEXT
  5
1B96
100
AcDbEntity
  8
TEXT
100
AcDbText
 10
2.650625
 20
8.11325
 30
0.0
 40
0.1
  1
23
 41
0.63
 72
     5
 11
2.755625
 21
8.11325
 31
0.0
100
AcDbText
  0
TEXT
  5
1B9A
100
AcDbEntity
  8
TEXT
100
AcDbText
 10
2.650625
 20
7.86325
 30
0.0
 40
0.1
  1
24
 41
0.63
 72
     5
 11
2.755625
 21
7.86325
 31
0.0
100
AcDbText
  0
LINE
  5
1B9B
100
AcDbEntity
  8
0
100
AcDbLine
 10
2.640625
 20
8.22825
 30
0.0
 11
2.765625
 21
8.22825
 31
0.0
  0
LINE
  5
1B9C
100
AcDbEntity
  8
0
100
AcDbLine
 10
2.640625
 20
8.10325
 30
0.0
 11
2.765625
 21
8.10325
 31
0.0
  0
LINE
  5
1B9D
100
AcDbEntity
  8
0
100
AcDbLine
 10
2.640625
 20
7.85325
 30
0.0
 11
2.765625
 21
7.85325
 31
0.0
  0
LINE
  5
1B9E
100
AcDbEntity
  8
0
100
AcDbLine
 10
2.640625
 20
7.97825
 30
0.0
 11
2.765625
 21
7.97825
 31
0.0
  0
LINE
  5
1B9F
100
AcDbEntity
  8
0
100
AcDbLine
 10
2.640625
 20
8.60325
 30
0.0
 11
2.765625
 21
8.60325
 31
0.0
  0
LINE
  5
1BA0
100
AcDbEntity
  8
0
100
AcDbLine
 10
2.640625
 20
8.72825
 30
0.0
 11
2.765625
 21
8.72825
 31
0.0
  0
LINE
  5
1BA1
100
AcDbEntity
  8
0
100
AcDbLine
 10
2.640625
 20
8.35325
 30
0.0
 11
2.765625
 21
8.35325
 31
0.0
  0
LINE
  5
1BA2
100
AcDbEntity
  8
0
100
AcDbLine
 10
2.640625
 20
8.47825
 30
0.0
 11
2.765625
 21
8.47825
 31
0.0
  0
LINE
  5
1BA3
100
AcDbEntity
  8
0
100
AcDbLine
 10
2.640625
 20
8.85325
 30
0.0
 11
2.765625
 21
8.85325
 31
0.0
  0
LINE
  5
1BA4
100
AcDbEntity
  8
0
100
AcDbLine
 10
2.640625
 20
8.97825
 30
0.0
 11
2.765625
 21
8.97825
 31
0.0
  0
LINE
  5
1BA5
100
AcDbEntity
  8
0
100
AcDbLine
 10
2.765625
 20
8.47825
 30
0.0
 11
2.765625
 21
8.35325
 31
0.0
  0
LINE
  5
1BA6
100
AcDbEntity
  8
0
100
AcDbLine
 10
2.765625
 20
7.97825
 30
0.0
 11
2.765625
 21
7.85325
 31
0.0
  0
LINE
  5
1BA7
100
AcDbEntity
  8
0
100
AcDbLine
 10
2.765625
 20
8.22825
 30
0.0
 11
2.765625
 21
8.10325
 31
0.0
  0
LINE
  5
1BA8
100
AcDbEntity
  8
0
100
AcDbLine
 10
2.765625
 20
8.72825
 30
0.0
 11
2.765625
 21
8.60325
 31
0.0
  0
LINE
  5
1BA9
100
AcDbEntity
  8
0
100
AcDbLine
 10
2.765625
 20
8.97825
 30
0.0
 11
2.765625
 21
8.85325
 31
0.0
  0
LINE
  5
1BAA
100
AcDbEntity
  8
0
100
AcDbLine
 10
2.640625
 20
3.72825
 30
0.0
 11
2.765625
 21
3.72825
 31
0.0
  0
LINE
  5
1BAB
100
AcDbEntity
  8
0
100
AcDbLine
 10
2.640625
 20
3.60325
 30
0.0
 11
2.765625
 21
3.60325
 31
0.0
  0
LINE
  5
1BAC
100
AcDbEntity
  8
0
100
AcDbLine
 10
2.640625
 20
3.85325
 30
0.0
 11
2.765625
 21
3.85325
 31
0.0
  0
LINE
  5
1BAD
100
AcDbEntity
  8
0
100
AcDbLine
 10
2.640625
 20
3.97825
 30
0.0
 11
2.765625
 21
3.97825
 31
0.0
  0
LINE
  5
1BAE
100
AcDbEntity
  8
0
100
AcDbLine
 10
2.640625
 20
2.85325
 30
0.0
 11
2.765625
 21
2.85325
 31
0.0
  0
LINE
  5
1BAF
100
AcDbEntity
  8
0
100
AcDbLine
 10
2.640625
 20
2.97825
 30
0.0
 11
2.765625
 21
2.97825
 31
0.0
  0
LINE
  5
1BB0
100
AcDbEntity
  8
0
100
AcDbLine
 10
2.640625
 20
3.22825
 30
0.0
 11
2.765625
 21
3.22825
 31
0.0
  0
LINE
  5
1BB1
100
AcDbEntity
  8
0
100
AcDbLine
 10
2.640625
 20
3.10325
 30
0.0
 11
2.765625
 21
3.10325
 31
0.0
  0
LINE
  5
1BB2
100
AcDbEntity
  8
0
100
AcDbLine
 10
2.640625
 20
3.35325
 30
0.0
 11
2.765625
 21
3.35325
 31
0.0
  0
LINE
  5
1BB3
100
AcDbEntity
  8
0
100
AcDbLine
 10
2.640625
 20
3.47825
 30
0.0
 11
2.765625
 21
3.47825
 31
0.0
  0
TEXT
  5
1BB4
100
AcDbEntity
  8
TEXT
100
AcDbText
 10
2.650625
 20
2.86325
 30
0.0
 40
0.1
  1
45
 41
0.63
 72
     5
 11
2.755625
 21
2.86325
 31
0.0
100
AcDbText
  0
TEXT
  5
1BB5
100
AcDbEntity
  8
TEXT
100
AcDbText
 10
2.650625
 20
3.11325
 30
0.0
 40
0.1
  1
44
 41
0.63
 72
     5
 11
2.755625
 21
3.11325
 31
0.0
100
AcDbText
  0
TEXT
  5
1BB6
100
AcDbEntity
  8
TEXT
100
AcDbText
 10
2.650625
 20
3.36325
 30
0.0
 40
0.1
  1
43
 41
0.63
 72
     5
 11
2.755625
 21
3.36325
 31
0.0
100
AcDbText
  0
TEXT
  5
1BB7
100
AcDbEntity
  8
TEXT
100
AcDbText
 10
2.650625
 20
3.61325
 30
0.0
 40
0.1
  1
42
 41
0.63
 72
     5
 11
2.755625
 21
3.61325
 31
0.0
100
AcDbText
  0
TEXT
  5
1BBB
100
AcDbEntity
  8
TEXT
100
AcDbText
 10
2.650625
 20
3.86325
 30
0.0
 40
0.1
  1
41
 41
0.7875
 72
     5
 11
2.755625
 21
3.86325
 31
0.0
100
AcDbText
  0
LINE
  5
1BBC
100
AcDbEntity
  8
0
100
AcDbLine
 10
2.765625
 20
3.47825
 30
0.0
 11
2.765625
 21
3.35325
 31
0.0
  0
LINE
  5
1BBD
100
AcDbEntity
  8
0
100
AcDbLine
 10
2.765625
 20
3.22825
 30
0.0
 11
2.765625
 21
3.10325
 31
0.0
  0
LINE
  5
1BBE
100
AcDbEntity
  8
0
100
AcDbLine
 10
2.765625
 20
2.97825
 30
0.0
 11
2.765625
 21
2.85325
 31
0.0
  0
LINE
  5
1BBF
100
AcDbEntity
  8
0
100
AcDbLine
 10
2.765625
 20
3.72825
 30
0.0
 11
2.765625
 21
3.60325
 31
0.0
  0
LINE
  5
1BC0
100
AcDbEntity
  8
0
100
AcDbLine
 10
2.765625
 20
3.97825
 30
0.0
 11
2.765625
 21
3.85325
 31
0.0
  0
LINE
  5
1BC1
100
AcDbEntity
  8
0
100
AcDbLine
 10
2.640625
 20
5.22825
 30
0.0
 11
2.765625
 21
5.22825
 31
0.0
  0
LINE
  5
1BC2
100
AcDbEntity
  8
0
100
AcDbLine
 10
2.640625
 20
5.10325
 30
0.0
 11
2.765625
 21
5.10325
 31
0.0
  0
LINE
  5
1BC3
100
AcDbEntity
  8
0
100
AcDbLine
 10
2.640625
 20
4.72825
 30
0.0
 11
2.765625
 21
4.72825
 31
0.0
  0
LINE
  5
1BC4
100
AcDbEntity
  8
0
100
AcDbLine
 10
2.640625
 20
4.60325
 30
0.0
 11
2.765625
 21
4.60325
 31
0.0
  0
LINE
  5
1BC5
100
AcDbEntity
  8
0
100
AcDbLine
 10
2.640625
 20
4.97825
 30
0.0
 11
2.765625
 21
4.97825
 31
0.0
  0
LINE
  5
1BC6
100
AcDbEntity
  8
0
100
AcDbLine
 10
2.640625
 20
4.85325
 30
0.0
 11
2.765625
 21
4.85325
 31
0.0
  0
LINE
  5
1BC7
100
AcDbEntity
  8
0
100
AcDbLine
 10
2.640625
 20
4.22825
 30
0.0
 11
2.765625
 21
4.22825
 31
0.0
  0
LINE
  5
1BC8
100
AcDbEntity
  8
0
100
AcDbLine
 10
2.640625
 20
4.10325
 30
0.0
 11
2.765625
 21
4.10325
 31
0.0
  0
LINE
  5
1BC9
100
AcDbEntity
  8
0
100
AcDbLine
 10
2.640625
 20
4.35325
 30
0.0
 11
2.765625
 21
4.35325
 31
0.0
  0
LINE
  5
1BCA
100
AcDbEntity
  8
0
100
AcDbLine
 10
2.640625
 20
4.47825
 30
0.0
 11
2.765625
 21
4.47825
 31
0.0
  0
TEXT
  5
1BCE
100
AcDbEntity
  8
TEXT
100
AcDbText
 10
2.650625
 20
4.11325
 30
0.0
 40
0.1
  1
40
 41
0.7
 72
     5
 11
2.755625
 21
4.11325
 31
0.0
100
AcDbText
  0
TEXT
  5
1BCF
100
AcDbEntity
  8
TEXT
100
AcDbText
 10
2.650625
 20
4.36325
 30
0.0
 40
0.1
  1
39
 41
0.63
 72
     5
 11
2.755625
 21
4.36325
 31
0.0
100
AcDbText
  0
TEXT
  5
1BD0
100
AcDbEntity
  8
TEXT
100
AcDbText
 10
2.650625
 20
4.61325
 30
0.0
 40
0.1
  1
38
 41
0.63
 72
     5
 11
2.755625
 21
4.61325
 31
0.0
100
AcDbText
  0
TEXT
  5
1BD1
100
AcDbEntity
  8
TEXT
100
AcDbText
 10
2.650625
 20
4.86325
 30
0.0
 40
0.1
  1
37
 41
0.63
 72
     5
 11
2.755625
 21
4.86325
 31
0.0
100
AcDbText
  0
TEXT
  5
1BD2
100
AcDbEntity
  8
TEXT
100
AcDbText
 10
2.650625
 20
5.11325
 30
0.0
 40
0.1
  1
36
 41
0.63
 72
     5
 11
2.755625
 21
5.11325
 31
0.0
100
AcDbText
  0
LINE
  5
1BD3
100
AcDbEntity
  8
0
100
AcDbLine
 10
2.765625
 20
4.72825
 30
0.0
 11
2.765625
 21
4.60325
 31
0.0
  0
LINE
  5
1BD4
100
AcDbEntity
  8
0
100
AcDbLine
 10
2.765625
 20
4.47825
 30
0.0
 11
2.765625
 21
4.35325
 31
0.0
  0
LINE
  5
1BD5
100
AcDbEntity
  8
0
100
AcDbLine
 10
2.765625
 20
4.22825
 30
0.0
 11
2.765625
 21
4.10325
 31
0.0
  0
LINE
  5
1BD6
100
AcDbEntity
  8
0
100
AcDbLine
 10
2.765625
 20
4.97825
 30
0.0
 11
2.765625
 21
4.85325
 31
0.0
  0
LINE
  5
1BD7
100
AcDbEntity
  8
0
100
AcDbLine
 10
2.765625
 20
5.22825
 30
0.0
 11
2.765625
 21
5.10325
 31
0.0
  0
LINE
  5
1BD8
100
AcDbEntity
  8
0
100
AcDbLine
 10
2.640625
 20
6.22825
 30
0.0
 11
2.765625
 21
6.22825
 31
0.0
  0
LINE
  5
1BD9
100
AcDbEntity
  8
0
100
AcDbLine
 10
2.640625
 20
6.10325
 30
0.0
 11
2.765625
 21
6.10325
 31
0.0
  0
LINE
  5
1BDA
100
AcDbEntity
  8
0
100
AcDbLine
 10
2.640625
 20
6.35325
 30
0.0
 11
2.765625
 21
6.35325
 31
0.0
  0
LINE
  5
1BDB
100
AcDbEntity
  8
0
100
AcDbLine
 10
2.640625
 20
6.47825
 30
0.0
 11
2.765625
 21
6.47825
 31
0.0
  0
LINE
  5
1BDC
100
AcDbEntity
  8
0
100
AcDbLine
 10
2.640625
 20
5.35325
 30
0.0
 11
2.765625
 21
5.35325
 31
0.0
  0
LINE
  5
1BDD
100
AcDbEntity
  8
0
100
AcDbLine
 10
2.640625
 20
5.47825
 30
0.0
 11
2.765625
 21
5.47825
 31
0.0
  0
LINE
  5
1BDE
100
AcDbEntity
  8
0
100
AcDbLine
 10
2.640625
 20
5.72825
 30
0.0
 11
2.765625
 21
5.72825
 31
0.0
  0
LINE
  5
1BDF
100
AcDbEntity
  8
0
100
AcDbLine
 10
2.640625
 20
5.60325
 30
0.0
 11
2.765625
 21
5.60325
 31
0.0
  0
LINE
  5
1BE0
100
AcDbEntity
  8
0
100
AcDbLine
 10
2.640625
 20
5.85325
 30
0.0
 11
2.765625
 21
5.85325
 31
0.0
  0
LINE
  5
1BE1
100
AcDbEntity
  8
0
100
AcDbLine
 10
2.640625
 20
5.97825
 30
0.0
 11
2.765625
 21
5.97825
 31
0.0
  0
TEXT
  5
1BE2
100
AcDbEntity
  8
TEXT
100
AcDbText
 10
2.650625
 20
5.36325
 30
0.0
 40
0.1
  1
35
 41
0.63
 72
     5
 11
2.755625
 21
5.36325
 31
0.0
100
AcDbText
  0
TEXT
  5
1BE3
100
AcDbEntity
  8
TEXT
100
AcDbText
 10
2.650625
 20
5.61325
 30
0.0
 40
0.1
  1
34
 41
0.63
 72
     5
 11
2.755625
 21
5.61325
 31
0.0
100
AcDbText
  0
TEXT
  5
1BE4
100
AcDbEntity
  8
TEXT
100
AcDbText
 10
2.650625
 20
5.86325
 30
0.0
 40
0.1
  1
33
 41
0.63
 72
     5
 11
2.755625
 21
5.86325
 31
0.0
100
AcDbText
  0
TEXT
  5
1BE5
100
AcDbEntity
  8
TEXT
100
AcDbText
 10
2.650625
 20
6.11325
 30
0.0
 40
0.1
  1
32
 41
0.63
 72
     5
 11
2.755625
 21
6.11325
 31
0.0
100
AcDbText
  0
TEXT
  5
1BE9
100
AcDbEntity
  8
TEXT
100
AcDbText
 10
2.650625
 20
6.36325
 30
0.0
 40
0.1
  1
31
 41
0.7875
 72
     5
 11
2.755625
 21
6.36325
 31
0.0
100
AcDbText
  0
LINE
  5
1BEA
100
AcDbEntity
  8
0
100
AcDbLine
 10
2.765625
 20
5.97825
 30
0.0
 11
2.765625
 21
5.85325
 31
0.0
  0
LINE
  5
1BEB
100
AcDbEntity
  8
0
100
AcDbLine
 10
2.765625
 20
5.72825
 30
0.0
 11
2.765625
 21
5.60325
 31
0.0
  0
LINE
  5
1BEC
100
AcDbEntity
  8
0
100
AcDbLine
 10
2.765625
 20
5.47825
 30
0.0
 11
2.765625
 21
5.35325
 31
0.0
  0
LINE
  5
1BED
100
AcDbEntity
  8
0
100
AcDbLine
 10
2.765625
 20
6.22825
 30
0.0
 11
2.765625
 21
6.10325
 31
0.0
  0
LINE
  5
1BEE
100
AcDbEntity
  8
0
100
AcDbLine
 10
2.765625
 20
6.47825
 30
0.0
 11
2.765625
 21
6.35325
 31
0.0
  0
LINE
  5
1BEF
100
AcDbEntity
  8
0
100
AcDbLine
 10
2.765625
 20
1.72825
 30
0.0
 11
2.765625
 21
1.60325
 31
0.0
  0
TEXT
  5
1BF0
100
AcDbEntity
  8
TEXT
100
AcDbText
 10
2.650625
 20
1.61325
 30
0.0
 40
0.1
  1
50
 41
0.7
 72
     5
 11
2.755625
 21
1.61325
 31
0.0
100
AcDbText
  0
LINE
  5
1BF1
100
AcDbEntity
  8
0
100
AcDbLine
 10
2.640625
 20
1.60325
 30
0.0
 11
2.765625
 21
1.60325
 31
0.0
  0
TEXT
  5
1BF5
100
AcDbEntity
  8
TEXT
100
AcDbText
 10
2.650625
 20
2.61325
 30
0.0
 40
0.1
  1
46
 41
0.63
 72
     5
 11
2.755625
 21
2.61325
 31
0.0
100
AcDbText
  0
TEXT
  5
1BF6
100
AcDbEntity
  8
TEXT
100
AcDbText
 10
2.650625
 20
2.36325
 30
0.0
 40
0.1
  1
47
 41
0.63
 72
     5
 11
2.755625
 21
2.36325
 31
0.0
100
AcDbText
  0
TEXT
  5
1BF7
100
AcDbEntity
  8
TEXT
100
AcDbText
 10
2.650625
 20
2.11325
 30
0.0
 40
0.1
  1
48
 41
0.63
 72
     5
 11
2.755625
 21
2.11325
 31
0.0
100
AcDbText
  0
TEXT
  5
1BF8
100
AcDbEntity
  8
TEXT
100
AcDbText
 10
2.650625
 20
1.86325
 30
0.0
 40
0.1
  1
49
 41
0.63
 72
     5
 11
2.755625
 21
1.86325
 31
0.0
100
AcDbText
  0
LINE
  5
1BF9
100
AcDbEntity
  8
0
100
AcDbLine
 10
2.640625
 20
2.22825
 30
0.0
 11
2.765625
 21
2.22825
 31
0.0
  0
LINE
  5
1BFA
100
AcDbEntity
  8
0
100
AcDbLine
 10
2.640625
 20
2.10325
 30
0.0
 11
2.765625
 21
2.10325
 31
0.0
  0
LINE
  5
1BFB
100
AcDbEntity
  8
0
100
AcDbLine
 10
2.640625
 20
1.85325
 30
0.0
 11
2.765625
 21
1.85325
 31
0.0
  0
LINE
  5
1BFC
100
AcDbEntity
  8
0
100
AcDbLine
 10
2.640625
 20
1.97825
 30
0.0
 11
2.765625
 21
1.97825
 31
0.0
  0
LINE
  5
1BFD
100
AcDbEntity
  8
0
100
AcDbLine
 10
2.640625
 20
1.72825
 30
0.0
 11
2.765625
 21
1.72825
 31
0.0
  0
LINE
  5
1BFE
100
AcDbEntity
  8
0
100
AcDbLine
 10
2.640625
 20
2.72825
 30
0.0
 11
2.765625
 21
2.72825
 31
0.0
  0
LINE
  5
1BFF
100
AcDbEntity
  8
0
100
AcDbLine
 10
2.640625
 20
2.60325
 30
0.0
 11
2.765625
 21
2.60325
 31
0.0
  0
LINE
  5
1C00
100
AcDbEntity
  8
0
100
AcDbLine
 10
2.640625
 20
2.35325
 30
0.0
 11
2.765625
 21
2.35325
 31
0.0
  0
LINE
  5
1C01
100
AcDbEntity
  8
0
100
AcDbLine
 10
2.640625
 20
2.47825
 30
0.0
 11
2.765625
 21
2.47825
 31
0.0
  0
LINE
  5
1C02
100
AcDbEntity
  8
0
100
AcDbLine
 10
2.765625
 20
1.97825
 30
0.0
 11
2.765625
 21
1.85325
 31
0.0
  0
LINE
  5
1C03
100
AcDbEntity
  8
0
100
AcDbLine
 10
2.765625
 20
2.22825
 30
0.0
 11
2.765625
 21
2.10325
 31
0.0
  0
LINE
  5
1C04
100
AcDbEntity
  8
0
100
AcDbLine
 10
2.765625
 20
2.47825
 30
0.0
 11
2.765625
 21
2.35325
 31
0.0
  0
LINE
  5
1C05
100
AcDbEntity
  8
0
100
AcDbLine
 10
2.765625
 20
2.72825
 30
0.0
 11
2.765625
 21
2.60325
 31
0.0
  0
TEXT
  5
1C08
100
AcDbEntity
  8
TEXT
100
AcDbText
 10
0.025625
 20
10.86325
 30
0.0
 40
0.1
  1
13
 41
0.7875
 72
     5
 11
0.130625
 21
10.86325
 31
0.0
100
AcDbText
  0
TEXT
  5
1C09
100
AcDbEntity
  8
TEXT
100
AcDbText
 10
0.025625
 20
11.11325
 30
0.0
 40
0.1
  1
12
 41
0.7875
 72
     5
 11
0.130625
 21
11.11325
 31
0.0
100
AcDbText
  0
TEXT
  5
1C0A
100
AcDbEntity
  8
TEXT
100
AcDbText
 10
0.025625
 20
11.36325
 30
0.0
 40
0.1
  1
11
 41
1.05
 72
     5
 11
0.130625
 21
11.36325
 31
0.0
100
AcDbText
  0
LINE
  5
1C0B
100
AcDbEntity
  8
0
100
AcDbLine
 10
0.015625
 20
11.47825
 30
0.0
 11
0.140625
 21
11.47825
 31
0.0
  0
LINE
  5
1C0C
100
AcDbEntity
  8
0
100
AcDbLine
 10
0.015625
 20
11.35325
 30
0.0
 11
0.140625
 21
11.35325
 31
0.0
  0
LINE
  5
1C0D
100
AcDbEntity
  8
0
100
AcDbLine
 10
0.015625
 20
10.97825
 30
0.0
 11
0.140625
 21
10.97825
 31
0.0
  0
LINE
  5
1C0E
100
AcDbEntity
  8
0
100
AcDbLine
 10
0.015625
 20
10.85325
 30
0.0
 11
0.140625
 21
10.85325
 31
0.0
  0
LINE
  5
1C0F
100
AcDbEntity
  8
0
100
AcDbLine
 10
0.015625
 20
11.22825
 30
0.0
 11
0.140625
 21
11.22825
 31
0.0
  0
LINE
  5
1C10
100
AcDbEntity
  8
0
100
AcDbLine
 10
0.015625
 20
11.10325
 30
0.0
 11
0.140625
 21
11.10325
 31
0.0
  0
LINE
  5
1C11
100
AcDbEntity
  8
0
100
AcDbLine
 10
0.015625
 20
10.97825
 30
0.0
 11
0.015625
 21
10.85325
 31
0.0
  0
LINE
  5
1C12
100
AcDbEntity
  8
0
100
AcDbLine
 10
0.015625
 20
11.22825
 30
0.0
 11
0.015625
 21
11.10325
 31
0.0
  0
LINE
  5
1C13
100
AcDbEntity
  8
0
100
AcDbLine
 10
0.015625
 20
11.47825
 30
0.0
 11
0.015625
 21
11.35325
 31
0.0
  0
TEXT
  5
1C14
100
AcDbEntity
  8
TEXT
100
AcDbText
 10
0.025625
 20
11.61325
 30
0.0
 40
0.1
  1
10
 41
0.9
 72
     5
 11
0.130625
 21
11.61325
 31
0.0
100
AcDbText
  0
TEXT
  5
1C15
100
AcDbEntity
  8
TEXT
100
AcDbText
 10
0.025625
 20
11.86325
 30
0.0
 40
0.1
  1
9
 41
1.575
 72
     5
 11
0.130625
 21
11.86325
 31
0.0
100
AcDbText
  0
TEXT
  5
1C16
100
AcDbEntity
  8
TEXT
100
AcDbText
 10
0.025625
 20
12.11325
 30
0.0
 40
0.1
  1
8
 41
1.575
 72
     5
 11
0.130625
 21
12.11325
 31
0.0
100
AcDbText
  0
TEXT
  5
1C17
100
AcDbEntity
  8
TEXT
100
AcDbText
 10
0.025625
 20
12.36325
 30
0.0
 40
0.1
  1
7
 41
1.575
 72
     5
 11
0.130625
 21
12.36325
 31
0.0
100
AcDbText
  0
TEXT
  5
1C18
100
AcDbEntity
  8
TEXT
100
AcDbText
 10
0.025625
 20
12.61325
 30
0.0
 40
0.1
  1
6
 41
1.575
 72
     5
 11
0.130625
 21
12.61325
 31
0.0
100
AcDbText
  0
LINE
  5
1C19
100
AcDbEntity
  8
0
100
AcDbLine
 10
0.015625
 20
12.22825
 30
0.0
 11
0.140625
 21
12.22825
 31
0.0
  0
LINE
  5
1C1A
100
AcDbEntity
  8
0
100
AcDbLine
 10
0.015625
 20
12.10325
 30
0.0
 11
0.140625
 21
12.10325
 31
0.0
  0
LINE
  5
1C1B
100
AcDbEntity
  8
0
100
AcDbLine
 10
0.015625
 20
11.85325
 30
0.0
 11
0.140625
 21
11.85325
 31
0.0
  0
LINE
  5
1C1C
100
AcDbEntity
  8
0
100
AcDbLine
 10
0.015625
 20
11.97825
 30
0.0
 11
0.140625
 21
11.97825
 31
0.0
  0
LINE
  5
1C1D
100
AcDbEntity
  8
0
100
AcDbLine
 10
0.015625
 20
11.72825
 30
0.0
 11
0.140625
 21
11.72825
 31
0.0
  0
LINE
  5
1C1E
100
AcDbEntity
  8
0
100
AcDbLine
 10
0.015625
 20
11.60325
 30
0.0
 11
0.140625
 21
11.60325
 31
0.0
  0
LINE
  5
1C1F
100
AcDbEntity
  8
0
100
AcDbLine
 10
0.015625
 20
12.72825
 30
0.0
 11
0.140625
 21
12.72825
 31
0.0
  0
LINE
  5
1C20
100
AcDbEntity
  8
0
100
AcDbLine
 10
0.015625
 20
12.60325
 30
0.0
 11
0.140625
 21
12.60325
 31
0.0
  0
LINE
  5
1C21
100
AcDbEntity
  8
0
100
AcDbLine
 10
0.015625
 20
12.35325
 30
0.0
 11
0.140625
 21
12.35325
 31
0.0
  0
LINE
  5
1C22
100
AcDbEntity
  8
0
100
AcDbLine
 10
0.015625
 20
12.47825
 30
0.0
 11
0.140625
 21
12.47825
 31
0.0
  0
LINE
  5
1C23
100
AcDbEntity
  8
0
100
AcDbLine
 10
0.015625
 20
12.22825
 30
0.0
 11
0.015625
 21
12.10325
 31
0.0
  0
LINE
  5
1C24
100
AcDbEntity
  8
0
100
AcDbLine
 10
0.015625
 20
11.72825
 30
0.0
 11
0.015625
 21
11.60325
 31
0.0
  0
LINE
  5
1C25
100
AcDbEntity
  8
0
100
AcDbLine
 10
0.015625
 20
11.97825
 30
0.0
 11
0.015625
 21
11.85325
 31
0.0
  0
LINE
  5
1C26
100
AcDbEntity
  8
0
100
AcDbLine
 10
0.015625
 20
12.47825
 30
0.0
 11
0.015625
 21
12.35325
 31
0.0
  0
LINE
  5
1C27
100
AcDbEntity
  8
0
100
AcDbLine
 10
0.015625
 20
12.72825
 30
0.0
 11
0.015625
 21
12.60325
 31
0.0
  0
TEXT
  5
1C28
100
AcDbEntity
  8
TEXT
100
AcDbText
 10
0.025625
 20
12.86325
 30
0.0
 40
0.1
  1
5
 41
1.575
 72
     5
 11
0.130625
 21
12.86325
 31
0.0
100
AcDbText
  0
TEXT
  5
1C29
100
AcDbEntity
  8
TEXT
100
AcDbText
 10
0.025625
 20
13.11325
 30
0.0
 40
0.1
  1
4
 41
1.575
 72
     5
 11
0.130625
 21
13.11325
 31
0.0
100
AcDbText
  0
TEXT
  5
1C2A
100
AcDbEntity
  8
TEXT
100
AcDbText
 10
0.025625
 20
13.36325
 30
0.0
 40
0.1
  1
3
 41
1.575
 72
     5
 11
0.130625
 21
13.36325
 31
0.0
100
AcDbText
  0
TEXT
  5
1C2B
100
AcDbEntity
  8
TEXT
100
AcDbText
 10
0.025625
 20
13.61325
 30
0.0
 40
0.1
  1
2
 41
1.575
 72
     5
 11
0.130625
 21
13.61325
 31
0.0
100
AcDbText
  0
TEXT
  5
1C2C
100
AcDbEntity
  8
TEXT
100
AcDbText
 10
0.025625
 20
13.86325
 30
0.0
 40
0.1
  1
1
 41
3.15
 72
     5
 11
0.130625
 21
13.86325
 31
0.0
100
AcDbText
  0
LINE
  5
1C2D
100
AcDbEntity
  8
0
100
AcDbLine
 10
0.015625
 20
13.22825
 30
0.0
 11
0.140625
 21
13.22825
 31
0.0
  0
LINE
  5
1C2E
100
AcDbEntity
  8
0
100
AcDbLine
 10
0.015625
 20
13.10325
 30
0.0
 11
0.140625
 21
13.10325
 31
0.0
  0
LINE
  5
1C2F
100
AcDbEntity
  8
0
100
AcDbLine
 10
0.015625
 20
12.85325
 30
0.0
 11
0.140625
 21
12.85325
 31
0.0
  0
LINE
  5
1C30
100
AcDbEntity
  8
0
100
AcDbLine
 10
0.015625
 20
12.97825
 30
0.0
 11
0.140625
 21
12.97825
 31
0.0
  0
LINE
  5
1C31
100
AcDbEntity
  8
0
100
AcDbLine
 10
0.015625
 20
13.60325
 30
0.0
 11
0.140625
 21
13.60325
 31
0.0
  0
LINE
  5
1C32
100
AcDbEntity
  8
0
100
AcDbLine
 10
0.015625
 20
13.72825
 30
0.0
 11
0.140625
 21
13.72825
 31
0.0
  0
LINE
  5
1C33
100
AcDbEntity
  8
0
100
AcDbLine
 10
0.015625
 20
13.35325
 30
0.0
 11
0.140625
 21
13.35325
 31
0.0
  0
LINE
  5
1C34
100
AcDbEntity
  8
0
100
AcDbLine
 10
0.015625
 20
13.47825
 30
0.0
 11
0.140625
 21
13.47825
 31
0.0
  0
LINE
  5
1C35
100
AcDbEntity
  8
0
100
AcDbLine
 10
0.015625
 20
13.85325
 30
0.0
 11
0.140625
 21
13.85325
 31
0.0
  0
LINE
  5
1C36
100
AcDbEntity
  8
0
100
AcDbLine
 10
0.015625
 20
13.97825
 30
0.0
 11
0.140625
 21
13.97825
 31
0.0
  0
LINE
  5
1C37
100
AcDbEntity
  8
0
100
AcDbLine
 10
0.015625
 20
13.47825
 30
0.0
 11
0.015625
 21
13.35325
 31
0.0
  0
LINE
  5
1C38
100
AcDbEntity
  8
0
100
AcDbLine
 10
0.015625
 20
12.97825
 30
0.0
 11
0.015625
 21
12.85325
 31
0.0
  0
LINE
  5
1C39
100
AcDbEntity
  8
0
100
AcDbLine
 10
0.015625
 20
13.22825
 30
0.0
 11
0.015625
 21
13.10325
 31
0.0
  0
LINE
  5
1C3A
100
AcDbEntity
  8
0
100
AcDbLine
 10
0.015625
 20
13.72825
 30
0.0
 11
0.015625
 21
13.60325
 31
0.0
  0
LINE
  5
1C3B
100
AcDbEntity
  8
0
100
AcDbLine
 10
0.015625
 20
13.97825
 30
0.0
 11
0.015625
 21
13.85325
 31
0.0
  0
TEXT
  5
1C3C
100
AcDbEntity
  8
TEXT
100
AcDbText
 10
0.025625
 20
9.11325
 30
0.0
 40
0.1
  1
20
 41
0.7
 72
     5
 11
0.130625
 21
9.11325
 31
0.0
100
AcDbText
  0
LINE
  5
1C3D
100
AcDbEntity
  8
0
100
AcDbLine
 10
0.015625
 20
9.22825
 30
0.0
 11
0.140625
 21
9.22825
 31
0.0
  0
LINE
  5
1C3E
100
AcDbEntity
  8
0
100
AcDbLine
 10
0.015625
 20
9.10325
 30
0.0
 11
0.140625
 21
9.10325
 31
0.0
  0
LINE
  5
1C3F
100
AcDbEntity
  8
0
100
AcDbLine
 10
0.015625
 20
9.22825
 30
0.0
 11
0.015625
 21
9.10325
 31
0.0
  0
TEXT
  5
1C40
100
AcDbEntity
  8
TEXT
100
AcDbText
 10
0.025625
 20
9.36325
 30
0.0
 40
0.1
  1
19
 41
0.7875
 72
     5
 11
0.130625
 21
9.36325
 31
0.0
100
AcDbText
  0
TEXT
  5
1C41
100
AcDbEntity
  8
TEXT
100
AcDbText
 10
0.025625
 20
9.61325
 30
0.0
 40
0.1
  1
18
 41
0.7875
 72
     5
 11
0.130625
 21
9.61325
 31
0.0
100
AcDbText
  0
TEXT
  5
1C42
100
AcDbEntity
  8
TEXT
100
AcDbText
 10
0.025625
 20
9.86325
 30
0.0
 40
0.1
  1
17
 41
0.7875
 72
     5
 11
0.130625
 21
9.86325
 31
0.0
100
AcDbText
  0
TEXT
  5
1C43
100
AcDbEntity
  8
TEXT
100
AcDbText
 10
0.025625
 20
10.11325
 30
0.0
 40
0.1
  1
16
 41
0.7875
 72
     5
 11
0.130625
 21
10.11325
 31
0.0
100
AcDbText
  0
TEXT
  5
1C44
100
AcDbEntity
  8
TEXT
100
AcDbText
 10
0.025625
 20
10.36325
 30
0.0
 40
0.1
  1
15
 41
0.7875
 72
     5
 11
0.130625
 21
10.36325
 31
0.0
100
AcDbText
  0
LINE
  5
1C45
100
AcDbEntity
  8
0
100
AcDbLine
 10
0.015625
 20
10.22825
 30
0.0
 11
0.140625
 21
10.22825
 31
0.0
  0
LINE
  5
1C46
100
AcDbEntity
  8
0
100
AcDbLine
 10
0.015625
 20
10.10325
 30
0.0
 11
0.140625
 21
10.10325
 31
0.0
  0
LINE
  5
1C47
100
AcDbEntity
  8
0
100
AcDbLine
 10
0.015625
 20
10.35325
 30
0.0
 11
0.140625
 21
10.35325
 31
0.0
  0
LINE
  5
1C48
100
AcDbEntity
  8
0
100
AcDbLine
 10
0.015625
 20
10.47825
 30
0.0
 11
0.140625
 21
10.47825
 31
0.0
  0
LINE
  5
1C49
100
AcDbEntity
  8
0
100
AcDbLine
 10
0.015625
 20
9.35325
 30
0.0
 11
0.140625
 21
9.35325
 31
0.0
  0
LINE
  5
1C4A
100
AcDbEntity
  8
0
100
AcDbLine
 10
0.015625
 20
9.47825
 30
0.0
 11
0.140625
 21
9.47825
 31
0.0
  0
LINE
  5
1C4B
100
AcDbEntity
  8
0
100
AcDbLine
 10
0.015625
 20
9.72825
 30
0.0
 11
0.140625
 21
9.72825
 31
0.0
  0
LINE
  5
1C4C
100
AcDbEntity
  8
0
100
AcDbLine
 10
0.015625
 20
9.60325
 30
0.0
 11
0.140625
 21
9.60325
 31
0.0
  0
LINE
  5
1C4D
100
AcDbEntity
  8
0
100
AcDbLine
 10
0.015625
 20
9.85325
 30
0.0
 11
0.140625
 21
9.85325
 31
0.0
  0
LINE
  5
1C4E
100
AcDbEntity
  8
0
100
AcDbLine
 10
0.015625
 20
9.97825
 30
0.0
 11
0.140625
 21
9.97825
 31
0.0
  0
LINE
  5
1C4F
100
AcDbEntity
  8
0
100
AcDbLine
 10
0.015625
 20
9.97825
 30
0.0
 11
0.015625
 21
9.85325
 31
0.0
  0
LINE
  5
1C50
100
AcDbEntity
  8
0
100
AcDbLine
 10
0.015625
 20
9.72825
 30
0.0
 11
0.015625
 21
9.60325
 31
0.0
  0
LINE
  5
1C51
100
AcDbEntity
  8
0
100
AcDbLine
 10
0.015625
 20
9.47825
 30
0.0
 11
0.015625
 21
9.35325
 31
0.0
  0
LINE
  5
1C52
100
AcDbEntity
  8
0
100
AcDbLine
 10
0.015625
 20
10.22825
 30
0.0
 11
0.015625
 21
10.10325
 31
0.0
  0
LINE
  5
1C53
100
AcDbEntity
  8
0
100
AcDbLine
 10
0.015625
 20
10.47825
 30
0.0
 11
0.015625
 21
10.35325
 31
0.0
  0
TEXT
  5
1C54
100
AcDbEntity
  8
TEXT
100
AcDbText
 10
0.025625
 20
10.61325
 30
0.0
 40
0.1
  1
14
 41
0.7875
 72
     5
 11
0.130625
 21
10.61325
 31
0.0
100
AcDbText
  0
LINE
  5
1C55
100
AcDbEntity
  8
0
100
AcDbLine
 10
0.015625
 20
10.72825
 30
0.0
 11
0.140625
 21
10.72825
 31
0.0
  0
LINE
  5
1C56
100
AcDbEntity
  8
0
100
AcDbLine
 10
0.015625
 20
10.60325
 30
0.0
 11
0.140625
 21
10.60325
 31
0.0
  0
LINE
  5
1C57
100
AcDbEntity
  8
0
100
AcDbLine
 10
0.015625
 20
10.72825
 30
0.0
 11
0.015625
 21
10.60325
 31
0.0
  0
LINE
  5
1C60
100
AcDbEntity
  8
0
100
AcDbLine
 10
0.015625
 20
6.97825
 30
0.0
 11
0.015625
 21
6.85325
 31
0.0
  0
TEXT
  5
1C61
100
AcDbEntity
  8
TEXT
100
AcDbText
 10
0.025625
 20
6.86325
 30
0.0
 40
0.1
  1
8
 41
1.575
 72
     5
 11
0.130625
 21
6.86325
 31
0.0
100
AcDbText
  0
LINE
  5
1C66
100
AcDbEntity
  8
0
100
AcDbLine
 10
0.015625
 20
6.72825
 30
0.0
 11
0.140625
 21
6.72825
 31
0.0
  0
LINE
  5
1C67
100
AcDbEntity
  8
0
100
AcDbLine
 10
0.015625
 20
6.60325
 30
0.0
 11
0.140625
 21
6.60325
 31
0.0
  0
LINE
  5
1C68
100
AcDbEntity
  8
0
100
AcDbLine
 10
0.015625
 20
6.85325
 30
0.0
 11
0.140625
 21
6.85325
 31
0.0
  0
TEXT
  5
1C69
100
AcDbEntity
  8
TEXT
100
AcDbText
 10
0.025625
 20
6.61325
 30
0.0
 40
0.1
  1
9
 41
1.575
 72
     5
 11
0.130625
 21
6.61325
 31
0.0
100
AcDbText
  0
LINE
  5
1C6A
100
AcDbEntity
  8
0
100
AcDbLine
 10
0.015625
 20
6.72825
 30
0.0
 11
0.015625
 21
6.60325
 31
0.0
  0
LINE
  5
1C6B
100
AcDbEntity
  8
0
100
AcDbLine
 10
0.015625
 20
7.22825
 30
0.0
 11
0.015625
 21
7.10325
 31
0.0
  0
TEXT
  5
1C6C
100
AcDbEntity
  8
TEXT
100
AcDbText
 10
0.025625
 20
7.11325
 30
0.0
 40
0.1
  1
7
 41
1.575
 72
     5
 11
0.130625
 21
7.11325
 31
0.0
100
AcDbText
  0
LINE
  5
1C6D
100
AcDbEntity
  8
0
100
AcDbLine
 10
0.015625
 20
7.10325
 30
0.0
 11
0.140625
 21
7.10325
 31
0.0
  0
LINE
  5
1C6E
100
AcDbEntity
  8
0
100
AcDbLine
 10
0.015625
 20
6.97825
 30
0.0
 11
0.140625
 21
6.97825
 31
0.0
  0
LINE
  5
1C6F
100
AcDbEntity
  8
0
100
AcDbLine
 10
0.015625
 20
7.22825
 30
0.0
 11
0.140625
 21
7.22825
 31
0.0
  0
LINE
  5
1C70
100
AcDbEntity
  8
0
100
AcDbLine
 10
0.015625
 20
7.35325
 30
0.0
 11
0.140625
 21
7.35325
 31
0.0
  0
LINE
  5
1C71
100
AcDbEntity
  8
0
100
AcDbLine
 10
0.015625
 20
7.47825
 30
0.0
 11
0.140625
 21
7.47825
 31
0.0
  0
TEXT
  5
1C72
100
AcDbEntity
  8
TEXT
100
AcDbText
 10
0.025625
 20
7.36325
 30
0.0
 40
0.1
  1
6
 41
1.575
 72
     5
 11
0.130625
 21
7.36325
 31
0.0
100
AcDbText
  0
LINE
  5
1C73
100
AcDbEntity
  8
0
100
AcDbLine
 10
0.015625
 20
7.47825
 30
0.0
 11
0.015625
 21
7.35325
 31
0.0
  0
LINE
  5
1C74
100
AcDbEntity
  8
0
100
AcDbLine
 10
0.015625
 20
8.22825
 30
0.0
 11
0.015625
 21
8.10325
 31
0.0
  0
TEXT
  5
1C75
100
AcDbEntity
  8
TEXT
100
AcDbText
 10
0.025625
 20
8.11325
 30
0.0
 40
0.1
  1
3
 41
1.575
 72
     5
 11
0.130625
 21
8.11325
 31
0.0
100
AcDbText
  0
LINE
  5
1C76
100
AcDbEntity
  8
0
100
AcDbLine
 10
0.015625
 20
7.72825
 30
0.0
 11
0.140625
 21
7.72825
 31
0.0
  0
LINE
  5
1C77
100
AcDbEntity
  8
0
100
AcDbLine
 10
0.015625
 20
7.60325
 30
0.0
 11
0.140625
 21
7.60325
 31
0.0
  0
TEXT
  5
1C78
100
AcDbEntity
  8
TEXT
100
AcDbText
 10
0.025625
 20
7.61325
 30
0.0
 40
0.1
  1
5
 41
1.575
 72
     5
 11
0.130625
 21
7.61325
 31
0.0
100
AcDbText
  0
LINE
  5
1C79
100
AcDbEntity
  8
0
100
AcDbLine
 10
0.015625
 20
7.72825
 30
0.0
 11
0.015625
 21
7.60325
 31
0.0
  0
LINE
  5
1C7A
100
AcDbEntity
  8
0
100
AcDbLine
 10
0.015625
 20
8.10325
 30
0.0
 11
0.140625
 21
8.10325
 31
0.0
  0
LINE
  5
1C7B
100
AcDbEntity
  8
0
100
AcDbLine
 10
0.015625
 20
7.85325
 30
0.0
 11
0.140625
 21
7.85325
 31
0.0
  0
LINE
  5
1C7C
100
AcDbEntity
  8
0
100
AcDbLine
 10
0.015625
 20
7.97825
 30
0.0
 11
0.140625
 21
7.97825
 31
0.0
  0
TEXT
  5
1C7D
100
AcDbEntity
  8
TEXT
100
AcDbText
 10
0.025625
 20
7.86325
 30
0.0
 40
0.1
  1
4
 41
1.575
 72
     5
 11
0.130625
 21
7.86325
 31
0.0
100
AcDbText
  0
LINE
  5
1C7E
100
AcDbEntity
  8
0
100
AcDbLine
 10
0.015625
 20
7.97825
 30
0.0
 11
0.015625
 21
7.85325
 31
0.0
  0
LINE
  5
1C7F
100
AcDbEntity
  8
0
100
AcDbLine
 10
0.015625
 20
8.47825
 30
0.0
 11
0.015625
 21
8.35325
 31
0.0
  0
TEXT
  5
1C80
100
AcDbEntity
  8
TEXT
100
AcDbText
 10
0.025625
 20
8.36325
 30
0.0
 40
0.1
  1
2
 41
1.575
 72
     5
 11
0.130625
 21
8.36325
 31
0.0
100
AcDbText
  0
LINE
  5
1C81
100
AcDbEntity
  8
0
100
AcDbLine
 10
0.015625
 20
8.22825
 30
0.0
 11
0.140625
 21
8.22825
 31
0.0
  0
LINE
  5
1C82
100
AcDbEntity
  8
0
100
AcDbLine
 10
0.015625
 20
8.35325
 30
0.0
 11
0.140625
 21
8.35325
 31
0.0
  0
LINE
  5
1C83
100
AcDbEntity
  8
0
100
AcDbLine
 10
0.015625
 20
8.72825
 30
0.0
 11
0.140625
 21
8.72825
 31
0.0
  0
LINE
  5
1C84
100
AcDbEntity
  8
0
100
AcDbLine
 10
0.015625
 20
8.60325
 30
0.0
 11
0.140625
 21
8.60325
 31
0.0
  0
LINE
  5
1C85
100
AcDbEntity
  8
0
100
AcDbLine
 10
0.015625
 20
8.47825
 30
0.0
 11
0.140625
 21
8.47825
 31
0.0
  0
TEXT
  5
1C86
100
AcDbEntity
  8
TEXT
100
AcDbText
 10
0.025625
 20
8.61325
 30
0.0
 40
0.1
  1
1
 41
3.15
 72
     5
 11
0.130625
 21
8.61325
 31
0.0
100
AcDbText
  0
LINE
  5
1C87
100
AcDbEntity
  8
0
100
AcDbLine
 10
0.015625
 20
8.72825
 30
0.0
 11
0.015625
 21
8.60325
 31
0.0
  0
TEXT
  5
1C94
100
AcDbEntity
  8
TEXT
100
AcDbText
 10
6.425625
 20
8.36325
 30
0.0
 40
0.1
  1
1
 41
3.15
 72
     5
 11
6.530625
 21
8.36325
 31
0.0
100
AcDbText
  0
LINE
  5
1C95
100
AcDbEntity
  8
0
100
AcDbLine
 10
6.415625
 20
8.47825
 30
0.0
 11
6.415625
 21
8.35325
 31
0.0
  0
TEXT
  5
1C96
100
AcDbEntity
  8
TEXT
100
AcDbText
 10
6.425625
 20
8.11325
 30
0.0
 40
0.1
  1
2
 41
1.575
 72
     5
 11
6.530625
 21
8.11325
 31
0.0
100
AcDbText
  0
LINE
  5
1C97
100
AcDbEntity
  8
0
100
AcDbLine
 10
6.415625
 20
8.22825
 30
0.0
 11
6.415625
 21
8.10325
 31
0.0
  0
LINE
  5
1C9B
100
AcDbEntity
  8
0
100
AcDbLine
 10
6.415625
 20
8.10325
 30
0.0
 11
6.540625
 21
8.10325
 31
0.0
  0
LINE
  5
1C9D
100
AcDbEntity
  8
0
100
AcDbLine
 10
6.415625
 20
8.35325
 30
0.0
 11
6.540625
 21
8.35325
 31
0.0
  0
LINE
  5
1C9E
100
AcDbEntity
  8
0
100
AcDbLine
 10
6.415625
 20
8.22825
 30
0.0
 11
6.540625
 21
8.22825
 31
0.0
  0
LINE
  5
1CA0
100
AcDbEntity
  8
0
100
AcDbLine
 10
6.415625
 20
8.47825
 30
0.0
 11
6.540625
 21
8.47825
 31
0.0
  0
LINE
  5
1CA4
100
AcDbEntity
  8
0
100
AcDbLine
 10
6.415625
 20
11.47825
 30
0.0
 11
6.415625
 21
11.35325
 31
0.0
  0
TEXT
  5
1CA5
100
AcDbEntity
  8
TEXT
100
AcDbText
 10
6.425625
 20
11.36325
 30
0.0
 40
0.1
  1
21
 41
0.7875
 72
     5
 11
6.530625
 21
11.36325
 31
0.0
100
AcDbText
  0
LINE
  5
1CA6
100
AcDbEntity
  8
0
100
AcDbLine
 10
6.415625
 20
11.35325
 30
0.0
 11
6.540625
 21
11.35325
 31
0.0
  0
TEXT
  5
1CA7
100
AcDbEntity
  8
TEXT
100
AcDbText
 10
6.425625
 20
11.11325
 30
0.0
 40
0.1
  1
22
 41
0.63
 72
     5
 11
6.530625
 21
11.11325
 31
0.0
100
AcDbText
  0
LINE
  5
1CA8
100
AcDbEntity
  8
0
100
AcDbLine
 10
6.415625
 20
11.22825
 30
0.0
 11
6.540625
 21
11.22825
 31
0.0
  0
LINE
  5
1CA9
100
AcDbEntity
  8
0
100
AcDbLine
 10
6.415625
 20
11.10325
 30
0.0
 11
6.540625
 21
11.10325
 31
0.0
  0
LINE
  5
1CAA
100
AcDbEntity
  8
0
100
AcDbLine
 10
6.415625
 20
11.22825
 30
0.0
 11
6.415625
 21
11.10325
 31
0.0
  0
LINE
  5
1CAB
100
AcDbEntity
  8
0
100
AcDbLine
 10
6.415625
 20
11.47825
 30
0.0
 11
6.540625
 21
11.47825
 31
0.0
  0
TEXT
  5
1CB0
100
AcDbEntity
  8
TEXT
100
AcDbText
 10
6.425625
 20
11.61325
 30
0.0
 40
0.1
  1
20
 41
0.7
 72
     5
 11
6.530625
 21
11.61325
 31
0.0
100
AcDbText
  0
LINE
  5
1CB1
100
AcDbEntity
  8
0
100
AcDbLine
 10
6.415625
 20
11.72825
 30
0.0
 11
6.415625
 21
11.60325
 31
0.0
  0
LINE
  5
1CB2
100
AcDbEntity
  8
0
100
AcDbLine
 10
6.415625
 20
11.60325
 30
0.0
 11
6.540625
 21
11.60325
 31
0.0
  0
LINE
  5
1CB3
100
AcDbEntity
  8
0
100
AcDbLine
 10
6.415625
 20
11.97825
 30
0.0
 11
6.540625
 21
11.97825
 31
0.0
  0
LINE
  5
1CB4
100
AcDbEntity
  8
0
100
AcDbLine
 10
6.415625
 20
11.72825
 30
0.0
 11
6.540625
 21
11.72825
 31
0.0
  0
LINE
  5
1CB5
100
AcDbEntity
  8
0
100
AcDbLine
 10
6.415625
 20
11.85325
 30
0.0
 11
6.540625
 21
11.85325
 31
0.0
  0
TEXT
  5
1CB6
100
AcDbEntity
  8
TEXT
100
AcDbText
 10
6.425625
 20
11.86325
 30
0.0
 40
0.1
  1
19
 41
0.7875
 72
     5
 11
6.530625
 21
11.86325
 31
0.0
100
AcDbText
  0
LINE
  5
1CB7
100
AcDbEntity
  8
0
100
AcDbLine
 10
6.415625
 20
11.97825
 30
0.0
 11
6.415625
 21
11.85325
 31
0.0
  0
TEXT
  5
1CB8
100
AcDbEntity
  8
TEXT
100
AcDbText
 10
6.425625
 20
12.11325
 30
0.0
 40
0.1
  1
18
 41
0.7875
 72
     5
 11
6.530625
 21
12.11325
 31
0.0
100
AcDbText
  0
LINE
  5
1CB9
100
AcDbEntity
  8
0
100
AcDbLine
 10
6.415625
 20
12.22825
 30
0.0
 11
6.540625
 21
12.22825
 31
0.0
  0
LINE
  5
1CBA
100
AcDbEntity
  8
0
100
AcDbLine
 10
6.415625
 20
12.10325
 30
0.0
 11
6.540625
 21
12.10325
 31
0.0
  0
LINE
  5
1CBB
100
AcDbEntity
  8
0
100
AcDbLine
 10
6.415625
 20
12.22825
 30
0.0
 11
6.415625
 21
12.10325
 31
0.0
  0
TEXT
  5
1CBC
100
AcDbEntity
  8
TEXT
100
AcDbText
 10
6.425625
 20
12.36325
 30
0.0
 40
0.1
  1
17
 41
0.7875
 72
     5
 11
6.530625
 21
12.36325
 31
0.0
100
AcDbText
  0
LINE
  5
1CBD
100
AcDbEntity
  8
0
100
AcDbLine
 10
6.415625
 20
12.35325
 30
0.0
 11
6.540625
 21
12.35325
 31
0.0
  0
LINE
  5
1CBE
100
AcDbEntity
  8
0
100
AcDbLine
 10
6.415625
 20
12.47825
 30
0.0
 11
6.540625
 21
12.47825
 31
0.0
  0
LINE
  5
1CBF
100
AcDbEntity
  8
0
100
AcDbLine
 10
6.415625
 20
12.47825
 30
0.0
 11
6.415625
 21
12.35325
 31
0.0
  0
LINE
  5
1CCA
100
AcDbEntity
  8
0
100
AcDbLine
 10
6.415625
 20
1.85325
 30
0.0
 11
6.540625
 21
1.85325
 31
0.0
  0
LINE
  5
1CCB
100
AcDbEntity
  8
0
100
AcDbLine
 10
6.415625
 20
1.97825
 30
0.0
 11
6.540625
 21
1.97825
 31
0.0
  0
TEXT
  5
1CCC
100
AcDbEntity
  8
TEXT
100
AcDbText
 10
6.425625
 20
1.86325
 30
0.0
 40
0.1
  1
36
 41
0.63
 72
     5
 11
6.530625
 21
1.86325
 31
0.0
100
AcDbText
  0
LINE
  5
1CCD
100
AcDbEntity
  8
0
100
AcDbLine
 10
6.415625
 20
1.91575
 30
0.0
 11
6.290625
 21
1.91575
 31
0.0
  0
LINE
  5
1CCE
100
AcDbEntity
  8
0
100
AcDbLine
 10
6.415625
 20
1.97825
 30
0.0
 11
6.415625
 21
1.85325
 31
0.0
  0
LINE
  5
1CCF
100
AcDbEntity
  8
0
100
AcDbLine
 10
6.415625
 20
2.22825
 30
0.0
 11
6.540625
 21
2.22825
 31
0.0
  0
LINE
  5
1CD0
100
AcDbEntity
  8
0
100
AcDbLine
 10
6.415625
 20
2.10325
 30
0.0
 11
6.540625
 21
2.10325
 31
0.0
  0
TEXT
  5
1CD1
100
AcDbEntity
  8
TEXT
100
AcDbText
 10
6.425625
 20
2.11325
 30
0.0
 40
0.1
  1
35
 41
0.63
 72
     5
 11
6.530625
 21
2.11325
 31
0.0
100
AcDbText
  0
LINE
  5
1CD3
100
AcDbEntity
  8
0
100
AcDbLine
 10
6.415625
 20
2.22825
 30
0.0
 11
6.415625
 21
2.10325
 31
0.0
  0
LINE
  5
1CEA
100
AcDbEntity
  8
0
100
AcDbLine
 10
2.765625
 20
9.16575
 30
0.0
 11
4.640625
 21
9.16575
 31
0.0
  0
LINE
  5
1CEB
100
AcDbEntity
  8
0
100
AcDbLine
 10
2.765625
 20
9.41575
 30
0.0
 11
4.640625
 21
9.41575
 31
0.0
  0
LINE
  5
1CEC
100
AcDbEntity
  8
0
100
AcDbLine
 10
2.765625
 20
9.66575
 30
0.0
 11
4.640625
 21
9.66575
 31
0.0
  0
LINE
  5
1CED
100
AcDbEntity
  8
0
100
AcDbLine
 10
2.765625
 20
9.91575
 30
0.0
 11
4.640625
 21
9.91575
 31
0.0
  0
LINE
  5
1CEE
100
AcDbEntity
  8
0
100
AcDbLine
 10
2.765625
 20
10.16575
 30
0.0
 11
4.640625
 21
10.16575
 31
0.0
  0
LINE
  5
1CEF
100
AcDbEntity
  8
0
100
AcDbLine
 10
2.765625
 20
10.41575
 30
0.0
 11
4.640625
 21
10.41575
 31
0.0
  0
ENDSEC
  0
SECTION
  2
OBJECTS
  0
DICTIONARY
  5
C
100
AcDbDictionary
  3
ACAD_GROUP
350
D
  3
ACAD_MLINESTYLE
350
E
  0
DICTIONARY
  5
D
102
{ACAD_REACTORS
330
C
102
}
100
AcDbDictionary
  0
DICTIONARY
  5
E
102
{ACAD_REACTORS
330
C
102
}
100
AcDbDictionary
  3
STANDARD
350
1B
  0
MLINESTYLE
  5
1B
102
{ACAD_REACTORS
330
E
102
}
100
AcDbMlineStyle
  2
STANDARD
 70
     0
  3

 62
     0
 51
90.0
 52
90.0
 71
     2
 49
0.5
 62
   256
  6
BYLAYER
 49
-0.5
 62
   256
  6
BYLAYER
  0
ENDSEC
  0
EOF
