  0
SECTION
  2
HEADER
  9
$ACADVER
  1
AC1012
  9
$DWGCODEPAGE
  3
ANSI_1252
  9
$INSBASE
 10
0.0
 20
0.0
 30
0.0
  9
$EXTMIN
 10
0.913203
 20
1.54075
 30
0.0
  9
$EXTMAX
 10
8.279609
 20
15.197
 30
0.0
  9
$LIMMIN
 10
0.0
 20
0.0
  9
$LIMMAX
 10
12.0
 20
9.0
  9
$ORTHOMODE
 70
     1
  9
$REGENMODE
 70
     1
  9
$FILLMODE
 70
     1
  9
$QTEXTMODE
 70
     0
  9
$MIRRTEXT
 70
     0
  9
$DRAGMODE
 70
     2
  9
$LTSCALE
 40
0.5
  9
$OSMODE
 70
     0
  9
$ATTMODE
 70
     1
  9
$TEXTSIZE
 40
0.1
  9
$TRACEWID
 40
0.05
  9
$TEXTSTYLE
  7
STANDARD
  9
$CLAYER
  8
0
  9
$CELTYPE
  6
BYLAYER
  9
$CECOLOR
 62
   256
  9
$CELTSCALE
 40
1.0
  9
$DELOBJ
 70
     1
  9
$DISPSILH
 70
     0
  9
$DIMSCALE
 40
1.0
  9
$DIMASZ
 40
0.18
  9
$DIMEXO
 40
0.0625
  9
$DIMDLI
 40
0.38
  9
$DIMRND
 40
0.0
  9
$DIMDLE
 40
0.0
  9
$DIMEXE
 40
0.18
  9
$DIMTP
 40
0.0
  9
$DIMTM
 40
0.0
  9
$DIMTXT
 40
0.18
  9
$DIMCEN
 40
0.09
  9
$DIMTSZ
 40
0.0
  9
$DIMTOL
 70
     0
  9
$DIMLIM
 70
     0
  9
$DIMTIH
 70
     1
  9
$DIMTOH
 70
     1
  9
$DIMSE1
 70
     0
  9
$DIMSE2
 70
     0
  9
$DIMTAD
 70
     0
  9
$DIMZIN
 70
     0
  9
$DIMBLK
  1

  9
$DIMASO
 70
     1
  9
$DIMSHO
 70
     1
  9
$DIMPOST
  1

  9
$DIMAPOST
  1

  9
$DIMALT
 70
     0
  9
$DIMALTD
 70
     2
  9
$DIMALTF
 40
25.4
  9
$DIMLFAC
 40
1.0
  9
$DIMTOFL
 70
     0
  9
$DIMTVP
 40
0.0
  9
$DIMTIX
 70
     0
  9
$DIMSOXD
 70
     0
  9
$DIMSAH
 70
     0
  9
$DIMBLK1
  1

  9
$DIMBLK2
  1

  9
$DIMSTYLE
  2
STANDARD
  9
$DIMCLRD
 70
     0
  9
$DIMCLRE
 70
     0
  9
$DIMCLRT
 70
     0
  9
$DIMTFAC
 40
1.0
  9
$DIMGAP
 40
0.09
  9
$DIMJUST
 70
     0
  9
$DIMSD1
 70
     0
  9
$DIMSD2
 70
     0
  9
$DIMTOLJ
 70
     1
  9
$DIMTZIN
 70
     0
  9
$DIMALTZ
 70
     0
  9
$DIMALTTZ
 70
     0
  9
$DIMFIT
 70
     3
  9
$DIMUPT
 70
     0
  9
$DIMUNIT
 70
     2
  9
$DIMDEC
 70
     4
  9
$DIMTDEC
 70
     4
  9
$DIMALTU
 70
     2
  9
$DIMALTTD
 70
     2
  9
$DIMTXSTY
  7
STANDARD
  9
$DIMAUNIT
 70
     0
  9
$LUNITS
 70
     2
  9
$LUPREC
 70
     4
  9
$SKETCHINC
 40
0.1
  9
$FILLETRAD
 40
0.125
  9
$AUNITS
 70
     0
  9
$AUPREC
 70
     0
  9
$MENU
  1
acad
  9
$ELEVATION
 40
0.0
  9
$PELEVATION
 40
0.0
  9
$THICKNESS
 40
0.0
  9
$LIMCHECK
 70
     0
  9
$BLIPMODE
 70
     1
  9
$CHAMFERA
 40
0.0
  9
$CHAMFERB
 40
0.0
  9
$CHAMFERC
 40
0.0
  9
$CHAMFERD
 40
0.0
  9
$SKPOLY
 70
     0
  9
$TDCREATE
 40
2450219.636503819
  9
$TDUPDATE
 40
2451087.551650926
  9
$TDINDWG
 40
0.2954979167
  9
$TDUSRTIMER
 40
0.2954979167
  9
$USRTIMER
 70
     1
  9
$ANGBASE
 50
0.0
  9
$ANGDIR
 70
     0
  9
$PDMODE
 70
     0
  9
$PDSIZE
 40
0.0
  9
$PLINEWID
 40
0.0
  9
$COORDS
 70
     0
  9
$SPLFRAME
 70
     0
  9
$SPLINETYPE
 70
     6
  9
$SPLINESEGS
 70
     8
  9
$ATTDIA
 70
     0
  9
$ATTREQ
 70
     1
  9
$HANDLING
 70
     1
  9
$HANDSEED
  5
1E08
  9
$SURFTAB1
 70
     6
  9
$SURFTAB2
 70
     6
  9
$SURFTYPE
 70
     6
  9
$SURFU
 70
     6
  9
$SURFV
 70
     6
  9
$UCSNAME
  2

  9
$UCSORG
 10
0.0
 20
0.0
 30
0.0
  9
$UCSXDIR
 10
1.0
 20
0.0
 30
0.0
  9
$UCSYDIR
 10
0.0
 20
1.0
 30
0.0
  9
$PUCSNAME
  2

  9
$PUCSORG
 10
0.0
 20
0.0
 30
0.0
  9
$PUCSXDIR
 10
1.0
 20
0.0
 30
0.0
  9
$PUCSYDIR
 10
0.0
 20
1.0
 30
0.0
  9
$USERI1
 70
     0
  9
$USERI2
 70
     0
  9
$USERI3
 70
     0
  9
$USERI4
 70
     0
  9
$USERI5
 70
     0
  9
$USERR1
 40
0.0
  9
$USERR2
 40
0.0
  9
$USERR3
 40
0.0
  9
$USERR4
 40
0.0
  9
$USERR5
 40
0.0
  9
$WORLDVIEW
 70
     1
  9
$SHADEDGE
 70
     3
  9
$SHADEDIF
 70
    70
  9
$TILEMODE
 70
     1
  9
$MAXACTVP
 70
    16
  9
$PINSBASE
 10
0.0
 20
0.0
 30
0.0
  9
$PLIMCHECK
 70
     0
  9
$PEXTMIN
 10
1.000000E+20
 20
1.000000E+20
 30
1.000000E+20
  9
$PEXTMAX
 10
-1.000000E+20
 20
-1.000000E+20
 30
-1.000000E+20
  9
$PLIMMIN
 10
0.0
 20
0.0
  9
$PLIMMAX
 10
12.0
 20
9.0
  9
$UNITMODE
 70
     0
  9
$VISRETAIN
 70
     0
  9
$PLINEGEN
 70
     0
  9
$PSLTSCALE
 70
     1
  9
$TREEDEPTH
 70
  3020
  9
$PICKSTYLE
 70
     1
  9
$CMLSTYLE
  2
STANDARD
  9
$CMLJUST
 70
     0
  9
$CMLSCALE
 40
1.0
  9
$SAVEIMAGES
 70
     1
  0
ENDSEC
  0
SECTION
  2
CLASSES
  0
CLASS
  1
LWPOLYLINE
  2
AcDbPolyline
  3
"AutoCAD"
 90
    32768
280
     0
281
     1
  0
CLASS
  1
HATCH
  2
AcDbHatch
  3
"ACAD_SEDONA"
 90
    32768
280
     0
281
     1
  0
ENDSEC
  0
SECTION
  2
TABLES
  0
TABLE
  2
VPORT
  5
8
100
AcDbSymbolTable
 70
     2
  0
VPORT
  5
1E07
100
AcDbSymbolTableRecord
100
AcDbViewportTableRecord
  2
*ACTIVE
 70
     0
 10
0.0
 20
0.0
 11
1.0
 21
1.0
 12
13.800261
 22
8.011863
 13
0.0
 23
0.0
 14
1.0
 24
1.0
 15
0.0
 25
0.0
 16
0.0
 26
0.0
 36
1.0
 17
0.0
 27
0.0
 37
0.0
 40
15.476815
 41
1.810585
 42
50.0
 43
0.0
 44
0.0
 50
0.0
 51
0.0
 71
     0
 72
   100
 73
     1
 74
     1
 75
     0
 76
     0
 77
     0
 78
     0
  0
ENDTAB
  0
TABLE
  2
LTYPE
  5
5
100
AcDbSymbolTable
 70
     4
  0
LTYPE
  5
12
100
AcDbSymbolTableRecord
100
AcDbLinetypeTableRecord
  2
BYBLOCK
 70
     0
  3

 72
    65
 73
     0
 40
0.0
  0
LTYPE
  5
13
100
AcDbSymbolTableRecord
100
AcDbLinetypeTableRecord
  2
BYLAYER
 70
     0
  3

 72
    65
 73
     0
 40
0.0
  0
LTYPE
  5
14
100
AcDbSymbolTableRecord
100
AcDbLinetypeTableRecord
  2
CONTINUOUS
 70
     0
  3
Solid line
 72
    65
 73
     0
 40
0.0
  0
LTYPE
  5
22
100
AcDbSymbolTableRecord
100
AcDbLinetypeTableRecord
  2
DASHED
 70
     0
  3
__ __ __ __ __ __ __ __ __ __ __ __ __ __ __ __
 72
    65
 73
     2
 40
0.75
 49
0.5
 74
     0
 49
-0.25
 74
     0
  0
LTYPE
  5
23
100
AcDbSymbolTableRecord
100
AcDbLinetypeTableRecord
  2
HIDDEN
 70
     0
  3
__ __ __ __ __ __ __ __ __ __ __ __ __ __ __ __
 72
    65
 73
     2
 40
0.375
 49
0.25
 74
     0
 49
-0.125
 74
     0
  0
LTYPE
  5
24
100
AcDbSymbolTableRecord
100
AcDbLinetypeTableRecord
  2
CENTER
 70
     0
  3
____ _ ____ _ ____ _ ____ _ ____ _ ____ _ ____ 
 72
    65
 73
     4
 40
2.0
 49
1.25
 74
     0
 49
-0.25
 74
     0
 49
0.25
 74
     0
 49
-0.25
 74
     0
  0
ENDTAB
  0
TABLE
  2
LAYER
  5
2
100
AcDbSymbolTable
 70
     5
  0
LAYER
  5
F
100
AcDbSymbolTableRecord
100
AcDbLayerTableRecord
  2
0
 70
     0
 62
     7
  6
CONTINUOUS
  0
LAYER
  5
28
100
AcDbSymbolTableRecord
100
AcDbLayerTableRecord
  2
DASH
 70
     0
 62
     2
  6
DASHED
  0
LAYER
  5
29
100
AcDbSymbolTableRecord
100
AcDbLayerTableRecord
  2
TEXT
 70
     0
 62
     2
  6
CONTINUOUS
  0
LAYER
  5
2B
100
AcDbSymbolTableRecord
100
AcDbLayerTableRecord
  2
HID
 70
     0
 62
     3
  6
HIDDEN
  0
LAYER
  5
2C
100
AcDbSymbolTableRecord
100
AcDbLayerTableRecord
  2
CEN
 70
     0
 62
     2
  6
CENTER
  0
ENDTAB
  0
TABLE
  2
STYLE
  5
3
100
AcDbSymbolTable
 70
     2
  0
STYLE
  5
10
100
AcDbSymbolTableRecord
100
AcDbTextStyleTableRecord
  2
STANDARD
 70
     0
 40
0.0
 41
1.0
 50
0.0
 71
     0
 42
0.1
  3
txt
  4

  0
STYLE
  5
20
100
AcDbSymbolTableRecord
100
AcDbTextStyleTableRecord
  2
ROMANS
 70
     0
 40
0.0
 41
0.8
 50
0.0
 71
     0
 42
0.1
  3
ROMANS
  4

  0
ENDTAB
  0
TABLE
  2
VIEW
  5
6
100
AcDbSymbolTable
 70
     0
  0
ENDTAB
  0
TABLE
  2
UCS
  5
7
100
AcDbSymbolTable
 70
     0
  0
ENDTAB
  0
TABLE
  2
APPID
  5
9
100
AcDbSymbolTable
 70
     1
  0
APPID
  5
11
100
AcDbSymbolTableRecord
100
AcDbRegAppTableRecord
  2
ACAD
 70
     0
  0
ENDTAB
  0
TABLE
  2
DIMSTYLE
  5
A
100
AcDbSymbolTable
 70
     1
  0
DIMSTYLE
105
2D1
100
AcDbSymbolTableRecord
100
AcDbDimStyleTableRecord
  2
STANDARD
 70
     0
  3

  4

  5

  6

  7

 40
1.0
 41
0.18
 42
0.0625
 43
0.38
 44
0.18
 45
0.0
 46
0.0
 47
0.0
 48
0.0
140
0.18
141
0.09
142
0.0
143
25.4
144
1.0
145
0.0
146
1.0
147
0.09
 71
     0
 72
     0
 73
     1
 74
     1
 75
     0
 76
     0
 77
     0
 78
     0
170
     0
171
     2
172
     0
173
     0
174
     0
175
     0
176
     0
177
     0
178
     0
270
     2
271
     4
272
     4
273
     2
274
     2
340
10
275
     0
280
     0
281
     0
282
     0
283
     1
284
     0
285
     0
286
     0
287
     3
288
     0
  0
ENDTAB
  0
TABLE
  2
BLOCK_RECORD
  5
1
100
AcDbSymbolTable
 70
     1
  0
BLOCK_RECORD
  5
18
100
AcDbSymbolTableRecord
100
AcDbBlockTableRecord
  2
*MODEL_SPACE
  0
BLOCK_RECORD
  5
15
100
AcDbSymbolTableRecord
100
AcDbBlockTableRecord
  2
*PAPER_SPACE
  0
BLOCK_RECORD
  5
1E
100
AcDbSymbolTableRecord
100
AcDbBlockTableRecord
  2
GND
  0
ENDTAB
  0
ENDSEC
  0
SECTION
  2
BLOCKS
  0
BLOCK
  5
35
100
AcDbEntity
  8
0
100
AcDbBlockBegin
  2
*MODEL_SPACE
 70
     0
 10
0.0
 20
0.0
 30
0.0
  3
*MODEL_SPACE
  1

  0
ENDBLK
  5
36
100
AcDbEntity
  8
0
100
AcDbBlockEnd
  0
BLOCK
  5
33
100
AcDbEntity
 67
     1
  8
0
100
AcDbBlockBegin
  2
*PAPER_SPACE
 70
     0
 10
0.0
 20
0.0
 30
0.0
  3
*PAPER_SPACE
  1

  0
ENDBLK
  5
34
100
AcDbEntity
 67
     1
  8
0
100
AcDbBlockEnd
  0
BLOCK
  5
87
100
AcDbEntity
  8
0
100
AcDbBlockBegin
  2
GND
 70
     0
 10
0.0
 20
0.0
 30
0.0
  3
GND
  1

  0
LINE
  5
88
100
AcDbEntity
  8
0
100
AcDbLine
 10
-0.078125
 20
-0.0625
 30
0.0
 11
-0.109375
 21
-0.140625
 31
0.0
  0
LINE
  5
89
100
AcDbEntity
  8
0
100
AcDbLine
 10
0.0
 20
-0.0625
 30
0.0
 11
-0.03125
 21
-0.140625
 31
0.0
  0
LINE
  5
8A
100
AcDbEntity
  8
0
100
AcDbLine
 10
0.078125
 20
-0.0625
 30
0.0
 11
0.046875
 21
-0.140625
 31
0.0
  0
LINE
  5
8B
100
AcDbEntity
  8
0
100
AcDbLine
 10
0.0
 20
-0.0625
 30
0.0
 11
0.078125
 21
-0.0625
 31
0.0
  0
LINE
  5
8C
100
AcDbEntity
  8
0
100
AcDbLine
 10
0.0
 20
-0.0625
 30
0.0
 11
-0.078125
 21
-0.0625
 31
0.0
  0
LINE
  5
8D
100
AcDbEntity
  8
0
100
AcDbLine
 10
0.0
 20
0.0
 30
0.0
 11
0.0
 21
-0.0625
 31
0.0
  0
ENDBLK
  5
8E
100
AcDbEntity
  8
0
100
AcDbBlockEnd
  0
ENDSEC
  0
SECTION
  2
ENTITIES
  0
TEXT
  5
12B
100
AcDbEntity
  8
0
100
AcDbText
 10
12.911608
 20
13.203744
 30
0.0
 40
0.075
  1

 72
     1
 11
12.911608
 21
13.203744
 31
0.0
100
AcDbText
  0
TEXT
  5
12C
100
AcDbEntity
  8
0
100
AcDbText
 10
12.911608
 20
12.703744
 30
0.0
 40
0.075
  1

 72
     1
 11
12.911608
 21
12.703744
 31
0.0
100
AcDbText
  0
TEXT
  5
12D
100
AcDbEntity
  8
0
100
AcDbText
 10
12.911608
 20
12.203744
 30
0.0
 40
0.1
  1

 72
     1
 11
12.911608
 21
12.203744
 31
0.0
100
AcDbText
  0
TEXT
  5
12E
100
AcDbEntity
  8
0
100
AcDbText
 10
12.724108
 20
6.203744
 30
0.0
 40
0.1
  1

100
AcDbText
  0
TEXT
  5
12F
100
AcDbEntity
  8
0
100
AcDbText
 10
12.724108
 20
11.703744
 30
0.0
 40
0.1
  1

100
AcDbText
  0
TEXT
  5
130
100
AcDbEntity
  8
0
100
AcDbText
 10
23.237741
 20
13.203744
 30
0.0
 40
0.075
  1

 72
     1
 11
23.237741
 21
13.203744
 31
0.0
100
AcDbText
  0
TEXT
  5
131
100
AcDbEntity
  8
0
100
AcDbText
 10
23.237741
 20
12.703744
 30
0.0
 40
0.075
  1

 72
     1
 11
23.237741
 21
12.703744
 31
0.0
100
AcDbText
  0
TEXT
  5
132
100
AcDbEntity
  8
0
100
AcDbText
 10
23.237741
 20
12.203744
 30
0.0
 40
0.1
  1

 72
     1
 11
23.237741
 21
12.203744
 31
0.0
100
AcDbText
  0
TEXT
  5
133
100
AcDbEntity
  8
0
100
AcDbText
 10
23.050241
 20
6.203744
 30
0.0
 40
0.1
  1

100
AcDbText
  0
TEXT
  5
134
100
AcDbEntity
  8
0
100
AcDbText
 10
23.050241
 20
11.703744
 30
0.0
 40
0.1
  1

100
AcDbText
  0
TEXT
  5
135
100
AcDbEntity
  8
TEXT
100
AcDbText
 10
2.958441
 20
14.893429
 30
0.0
 40
0.125
  1
AXIS #--: 
 41
0.8
  7
ROMANS
 72
     4
 11
3.413203
 21
14.947
 31
0.0
100
AcDbText
  0
TEXT
  5
136
100
AcDbEntity
  8
TEXT
100
AcDbText
 10
2.570346
 20
14.682119
 30
0.0
 40
0.125
  1
Brushless Servo Drive
 41
0.8
  7
ROMANS
 72
     4
 11
3.413203
 21
14.744619
 31
0.0
100
AcDbText
  0
TEXT
  5
137
100
AcDbEntity
  8
TEXT
100
AcDbText
 10
3.094156
 20
14.500571
 30
0.0
 40
0.125
  1
Amplifier
 41
0.8
  7
ROMANS
 72
     4
 11
3.413203
 21
14.542238
 31
0.0
100
AcDbText
  0
LINE
  5
147
100
AcDbEntity
  8
0
100
AcDbLine
 10
2.413203
 20
1.54075
 30
0.0
 11
2.413203
 21
14.447
 31
0.0
  0
LINE
  5
148
100
AcDbEntity
  8
0
100
AcDbLine
 10
4.413203
 20
14.447
 30
0.0
 11
4.413203
 21
1.54075
 31
0.0
  0
LINE
  5
149
100
AcDbEntity
  8
0
100
AcDbLine
 10
2.413203
 20
1.54075
 30
0.0
 11
4.413203
 21
1.54075
 31
0.0
  0
LINE
  5
151
100
AcDbEntity
  8
0
100
AcDbLine
 10
2.413203
 20
14.447
 30
0.0
 11
4.413203
 21
14.447
 31
0.0
  0
LINE
  5
154
100
AcDbEntity
  8
0
100
AcDbLine
 10
4.413203
 20
13.91575
 30
0.0
 11
4.663203
 21
13.91575
 31
0.0
  0
LINE
  5
155
100
AcDbEntity
  8
0
100
AcDbLine
 10
4.413203
 20
13.66575
 30
0.0
 11
4.663203
 21
13.66575
 31
0.0
  0
LINE
  5
156
100
AcDbEntity
  8
0
100
AcDbLine
 10
4.413203
 20
13.41575
 30
0.0
 11
4.663203
 21
13.41575
 31
0.0
  0
LINE
  5
157
100
AcDbEntity
  8
0
100
AcDbLine
 10
4.413203
 20
13.16575
 30
0.0
 11
4.663203
 21
13.16575
 31
0.0
  0
TEXT
  5
158
100
AcDbEntity
  8
TEXT
100
AcDbText
 10
4.475703
 20
13.2595
 30
0.0
 40
0.075
  1
L2
 50
360.0
 72
     1
 11
4.538203
 21
13.2595
 31
0.0
100
AcDbText
  0
TEXT
  5
159
100
AcDbEntity
  8
TEXT
100
AcDbText
 10
4.488203
 20
13.7595
 30
0.0
 40
0.075
  1
L1
 50
360.0
 72
     1
 11
4.538203
 21
13.7595
 31
0.0
100
AcDbText
  0
TEXT
  5
15A
100
AcDbEntity
  8
TEXT
100
AcDbText
 10
4.000703
 20
13.2595
 30
0.0
 40
0.075
  1
Power
 72
     2
 11
4.350703
 21
13.2595
 31
0.0
100
AcDbText
  0
LINE
  5
15C
100
AcDbEntity
  8
0
100
AcDbLine
 10
4.663203
 20
13.29075
 30
0.0
 11
5.225703
 21
13.29075
 31
0.0
  0
LINE
  5
15D
100
AcDbEntity
  8
0
100
AcDbLine
 10
4.663203
 20
13.79075
 30
0.0
 11
5.225703
 21
13.79075
 31
0.0
  0
LINE
  5
15E
100
AcDbEntity
  8
0
100
AcDbLine
 10
4.663203
 20
13.41575
 30
0.0
 11
4.663203
 21
13.16575
 31
0.0
  0
LINE
  5
15F
100
AcDbEntity
  8
0
100
AcDbLine
 10
4.663203
 20
13.91575
 30
0.0
 11
4.663203
 21
13.66575
 31
0.0
  0
LINE
  5
161
100
AcDbEntity
  8
0
100
AcDbLine
 10
4.413203
 20
12.91575
 30
0.0
 11
4.663203
 21
12.91575
 31
0.0
  0
LINE
  5
162
100
AcDbEntity
  8
0
100
AcDbLine
 10
5.600703
 20
11.8845
 30
0.0
 11
5.600703
 21
11.697
 31
0.0
  0
LINE
  5
163
100
AcDbEntity
  8
0
100
AcDbLine
 10
5.225703
 20
11.8845
 30
0.0
 11
5.225703
 21
11.697
 31
0.0
  0
LINE
  5
164
100
AcDbEntity
  8
0
100
AcDbLine
 10
4.663203
 20
11.91575
 30
0.0
 11
4.663203
 21
11.66575
 31
0.0
  0
LINE
  5
165
100
AcDbEntity
  8
0
100
AcDbLine
 10
4.663203
 20
11.29075
 30
0.0
 11
5.225703
 21
11.29075
 31
0.0
  0
LINE
  5
166
100
AcDbEntity
  8
0
100
AcDbLine
 10
4.663203
 20
11.79075
 30
0.0
 11
5.225703
 21
11.79075
 31
0.0
  0
LINE
  5
167
100
AcDbEntity
  8
0
100
AcDbLine
 10
4.663203
 20
11.41575
 30
0.0
 11
4.663203
 21
11.16575
 31
0.0
  0
LINE
  5
168
100
AcDbEntity
  8
0
100
AcDbLine
 10
4.413203
 20
11.16575
 30
0.0
 11
4.663203
 21
11.16575
 31
0.0
  0
LINE
  5
169
100
AcDbEntity
  8
0
100
AcDbLine
 10
4.413203
 20
11.66575
 30
0.0
 11
4.663203
 21
11.66575
 31
0.0
  0
LINE
  5
16A
100
AcDbEntity
  8
0
100
AcDbLine
 10
4.413203
 20
11.41575
 30
0.0
 11
4.663203
 21
11.41575
 31
0.0
  0
TEXT
  5
16B
100
AcDbEntity
  8
TEXT
100
AcDbText
 10
4.513203
 20
11.2595
 30
0.0
 40
0.075
  1
T
 50
360.0
 72
     1
 11
4.538203
 21
11.2595
 31
0.0
100
AcDbText
  0
TEXT
  5
16C
100
AcDbEntity
  8
TEXT
100
AcDbText
 10
4.513203
 20
11.7595
 30
0.0
 40
0.075
  1
S
 50
360.0
 72
     1
 11
4.538203
 21
11.7595
 31
0.0
100
AcDbText
  0
LINE
  5
16D
100
AcDbEntity
  8
0
100
AcDbLine
 10
5.600703
 20
11.3845
 30
0.0
 11
5.600703
 21
11.197
 31
0.0
  0
LINE
  5
16E
100
AcDbEntity
  8
0
100
AcDbLine
 10
5.225703
 20
11.3845
 30
0.0
 11
5.225703
 21
11.197
 31
0.0
  0
LINE
  5
16F
100
AcDbEntity
  8
0
100
AcDbLine
 10
5.225703
 20
11.197
 30
0.0
 11
5.600703
 21
11.197
 31
0.0
  0
TEXT
  5
170
100
AcDbEntity
  8
TEXT
100
AcDbText
 10
5.346536
 20
11.24075
 30
0.0
 40
0.1
  1
T1
 72
     1
 11
5.413203
 21
11.24075
 31
0.0
100
AcDbText
  0
LINE
  5
171
100
AcDbEntity
  8
0
100
AcDbLine
 10
5.225703
 20
11.697
 30
0.0
 11
5.600703
 21
11.697
 31
0.0
  0
LINE
  5
172
100
AcDbEntity
  8
0
100
AcDbLine
 10
5.225703
 20
11.3845
 30
0.0
 11
5.600703
 21
11.3845
 31
0.0
  0
TEXT
  5
173
100
AcDbEntity
  8
TEXT
100
AcDbText
 10
5.346536
 20
11.74075
 30
0.0
 40
0.1
  1
S1
 72
     1
 11
5.413203
 21
11.74075
 31
0.0
100
AcDbText
  0
LINE
  5
174
100
AcDbEntity
  8
0
100
AcDbLine
 10
4.413203
 20
11.91575
 30
0.0
 11
4.663203
 21
11.91575
 31
0.0
  0
LINE
  5
175
100
AcDbEntity
  8
0
100
AcDbLine
 10
5.225703
 20
11.8845
 30
0.0
 11
5.600703
 21
11.8845
 31
0.0
  0
LINE
  5
176
100
AcDbEntity
  8
0
100
AcDbLine
 10
5.600703
 20
10.8845
 30
0.0
 11
5.600703
 21
10.697
 31
0.0
  0
LINE
  5
177
100
AcDbEntity
  8
0
100
AcDbLine
 10
5.225703
 20
10.8845
 30
0.0
 11
5.225703
 21
10.697
 31
0.0
  0
LINE
  5
178
100
AcDbEntity
  8
0
100
AcDbLine
 10
4.663203
 20
10.91575
 30
0.0
 11
4.663203
 21
10.66575
 31
0.0
  0
LINE
  5
179
100
AcDbEntity
  8
0
100
AcDbLine
 10
4.413203
 20
10.66575
 30
0.0
 11
4.663203
 21
10.66575
 31
0.0
  0
TEXT
  5
17A
100
AcDbEntity
  8
TEXT
100
AcDbText
 10
4.438203
 20
10.7595
 30
0.0
 40
0.075
  1
GND
 50
360.0
 72
     1
 11
4.538203
 21
10.7595
 31
0.0
100
AcDbText
  0
LINE
  5
17B
100
AcDbEntity
  8
0
100
AcDbLine
 10
5.225703
 20
10.697
 30
0.0
 11
5.600703
 21
10.697
 31
0.0
  0
TEXT
  5
17C
100
AcDbEntity
  8
TEXT
100
AcDbText
 10
5.346536
 20
10.74075
 30
0.0
 40
0.1
  1
G1
 72
     1
 11
5.413203
 21
10.74075
 31
0.0
100
AcDbText
  0
LINE
  5
17D
100
AcDbEntity
  8
0
100
AcDbLine
 10
4.413203
 20
10.91575
 30
0.0
 11
4.663203
 21
10.91575
 31
0.0
  0
LINE
  5
17E
100
AcDbEntity
  8
0
100
AcDbLine
 10
5.225703
 20
10.8845
 30
0.0
 11
5.600703
 21
10.8845
 31
0.0
  0
LINE
  5
1DE
100
AcDbEntity
  8
0
100
AcDbLine
 10
4.663203
 20
12.91575
 30
0.0
 11
4.663203
 21
12.66575
 31
0.0
  0
LINE
  5
1DF
100
AcDbEntity
  8
0
100
AcDbLine
 10
4.413203
 20
12.66575
 30
0.0
 11
4.663203
 21
12.66575
 31
0.0
  0
LINE
  5
1E0
100
AcDbEntity
  8
0
100
AcDbLine
 10
4.413203
 20
12.41575
 30
0.0
 11
4.663203
 21
12.41575
 31
0.0
  0
LINE
  5
1E1
100
AcDbEntity
  8
0
100
AcDbLine
 10
4.413203
 20
12.16575
 30
0.0
 11
4.663203
 21
12.16575
 31
0.0
  0
TEXT
  5
1E2
100
AcDbEntity
  8
TEXT
100
AcDbText
 10
4.513203
 20
12.2595
 30
0.0
 40
0.075
  1
R
 50
360.0
 72
     1
 11
4.538203
 21
12.2595
 31
0.0
100
AcDbText
  0
TEXT
  5
1E3
100
AcDbEntity
  8
TEXT
100
AcDbText
 10
4.438203
 20
12.7595
 30
0.0
 40
0.075
  1
GND
 50
360.0
 72
     1
 11
4.538203
 21
12.7595
 31
0.0
100
AcDbText
  0
LINE
  5
1E4
100
AcDbEntity
  8
0
100
AcDbLine
 10
4.663203
 20
12.41575
 30
0.0
 11
4.663203
 21
12.16575
 31
0.0
  0
LINE
  5
1E5
100
AcDbEntity
  8
0
100
AcDbLine
 10
4.663203
 20
12.79075
 30
0.0
 11
5.413203
 21
12.79075
 31
0.0
  0
LINE
  5
1E6
100
AcDbEntity
  8
0
100
AcDbLine
 10
4.663203
 20
12.29075
 30
0.0
 11
5.225703
 21
12.29075
 31
0.0
  0
TEXT
  5
1E7
100
AcDbEntity
  8
TEXT
100
AcDbText
 10
4.000703
 20
11.500108
 30
0.0
 40
0.075
  1
Motor
 72
     2
 11
4.350703
 21
11.500108
 31
0.0
100
AcDbText
  0
LINE
  5
1E8
100
AcDbEntity
  8
0
100
AcDbLine
 10
4.663203
 20
10.79075
 30
0.0
 11
5.225703
 21
10.79075
 31
0.0
  0
TEXT
  5
1E9
100
AcDbEntity
  8
TEXT
100
AcDbText
 10
1.222668
 20
14.54075
 30
0.0
 40
0.075
  1
J2: Encoder In
100
AcDbText
  0
LINE
  5
1EB
100
AcDbEntity
  8
0
100
AcDbLine
 10
5.225703
 20
12.197
 30
0.0
 11
5.600703
 21
12.197
 31
0.0
  0
TEXT
  5
1EC
100
AcDbEntity
  8
TEXT
100
AcDbText
 10
5.346536
 20
12.24075
 30
0.0
 40
0.1
  1
R1
 72
     1
 11
5.413203
 21
12.24075
 31
0.0
100
AcDbText
  0
LINE
  5
1ED
100
AcDbEntity
  8
0
100
AcDbLine
 10
5.225703
 20
12.3845
 30
0.0
 11
5.600703
 21
12.3845
 31
0.0
  0
LINE
  5
1EE
100
AcDbEntity
  8
0
100
AcDbLine
 10
5.225703
 20
12.3845
 30
0.0
 11
5.225703
 21
12.197
 31
0.0
  0
LINE
  5
1EF
100
AcDbEntity
  8
0
100
AcDbLine
 10
5.600703
 20
12.3845
 30
0.0
 11
5.600703
 21
12.197
 31
0.0
  0
LINE
  5
1F0
100
AcDbEntity
  8
0
100
AcDbLine
 10
5.225703
 20
13.197
 30
0.0
 11
5.600703
 21
13.197
 31
0.0
  0
TEXT
  5
1F1
100
AcDbEntity
  8
TEXT
100
AcDbText
 10
5.27987
 20
13.24075
 30
0.0
 40
0.1
  1
---
 72
     1
 11
5.413203
 21
13.24075
 31
0.0
100
AcDbText
  0
LINE
  5
1F2
100
AcDbEntity
  8
0
100
AcDbLine
 10
5.225703
 20
13.3845
 30
0.0
 11
5.600703
 21
13.3845
 31
0.0
  0
LINE
  5
1F3
100
AcDbEntity
  8
0
100
AcDbLine
 10
5.225703
 20
13.3845
 30
0.0
 11
5.225703
 21
13.197
 31
0.0
  0
LINE
  5
1F4
100
AcDbEntity
  8
0
100
AcDbLine
 10
5.600703
 20
13.3845
 30
0.0
 11
5.600703
 21
13.197
 31
0.0
  0
LINE
  5
1F5
100
AcDbEntity
  8
0
100
AcDbLine
 10
5.225703
 20
13.8845
 30
0.0
 11
5.600703
 21
13.8845
 31
0.0
  0
TEXT
  5
1F6
100
AcDbEntity
  8
TEXT
100
AcDbText
 10
5.27987
 20
13.74075
 30
0.0
 40
0.1
  1
---
 72
     1
 11
5.413203
 21
13.74075
 31
0.0
100
AcDbText
  0
LINE
  5
1F7
100
AcDbEntity
  8
0
100
AcDbLine
 10
5.225703
 20
13.697
 30
0.0
 11
5.600703
 21
13.697
 31
0.0
  0
LINE
  5
1F8
100
AcDbEntity
  8
0
100
AcDbLine
 10
5.225703
 20
13.8845
 30
0.0
 11
5.225703
 21
13.697
 31
0.0
  0
LINE
  5
1F9
100
AcDbEntity
  8
0
100
AcDbLine
 10
5.600703
 20
13.8845
 30
0.0
 11
5.600703
 21
13.697
 31
0.0
  0
LINE
  5
1FA
100
AcDbEntity
  8
DASH
100
AcDbLine
 10
4.413203
 20
12.506927
 30
0.0
 11
3.788203
 21
12.506927
 31
0.0
  0
INSERT
  5
1FC
100
AcDbEntity
  8
0
100
AcDbBlockReference
  2
GND
 10
5.413203
 20
12.79075
 30
0.0
  0
LINE
  5
1FE
100
AcDbEntity
  8
DASH
100
AcDbLine
 10
4.413203
 20
10.54075
 30
0.0
 11
3.788203
 21
10.54075
 31
0.0
  0
LINE
  5
1FF
100
AcDbEntity
  8
DASH
100
AcDbLine
 10
3.788203
 20
14.009729
 30
0.0
 11
3.788203
 21
6.41575
 31
0.0
  0
LINE
  5
200
100
AcDbEntity
  8
0
100
AcDbLine
 10
6.413203
 20
11.16575
 30
0.0
 11
6.413203
 21
10.29075
 31
0.0
  0
LINE
  5
201
100
AcDbEntity
  8
CEN
100
AcDbLine
 10
6.171016
 20
9.322
 30
0.0
 11
8.268047
 21
9.322
 31
0.0
  0
LINE
  5
202
100
AcDbEntity
  8
0
100
AcDbLine
 10
7.443047
 20
9.7595
 30
0.0
 11
7.943047
 21
9.7595
 31
0.0
  0
LINE
  5
203
100
AcDbEntity
  8
0
100
AcDbLine
 10
6.285078
 20
10.29075
 30
0.0
 11
6.541328
 21
10.29075
 31
0.0
  0
LINE
  5
204
100
AcDbEntity
  8
0
100
AcDbLine
 10
6.600703
 20
9.697
 30
0.0
 11
6.600703
 21
10.072
 31
0.0
  0
LINE
  5
205
100
AcDbEntity
  8
0
100
AcDbLine
 10
6.225703
 20
9.697
 30
0.0
 11
6.225703
 21
10.072
 31
0.0
  0
LINE
  5
206
100
AcDbEntity
  8
0
100
AcDbLine
 10
6.550703
 20
10.072
 30
0.0
 11
6.550703
 21
10.26575
 31
0.0
  0
LINE
  5
207
100
AcDbEntity
  8
0
100
AcDbLine
 10
6.275703
 20
10.072
 30
0.0
 11
6.275703
 21
10.26575
 31
0.0
  0
LINE
  5
208
100
AcDbEntity
  8
0
100
AcDbLine
 10
6.225703
 20
10.072
 30
0.0
 11
6.600703
 21
10.072
 31
0.0
  0
LINE
  5
209
100
AcDbEntity
  8
0
100
AcDbLine
 10
6.225703
 20
10.047
 30
0.0
 11
6.600703
 21
10.047
 31
0.0
  0
LINE
  5
20A
100
AcDbEntity
  8
0
100
AcDbLine
 10
6.225703
 20
10.0595
 30
0.0
 11
6.600703
 21
10.0595
 31
0.0
  0
LINE
  5
20B
100
AcDbEntity
  8
0
100
AcDbLine
 10
6.541328
 20
10.26575
 30
0.0
 11
6.541328
 21
10.29075
 31
0.0
  0
LINE
  5
20C
100
AcDbEntity
  8
0
100
AcDbLine
 10
6.285078
 20
10.26575
 30
0.0
 11
6.285078
 21
10.29075
 31
0.0
  0
LINE
  5
20D
100
AcDbEntity
  8
0
100
AcDbLine
 10
6.275703
 20
10.26575
 30
0.0
 11
6.285078
 21
10.26575
 31
0.0
  0
LINE
  5
20E
100
AcDbEntity
  8
0
100
AcDbLine
 10
6.541328
 20
10.26575
 30
0.0
 11
6.550703
 21
10.26575
 31
0.0
  0
TEXT
  5
20F
100
AcDbEntity
  8
TEXT
100
AcDbText
 10
6.288203
 20
9.2345
 30
0.0
 40
0.025
  1
G&L: ???-???
 72
     1
 11
6.413203
 21
9.2345
 31
0.0
100
AcDbText
  0
TEXT
  5
210
100
AcDbEntity
  8
TEXT
100
AcDbText
 10
6.27987
 20
9.172
 30
0.0
 40
0.025
  1
Servo Motor
 72
     1
 11
6.413203
 21
9.172
 31
0.0
100
AcDbText
  0
LINE
  5
211
100
AcDbEntity
  8
0
100
AcDbLine
 10
7.973047
 20
9.39075
 30
0.0
 11
8.268047
 21
9.39075
 31
0.0
  0
LINE
  5
212
100
AcDbEntity
  8
0
100
AcDbLine
 10
7.973047
 20
9.25325
 30
0.0
 11
8.268047
 21
9.25325
 31
0.0
  0
LINE
  5
213
100
AcDbEntity
  8
0
100
AcDbLine
 10
8.268047
 20
9.25325
 30
0.0
 11
8.268047
 21
9.39075
 31
0.0
  0
LINE
  5
214
100
AcDbEntity
  8
0
100
AcDbLine
 10
7.121797
 20
8.8845
 30
0.0
 11
7.943047
 21
8.8845
 31
0.0
  0
LINE
  5
215
100
AcDbEntity
  8
0
100
AcDbLine
 10
7.973047
 20
8.92825
 30
0.0
 11
7.973047
 21
9.71575
 31
0.0
  0
LINE
  5
216
100
AcDbEntity
  8
0
100
AcDbLine
 10
7.943047
 20
8.8845
 30
0.0
 11
7.943047
 21
8.92825
 31
0.0
  0
LINE
  5
217
100
AcDbEntity
  8
0
100
AcDbLine
 10
7.943047
 20
9.71575
 30
0.0
 11
7.973047
 21
9.71575
 31
0.0
  0
LINE
  5
218
100
AcDbEntity
  8
0
100
AcDbLine
 10
7.943047
 20
8.92825
 30
0.0
 11
7.973047
 21
8.92825
 31
0.0
  0
LINE
  5
219
100
AcDbEntity
  8
0
100
AcDbLine
 10
7.833672
 20
8.8845
 30
0.0
 11
7.833672
 21
9.7595
 31
0.0
  0
LINE
  5
21A
100
AcDbEntity
  8
CEN
100
AcDbLine
 10
7.833672
 20
8.97375
 30
0.0
 11
7.973047
 21
8.97375
 31
0.0
  0
LINE
  5
21B
100
AcDbEntity
  8
HID
100
AcDbLine
 10
7.833672
 20
8.93875
 30
0.0
 11
7.973047
 21
8.93875
 31
0.0
  0
LINE
  5
21C
100
AcDbEntity
  8
HID
100
AcDbLine
 10
7.833672
 20
9.00875
 30
0.0
 11
7.973047
 21
9.00875
 31
0.0
  0
LINE
  5
21D
100
AcDbEntity
  8
HID
100
AcDbLine
 10
7.833672
 20
9.70525
 30
0.0
 11
7.973047
 21
9.70525
 31
0.0
  0
LINE
  5
21E
100
AcDbEntity
  8
HID
100
AcDbLine
 10
7.833672
 20
9.63525
 30
0.0
 11
7.973047
 21
9.63525
 31
0.0
  0
LINE
  5
21F
100
AcDbEntity
  8
CEN
100
AcDbLine
 10
7.833672
 20
9.67025
 30
0.0
 11
7.973047
 21
9.67025
 31
0.0
  0
LINE
  5
220
100
AcDbEntity
  8
0
100
AcDbLine
 10
7.943047
 20
9.71575
 30
0.0
 11
7.973047
 21
9.71575
 31
0.0
  0
LINE
  5
221
100
AcDbEntity
  8
0
100
AcDbLine
 10
7.121797
 20
8.8845
 30
0.0
 11
7.121797
 21
9.697
 31
0.0
  0
LINE
  5
222
100
AcDbEntity
  8
0
100
AcDbLine
 10
5.921016
 20
8.947
 30
0.0
 11
7.121797
 21
8.947
 31
0.0
  0
LINE
  5
223
100
AcDbEntity
  8
0
100
AcDbLine
 10
5.921016
 20
9.697
 30
0.0
 11
7.443047
 21
9.697
 31
0.0
  0
LINE
  5
224
100
AcDbEntity
  8
0
100
AcDbLine
 10
6.171016
 20
8.947
 30
0.0
 11
6.171016
 21
9.697
 31
0.0
  0
LINE
  5
225
100
AcDbEntity
  8
0
100
AcDbLine
 10
7.004609
 20
8.947
 30
0.0
 11
7.004609
 21
9.697
 31
0.0
  0
LINE
  5
226
100
AcDbEntity
  8
0
100
AcDbLine
 10
6.942109
 20
8.947
 30
0.0
 11
6.942109
 21
9.697
 31
0.0
  0
LINE
  5
227
100
AcDbEntity
  8
0
100
AcDbLine
 10
7.004609
 20
9.697
 30
0.0
 11
7.004609
 21
10.072
 31
0.0
  0
LINE
  5
228
100
AcDbEntity
  8
0
100
AcDbLine
 10
7.379609
 20
9.697
 30
0.0
 11
7.379609
 21
10.072
 31
0.0
  0
LINE
  5
229
100
AcDbEntity
  8
0
100
AcDbLine
 10
7.329609
 20
10.072
 30
0.0
 11
7.329609
 21
10.26575
 31
0.0
  0
LINE
  5
22A
100
AcDbEntity
  8
0
100
AcDbLine
 10
7.054609
 20
10.072
 30
0.0
 11
7.054609
 21
10.26575
 31
0.0
  0
LINE
  5
22B
100
AcDbEntity
  8
0
100
AcDbLine
 10
7.320234
 20
10.26575
 30
0.0
 11
7.320234
 21
10.29075
 31
0.0
  0
LINE
  5
22C
100
AcDbEntity
  8
0
100
AcDbLine
 10
7.063984
 20
10.26575
 30
0.0
 11
7.063984
 21
10.29075
 31
0.0
  0
LINE
  5
22D
100
AcDbEntity
  8
0
100
AcDbLine
 10
7.063984
 20
10.29075
 30
0.0
 11
7.320234
 21
10.29075
 31
0.0
  0
LINE
  5
22E
100
AcDbEntity
  8
0
100
AcDbLine
 10
7.320234
 20
10.26575
 30
0.0
 11
7.329609
 21
10.26575
 31
0.0
  0
LINE
  5
22F
100
AcDbEntity
  8
0
100
AcDbLine
 10
7.054609
 20
10.26575
 30
0.0
 11
7.063984
 21
10.26575
 31
0.0
  0
LINE
  5
230
100
AcDbEntity
  8
0
100
AcDbLine
 10
7.004609
 20
10.0595
 30
0.0
 11
7.379609
 21
10.0595
 31
0.0
  0
LINE
  5
231
100
AcDbEntity
  8
0
100
AcDbLine
 10
7.004609
 20
10.047
 30
0.0
 11
7.379609
 21
10.047
 31
0.0
  0
LINE
  5
232
100
AcDbEntity
  8
0
100
AcDbLine
 10
7.004609
 20
10.072
 30
0.0
 11
7.379609
 21
10.072
 31
0.0
  0
LINE
  5
233
100
AcDbEntity
  8
0
100
AcDbLine
 10
7.443047
 20
9.697
 30
0.0
 11
7.443047
 21
9.7595
 31
0.0
  0
LINE
  5
234
100
AcDbEntity
  8
0
100
AcDbLine
 10
7.943047
 20
9.71575
 30
0.0
 11
7.943047
 21
9.7595
 31
0.0
  0
LINE
  5
235
100
AcDbEntity
  8
0
100
AcDbLine
 10
6.119453
 20
11.79075
 30
0.0
 11
6.338203
 21
11.79075
 31
0.0
  0
LINE
  5
236
100
AcDbEntity
  8
0
100
AcDbLine
 10
6.119453
 20
11.29075
 30
0.0
 11
6.288203
 21
11.29075
 31
0.0
  0
LINE
  5
237
100
AcDbEntity
  8
0
100
AcDbLine
 10
6.119453
 20
10.79075
 30
0.0
 11
6.238203
 21
10.79075
 31
0.0
  0
LINE
  5
238
100
AcDbEntity
  8
0
100
AcDbLine
 10
6.363203
 20
10.66575
 30
0.0
 11
6.363203
 21
10.29075
 31
0.0
  0
LINE
  5
239
100
AcDbEntity
  8
0
100
AcDbLine
 10
6.463203
 20
11.66575
 30
0.0
 11
6.463203
 21
10.29075
 31
0.0
  0
TEXT
  5
23A
100
AcDbEntity
  8
TEXT
100
AcDbText
 10
6.121797
 20
8.6345
 30
0.0
 40
0.15
  1
Axis #--: Motor
 72
     1
 11
7.121797
 21
8.6345
 31
0.0
100
AcDbText
  0
LINE
  5
23B
100
AcDbEntity
  8
0
100
AcDbLine
 10
7.192109
 20
10.29075
 30
0.0
 11
7.192109
 21
15.072
 31
0.0
  0
LINE
  5
23C
100
AcDbEntity
  8
0
100
AcDbLine
 10
1.038203
 20
15.197
 30
0.0
 11
7.067109
 21
15.197
 31
0.0
  0
LINE
  5
23D
100
AcDbEntity
  8
0
100
AcDbLine
 10
0.913203
 20
15.072
 30
0.0
 11
0.913203
 21
9.29075
 31
0.0
  0
ARC
  5
24D
100
AcDbEntity
  8
0
100
AcDbCircle
 10
1.038203
 20
9.29075
 30
0.0
 40
0.125
100
AcDbArc
 50
180.0
 51
270.0
  0
ARC
  5
275
100
AcDbEntity
  8
0
100
AcDbCircle
 10
1.038203
 20
15.072
 30
0.0
 40
0.125
100
AcDbArc
 50
90.0
 51
180.0
  0
ARC
  5
276
100
AcDbEntity
  8
0
100
AcDbCircle
 10
7.067109
 20
15.072
 30
0.0
 40
0.125
100
AcDbArc
 50
0.0
 51
90.0
  0
ARC
  5
277
100
AcDbEntity
  8
0
100
AcDbCircle
 10
6.238203
 20
10.66575
 30
0.0
 40
0.125
100
AcDbArc
 50
0.0
 51
90.0
  0
ARC
  5
278
100
AcDbEntity
  8
0
100
AcDbCircle
 10
6.288203
 20
11.16575
 30
0.0
 40
0.125
100
AcDbArc
 50
360.0
 51
90.0
  0
ARC
  5
279
100
AcDbEntity
  8
0
100
AcDbCircle
 10
6.338203
 20
11.66575
 30
0.0
 40
0.125
100
AcDbArc
 50
360.0
 51
90.0
  0
LINE
  5
27A
100
AcDbEntity
  8
0
100
AcDbLine
 10
7.529609
 20
11.90325
 30
0.0
 11
8.279609
 21
11.90325
 31
0.0
  0
LINE
  5
27B
100
AcDbEntity
  8
0
100
AcDbLine
 10
7.529609
 20
12.12825
 30
0.0
 11
8.279609
 21
12.12825
 31
0.0
  0
LINE
  5
27C
100
AcDbEntity
  8
0
100
AcDbLine
 10
7.529609
 20
12.12825
 30
0.0
 11
7.529609
 21
11.90325
 31
0.0
  0
LINE
  5
27D
100
AcDbEntity
  8
0
100
AcDbLine
 10
8.279609
 20
12.12825
 30
0.0
 11
8.279609
 21
11.90325
 31
0.0
  0
TEXT
  5
27E
100
AcDbEntity
  8
TEXT
100
AcDbText
 10
7.579609
 20
11.95325
 30
0.0
 40
0.05
  1
Cable # C:--
100
AcDbText
  0
TEXT
  5
27F
100
AcDbEntity
  8
TEXT
100
AcDbText
 10
7.579609
 20
12.02825
 30
0.0
 40
0.05
  1
Encoder Cable:
100
AcDbText
  0
LINE
  5
280
100
AcDbEntity
  8
0
100
AcDbLine
 10
7.529609
 20
12.01575
 30
0.0
 11
7.417109
 21
12.01575
 31
0.0
  0
LINE
  5
281
100
AcDbEntity
  8
0
100
AcDbLine
 10
7.417109
 20
12.01575
 30
0.0
 11
7.258401
 21
11.857041
 31
0.0
  0
LINE
  5
282
100
AcDbEntity
  8
0
100
AcDbLine
 10
7.240555
 20
11.874816
 30
0.0
 11
7.275981
 21
11.839531
 31
0.0
  0
LINE
  5
283
100
AcDbEntity
  8
0
100
AcDbLine
 10
7.275981
 20
11.839531
 30
0.0
 11
7.192109
 21
11.79075
 31
0.0
  0
LINE
  5
284
100
AcDbEntity
  8
0
100
AcDbLine
 10
7.192109
 20
11.79075
 30
0.0
 11
7.240555
 21
11.874816
 31
0.0
  0
LINE
  5
285
100
AcDbEntity
  8
0
100
AcDbLine
 10
6.413009
 20
12.40325
 30
0.0
 11
7.163009
 21
12.40325
 31
0.0
  0
LINE
  5
286
100
AcDbEntity
  8
0
100
AcDbLine
 10
6.413009
 20
12.62825
 30
0.0
 11
7.163009
 21
12.62825
 31
0.0
  0
LINE
  5
287
100
AcDbEntity
  8
0
100
AcDbLine
 10
6.413009
 20
12.62825
 30
0.0
 11
6.413009
 21
12.40325
 31
0.0
  0
LINE
  5
288
100
AcDbEntity
  8
0
100
AcDbLine
 10
7.163009
 20
12.62825
 30
0.0
 11
7.163009
 21
12.40325
 31
0.0
  0
TEXT
  5
289
100
AcDbEntity
  8
TEXT
100
AcDbText
 10
6.463009
 20
12.45325
 30
0.0
 40
0.05
  1
Cable # C: --
100
AcDbText
  0
TEXT
  5
28A
100
AcDbEntity
  8
TEXT
100
AcDbText
 10
6.463009
 20
12.52825
 30
0.0
 40
0.05
  1
Power Cable:
100
AcDbText
  0
LINE
  5
28B
100
AcDbEntity
  8
0
100
AcDbLine
 10
6.595619
 20
12.40325
 30
0.0
 11
6.519861
 21
12.327492
 31
0.0
  0
LINE
  5
28C
100
AcDbEntity
  8
0
100
AcDbLine
 10
6.502015
 20
12.345267
 30
0.0
 11
6.537441
 21
12.309982
 31
0.0
  0
LINE
  5
28D
100
AcDbEntity
  8
0
100
AcDbLine
 10
6.537441
 20
12.309982
 30
0.0
 11
6.453569
 21
12.261201
 31
0.0
  0
LINE
  5
28E
100
AcDbEntity
  8
0
100
AcDbLine
 10
6.453569
 20
12.261201
 30
0.0
 11
6.502015
 21
12.345267
 31
0.0
  0
TEXT
  5
28F
100
AcDbEntity
  8
TEXT
100
AcDbText
 10
5.988203
 20
14.088498
 30
0.0
 40
0.05
  1
See Sheet #--
100
AcDbText
  0
LINE
  5
290
100
AcDbEntity
  8
0
100
AcDbLine
 10
5.938203
 20
14.222
 30
0.0
 11
6.688203
 21
14.222
 31
0.0
  0
LINE
  5
291
100
AcDbEntity
  8
0
100
AcDbLine
 10
5.938203
 20
13.997
 30
0.0
 11
6.688203
 21
13.997
 31
0.0
  0
LINE
  5
292
100
AcDbEntity
  8
0
100
AcDbLine
 10
5.825703
 20
14.1095
 30
0.0
 11
5.666995
 21
13.950791
 31
0.0
  0
LINE
  5
293
100
AcDbEntity
  8
0
100
AcDbLine
 10
5.600703
 20
13.8845
 30
0.0
 11
5.649149
 21
13.968566
 31
0.0
  0
LINE
  5
294
100
AcDbEntity
  8
0
100
AcDbLine
 10
5.684575
 20
13.933281
 30
0.0
 11
5.600703
 21
13.8845
 31
0.0
  0
LINE
  5
295
100
AcDbEntity
  8
0
100
AcDbLine
 10
5.649149
 20
13.968566
 30
0.0
 11
5.684575
 21
13.933281
 31
0.0
  0
LINE
  5
296
100
AcDbEntity
  8
0
100
AcDbLine
 10
5.938203
 20
14.222
 30
0.0
 11
5.938203
 21
13.997
 31
0.0
  0
LINE
  5
297
100
AcDbEntity
  8
0
100
AcDbLine
 10
5.938203
 20
14.1095
 30
0.0
 11
5.825703
 21
14.1095
 31
0.0
  0
LINE
  5
298
100
AcDbEntity
  8
0
100
AcDbLine
 10
6.688203
 20
14.222
 30
0.0
 11
6.688203
 21
13.997
 31
0.0
  0
TEXT
  5
299
100
AcDbEntity
  8
TEXT
100
AcDbText
 10
4.866242
 20
14.691048
 30
0.0
 40
0.125
  1
NOTE: See Sheet #--
 41
0.8
  7
ROMANS
 72
     4
 11
5.742433
 21
14.744619
 31
0.0
100
AcDbText
  0
LINE
  5
29A
100
AcDbEntity
  8
0
100
AcDbLine
 10
6.513203
 20
12.16575
 30
0.0
 11
6.513203
 21
10.29075
 31
0.0
  0
ARC
  5
29C
100
AcDbEntity
  8
0
100
AcDbCircle
 10
6.388203
 20
12.16575
 30
0.0
 40
0.125
100
AcDbArc
 50
360.0
 51
90.0
  0
LINE
  5
2B3
100
AcDbEntity
  8
0
100
AcDbLine
 10
5.600703
 20
12.29075
 30
0.0
 11
5.869453
 21
12.29075
 31
0.0
  0
LINE
  5
2BB
100
AcDbEntity
  8
0
100
AcDbLine
 10
5.600703
 20
11.79075
 30
0.0
 11
5.869453
 21
11.79075
 31
0.0
  0
LINE
  5
2C3
100
AcDbEntity
  8
0
100
AcDbLine
 10
5.600703
 20
11.29075
 30
0.0
 11
5.869453
 21
11.29075
 31
0.0
  0
LINE
  5
2CB
100
AcDbEntity
  8
0
100
AcDbLine
 10
5.600703
 20
10.79075
 30
0.0
 11
5.869453
 21
10.79075
 31
0.0
  0
TEXT
  5
2CD
100
AcDbEntity
  8
TEXT
100
AcDbText
 10
5.957541
 20
12.04033
 30
0.0
 40
0.075
  1
Color
 11
5.957541
 21
12.01533
 31
0.0
100
AcDbText
 73
     1
  0
TEXT
  5
2CE
100
AcDbEntity
  8
TEXT
100
AcDbText
 10
5.957541
 20
11.541011
 30
0.0
 40
0.075
  1
Color
 11
5.957541
 21
11.516011
 31
0.0
100
AcDbText
 73
     1
  0
TEXT
  5
2CF
100
AcDbEntity
  8
TEXT
100
AcDbText
 10
5.957541
 20
11.046736
 30
0.0
 40
0.075
  1
Color
 11
5.957541
 21
11.021736
 31
0.0
100
AcDbText
 73
     1
  0
TEXT
  5
2D0
100
AcDbEntity
  8
TEXT
100
AcDbText
 10
5.957541
 20
10.522199
 30
0.0
 40
0.075
  1
Color
 11
5.957541
 21
10.497199
 31
0.0
100
AcDbText
 73
     1
  0
TEXT
  5
382
100
AcDbEntity
  8
0
100
AcDbText
 10
9.171875
 20
8.046875
 30
0.0
 40
0.1
  1

 72
     1
 11
9.171875
 21
8.046875
 31
0.0
100
AcDbText
  0
TEXT
  5
383
100
AcDbEntity
  8
0
100
AcDbText
 10
15.320913
 20
4.90725
 30
0.0
 40
0.075
  1

100
AcDbText
  0
TEXT
  5
384
100
AcDbEntity
  8
0
100
AcDbText
 10
14.973206
 20
4.90725
 30
0.0
 40
0.075
  1

100
AcDbText
  0
TEXT
  5
385
100
AcDbEntity
  8
0
100
AcDbText
 10
14.88208
 20
14.438185
 30
0.0
 40
0.1
  1

 72
     1
 11
14.88208
 21
14.438185
 31
0.0
100
AcDbText
  0
TEXT
  5
386
100
AcDbEntity
  8
0
100
AcDbText
 10
21.031118
 20
11.29856
 30
0.0
 40
0.075
  1

100
AcDbText
  0
TEXT
  5
387
100
AcDbEntity
  8
0
100
AcDbText
 10
20.683411
 20
11.29856
 30
0.0
 40
0.075
  1

100
AcDbText
  0
TEXT
  5
388
100
AcDbEntity
  8
0
100
AcDbText
 10
20.760375
 20
8.08025
 30
0.0
 40
0.1
  1

 72
     1
 11
20.760375
 21
8.08025
 31
0.0
100
AcDbText
  0
TEXT
  5
389
100
AcDbEntity
  8
0
100
AcDbText
 10
26.909413
 20
4.940625
 30
0.0
 40
0.075
  1

100
AcDbText
  0
TEXT
  5
38A
100
AcDbEntity
  8
0
100
AcDbText
 10
26.561706
 20
4.940625
 30
0.0
 40
0.075
  1

100
AcDbText
  0
TEXT
  5
38B
100
AcDbEntity
  8
0
100
AcDbText
 10
26.47058
 20
14.47156
 30
0.0
 40
0.1
  1

 72
     1
 11
26.47058
 21
14.47156
 31
0.0
100
AcDbText
  0
TEXT
  5
38C
100
AcDbEntity
  8
0
100
AcDbText
 10
32.619618
 20
11.331935
 30
0.0
 40
0.075
  1

100
AcDbText
  0
TEXT
  5
38D
100
AcDbEntity
  8
0
100
AcDbText
 10
32.271911
 20
11.331935
 30
0.0
 40
0.075
  1

100
AcDbText
  0
LINE
  5
3C1
100
AcDbEntity
  8
0
100
AcDbLine
 10
5.921016
 20
8.947
 30
0.0
 11
5.921016
 21
9.697
 31
0.0
  0
TEXT
  5
3E1
100
AcDbEntity
  8
0
100
AcDbText
 10
18.6125
 20
10.787625
 30
0.0
 40
0.1
  1

 72
     1
 11
18.6125
 21
10.787625
 31
0.0
100
AcDbText
  0
TEXT
  5
3E2
100
AcDbEntity
  8
0
100
AcDbText
 10
24.761538
 20
7.648
 30
0.0
 40
0.075
  1

100
AcDbText
  0
TEXT
  5
3E3
100
AcDbEntity
  8
0
100
AcDbText
 10
24.413831
 20
7.648
 30
0.0
 40
0.075
  1

100
AcDbText
  0
TEXT
  5
3E4
100
AcDbEntity
  8
0
100
AcDbText
 10
24.322705
 20
17.178935
 30
0.0
 40
0.1
  1

 72
     1
 11
24.322705
 21
17.178935
 31
0.0
100
AcDbText
  0
TEXT
  5
3E5
100
AcDbEntity
  8
0
100
AcDbText
 10
30.471743
 20
14.03931
 30
0.0
 40
0.075
  1

100
AcDbText
  0
TEXT
  5
3E6
100
AcDbEntity
  8
0
100
AcDbText
 10
30.124036
 20
14.03931
 30
0.0
 40
0.075
  1

100
AcDbText
  0
TEXT
  5
3E7
100
AcDbEntity
  8
0
100
AcDbText
 10
30.201
 20
10.821
 30
0.0
 40
0.1
  1

 72
     1
 11
30.201
 21
10.821
 31
0.0
100
AcDbText
  0
TEXT
  5
3E8
100
AcDbEntity
  8
0
100
AcDbText
 10
36.350038
 20
7.681375
 30
0.0
 40
0.075
  1

100
AcDbText
  0
TEXT
  5
3E9
100
AcDbEntity
  8
0
100
AcDbText
 10
36.002331
 20
7.681375
 30
0.0
 40
0.075
  1

100
AcDbText
  0
TEXT
  5
3EA
100
AcDbEntity
  8
0
100
AcDbText
 10
35.911205
 20
17.21231
 30
0.0
 40
0.1
  1

 72
     1
 11
35.911205
 21
17.21231
 31
0.0
100
AcDbText
  0
TEXT
  5
3EB
100
AcDbEntity
  8
0
100
AcDbText
 10
42.060243
 20
14.072685
 30
0.0
 40
0.075
  1

100
AcDbText
  0
TEXT
  5
3EC
100
AcDbEntity
  8
0
100
AcDbText
 10
41.712536
 20
14.072685
 30
0.0
 40
0.075
  1

100
AcDbText
  0
TEXT
  5
3ED
100
AcDbEntity
  8
0
100
AcDbText
 10
22.592858
 20
17.648238
 30
0.0
 40
0.075
  1

 72
     1
 11
22.592858
 21
17.648238
 31
0.0
100
AcDbText
  0
TEXT
  5
3EE
100
AcDbEntity
  8
0
100
AcDbText
 10
22.592858
 20
17.148238
 30
0.0
 40
0.075
  1

 72
     1
 11
22.592858
 21
17.148238
 31
0.0
100
AcDbText
  0
TEXT
  5
3EF
100
AcDbEntity
  8
0
100
AcDbText
 10
22.592858
 20
16.648238
 30
0.0
 40
0.1
  1

 72
     1
 11
22.592858
 21
16.648238
 31
0.0
100
AcDbText
  0
TEXT
  5
3F0
100
AcDbEntity
  8
0
100
AcDbText
 10
22.405358
 20
10.648238
 30
0.0
 40
0.1
  1

100
AcDbText
  0
TEXT
  5
3F1
100
AcDbEntity
  8
0
100
AcDbText
 10
22.405358
 20
16.148238
 30
0.0
 40
0.1
  1

100
AcDbText
  0
TEXT
  5
3F2
100
AcDbEntity
  8
0
100
AcDbText
 10
32.918991
 20
17.648238
 30
0.0
 40
0.075
  1

 72
     1
 11
32.918991
 21
17.648238
 31
0.0
100
AcDbText
  0
TEXT
  5
3F3
100
AcDbEntity
  8
0
100
AcDbText
 10
32.918991
 20
17.148238
 30
0.0
 40
0.075
  1

 72
     1
 11
32.918991
 21
17.148238
 31
0.0
100
AcDbText
  0
TEXT
  5
3F4
100
AcDbEntity
  8
0
100
AcDbText
 10
32.918991
 20
16.648238
 30
0.0
 40
0.1
  1

 72
     1
 11
32.918991
 21
16.648238
 31
0.0
100
AcDbText
  0
TEXT
  5
3F5
100
AcDbEntity
  8
0
100
AcDbText
 10
32.731491
 20
10.648238
 30
0.0
 40
0.1
  1

100
AcDbText
  0
TEXT
  5
3F6
100
AcDbEntity
  8
0
100
AcDbText
 10
32.731491
 20
16.148238
 30
0.0
 40
0.1
  1

100
AcDbText
  0
TEXT
  5
439
100
AcDbEntity
  8
TEXT
100
AcDbText
 10
4.000703
 20
13.7595
 30
0.0
 40
0.075
  1
Power
 72
     2
 11
4.350703
 21
13.7595
 31
0.0
100
AcDbText
  0
TEXT
  5
43A
100
AcDbEntity
  8
TEXT
100
AcDbText
 10
3.925703
 20
12.7595
 30
0.0
 40
0.075
  1
Ground
 72
     2
 11
4.350703
 21
12.7595
 31
0.0
100
AcDbText
  0
TEXT
  5
43B
100
AcDbEntity
  8
TEXT
100
AcDbText
 10
5.988203
 20
13.588498
 30
0.0
 40
0.05
  1
See Sheet #--
100
AcDbText
  0
LINE
  5
43C
100
AcDbEntity
  8
0
100
AcDbLine
 10
5.938203
 20
13.497
 30
0.0
 11
6.688203
 21
13.497
 31
0.0
  0
LINE
  5
43D
100
AcDbEntity
  8
0
100
AcDbLine
 10
5.938203
 20
13.722
 30
0.0
 11
6.688203
 21
13.722
 31
0.0
  0
LINE
  5
43E
100
AcDbEntity
  8
0
100
AcDbLine
 10
5.684575
 20
13.433281
 30
0.0
 11
5.600703
 21
13.3845
 31
0.0
  0
LINE
  5
43F
100
AcDbEntity
  8
0
100
AcDbLine
 10
5.600703
 20
13.3845
 30
0.0
 11
5.649149
 21
13.468566
 31
0.0
  0
LINE
  5
440
100
AcDbEntity
  8
0
100
AcDbLine
 10
5.938203
 20
13.6095
 30
0.0
 11
5.825703
 21
13.6095
 31
0.0
  0
LINE
  5
441
100
AcDbEntity
  8
0
100
AcDbLine
 10
5.825703
 20
13.6095
 30
0.0
 11
5.666995
 21
13.450791
 31
0.0
  0
LINE
  5
442
100
AcDbEntity
  8
0
100
AcDbLine
 10
5.649149
 20
13.468566
 30
0.0
 11
5.684575
 21
13.433281
 31
0.0
  0
LINE
  5
443
100
AcDbEntity
  8
0
100
AcDbLine
 10
5.938203
 20
13.722
 30
0.0
 11
5.938203
 21
13.497
 31
0.0
  0
LINE
  5
444
100
AcDbEntity
  8
0
100
AcDbLine
 10
6.688203
 20
13.722
 30
0.0
 11
6.688203
 21
13.497
 31
0.0
  0
LINE
  5
446
100
AcDbEntity
  8
0
100
AcDbLine
 10
2.413203
 20
14.009729
 30
0.0
 11
4.413203
 21
14.009729
 31
0.0
  0
TEXT
  5
447
100
AcDbEntity
  8
TEXT
100
AcDbText
 10
3.22987
 20
14.042467
 30
0.0
 40
0.125
  1
Drive
 41
0.8
  7
ROMANS
 72
     4
 11
3.413203
 21
14.104967
 31
0.0
100
AcDbText
  0
TEXT
  5
448
100
AcDbEntity
  8
TEXT
100
AcDbText
 10
3.065584
 20
14.244848
 30
0.0
 40
0.125
  1
DSM-???
 41
0.8
  7
ROMANS
 72
     4
 11
3.413203
 21
14.307348
 31
0.0
100
AcDbText
  0
LINE
  5
4A0
100
AcDbEntity
  8
0
100
AcDbLine
 10
1.22586
 20
14.465838
 30
0.0
 11
2.185712
 21
14.465838
 31
0.0
  0
LINE
  5
4A1
100
AcDbEntity
  8
0
100
AcDbLine
 10
1.705786
 20
14.465838
 30
0.0
 11
2.04332
 21
14.059921
 31
0.0
  0
LINE
  5
4AB
100
AcDbEntity
  8
0
100
AcDbLine
 10
2.004261
 20
14.027076
 30
0.0
 11
2.080797
 21
14.091436
 31
0.0
  0
LINE
  5
4AC
100
AcDbEntity
  8
0
100
AcDbLine
 10
2.080797
 20
14.091436
 30
0.0
 11
2.163203
 21
13.91575
 31
0.0
  0
TEXT
  5
4B3
100
AcDbEntity
  8
TEXT
100
AcDbText
 10
5.96112
 20
12.24075
 30
0.0
 40
0.1
  1
A
 72
     1
 11
5.994453
 21
12.29075
 31
0.0
100
AcDbText
 73
     2
  0
CIRCLE
  5
4B4
100
AcDbEntity
  8
0
100
AcDbCircle
 10
5.994453
 20
12.29075
 30
0.0
 40
0.125
  0
LINE
  5
4B6
100
AcDbEntity
  8
0
100
AcDbLine
 10
6.119453
 20
12.29075
 30
0.0
 11
6.388203
 21
12.29075
 31
0.0
  0
CIRCLE
  5
4B7
100
AcDbEntity
  8
0
100
AcDbCircle
 10
5.994453
 20
11.79075
 30
0.0
 40
0.125
  0
TEXT
  5
4B8
100
AcDbEntity
  8
TEXT
100
AcDbText
 10
5.96112
 20
11.74075
 30
0.0
 40
0.1
  1
B
 72
     4
 11
5.994453
 21
11.79075
 31
0.0
100
AcDbText
  0
CIRCLE
  5
4B9
100
AcDbEntity
  8
0
100
AcDbCircle
 10
5.994453
 20
11.29075
 30
0.0
 40
0.125
  0
TEXT
  5
4BA
100
AcDbEntity
  8
TEXT
100
AcDbText
 10
5.96112
 20
11.24075
 30
0.0
 40
0.1
  1
C
 72
     4
 11
5.994453
 21
11.29075
 31
0.0
100
AcDbText
  0
CIRCLE
  5
4BB
100
AcDbEntity
  8
0
100
AcDbCircle
 10
5.994453
 20
10.79075
 30
0.0
 40
0.125
  0
TEXT
  5
4BC
100
AcDbEntity
  8
TEXT
100
AcDbText
 10
5.96112
 20
10.74075
 30
0.0
 40
0.1
  1
D
 72
     4
 11
5.994453
 21
10.79075
 31
0.0
100
AcDbText
  0
TEXT
  5
B7B
100
AcDbEntity
  8
0
100
AcDbText
 10
23.098537
 20
13.203744
 30
0.0
 40
0.075
  1

 72
     1
 11
23.098537
 21
13.203744
 31
0.0
100
AcDbText
  0
TEXT
  5
B7C
100
AcDbEntity
  8
0
100
AcDbText
 10
23.098537
 20
12.703744
 30
0.0
 40
0.075
  1

 72
     1
 11
23.098537
 21
12.703744
 31
0.0
100
AcDbText
  0
TEXT
  5
B7D
100
AcDbEntity
  8
0
100
AcDbText
 10
23.098537
 20
12.203744
 30
0.0
 40
0.1
  1

 72
     1
 11
23.098537
 21
12.203744
 31
0.0
100
AcDbText
  0
TEXT
  5
B7E
100
AcDbEntity
  8
0
100
AcDbText
 10
22.911037
 20
6.203744
 30
0.0
 40
0.1
  1

100
AcDbText
  0
TEXT
  5
B7F
100
AcDbEntity
  8
0
100
AcDbText
 10
22.911037
 20
11.703744
 30
0.0
 40
0.1
  1

100
AcDbText
  0
TEXT
  5
B80
100
AcDbEntity
  8
0
100
AcDbText
 10
33.42467
 20
13.203744
 30
0.0
 40
0.075
  1

 72
     1
 11
33.42467
 21
13.203744
 31
0.0
100
AcDbText
  0
TEXT
  5
B81
100
AcDbEntity
  8
0
100
AcDbText
 10
33.42467
 20
12.703744
 30
0.0
 40
0.075
  1

 72
     1
 11
33.42467
 21
12.703744
 31
0.0
100
AcDbText
  0
TEXT
  5
B82
100
AcDbEntity
  8
0
100
AcDbText
 10
33.42467
 20
12.203744
 30
0.0
 40
0.1
  1

 72
     1
 11
33.42467
 21
12.203744
 31
0.0
100
AcDbText
  0
TEXT
  5
B83
100
AcDbEntity
  8
0
100
AcDbText
 10
33.23717
 20
6.203744
 30
0.0
 40
0.1
  1

100
AcDbText
  0
TEXT
  5
B84
100
AcDbEntity
  8
0
100
AcDbText
 10
33.23717
 20
11.703744
 30
0.0
 40
0.1
  1

100
AcDbText
  0
TEXT
  5
B99
100
AcDbEntity
  8
0
100
AcDbText
 10
19.358804
 20
8.046875
 30
0.0
 40
0.1
  1

 72
     1
 11
19.358804
 21
8.046875
 31
0.0
100
AcDbText
  0
TEXT
  5
B9A
100
AcDbEntity
  8
0
100
AcDbText
 10
25.507842
 20
4.90725
 30
0.0
 40
0.075
  1

100
AcDbText
  0
TEXT
  5
B9B
100
AcDbEntity
  8
0
100
AcDbText
 10
25.160134
 20
4.90725
 30
0.0
 40
0.075
  1

100
AcDbText
  0
TEXT
  5
B9C
100
AcDbEntity
  8
0
100
AcDbText
 10
25.069009
 20
14.438185
 30
0.0
 40
0.1
  1

 72
     1
 11
25.069009
 21
14.438185
 31
0.0
100
AcDbText
  0
TEXT
  5
B9D
100
AcDbEntity
  8
0
100
AcDbText
 10
31.218047
 20
11.29856
 30
0.0
 40
0.075
  1

100
AcDbText
  0
TEXT
  5
B9E
100
AcDbEntity
  8
0
100
AcDbText
 10
30.87034
 20
11.29856
 30
0.0
 40
0.075
  1

100
AcDbText
  0
TEXT
  5
B9F
100
AcDbEntity
  8
0
100
AcDbText
 10
30.947304
 20
8.08025
 30
0.0
 40
0.1
  1

 72
     1
 11
30.947304
 21
8.08025
 31
0.0
100
AcDbText
  0
TEXT
  5
BA0
100
AcDbEntity
  8
0
100
AcDbText
 10
37.096342
 20
4.940625
 30
0.0
 40
0.075
  1

100
AcDbText
  0
TEXT
  5
BA1
100
AcDbEntity
  8
0
100
AcDbText
 10
36.748634
 20
4.940625
 30
0.0
 40
0.075
  1

100
AcDbText
  0
TEXT
  5
BA2
100
AcDbEntity
  8
0
100
AcDbText
 10
36.657509
 20
14.47156
 30
0.0
 40
0.1
  1

 72
     1
 11
36.657509
 21
14.47156
 31
0.0
100
AcDbText
  0
TEXT
  5
BA3
100
AcDbEntity
  8
0
100
AcDbText
 10
42.806547
 20
11.331935
 30
0.0
 40
0.075
  1

100
AcDbText
  0
TEXT
  5
BA4
100
AcDbEntity
  8
0
100
AcDbText
 10
42.45884
 20
11.331935
 30
0.0
 40
0.075
  1

100
AcDbText
  0
TEXT
  5
BA5
100
AcDbEntity
  8
0
100
AcDbText
 10
34.428868
 20
13.625548
 30
0.0
 40
0.075
  1

 72
     1
 11
34.428868
 21
13.625548
 31
0.0
100
AcDbText
  0
TEXT
  5
BA6
100
AcDbEntity
  8
0
100
AcDbText
 10
34.428868
 20
13.125548
 30
0.0
 40
0.075
  1

 72
     1
 11
34.428868
 21
13.125548
 31
0.0
100
AcDbText
  0
TEXT
  5
BA7
100
AcDbEntity
  8
0
100
AcDbText
 10
34.428868
 20
12.625548
 30
0.0
 40
0.1
  1

 72
     1
 11
34.428868
 21
12.625548
 31
0.0
100
AcDbText
  0
TEXT
  5
BA8
100
AcDbEntity
  8
0
100
AcDbText
 10
34.241368
 20
6.625548
 30
0.0
 40
0.1
  1

100
AcDbText
  0
TEXT
  5
BA9
100
AcDbEntity
  8
0
100
AcDbText
 10
34.241368
 20
12.125548
 30
0.0
 40
0.1
  1

100
AcDbText
  0
TEXT
  5
BAA
100
AcDbEntity
  8
0
100
AcDbText
 10
44.755001
 20
13.625548
 30
0.0
 40
0.075
  1

 72
     1
 11
44.755001
 21
13.625548
 31
0.0
100
AcDbText
  0
TEXT
  5
BAB
100
AcDbEntity
  8
0
100
AcDbText
 10
44.755001
 20
13.125548
 30
0.0
 40
0.075
  1

 72
     1
 11
44.755001
 21
13.125548
 31
0.0
100
AcDbText
  0
TEXT
  5
BAC
100
AcDbEntity
  8
0
100
AcDbText
 10
44.755001
 20
12.625548
 30
0.0
 40
0.1
  1

 72
     1
 11
44.755001
 21
12.625548
 31
0.0
100
AcDbText
  0
TEXT
  5
BAD
100
AcDbEntity
  8
0
100
AcDbText
 10
44.567501
 20
6.625548
 30
0.0
 40
0.1
  1

100
AcDbText
  0
TEXT
  5
BAE
100
AcDbEntity
  8
0
100
AcDbText
 10
44.567501
 20
12.125548
 30
0.0
 40
0.1
  1

100
AcDbText
  0
TEXT
  5
BB3
100
AcDbEntity
  8
TEXT
100
AcDbText
 10
2.475703
 20
13.8845
 30
0.0
 40
0.075
  1
Enc. Pwr
100
AcDbText
  0
TEXT
  5
BB4
100
AcDbEntity
  8
0
100
AcDbText
 10
30.689135
 20
8.468679
 30
0.0
 40
0.1
  1

 72
     1
 11
30.689135
 21
8.468679
 31
0.0
100
AcDbText
  0
TEXT
  5
BB5
100
AcDbEntity
  8
0
100
AcDbText
 10
36.838173
 20
5.329054
 30
0.0
 40
0.075
  1

100
AcDbText
  0
TEXT
  5
BB6
100
AcDbEntity
  8
0
100
AcDbText
 10
36.490466
 20
5.329054
 30
0.0
 40
0.075
  1

100
AcDbText
  0
TEXT
  5
BB7
100
AcDbEntity
  8
0
100
AcDbText
 10
36.39934
 20
14.859989
 30
0.0
 40
0.1
  1

 72
     1
 11
36.39934
 21
14.859989
 31
0.0
100
AcDbText
  0
TEXT
  5
BB8
100
AcDbEntity
  8
0
100
AcDbText
 10
42.548378
 20
11.720364
 30
0.0
 40
0.075
  1

100
AcDbText
  0
TEXT
  5
BB9
100
AcDbEntity
  8
0
100
AcDbText
 10
42.200671
 20
11.720364
 30
0.0
 40
0.075
  1

100
AcDbText
  0
TEXT
  5
BBA
100
AcDbEntity
  8
0
100
AcDbText
 10
42.277635
 20
8.502054
 30
0.0
 40
0.1
  1

 72
     1
 11
42.277635
 21
8.502054
 31
0.0
100
AcDbText
  0
TEXT
  5
BBB
100
AcDbEntity
  8
0
100
AcDbText
 10
48.426673
 20
5.362429
 30
0.0
 40
0.075
  1

100
AcDbText
  0
TEXT
  5
BBC
100
AcDbEntity
  8
0
100
AcDbText
 10
48.078966
 20
5.362429
 30
0.0
 40
0.075
  1

100
AcDbText
  0
TEXT
  5
BBD
100
AcDbEntity
  8
0
100
AcDbText
 10
47.98784
 20
14.893364
 30
0.0
 40
0.1
  1

 72
     1
 11
47.98784
 21
14.893364
 31
0.0
100
AcDbText
  0
TEXT
  5
BBE
100
AcDbEntity
  8
0
100
AcDbText
 10
54.136878
 20
11.753739
 30
0.0
 40
0.075
  1

100
AcDbText
  0
TEXT
  5
BBF
100
AcDbEntity
  8
0
100
AcDbText
 10
53.789171
 20
11.753739
 30
0.0
 40
0.075
  1

100
AcDbText
  0
TEXT
  5
BC0
100
AcDbEntity
  8
0
100
AcDbText
 10
40.12976
 20
11.209429
 30
0.0
 40
0.1
  1

 72
     1
 11
40.12976
 21
11.209429
 31
0.0
100
AcDbText
  0
TEXT
  5
BC1
100
AcDbEntity
  8
0
100
AcDbText
 10
46.278798
 20
8.069804
 30
0.0
 40
0.075
  1

100
AcDbText
  0
TEXT
  5
BC2
100
AcDbEntity
  8
0
100
AcDbText
 10
45.931091
 20
8.069804
 30
0.0
 40
0.075
  1

100
AcDbText
  0
TEXT
  5
BC3
100
AcDbEntity
  8
0
100
AcDbText
 10
45.839965
 20
17.600739
 30
0.0
 40
0.1
  1

 72
     1
 11
45.839965
 21
17.600739
 31
0.0
100
AcDbText
  0
TEXT
  5
BC4
100
AcDbEntity
  8
0
100
AcDbText
 10
51.989003
 20
14.461114
 30
0.0
 40
0.075
  1

100
AcDbText
  0
TEXT
  5
BC5
100
AcDbEntity
  8
0
100
AcDbText
 10
51.641296
 20
14.461114
 30
0.0
 40
0.075
  1

100
AcDbText
  0
TEXT
  5
BC6
100
AcDbEntity
  8
0
100
AcDbText
 10
51.71826
 20
11.242804
 30
0.0
 40
0.1
  1

 72
     1
 11
51.71826
 21
11.242804
 31
0.0
100
AcDbText
  0
TEXT
  5
BC7
100
AcDbEntity
  8
0
100
AcDbText
 10
57.867298
 20
8.103179
 30
0.0
 40
0.075
  1

100
AcDbText
  0
TEXT
  5
BC8
100
AcDbEntity
  8
0
100
AcDbText
 10
57.519591
 20
8.103179
 30
0.0
 40
0.075
  1

100
AcDbText
  0
TEXT
  5
BC9
100
AcDbEntity
  8
0
100
AcDbText
 10
57.428465
 20
17.634114
 30
0.0
 40
0.1
  1

 72
     1
 11
57.428465
 21
17.634114
 31
0.0
100
AcDbText
  0
TEXT
  5
BCA
100
AcDbEntity
  8
0
100
AcDbText
 10
63.577503
 20
14.494489
 30
0.0
 40
0.075
  1

100
AcDbText
  0
TEXT
  5
BCB
100
AcDbEntity
  8
0
100
AcDbText
 10
63.229796
 20
14.494489
 30
0.0
 40
0.075
  1

100
AcDbText
  0
TEXT
  5
BCC
100
AcDbEntity
  8
0
100
AcDbText
 10
44.110118
 20
18.070042
 30
0.0
 40
0.075
  1

 72
     1
 11
44.110118
 21
18.070042
 31
0.0
100
AcDbText
  0
TEXT
  5
BCD
100
AcDbEntity
  8
0
100
AcDbText
 10
44.110118
 20
17.570042
 30
0.0
 40
0.075
  1

 72
     1
 11
44.110118
 21
17.570042
 31
0.0
100
AcDbText
  0
TEXT
  5
BCE
100
AcDbEntity
  8
0
100
AcDbText
 10
44.110118
 20
17.070042
 30
0.0
 40
0.1
  1

 72
     1
 11
44.110118
 21
17.070042
 31
0.0
100
AcDbText
  0
TEXT
  5
BCF
100
AcDbEntity
  8
0
100
AcDbText
 10
43.922618
 20
11.070042
 30
0.0
 40
0.1
  1

100
AcDbText
  0
TEXT
  5
BD0
100
AcDbEntity
  8
0
100
AcDbText
 10
43.922618
 20
16.570042
 30
0.0
 40
0.1
  1

100
AcDbText
  0
TEXT
  5
BD1
100
AcDbEntity
  8
0
100
AcDbText
 10
54.436251
 20
18.070042
 30
0.0
 40
0.075
  1

 72
     1
 11
54.436251
 21
18.070042
 31
0.0
100
AcDbText
  0
TEXT
  5
BD2
100
AcDbEntity
  8
0
100
AcDbText
 10
54.436251
 20
17.570042
 30
0.0
 40
0.075
  1

 72
     1
 11
54.436251
 21
17.570042
 31
0.0
100
AcDbText
  0
TEXT
  5
BD3
100
AcDbEntity
  8
0
100
AcDbText
 10
54.436251
 20
17.070042
 30
0.0
 40
0.1
  1

 72
     1
 11
54.436251
 21
17.070042
 31
0.0
100
AcDbText
  0
TEXT
  5
BD4
100
AcDbEntity
  8
0
100
AcDbText
 10
54.248751
 20
11.070042
 30
0.0
 40
0.1
  1

100
AcDbText
  0
TEXT
  5
BD5
100
AcDbEntity
  8
0
100
AcDbText
 10
54.248751
 20
16.570042
 30
0.0
 40
0.1
  1

100
AcDbText
  0
TEXT
  5
BD7
100
AcDbEntity
  8
0
100
AcDbText
 10
23.224398
 20
13.725335
 30
0.0
 40
0.075
  1

 72
     1
 11
23.224398
 21
13.725335
 31
0.0
100
AcDbText
  0
TEXT
  5
BD8
100
AcDbEntity
  8
0
100
AcDbText
 10
23.224398
 20
13.225335
 30
0.0
 40
0.075
  1

 72
     1
 11
23.224398
 21
13.225335
 31
0.0
100
AcDbText
  0
TEXT
  5
BD9
100
AcDbEntity
  8
0
100
AcDbText
 10
23.224398
 20
12.725335
 30
0.0
 40
0.1
  1

 72
     1
 11
23.224398
 21
12.725335
 31
0.0
100
AcDbText
  0
TEXT
  5
BDA
100
AcDbEntity
  8
0
100
AcDbText
 10
23.036898
 20
6.725335
 30
0.0
 40
0.1
  1

100
AcDbText
  0
TEXT
  5
BDB
100
AcDbEntity
  8
0
100
AcDbText
 10
23.036898
 20
12.225335
 30
0.0
 40
0.1
  1

100
AcDbText
  0
TEXT
  5
BDC
100
AcDbEntity
  8
0
100
AcDbText
 10
23.361898
 20
8.725335
 30
0.0
 40
0.1
  1

 72
     1
 11
23.361898
 21
8.725335
 31
0.0
100
AcDbText
  0
TEXT
  5
BDD
100
AcDbEntity
  8
0
100
AcDbText
 10
24.565023
 20
24.516085
 30
0.0
 40
0.075
  1

 72
     1
 11
24.565023
 21
24.516085
 31
0.0
100
AcDbText
  0
TEXT
  5
BDE
100
AcDbEntity
  8
0
100
AcDbText
 10
24.565023
 20
24.016085
 30
0.0
 40
0.075
  1

 72
     1
 11
24.565023
 21
24.016085
 31
0.0
100
AcDbText
  0
TEXT
  5
BDF
100
AcDbEntity
  8
0
100
AcDbText
 10
24.565023
 20
23.516085
 30
0.0
 40
0.1
  1

 72
     1
 11
24.565023
 21
23.516085
 31
0.0
100
AcDbText
  0
TEXT
  5
BE0
100
AcDbEntity
  8
0
100
AcDbText
 10
24.377523
 20
17.516085
 30
0.0
 40
0.1
  1

100
AcDbText
  0
TEXT
  5
BE1
100
AcDbEntity
  8
0
100
AcDbText
 10
24.377523
 20
23.016085
 30
0.0
 40
0.1
  1

100
AcDbText
  0
TEXT
  5
BE2
100
AcDbEntity
  8
0
100
AcDbText
 10
24.702523
 20
19.516085
 30
0.0
 40
0.1
  1

 72
     1
 11
24.702523
 21
19.516085
 31
0.0
100
AcDbText
  0
TEXT
  5
BE3
100
AcDbEntity
  8
0
100
AcDbText
 10
30.055648
 20
8.23146
 30
0.0
 40
0.1
  1

 72
     1
 11
30.055648
 21
8.23146
 31
0.0
100
AcDbText
  0
TEXT
  5
BE4
100
AcDbEntity
  8
0
100
AcDbText
 10
36.204687
 20
5.091835
 30
0.0
 40
0.075
  1

100
AcDbText
  0
TEXT
  5
BE5
100
AcDbEntity
  8
0
100
AcDbText
 10
35.856979
 20
5.091835
 30
0.0
 40
0.075
  1

100
AcDbText
  0
TEXT
  5
BE6
100
AcDbEntity
  8
0
100
AcDbText
 10
35.765854
 20
14.622771
 30
0.0
 40
0.1
  1

 72
     1
 11
35.765854
 21
14.622771
 31
0.0
100
AcDbText
  0
TEXT
  5
BE7
100
AcDbEntity
  8
0
100
AcDbText
 10
41.914892
 20
11.483146
 30
0.0
 40
0.075
  1

100
AcDbText
  0
TEXT
  5
BE8
100
AcDbEntity
  8
0
100
AcDbText
 10
41.567184
 20
11.483146
 30
0.0
 40
0.075
  1

100
AcDbText
  0
TEXT
  5
BE9
100
AcDbEntity
  8
0
100
AcDbText
 10
41.644148
 20
8.264835
 30
0.0
 40
0.1
  1

 72
     1
 11
41.644148
 21
8.264835
 31
0.0
100
AcDbText
  0
TEXT
  5
BEA
100
AcDbEntity
  8
0
100
AcDbText
 10
47.793187
 20
5.12521
 30
0.0
 40
0.075
  1

100
AcDbText
  0
TEXT
  5
BEB
100
AcDbEntity
  8
0
100
AcDbText
 10
47.445479
 20
5.12521
 30
0.0
 40
0.075
  1

100
AcDbText
  0
TEXT
  5
BEC
100
AcDbEntity
  8
0
100
AcDbText
 10
47.354354
 20
14.656146
 30
0.0
 40
0.1
  1

 72
     1
 11
47.354354
 21
14.656146
 31
0.0
100
AcDbText
  0
TEXT
  5
BED
100
AcDbEntity
  8
0
100
AcDbText
 10
53.503392
 20
11.516521
 30
0.0
 40
0.075
  1

100
AcDbText
  0
TEXT
  5
BEE
100
AcDbEntity
  8
0
100
AcDbText
 10
53.155684
 20
11.516521
 30
0.0
 40
0.075
  1

100
AcDbText
  0
TEXT
  5
CB1
100
AcDbEntity
  8
TEXT
100
AcDbText
 10
2.475703
 20
13.6345
 30
0.0
 40
0.075
  1
Enc. Com
100
AcDbText
  0
TEXT
  5
CB7
100
AcDbEntity
  8
TEXT
100
AcDbText
 10
2.475703
 20
13.3845
 30
0.0
 40
0.075
  1
Enc. Pwr
100
AcDbText
  0
TEXT
  5
CBD
100
AcDbEntity
  8
TEXT
100
AcDbText
 10
2.475703
 20
13.1345
 30
0.0
 40
0.075
  1
Enc. Com
100
AcDbText
  0
TEXT
  5
CC3
100
AcDbEntity
  8
TEXT
100
AcDbText
 10
2.475703
 20
12.8845
 30
0.0
 40
0.075
  1
Enc Pwr Sense +
100
AcDbText
  0
TEXT
  5
CC9
100
AcDbEntity
  8
TEXT
100
AcDbText
 10
2.475703
 20
12.3845
 30
0.0
 40
0.075
  1
Mot Enc IP Ch A+
100
AcDbText
  0
TEXT
  5
CE8
100
AcDbEntity
  8
TEXT
100
AcDbText
 10
2.475703
 20
12.6345
 30
0.0
 40
0.075
  1
Enc Pwr Sense -
100
AcDbText
  0
TEXT
  5
CED
100
AcDbEntity
  8
TEXT
100
AcDbText
 10
2.475703
 20
12.1345
 30
0.0
 40
0.075
  1
Mot Enc IP Ch A-
100
AcDbText
  0
TEXT
  5
CEE
100
AcDbEntity
  8
TEXT
100
AcDbText
 10
2.475703
 20
11.8845
 30
0.0
 40
0.075
  1
Mot Enc IP Ch B+
100
AcDbText
  0
TEXT
  5
CEF
100
AcDbEntity
  8
TEXT
100
AcDbText
 10
2.475703
 20
11.6345
 30
0.0
 40
0.075
  1
Mot Enc IP Ch B-
100
AcDbText
  0
TEXT
  5
CF0
100
AcDbEntity
  8
TEXT
100
AcDbText
 10
2.475703
 20
11.3845
 30
0.0
 40
0.075
  1
Mot Enc IP Ch I+
100
AcDbText
  0
TEXT
  5
CF1
100
AcDbEntity
  8
TEXT
100
AcDbText
 10
2.475703
 20
11.1345
 30
0.0
 40
0.075
  1
Mot Enc IP Ch I-
100
AcDbText
  0
TEXT
  5
CF2
100
AcDbEntity
  8
TEXT
100
AcDbText
 10
2.475703
 20
10.1345
 30
0.0
 40
0.075
  1
Absolute Postition
100
AcDbText
  0
TEXT
  5
CF4
100
AcDbEntity
  8
TEXT
100
AcDbText
 10
2.475703
 20
9.1345
 30
0.0
 40
0.075
  1
Thermal Switch -
100
AcDbText
  0
TEXT
  5
CF5
100
AcDbEntity
  8
TEXT
100
AcDbText
 10
2.475703
 20
9.3845
 30
0.0
 40
0.075
  1
Thermal Switch +
100
AcDbText
  0
TEXT
  5
CF6
100
AcDbEntity
  8
TEXT
100
AcDbText
 10
2.475703
 20
9.6345
 30
0.0
 40
0.075
  1
RSVD
100
AcDbText
  0
TEXT
  5
CF7
100
AcDbEntity
  8
TEXT
100
AcDbText
 10
2.475703
 20
9.8845
 30
0.0
 40
0.075
  1
RSVD
100
AcDbText
  0
LINE
  5
CFB
100
AcDbEntity
  8
0
100
AcDbLine
 10
2.288203
 20
9.16575
 30
0.0
 11
1.038203
 21
9.16575
 31
0.0
  0
TEXT
  5
D0D
100
AcDbEntity
  8
TEXT
100
AcDbText
 10
2.475703
 20
10.3845
 30
0.0
 40
0.075
  1
Hall C
100
AcDbText
  0
TEXT
  5
D0E
100
AcDbEntity
  8
TEXT
100
AcDbText
 10
2.475703
 20
10.8845
 30
0.0
 40
0.075
  1
Hall A
100
AcDbText
  0
TEXT
  5
D0F
100
AcDbEntity
  8
TEXT
100
AcDbText
 10
2.475703
 20
10.6345
 30
0.0
 40
0.075
  1
Hall B
100
AcDbText
  0
LINE
  5
D27
100
AcDbEntity
  8
DASH
100
AcDbLine
 10
2.413203
 20
8.91575
 30
0.0
 11
3.788203
 21
8.91575
 31
0.0
  0
TEXT
  5
D29
100
AcDbEntity
  8
TEXT
100
AcDbText
 10
2.475703
 20
7.6345
 30
0.0
 40
0.075
  1
COM
100
AcDbText
  0
TEXT
  5
D2B
100
AcDbEntity
  8
TEXT
100
AcDbText
 10
2.475703
 20
6.6345
 30
0.0
 40
0.075
  1
RSVD
100
AcDbText
  0
TEXT
  5
D2C
100
AcDbEntity
  8
TEXT
100
AcDbText
 10
2.475703
 20
6.8845
 30
0.0
 40
0.075
  1
XMT - RS 485
100
AcDbText
  0
TEXT
  5
D2D
100
AcDbEntity
  8
TEXT
100
AcDbText
 10
2.475703
 20
7.1345
 30
0.0
 40
0.075
  1
RCV - RS 485
100
AcDbText
  0
TEXT
  5
D2E
100
AcDbEntity
  8
TEXT
100
AcDbText
 10
2.475703
 20
7.3845
 30
0.0
 40
0.075
  1
RSVD
100
AcDbText
  0
TEXT
  5
D44
100
AcDbEntity
  8
TEXT
100
AcDbText
 10
2.475703
 20
7.8845
 30
0.0
 40
0.075
  1
XMT + RS 485
100
AcDbText
  0
TEXT
  5
D45
100
AcDbEntity
  8
TEXT
100
AcDbText
 10
2.475703
 20
8.3845
 30
0.0
 40
0.075
  1
RCV RS 232
100
AcDbText
  0
TEXT
  5
D46
100
AcDbEntity
  8
TEXT
100
AcDbText
 10
2.475703
 20
8.1345
 30
0.0
 40
0.075
  1
XMT RS 232
100
AcDbText
  0
TEXT
  5
D47
100
AcDbEntity
  8
TEXT
100
AcDbText
 10
2.475703
 20
8.6345
 30
0.0
 40
0.075
  1
RCV+ RS 485
100
AcDbText
  0
LINE
  5
D60
100
AcDbEntity
  8
DASH
100
AcDbLine
 10
2.413203
 20
6.41575
 30
0.0
 11
3.788203
 21
6.41575
 31
0.0
  0
LINE
  5
10E9
100
AcDbEntity
  8
0
100
AcDbLine
 10
2.288203
 20
9.41575
 30
0.0
 11
1.038203
 21
9.41575
 31
0.0
  0
ARC
  5
10EA
100
AcDbEntity
  8
0
100
AcDbCircle
 10
1.038203
 20
9.54075
 30
0.0
 40
0.125
100
AcDbArc
 50
180.0
 51
270.0
  0
LINE
  5
10EC
100
AcDbEntity
  8
0
100
AcDbLine
 10
2.288203
 20
9.66575
 30
0.0
 11
1.038203
 21
9.66575
 31
0.0
  0
ARC
  5
10ED
100
AcDbEntity
  8
0
100
AcDbCircle
 10
1.038203
 20
9.79075
 30
0.0
 40
0.125
100
AcDbArc
 50
180.0
 51
270.0
  0
LINE
  5
10EF
100
AcDbEntity
  8
0
100
AcDbLine
 10
2.288203
 20
9.91575
 30
0.0
 11
1.038203
 21
9.91575
 31
0.0
  0
ARC
  5
10F0
100
AcDbEntity
  8
0
100
AcDbCircle
 10
1.038203
 20
10.04075
 30
0.0
 40
0.125
100
AcDbArc
 50
180.0
 51
270.0
  0
LINE
  5
10F2
100
AcDbEntity
  8
0
100
AcDbLine
 10
2.288203
 20
10.16575
 30
0.0
 11
1.038203
 21
10.16575
 31
0.0
  0
ARC
  5
10F3
100
AcDbEntity
  8
0
100
AcDbCircle
 10
1.038203
 20
10.29075
 30
0.0
 40
0.125
100
AcDbArc
 50
180.0
 51
270.0
  0
LINE
  5
10F5
100
AcDbEntity
  8
0
100
AcDbLine
 10
2.288203
 20
10.41575
 30
0.0
 11
1.038203
 21
10.41575
 31
0.0
  0
ARC
  5
10F6
100
AcDbEntity
  8
0
100
AcDbCircle
 10
1.038203
 20
10.54075
 30
0.0
 40
0.125
100
AcDbArc
 50
180.0
 51
270.0
  0
LINE
  5
10F8
100
AcDbEntity
  8
0
100
AcDbLine
 10
2.288203
 20
10.66575
 30
0.0
 11
1.038203
 21
10.66575
 31
0.0
  0
ARC
  5
10F9
100
AcDbEntity
  8
0
100
AcDbCircle
 10
1.038203
 20
10.79075
 30
0.0
 40
0.125
100
AcDbArc
 50
180.0
 51
270.0
  0
LINE
  5
10FB
100
AcDbEntity
  8
0
100
AcDbLine
 10
2.288203
 20
10.91575
 30
0.0
 11
1.038203
 21
10.91575
 31
0.0
  0
ARC
  5
10FC
100
AcDbEntity
  8
0
100
AcDbCircle
 10
1.038203
 20
11.04075
 30
0.0
 40
0.125
100
AcDbArc
 50
180.0
 51
270.0
  0
LINE
  5
10FE
100
AcDbEntity
  8
0
100
AcDbLine
 10
2.288203
 20
11.16575
 30
0.0
 11
1.038203
 21
11.16575
 31
0.0
  0
ARC
  5
10FF
100
AcDbEntity
  8
0
100
AcDbCircle
 10
1.038203
 20
11.29075
 30
0.0
 40
0.125
100
AcDbArc
 50
180.0
 51
270.0
  0
LINE
  5
1101
100
AcDbEntity
  8
0
100
AcDbLine
 10
2.288203
 20
13.41575
 30
0.0
 11
1.038203
 21
13.41575
 31
0.0
  0
LINE
  5
1102
100
AcDbEntity
  8
0
100
AcDbLine
 10
2.288203
 20
13.16575
 30
0.0
 11
1.038203
 21
13.16575
 31
0.0
  0
LINE
  5
1103
100
AcDbEntity
  8
0
100
AcDbLine
 10
2.288203
 20
12.91575
 30
0.0
 11
1.038203
 21
12.91575
 31
0.0
  0
LINE
  5
1104
100
AcDbEntity
  8
0
100
AcDbLine
 10
2.288203
 20
12.66575
 30
0.0
 11
1.038203
 21
12.66575
 31
0.0
  0
LINE
  5
1105
100
AcDbEntity
  8
0
100
AcDbLine
 10
2.288203
 20
12.41575
 30
0.0
 11
1.038203
 21
12.41575
 31
0.0
  0
LINE
  5
1106
100
AcDbEntity
  8
0
100
AcDbLine
 10
2.288203
 20
12.16575
 30
0.0
 11
1.038203
 21
12.16575
 31
0.0
  0
LINE
  5
1107
100
AcDbEntity
  8
0
100
AcDbLine
 10
2.288203
 20
11.91575
 30
0.0
 11
1.038203
 21
11.91575
 31
0.0
  0
LINE
  5
1108
100
AcDbEntity
  8
0
100
AcDbLine
 10
2.288203
 20
11.66575
 30
0.0
 11
1.038203
 21
11.66575
 31
0.0
  0
LINE
  5
1109
100
AcDbEntity
  8
0
100
AcDbLine
 10
2.288203
 20
11.41575
 30
0.0
 11
1.038203
 21
11.41575
 31
0.0
  0
ARC
  5
110A
100
AcDbEntity
  8
0
100
AcDbCircle
 10
1.038203
 20
12.54075
 30
0.0
 40
0.125
100
AcDbArc
 50
180.0
 51
270.0
  0
ARC
  5
110B
100
AcDbEntity
  8
0
100
AcDbCircle
 10
1.038203
 20
11.54075
 30
0.0
 40
0.125
100
AcDbArc
 50
180.0
 51
270.0
  0
ARC
  5
110C
100
AcDbEntity
  8
0
100
AcDbCircle
 10
1.038203
 20
11.79075
 30
0.0
 40
0.125
100
AcDbArc
 50
180.0
 51
270.0
  0
ARC
  5
110D
100
AcDbEntity
  8
0
100
AcDbCircle
 10
1.038203
 20
12.04075
 30
0.0
 40
0.125
100
AcDbArc
 50
180.0
 51
270.0
  0
ARC
  5
110E
100
AcDbEntity
  8
0
100
AcDbCircle
 10
1.038203
 20
12.29075
 30
0.0
 40
0.125
100
AcDbArc
 50
180.0
 51
270.0
  0
ARC
  5
110F
100
AcDbEntity
  8
0
100
AcDbCircle
 10
1.038203
 20
13.04075
 30
0.0
 40
0.125
100
AcDbArc
 50
180.0
 51
270.0
  0
ARC
  5
1110
100
AcDbEntity
  8
0
100
AcDbCircle
 10
1.038203
 20
12.79075
 30
0.0
 40
0.125
100
AcDbArc
 50
180.0
 51
270.0
  0
ARC
  5
1111
100
AcDbEntity
  8
0
100
AcDbCircle
 10
1.038203
 20
13.29075
 30
0.0
 40
0.125
100
AcDbArc
 50
180.0
 51
270.0
  0
ARC
  5
1112
100
AcDbEntity
  8
0
100
AcDbCircle
 10
1.038203
 20
13.54075
 30
0.0
 40
0.125
100
AcDbArc
 50
180.0
 51
270.0
  0
LINE
  5
111C
100
AcDbEntity
  8
0
100
AcDbLine
 10
2.004261
 20
14.027076
 30
0.0
 11
2.163203
 21
13.91575
 31
0.0
  0
LINE
  5
111D
100
AcDbEntity
  8
0
100
AcDbLine
 10
2.288203
 20
13.66575
 30
0.0
 11
1.038203
 21
13.66575
 31
0.0
  0
LINE
  5
111E
100
AcDbEntity
  8
0
100
AcDbLine
 10
2.288203
 20
13.91575
 30
0.0
 11
1.038203
 21
13.91575
 31
0.0
  0
ARC
  5
111F
100
AcDbEntity
  8
0
100
AcDbCircle
 10
1.038203
 20
13.79075
 30
0.0
 40
0.125
100
AcDbArc
 50
180.0
 51
270.0
  0
ARC
  5
1120
100
AcDbEntity
  8
0
100
AcDbCircle
 10
1.038203
 20
14.04075
 30
0.0
 40
0.125
100
AcDbArc
 50
180.0
 51
270.0
  0
TEXT
  5
17AA
100
AcDbEntity
  8
0
100
AcDbText
 10
23.200703
 20
13.490542
 30
0.0
 40
0.075
  1

 72
     1
 11
23.200703
 21
13.490542
 31
0.0
100
AcDbText
  0
TEXT
  5
17AB
100
AcDbEntity
  8
0
100
AcDbText
 10
23.200703
 20
12.990542
 30
0.0
 40
0.075
  1

 72
     1
 11
23.200703
 21
12.990542
 31
0.0
100
AcDbText
  0
TEXT
  5
17AC
100
AcDbEntity
  8
0
100
AcDbText
 10
23.200703
 20
12.490542
 30
0.0
 40
0.1
  1

 72
     1
 11
23.200703
 21
12.490542
 31
0.0
100
AcDbText
  0
TEXT
  5
17AD
100
AcDbEntity
  8
0
100
AcDbText
 10
23.013203
 20
6.490542
 30
0.0
 40
0.1
  1

100
AcDbText
  0
TEXT
  5
17AE
100
AcDbEntity
  8
0
100
AcDbText
 10
23.013203
 20
11.990542
 30
0.0
 40
0.1
  1

100
AcDbText
  0
TEXT
  5
17AF
100
AcDbEntity
  8
0
100
AcDbText
 10
33.526836
 20
13.490542
 30
0.0
 40
0.075
  1

 72
     1
 11
33.526836
 21
13.490542
 31
0.0
100
AcDbText
  0
TEXT
  5
17B0
100
AcDbEntity
  8
0
100
AcDbText
 10
33.526836
 20
12.990542
 30
0.0
 40
0.075
  1

 72
     1
 11
33.526836
 21
12.990542
 31
0.0
100
AcDbText
  0
TEXT
  5
17B1
100
AcDbEntity
  8
0
100
AcDbText
 10
33.526836
 20
12.490542
 30
0.0
 40
0.1
  1

 72
     1
 11
33.526836
 21
12.490542
 31
0.0
100
AcDbText
  0
TEXT
  5
17B2
100
AcDbEntity
  8
0
100
AcDbText
 10
33.339336
 20
6.490542
 30
0.0
 40
0.1
  1

100
AcDbText
  0
TEXT
  5
17B3
100
AcDbEntity
  8
0
100
AcDbText
 10
33.339336
 20
11.990542
 30
0.0
 40
0.1
  1

100
AcDbText
  0
TEXT
  5
17C6
100
AcDbEntity
  8
0
100
AcDbText
 10
19.46097
 20
8.333673
 30
0.0
 40
0.1
  1

 72
     1
 11
19.46097
 21
8.333673
 31
0.0
100
AcDbText
  0
TEXT
  5
17C7
100
AcDbEntity
  8
0
100
AcDbText
 10
25.610008
 20
5.194048
 30
0.0
 40
0.075
  1

100
AcDbText
  0
TEXT
  5
17C8
100
AcDbEntity
  8
0
100
AcDbText
 10
25.262301
 20
5.194048
 30
0.0
 40
0.075
  1

100
AcDbText
  0
TEXT
  5
17C9
100
AcDbEntity
  8
0
100
AcDbText
 10
25.171176
 20
14.724983
 30
0.0
 40
0.1
  1

 72
     1
 11
25.171176
 21
14.724983
 31
0.0
100
AcDbText
  0
TEXT
  5
17CA
100
AcDbEntity
  8
0
100
AcDbText
 10
31.320214
 20
11.585358
 30
0.0
 40
0.075
  1

100
AcDbText
  0
TEXT
  5
17CB
100
AcDbEntity
  8
0
100
AcDbText
 10
30.972506
 20
11.585358
 30
0.0
 40
0.075
  1

100
AcDbText
  0
TEXT
  5
17CC
100
AcDbEntity
  8
0
100
AcDbText
 10
31.04947
 20
8.367048
 30
0.0
 40
0.1
  1

 72
     1
 11
31.04947
 21
8.367048
 31
0.0
100
AcDbText
  0
TEXT
  5
17CD
100
AcDbEntity
  8
0
100
AcDbText
 10
37.198508
 20
5.227423
 30
0.0
 40
0.075
  1

100
AcDbText
  0
TEXT
  5
17CE
100
AcDbEntity
  8
0
100
AcDbText
 10
36.850801
 20
5.227423
 30
0.0
 40
0.075
  1

100
AcDbText
  0
TEXT
  5
17CF
100
AcDbEntity
  8
0
100
AcDbText
 10
36.759676
 20
14.758358
 30
0.0
 40
0.1
  1

 72
     1
 11
36.759676
 21
14.758358
 31
0.0
100
AcDbText
  0
TEXT
  5
17D0
100
AcDbEntity
  8
0
100
AcDbText
 10
42.908714
 20
11.618733
 30
0.0
 40
0.075
  1

100
AcDbText
  0
TEXT
  5
17D1
100
AcDbEntity
  8
0
100
AcDbText
 10
42.561006
 20
11.618733
 30
0.0
 40
0.075
  1

100
AcDbText
  0
TEXT
  5
17D2
100
AcDbEntity
  8
0
100
AcDbText
 10
34.531035
 20
13.912346
 30
0.0
 40
0.075
  1

 72
     1
 11
34.531035
 21
13.912346
 31
0.0
100
AcDbText
  0
TEXT
  5
17D3
100
AcDbEntity
  8
0
100
AcDbText
 10
34.531035
 20
13.412346
 30
0.0
 40
0.075
  1

 72
     1
 11
34.531035
 21
13.412346
 31
0.0
100
AcDbText
  0
TEXT
  5
17D4
100
AcDbEntity
  8
0
100
AcDbText
 10
34.531035
 20
12.912346
 30
0.0
 40
0.1
  1

 72
     1
 11
34.531035
 21
12.912346
 31
0.0
100
AcDbText
  0
TEXT
  5
17D5
100
AcDbEntity
  8
0
100
AcDbText
 10
34.343535
 20
6.912346
 30
0.0
 40
0.1
  1

100
AcDbText
  0
TEXT
  5
17D6
100
AcDbEntity
  8
0
100
AcDbText
 10
34.343535
 20
12.412346
 30
0.0
 40
0.1
  1

100
AcDbText
  0
TEXT
  5
17D7
100
AcDbEntity
  8
0
100
AcDbText
 10
44.857167
 20
13.912346
 30
0.0
 40
0.075
  1

 72
     1
 11
44.857167
 21
13.912346
 31
0.0
100
AcDbText
  0
TEXT
  5
17D8
100
AcDbEntity
  8
0
100
AcDbText
 10
44.857167
 20
13.412346
 30
0.0
 40
0.075
  1

 72
     1
 11
44.857167
 21
13.412346
 31
0.0
100
AcDbText
  0
TEXT
  5
17D9
100
AcDbEntity
  8
0
100
AcDbText
 10
44.857167
 20
12.912346
 30
0.0
 40
0.1
  1

 72
     1
 11
44.857167
 21
12.912346
 31
0.0
100
AcDbText
  0
TEXT
  5
17DA
100
AcDbEntity
  8
0
100
AcDbText
 10
44.669667
 20
6.912346
 30
0.0
 40
0.1
  1

100
AcDbText
  0
TEXT
  5
17DB
100
AcDbEntity
  8
0
100
AcDbText
 10
44.669667
 20
12.412346
 30
0.0
 40
0.1
  1

100
AcDbText
  0
TEXT
  5
17DD
100
AcDbEntity
  8
0
100
AcDbText
 10
30.791302
 20
8.755477
 30
0.0
 40
0.1
  1

 72
     1
 11
30.791302
 21
8.755477
 31
0.0
100
AcDbText
  0
TEXT
  5
17DE
100
AcDbEntity
  8
0
100
AcDbText
 10
36.94034
 20
5.615852
 30
0.0
 40
0.075
  1

100
AcDbText
  0
TEXT
  5
17DF
100
AcDbEntity
  8
0
100
AcDbText
 10
36.592632
 20
5.615852
 30
0.0
 40
0.075
  1

100
AcDbText
  0
TEXT
  5
17E0
100
AcDbEntity
  8
0
100
AcDbText
 10
36.501507
 20
15.146787
 30
0.0
 40
0.1
  1

 72
     1
 11
36.501507
 21
15.146787
 31
0.0
100
AcDbText
  0
TEXT
  5
17E1
100
AcDbEntity
  8
0
100
AcDbText
 10
42.650545
 20
12.007162
 30
0.0
 40
0.075
  1

100
AcDbText
  0
TEXT
  5
17E2
100
AcDbEntity
  8
0
100
AcDbText
 10
42.302837
 20
12.007162
 30
0.0
 40
0.075
  1

100
AcDbText
  0
TEXT
  5
17E3
100
AcDbEntity
  8
0
100
AcDbText
 10
42.379802
 20
8.788852
 30
0.0
 40
0.1
  1

 72
     1
 11
42.379802
 21
8.788852
 31
0.0
100
AcDbText
  0
TEXT
  5
17E4
100
AcDbEntity
  8
0
100
AcDbText
 10
48.52884
 20
5.649227
 30
0.0
 40
0.075
  1

100
AcDbText
  0
TEXT
  5
17E5
100
AcDbEntity
  8
0
100
AcDbText
 10
48.181132
 20
5.649227
 30
0.0
 40
0.075
  1

100
AcDbText
  0
TEXT
  5
17E6
100
AcDbEntity
  8
0
100
AcDbText
 10
48.090007
 20
15.180162
 30
0.0
 40
0.1
  1

 72
     1
 11
48.090007
 21
15.180162
 31
0.0
100
AcDbText
  0
TEXT
  5
17E7
100
AcDbEntity
  8
0
100
AcDbText
 10
54.239045
 20
12.040537
 30
0.0
 40
0.075
  1

100
AcDbText
  0
TEXT
  5
17E8
100
AcDbEntity
  8
0
100
AcDbText
 10
53.891337
 20
12.040537
 30
0.0
 40
0.075
  1

100
AcDbText
  0
TEXT
  5
17E9
100
AcDbEntity
  8
0
100
AcDbText
 10
40.231927
 20
11.496227
 30
0.0
 40
0.1
  1

 72
     1
 11
40.231927
 21
11.496227
 31
0.0
100
AcDbText
  0
TEXT
  5
17EA
100
AcDbEntity
  8
0
100
AcDbText
 10
46.380965
 20
8.356602
 30
0.0
 40
0.075
  1

100
AcDbText
  0
TEXT
  5
17EB
100
AcDbEntity
  8
0
100
AcDbText
 10
46.033257
 20
8.356602
 30
0.0
 40
0.075
  1

100
AcDbText
  0
TEXT
  5
17EC
100
AcDbEntity
  8
0
100
AcDbText
 10
45.942132
 20
17.887537
 30
0.0
 40
0.1
  1

 72
     1
 11
45.942132
 21
17.887537
 31
0.0
100
AcDbText
  0
TEXT
  5
17ED
100
AcDbEntity
  8
0
100
AcDbText
 10
52.09117
 20
14.747912
 30
0.0
 40
0.075
  1

100
AcDbText
  0
TEXT
  5
17EE
100
AcDbEntity
  8
0
100
AcDbText
 10
51.743462
 20
14.747912
 30
0.0
 40
0.075
  1

100
AcDbText
  0
TEXT
  5
17EF
100
AcDbEntity
  8
0
100
AcDbText
 10
51.820427
 20
11.529602
 30
0.0
 40
0.1
  1

 72
     1
 11
51.820427
 21
11.529602
 31
0.0
100
AcDbText
  0
TEXT
  5
17F0
100
AcDbEntity
  8
0
100
AcDbText
 10
57.969465
 20
8.389977
 30
0.0
 40
0.075
  1

100
AcDbText
  0
TEXT
  5
17F1
100
AcDbEntity
  8
0
100
AcDbText
 10
57.621757
 20
8.389977
 30
0.0
 40
0.075
  1

100
AcDbText
  0
TEXT
  5
17F2
100
AcDbEntity
  8
0
100
AcDbText
 10
57.530632
 20
17.920912
 30
0.0
 40
0.1
  1

 72
     1
 11
57.530632
 21
17.920912
 31
0.0
100
AcDbText
  0
TEXT
  5
17F3
100
AcDbEntity
  8
0
100
AcDbText
 10
63.67967
 20
14.781287
 30
0.0
 40
0.075
  1

100
AcDbText
  0
TEXT
  5
17F4
100
AcDbEntity
  8
0
100
AcDbText
 10
63.331962
 20
14.781287
 30
0.0
 40
0.075
  1

100
AcDbText
  0
TEXT
  5
17F5
100
AcDbEntity
  8
0
100
AcDbText
 10
44.212285
 20
18.356839
 30
0.0
 40
0.075
  1

 72
     1
 11
44.212285
 21
18.356839
 31
0.0
100
AcDbText
  0
TEXT
  5
17F6
100
AcDbEntity
  8
0
100
AcDbText
 10
44.212285
 20
17.856839
 30
0.0
 40
0.075
  1

 72
     1
 11
44.212285
 21
17.856839
 31
0.0
100
AcDbText
  0
TEXT
  5
17F7
100
AcDbEntity
  8
0
100
AcDbText
 10
44.212285
 20
17.356839
 30
0.0
 40
0.1
  1

 72
     1
 11
44.212285
 21
17.356839
 31
0.0
100
AcDbText
  0
TEXT
  5
17F8
100
AcDbEntity
  8
0
100
AcDbText
 10
44.024785
 20
11.356839
 30
0.0
 40
0.1
  1

100
AcDbText
  0
TEXT
  5
17F9
100
AcDbEntity
  8
0
100
AcDbText
 10
44.024785
 20
16.856839
 30
0.0
 40
0.1
  1

100
AcDbText
  0
TEXT
  5
17FA
100
AcDbEntity
  8
0
100
AcDbText
 10
54.538417
 20
18.356839
 30
0.0
 40
0.075
  1

 72
     1
 11
54.538417
 21
18.356839
 31
0.0
100
AcDbText
  0
TEXT
  5
17FB
100
AcDbEntity
  8
0
100
AcDbText
 10
54.538417
 20
17.856839
 30
0.0
 40
0.075
  1

 72
     1
 11
54.538417
 21
17.856839
 31
0.0
100
AcDbText
  0
TEXT
  5
17FC
100
AcDbEntity
  8
0
100
AcDbText
 10
54.538417
 20
17.356839
 30
0.0
 40
0.1
  1

 72
     1
 11
54.538417
 21
17.356839
 31
0.0
100
AcDbText
  0
TEXT
  5
17FD
100
AcDbEntity
  8
0
100
AcDbText
 10
54.350917
 20
11.356839
 30
0.0
 40
0.1
  1

100
AcDbText
  0
TEXT
  5
17FE
100
AcDbEntity
  8
0
100
AcDbText
 10
54.350917
 20
16.856839
 30
0.0
 40
0.1
  1

100
AcDbText
  0
TEXT
  5
1800
100
AcDbEntity
  8
0
100
AcDbText
 10
23.326565
 20
14.012133
 30
0.0
 40
0.075
  1

 72
     1
 11
23.326565
 21
14.012133
 31
0.0
100
AcDbText
  0
TEXT
  5
1801
100
AcDbEntity
  8
0
100
AcDbText
 10
23.326565
 20
13.512133
 30
0.0
 40
0.075
  1

 72
     1
 11
23.326565
 21
13.512133
 31
0.0
100
AcDbText
  0
TEXT
  5
1802
100
AcDbEntity
  8
0
100
AcDbText
 10
23.326565
 20
13.012133
 30
0.0
 40
0.1
  1

 72
     1
 11
23.326565
 21
13.012133
 31
0.0
100
AcDbText
  0
TEXT
  5
1803
100
AcDbEntity
  8
0
100
AcDbText
 10
23.139065
 20
7.012133
 30
0.0
 40
0.1
  1

100
AcDbText
  0
TEXT
  5
1804
100
AcDbEntity
  8
0
100
AcDbText
 10
23.139065
 20
12.512133
 30
0.0
 40
0.1
  1

100
AcDbText
  0
TEXT
  5
1805
100
AcDbEntity
  8
0
100
AcDbText
 10
23.464065
 20
9.012133
 30
0.0
 40
0.1
  1

 72
     1
 11
23.464065
 21
9.012133
 31
0.0
100
AcDbText
  0
TEXT
  5
1806
100
AcDbEntity
  8
0
100
AcDbText
 10
24.66719
 20
24.802883
 30
0.0
 40
0.075
  1

 72
     1
 11
24.66719
 21
24.802883
 31
0.0
100
AcDbText
  0
TEXT
  5
1807
100
AcDbEntity
  8
0
100
AcDbText
 10
24.66719
 20
24.302883
 30
0.0
 40
0.075
  1

 72
     1
 11
24.66719
 21
24.302883
 31
0.0
100
AcDbText
  0
TEXT
  5
1808
100
AcDbEntity
  8
0
100
AcDbText
 10
24.66719
 20
23.802883
 30
0.0
 40
0.1
  1

 72
     1
 11
24.66719
 21
23.802883
 31
0.0
100
AcDbText
  0
TEXT
  5
1809
100
AcDbEntity
  8
0
100
AcDbText
 10
24.47969
 20
17.802883
 30
0.0
 40
0.1
  1

100
AcDbText
  0
TEXT
  5
180A
100
AcDbEntity
  8
0
100
AcDbText
 10
24.47969
 20
23.302883
 30
0.0
 40
0.1
  1

100
AcDbText
  0
TEXT
  5
180B
100
AcDbEntity
  8
0
100
AcDbText
 10
24.80469
 20
19.802883
 30
0.0
 40
0.1
  1

 72
     1
 11
24.80469
 21
19.802883
 31
0.0
100
AcDbText
  0
TEXT
  5
180C
100
AcDbEntity
  8
0
100
AcDbText
 10
30.157815
 20
8.518258
 30
0.0
 40
0.1
  1

 72
     1
 11
30.157815
 21
8.518258
 31
0.0
100
AcDbText
  0
TEXT
  5
180D
100
AcDbEntity
  8
0
100
AcDbText
 10
36.306853
 20
5.378633
 30
0.0
 40
0.075
  1

100
AcDbText
  0
TEXT
  5
180E
100
AcDbEntity
  8
0
100
AcDbText
 10
35.959145
 20
5.378633
 30
0.0
 40
0.075
  1

100
AcDbText
  0
TEXT
  5
180F
100
AcDbEntity
  8
0
100
AcDbText
 10
35.86802
 20
14.909569
 30
0.0
 40
0.1
  1

 72
     1
 11
35.86802
 21
14.909569
 31
0.0
100
AcDbText
  0
TEXT
  5
1810
100
AcDbEntity
  8
0
100
AcDbText
 10
42.017058
 20
11.769944
 30
0.0
 40
0.075
  1

100
AcDbText
  0
TEXT
  5
1811
100
AcDbEntity
  8
0
100
AcDbText
 10
41.669351
 20
11.769944
 30
0.0
 40
0.075
  1

100
AcDbText
  0
TEXT
  5
1812
100
AcDbEntity
  8
0
100
AcDbText
 10
41.746315
 20
8.551633
 30
0.0
 40
0.1
  1

 72
     1
 11
41.746315
 21
8.551633
 31
0.0
100
AcDbText
  0
TEXT
  5
1813
100
AcDbEntity
  8
0
100
AcDbText
 10
47.895353
 20
5.412008
 30
0.0
 40
0.075
  1

100
AcDbText
  0
TEXT
  5
1814
100
AcDbEntity
  8
0
100
AcDbText
 10
47.547645
 20
5.412008
 30
0.0
 40
0.075
  1

100
AcDbText
  0
TEXT
  5
1815
100
AcDbEntity
  8
0
100
AcDbText
 10
47.45652
 20
14.942944
 30
0.0
 40
0.1
  1

 72
     1
 11
47.45652
 21
14.942944
 31
0.0
100
AcDbText
  0
TEXT
  5
1816
100
AcDbEntity
  8
0
100
AcDbText
 10
53.605558
 20
11.803319
 30
0.0
 40
0.075
  1

100
AcDbText
  0
TEXT
  5
1817
100
AcDbEntity
  8
0
100
AcDbText
 10
53.257851
 20
11.803319
 30
0.0
 40
0.075
  1

100
AcDbText
  0
TEXT
  5
1C71
100
AcDbEntity
  8
TEXT
100
AcDbText
 10
2.298203
 20
10.86325
 30
0.0
 40
0.1
  1
13
 41
0.7875
 72
     5
 11
2.403203
 21
10.86325
 31
0.0
100
AcDbText
  0
TEXT
  5
1C72
100
AcDbEntity
  8
TEXT
100
AcDbText
 10
2.298203
 20
11.11325
 30
0.0
 40
0.1
  1
12
 41
0.7875
 72
     5
 11
2.403203
 21
11.11325
 31
0.0
100
AcDbText
  0
TEXT
  5
1C73
100
AcDbEntity
  8
TEXT
100
AcDbText
 10
2.298203
 20
11.36325
 30
0.0
 40
0.1
  1
11
 41
1.05
 72
     5
 11
2.403203
 21
11.36325
 31
0.0
100
AcDbText
  0
LINE
  5
1C74
100
AcDbEntity
  8
0
100
AcDbLine
 10
2.288203
 20
11.47825
 30
0.0
 11
2.413203
 21
11.47825
 31
0.0
  0
LINE
  5
1C75
100
AcDbEntity
  8
0
100
AcDbLine
 10
2.288203
 20
11.35325
 30
0.0
 11
2.413203
 21
11.35325
 31
0.0
  0
LINE
  5
1C76
100
AcDbEntity
  8
0
100
AcDbLine
 10
2.288203
 20
10.97825
 30
0.0
 11
2.413203
 21
10.97825
 31
0.0
  0
LINE
  5
1C77
100
AcDbEntity
  8
0
100
AcDbLine
 10
2.288203
 20
10.85325
 30
0.0
 11
2.413203
 21
10.85325
 31
0.0
  0
LINE
  5
1C78
100
AcDbEntity
  8
0
100
AcDbLine
 10
2.288203
 20
11.22825
 30
0.0
 11
2.413203
 21
11.22825
 31
0.0
  0
LINE
  5
1C79
100
AcDbEntity
  8
0
100
AcDbLine
 10
2.288203
 20
11.10325
 30
0.0
 11
2.413203
 21
11.10325
 31
0.0
  0
LINE
  5
1C7A
100
AcDbEntity
  8
0
100
AcDbLine
 10
2.288203
 20
10.97825
 30
0.0
 11
2.288203
 21
10.85325
 31
0.0
  0
LINE
  5
1C7B
100
AcDbEntity
  8
0
100
AcDbLine
 10
2.288203
 20
11.22825
 30
0.0
 11
2.288203
 21
11.10325
 31
0.0
  0
LINE
  5
1C7C
100
AcDbEntity
  8
0
100
AcDbLine
 10
2.288203
 20
11.47825
 30
0.0
 11
2.288203
 21
11.35325
 31
0.0
  0
TEXT
  5
1C7D
100
AcDbEntity
  8
TEXT
100
AcDbText
 10
2.298203
 20
11.61325
 30
0.0
 40
0.1
  1
10
 41
0.9
 72
     5
 11
2.403203
 21
11.61325
 31
0.0
100
AcDbText
  0
TEXT
  5
1C7E
100
AcDbEntity
  8
TEXT
100
AcDbText
 10
2.298203
 20
11.86325
 30
0.0
 40
0.1
  1
9
 41
1.575
 72
     5
 11
2.403203
 21
11.86325
 31
0.0
100
AcDbText
  0
TEXT
  5
1C7F
100
AcDbEntity
  8
TEXT
100
AcDbText
 10
2.298203
 20
12.11325
 30
0.0
 40
0.1
  1
8
 41
1.575
 72
     5
 11
2.403203
 21
12.11325
 31
0.0
100
AcDbText
  0
TEXT
  5
1C80
100
AcDbEntity
  8
TEXT
100
AcDbText
 10
2.298203
 20
12.36325
 30
0.0
 40
0.1
  1
7
 41
1.575
 72
     5
 11
2.403203
 21
12.36325
 31
0.0
100
AcDbText
  0
TEXT
  5
1C81
100
AcDbEntity
  8
TEXT
100
AcDbText
 10
2.298203
 20
12.61325
 30
0.0
 40
0.1
  1
6
 41
1.575
 72
     5
 11
2.403203
 21
12.61325
 31
0.0
100
AcDbText
  0
LINE
  5
1C82
100
AcDbEntity
  8
0
100
AcDbLine
 10
2.288203
 20
12.22825
 30
0.0
 11
2.413203
 21
12.22825
 31
0.0
  0
LINE
  5
1C83
100
AcDbEntity
  8
0
100
AcDbLine
 10
2.288203
 20
12.10325
 30
0.0
 11
2.413203
 21
12.10325
 31
0.0
  0
LINE
  5
1C84
100
AcDbEntity
  8
0
100
AcDbLine
 10
2.288203
 20
11.85325
 30
0.0
 11
2.413203
 21
11.85325
 31
0.0
  0
LINE
  5
1C85
100
AcDbEntity
  8
0
100
AcDbLine
 10
2.288203
 20
11.97825
 30
0.0
 11
2.413203
 21
11.97825
 31
0.0
  0
LINE
  5
1C86
100
AcDbEntity
  8
0
100
AcDbLine
 10
2.288203
 20
11.72825
 30
0.0
 11
2.413203
 21
11.72825
 31
0.0
  0
LINE
  5
1C87
100
AcDbEntity
  8
0
100
AcDbLine
 10
2.288203
 20
11.60325
 30
0.0
 11
2.413203
 21
11.60325
 31
0.0
  0
LINE
  5
1C88
100
AcDbEntity
  8
0
100
AcDbLine
 10
2.288203
 20
12.72825
 30
0.0
 11
2.413203
 21
12.72825
 31
0.0
  0
LINE
  5
1C89
100
AcDbEntity
  8
0
100
AcDbLine
 10
2.288203
 20
12.60325
 30
0.0
 11
2.413203
 21
12.60325
 31
0.0
  0
LINE
  5
1C8A
100
AcDbEntity
  8
0
100
AcDbLine
 10
2.288203
 20
12.35325
 30
0.0
 11
2.413203
 21
12.35325
 31
0.0
  0
LINE
  5
1C8B
100
AcDbEntity
  8
0
100
AcDbLine
 10
2.288203
 20
12.47825
 30
0.0
 11
2.413203
 21
12.47825
 31
0.0
  0
LINE
  5
1C8C
100
AcDbEntity
  8
0
100
AcDbLine
 10
2.288203
 20
12.22825
 30
0.0
 11
2.288203
 21
12.10325
 31
0.0
  0
LINE
  5
1C8D
100
AcDbEntity
  8
0
100
AcDbLine
 10
2.288203
 20
11.72825
 30
0.0
 11
2.288203
 21
11.60325
 31
0.0
  0
LINE
  5
1C8E
100
AcDbEntity
  8
0
100
AcDbLine
 10
2.288203
 20
11.97825
 30
0.0
 11
2.288203
 21
11.85325
 31
0.0
  0
LINE
  5
1C8F
100
AcDbEntity
  8
0
100
AcDbLine
 10
2.288203
 20
12.47825
 30
0.0
 11
2.288203
 21
12.35325
 31
0.0
  0
LINE
  5
1C90
100
AcDbEntity
  8
0
100
AcDbLine
 10
2.288203
 20
12.72825
 30
0.0
 11
2.288203
 21
12.60325
 31
0.0
  0
TEXT
  5
1C91
100
AcDbEntity
  8
TEXT
100
AcDbText
 10
2.298203
 20
12.86325
 30
0.0
 40
0.1
  1
5
 41
1.575
 72
     5
 11
2.403203
 21
12.86325
 31
0.0
100
AcDbText
  0
TEXT
  5
1C92
100
AcDbEntity
  8
TEXT
100
AcDbText
 10
2.298203
 20
13.11325
 30
0.0
 40
0.1
  1
4
 41
1.575
 72
     5
 11
2.403203
 21
13.11325
 31
0.0
100
AcDbText
  0
TEXT
  5
1C93
100
AcDbEntity
  8
TEXT
100
AcDbText
 10
2.298203
 20
13.36325
 30
0.0
 40
0.1
  1
3
 41
1.575
 72
     5
 11
2.403203
 21
13.36325
 31
0.0
100
AcDbText
  0
TEXT
  5
1C94
100
AcDbEntity
  8
TEXT
100
AcDbText
 10
2.298203
 20
13.61325
 30
0.0
 40
0.1
  1
2
 41
1.575
 72
     5
 11
2.403203
 21
13.61325
 31
0.0
100
AcDbText
  0
TEXT
  5
1C95
100
AcDbEntity
  8
TEXT
100
AcDbText
 10
2.298203
 20
13.86325
 30
0.0
 40
0.1
  1
1
 41
3.15
 72
     5
 11
2.403203
 21
13.86325
 31
0.0
100
AcDbText
  0
LINE
  5
1C96
100
AcDbEntity
  8
0
100
AcDbLine
 10
2.288203
 20
13.22825
 30
0.0
 11
2.413203
 21
13.22825
 31
0.0
  0
LINE
  5
1C97
100
AcDbEntity
  8
0
100
AcDbLine
 10
2.288203
 20
13.10325
 30
0.0
 11
2.413203
 21
13.10325
 31
0.0
  0
LINE
  5
1C98
100
AcDbEntity
  8
0
100
AcDbLine
 10
2.288203
 20
12.85325
 30
0.0
 11
2.413203
 21
12.85325
 31
0.0
  0
LINE
  5
1C99
100
AcDbEntity
  8
0
100
AcDbLine
 10
2.288203
 20
12.97825
 30
0.0
 11
2.413203
 21
12.97825
 31
0.0
  0
LINE
  5
1C9A
100
AcDbEntity
  8
0
100
AcDbLine
 10
2.288203
 20
13.60325
 30
0.0
 11
2.413203
 21
13.60325
 31
0.0
  0
LINE
  5
1C9B
100
AcDbEntity
  8
0
100
AcDbLine
 10
2.288203
 20
13.72825
 30
0.0
 11
2.413203
 21
13.72825
 31
0.0
  0
LINE
  5
1C9C
100
AcDbEntity
  8
0
100
AcDbLine
 10
2.288203
 20
13.35325
 30
0.0
 11
2.413203
 21
13.35325
 31
0.0
  0
LINE
  5
1C9D
100
AcDbEntity
  8
0
100
AcDbLine
 10
2.288203
 20
13.47825
 30
0.0
 11
2.413203
 21
13.47825
 31
0.0
  0
LINE
  5
1C9E
100
AcDbEntity
  8
0
100
AcDbLine
 10
2.288203
 20
13.85325
 30
0.0
 11
2.413203
 21
13.85325
 31
0.0
  0
LINE
  5
1C9F
100
AcDbEntity
  8
0
100
AcDbLine
 10
2.288203
 20
13.97825
 30
0.0
 11
2.413203
 21
13.97825
 31
0.0
  0
LINE
  5
1CA0
100
AcDbEntity
  8
0
100
AcDbLine
 10
2.288203
 20
13.47825
 30
0.0
 11
2.288203
 21
13.35325
 31
0.0
  0
LINE
  5
1CA1
100
AcDbEntity
  8
0
100
AcDbLine
 10
2.288203
 20
12.97825
 30
0.0
 11
2.288203
 21
12.85325
 31
0.0
  0
LINE
  5
1CA2
100
AcDbEntity
  8
0
100
AcDbLine
 10
2.288203
 20
13.22825
 30
0.0
 11
2.288203
 21
13.10325
 31
0.0
  0
LINE
  5
1CA3
100
AcDbEntity
  8
0
100
AcDbLine
 10
2.288203
 20
13.72825
 30
0.0
 11
2.288203
 21
13.60325
 31
0.0
  0
LINE
  5
1CA4
100
AcDbEntity
  8
0
100
AcDbLine
 10
2.288203
 20
13.97825
 30
0.0
 11
2.288203
 21
13.85325
 31
0.0
  0
TEXT
  5
1CA5
100
AcDbEntity
  8
TEXT
100
AcDbText
 10
2.298203
 20
9.11325
 30
0.0
 40
0.1
  1
20
 41
0.7
 72
     5
 11
2.403203
 21
9.11325
 31
0.0
100
AcDbText
  0
LINE
  5
1CA6
100
AcDbEntity
  8
0
100
AcDbLine
 10
2.288203
 20
9.22825
 30
0.0
 11
2.413203
 21
9.22825
 31
0.0
  0
LINE
  5
1CA7
100
AcDbEntity
  8
0
100
AcDbLine
 10
2.288203
 20
9.10325
 30
0.0
 11
2.413203
 21
9.10325
 31
0.0
  0
LINE
  5
1CA8
100
AcDbEntity
  8
0
100
AcDbLine
 10
2.288203
 20
9.22825
 30
0.0
 11
2.288203
 21
9.10325
 31
0.0
  0
TEXT
  5
1CA9
100
AcDbEntity
  8
TEXT
100
AcDbText
 10
2.298203
 20
9.36325
 30
0.0
 40
0.1
  1
19
 41
0.7875
 72
     5
 11
2.403203
 21
9.36325
 31
0.0
100
AcDbText
  0
TEXT
  5
1CAA
100
AcDbEntity
  8
TEXT
100
AcDbText
 10
2.298203
 20
9.61325
 30
0.0
 40
0.1
  1
18
 41
0.7875
 72
     5
 11
2.403203
 21
9.61325
 31
0.0
100
AcDbText
  0
TEXT
  5
1CAB
100
AcDbEntity
  8
TEXT
100
AcDbText
 10
2.298203
 20
9.86325
 30
0.0
 40
0.1
  1
17
 41
0.7875
 72
     5
 11
2.403203
 21
9.86325
 31
0.0
100
AcDbText
  0
TEXT
  5
1CAC
100
AcDbEntity
  8
TEXT
100
AcDbText
 10
2.298203
 20
10.11325
 30
0.0
 40
0.1
  1
16
 41
0.7875
 72
     5
 11
2.403203
 21
10.11325
 31
0.0
100
AcDbText
  0
TEXT
  5
1CAD
100
AcDbEntity
  8
TEXT
100
AcDbText
 10
2.298203
 20
10.36325
 30
0.0
 40
0.1
  1
15
 41
0.7875
 72
     5
 11
2.403203
 21
10.36325
 31
0.0
100
AcDbText
  0
LINE
  5
1CAE
100
AcDbEntity
  8
0
100
AcDbLine
 10
2.288203
 20
10.22825
 30
0.0
 11
2.413203
 21
10.22825
 31
0.0
  0
LINE
  5
1CAF
100
AcDbEntity
  8
0
100
AcDbLine
 10
2.288203
 20
10.10325
 30
0.0
 11
2.413203
 21
10.10325
 31
0.0
  0
LINE
  5
1CB0
100
AcDbEntity
  8
0
100
AcDbLine
 10
2.288203
 20
10.35325
 30
0.0
 11
2.413203
 21
10.35325
 31
0.0
  0
LINE
  5
1CB1
100
AcDbEntity
  8
0
100
AcDbLine
 10
2.288203
 20
10.47825
 30
0.0
 11
2.413203
 21
10.47825
 31
0.0
  0
LINE
  5
1CB2
100
AcDbEntity
  8
0
100
AcDbLine
 10
2.288203
 20
9.35325
 30
0.0
 11
2.413203
 21
9.35325
 31
0.0
  0
LINE
  5
1CB3
100
AcDbEntity
  8
0
100
AcDbLine
 10
2.288203
 20
9.47825
 30
0.0
 11
2.413203
 21
9.47825
 31
0.0
  0
LINE
  5
1CB4
100
AcDbEntity
  8
0
100
AcDbLine
 10
2.288203
 20
9.72825
 30
0.0
 11
2.413203
 21
9.72825
 31
0.0
  0
LINE
  5
1CB5
100
AcDbEntity
  8
0
100
AcDbLine
 10
2.288203
 20
9.60325
 30
0.0
 11
2.413203
 21
9.60325
 31
0.0
  0
LINE
  5
1CB6
100
AcDbEntity
  8
0
100
AcDbLine
 10
2.288203
 20
9.85325
 30
0.0
 11
2.413203
 21
9.85325
 31
0.0
  0
LINE
  5
1CB7
100
AcDbEntity
  8
0
100
AcDbLine
 10
2.288203
 20
9.97825
 30
0.0
 11
2.413203
 21
9.97825
 31
0.0
  0
LINE
  5
1CB8
100
AcDbEntity
  8
0
100
AcDbLine
 10
2.288203
 20
9.97825
 30
0.0
 11
2.288203
 21
9.85325
 31
0.0
  0
LINE
  5
1CB9
100
AcDbEntity
  8
0
100
AcDbLine
 10
2.288203
 20
9.72825
 30
0.0
 11
2.288203
 21
9.60325
 31
0.0
  0
LINE
  5
1CBA
100
AcDbEntity
  8
0
100
AcDbLine
 10
2.288203
 20
9.47825
 30
0.0
 11
2.288203
 21
9.35325
 31
0.0
  0
LINE
  5
1CBB
100
AcDbEntity
  8
0
100
AcDbLine
 10
2.288203
 20
10.22825
 30
0.0
 11
2.288203
 21
10.10325
 31
0.0
  0
LINE
  5
1CBC
100
AcDbEntity
  8
0
100
AcDbLine
 10
2.288203
 20
10.47825
 30
0.0
 11
2.288203
 21
10.35325
 31
0.0
  0
TEXT
  5
1CBD
100
AcDbEntity
  8
TEXT
100
AcDbText
 10
2.298203
 20
10.61325
 30
0.0
 40
0.1
  1
14
 41
0.7875
 72
     5
 11
2.403203
 21
10.61325
 31
0.0
100
AcDbText
  0
LINE
  5
1CBE
100
AcDbEntity
  8
0
100
AcDbLine
 10
2.288203
 20
10.72825
 30
0.0
 11
2.413203
 21
10.72825
 31
0.0
  0
LINE
  5
1CBF
100
AcDbEntity
  8
0
100
AcDbLine
 10
2.288203
 20
10.60325
 30
0.0
 11
2.413203
 21
10.60325
 31
0.0
  0
LINE
  5
1CC0
100
AcDbEntity
  8
0
100
AcDbLine
 10
2.288203
 20
10.72825
 30
0.0
 11
2.288203
 21
10.60325
 31
0.0
  0
LINE
  5
1CC1
100
AcDbEntity
  8
0
100
AcDbLine
 10
2.288203
 20
6.97825
 30
0.0
 11
2.288203
 21
6.85325
 31
0.0
  0
TEXT
  5
1CC2
100
AcDbEntity
  8
TEXT
100
AcDbText
 10
2.298203
 20
6.86325
 30
0.0
 40
0.1
  1
8
 41
1.575
 72
     5
 11
2.403203
 21
6.86325
 31
0.0
100
AcDbText
  0
LINE
  5
1CC3
100
AcDbEntity
  8
0
100
AcDbLine
 10
2.288203
 20
6.72825
 30
0.0
 11
2.413203
 21
6.72825
 31
0.0
  0
LINE
  5
1CC4
100
AcDbEntity
  8
0
100
AcDbLine
 10
2.288203
 20
6.60325
 30
0.0
 11
2.413203
 21
6.60325
 31
0.0
  0
LINE
  5
1CC5
100
AcDbEntity
  8
0
100
AcDbLine
 10
2.288203
 20
6.85325
 30
0.0
 11
2.413203
 21
6.85325
 31
0.0
  0
TEXT
  5
1CC6
100
AcDbEntity
  8
TEXT
100
AcDbText
 10
2.298203
 20
6.61325
 30
0.0
 40
0.1
  1
9
 41
1.575
 72
     5
 11
2.403203
 21
6.61325
 31
0.0
100
AcDbText
  0
LINE
  5
1CC7
100
AcDbEntity
  8
0
100
AcDbLine
 10
2.288203
 20
6.72825
 30
0.0
 11
2.288203
 21
6.60325
 31
0.0
  0
LINE
  5
1CC8
100
AcDbEntity
  8
0
100
AcDbLine
 10
2.288203
 20
7.22825
 30
0.0
 11
2.288203
 21
7.10325
 31
0.0
  0
TEXT
  5
1CC9
100
AcDbEntity
  8
TEXT
100
AcDbText
 10
2.298203
 20
7.11325
 30
0.0
 40
0.1
  1
7
 41
1.575
 72
     5
 11
2.403203
 21
7.11325
 31
0.0
100
AcDbText
  0
LINE
  5
1CCA
100
AcDbEntity
  8
0
100
AcDbLine
 10
2.288203
 20
7.10325
 30
0.0
 11
2.413203
 21
7.10325
 31
0.0
  0
LINE
  5
1CCB
100
AcDbEntity
  8
0
100
AcDbLine
 10
2.288203
 20
6.97825
 30
0.0
 11
2.413203
 21
6.97825
 31
0.0
  0
LINE
  5
1CCC
100
AcDbEntity
  8
0
100
AcDbLine
 10
2.288203
 20
7.22825
 30
0.0
 11
2.413203
 21
7.22825
 31
0.0
  0
LINE
  5
1CCD
100
AcDbEntity
  8
0
100
AcDbLine
 10
2.288203
 20
7.35325
 30
0.0
 11
2.413203
 21
7.35325
 31
0.0
  0
LINE
  5
1CCE
100
AcDbEntity
  8
0
100
AcDbLine
 10
2.288203
 20
7.47825
 30
0.0
 11
2.413203
 21
7.47825
 31
0.0
  0
TEXT
  5
1CCF
100
AcDbEntity
  8
TEXT
100
AcDbText
 10
2.298203
 20
7.36325
 30
0.0
 40
0.1
  1
6
 41
1.575
 72
     5
 11
2.403203
 21
7.36325
 31
0.0
100
AcDbText
  0
LINE
  5
1CD0
100
AcDbEntity
  8
0
100
AcDbLine
 10
2.288203
 20
7.47825
 30
0.0
 11
2.288203
 21
7.35325
 31
0.0
  0
LINE
  5
1CD1
100
AcDbEntity
  8
0
100
AcDbLine
 10
2.288203
 20
8.22825
 30
0.0
 11
2.288203
 21
8.10325
 31
0.0
  0
TEXT
  5
1CD2
100
AcDbEntity
  8
TEXT
100
AcDbText
 10
2.298203
 20
8.11325
 30
0.0
 40
0.1
  1
3
 41
1.575
 72
     5
 11
2.403203
 21
8.11325
 31
0.0
100
AcDbText
  0
LINE
  5
1CD3
100
AcDbEntity
  8
0
100
AcDbLine
 10
2.288203
 20
7.72825
 30
0.0
 11
2.413203
 21
7.72825
 31
0.0
  0
LINE
  5
1CD4
100
AcDbEntity
  8
0
100
AcDbLine
 10
2.288203
 20
7.60325
 30
0.0
 11
2.413203
 21
7.60325
 31
0.0
  0
TEXT
  5
1CD5
100
AcDbEntity
  8
TEXT
100
AcDbText
 10
2.298203
 20
7.61325
 30
0.0
 40
0.1
  1
5
 41
1.575
 72
     5
 11
2.403203
 21
7.61325
 31
0.0
100
AcDbText
  0
LINE
  5
1CD6
100
AcDbEntity
  8
0
100
AcDbLine
 10
2.288203
 20
7.72825
 30
0.0
 11
2.288203
 21
7.60325
 31
0.0
  0
LINE
  5
1CD7
100
AcDbEntity
  8
0
100
AcDbLine
 10
2.288203
 20
8.10325
 30
0.0
 11
2.413203
 21
8.10325
 31
0.0
  0
LINE
  5
1CD8
100
AcDbEntity
  8
0
100
AcDbLine
 10
2.288203
 20
7.85325
 30
0.0
 11
2.413203
 21
7.85325
 31
0.0
  0
LINE
  5
1CD9
100
AcDbEntity
  8
0
100
AcDbLine
 10
2.288203
 20
7.97825
 30
0.0
 11
2.413203
 21
7.97825
 31
0.0
  0
TEXT
  5
1CDA
100
AcDbEntity
  8
TEXT
100
AcDbText
 10
2.298203
 20
7.86325
 30
0.0
 40
0.1
  1
4
 41
1.575
 72
     5
 11
2.403203
 21
7.86325
 31
0.0
100
AcDbText
  0
LINE
  5
1CDB
100
AcDbEntity
  8
0
100
AcDbLine
 10
2.288203
 20
7.97825
 30
0.0
 11
2.288203
 21
7.85325
 31
0.0
  0
LINE
  5
1CDC
100
AcDbEntity
  8
0
100
AcDbLine
 10
2.288203
 20
8.47825
 30
0.0
 11
2.288203
 21
8.35325
 31
0.0
  0
TEXT
  5
1CDD
100
AcDbEntity
  8
TEXT
100
AcDbText
 10
2.298203
 20
8.36325
 30
0.0
 40
0.1
  1
2
 41
1.575
 72
     5
 11
2.403203
 21
8.36325
 31
0.0
100
AcDbText
  0
LINE
  5
1CDE
100
AcDbEntity
  8
0
100
AcDbLine
 10
2.288203
 20
8.22825
 30
0.0
 11
2.413203
 21
8.22825
 31
0.0
  0
LINE
  5
1CDF
100
AcDbEntity
  8
0
100
AcDbLine
 10
2.288203
 20
8.35325
 30
0.0
 11
2.413203
 21
8.35325
 31
0.0
  0
LINE
  5
1CE0
100
AcDbEntity
  8
0
100
AcDbLine
 10
2.288203
 20
8.72825
 30
0.0
 11
2.413203
 21
8.72825
 31
0.0
  0
LINE
  5
1CE1
100
AcDbEntity
  8
0
100
AcDbLine
 10
2.288203
 20
8.60325
 30
0.0
 11
2.413203
 21
8.60325
 31
0.0
  0
LINE
  5
1CE2
100
AcDbEntity
  8
0
100
AcDbLine
 10
2.288203
 20
8.47825
 30
0.0
 11
2.413203
 21
8.47825
 31
0.0
  0
TEXT
  5
1CE3
100
AcDbEntity
  8
TEXT
100
AcDbText
 10
2.298203
 20
8.61325
 30
0.0
 40
0.1
  1
1
 41
3.15
 72
     5
 11
2.403203
 21
8.61325
 31
0.0
100
AcDbText
  0
LINE
  5
1CE4
100
AcDbEntity
  8
0
100
AcDbLine
 10
2.288203
 20
8.72825
 30
0.0
 11
2.288203
 21
8.60325
 31
0.0
  0
ENDSEC
  0
SECTION
  2
OBJECTS
  0
DICTIONARY
  5
C
100
AcDbDictionary
  3
ACAD_GROUP
350
D
  3
ACAD_MLINESTYLE
350
E
  0
DICTIONARY
  5
D
102
{ACAD_REACTORS
330
C
102
}
100
AcDbDictionary
  0
DICTIONARY
  5
E
102
{ACAD_REACTORS
330
C
102
}
100
AcDbDictionary
  3
STANDARD
350
1B
  0
MLINESTYLE
  5
1B
102
{ACAD_REACTORS
330
E
102
}
100
AcDbMlineStyle
  2
STANDARD
 70
     0
  3

 62
     0
 51
90.0
 52
90.0
 71
     2
 49
0.5
 62
   256
  6
BYLAYER
 49
-0.5
 62
   256
  6
BYLAYER
  0
ENDSEC
  0
EOF
