  0
SECTION
  2
HEADER
  9
$ACADVER
  1
AC1012
  9
$DWGCODEPAGE
  3
ANSI_1252
  9
$INSBASE
 10
0.0
 20
0.0
 30
0.0
  9
$EXTMIN
 10
-0.2554927449737647
 20
-0.2582848903354034
 30
-0.0000000100021362
  9
$EXTMAX
 10
179.755493583164
 20
271.2582861546057
 30
0.0000000100021363
  9
$LIMMIN
 10
0.0
 20
0.0
  9
$LIMMAX
 10
179.4999999999999
 20
271.0
  9
$ORTHOMODE
 70
     1
  9
$REGENMODE
 70
     1
  9
$FILLMODE
 70
     1
  9
$QTEXTMODE
 70
     0
  9
$MIRRTEXT
 70
     0
  9
$DRAGMODE
 70
     2
  9
$LTSCALE
 40
7.0
  9
$OSMODE
 70
    33
  9
$ATTMODE
 70
     1
  9
$TEXTSIZE
 40
2.0
  9
$TRACEWID
 40
0.2
  9
$TEXTSTYLE
  7
STANDARD
  9
$CLAYER
  8
0
  9
$CELTYPE
  6
BYLAYER
  9
$CECOLOR
 62
   256
  9
$CELTSCALE
 40
1.0
  9
$DELOBJ
 70
     1
  9
$DISPSILH
 70
     0
  9
$DIMSCALE
 40
1.0
  9
$DIMASZ
 40
2.0
  9
$DIMEXO
 40
0.0
  9
$DIMDLI
 40
8.0
  9
$DIMRND
 40
0.0
  9
$DIMDLE
 40
0.0
  9
$DIMEXE
 40
2.0
  9
$DIMTP
 40
0.0
  9
$DIMTM
 40
0.0
  9
$DIMTXT
 40
2.0
  9
$DIMCEN
 40
-5.0
  9
$DIMTSZ
 40
0.0
  9
$DIMTOL
 70
     0
  9
$DIMLIM
 70
     0
  9
$DIMTIH
 70
     0
  9
$DIMTOH
 70
     0
  9
$DIMSE1
 70
     0
  9
$DIMSE2
 70
     0
  9
$DIMTAD
 70
     1
  9
$DIMZIN
 70
     8
  9
$DIMBLK
  1

  9
$DIMASO
 70
     1
  9
$DIMSHO
 70
     0
  9
$DIMPOST
  1

  9
$DIMAPOST
  1
""
  9
$DIMALT
 70
     0
  9
$DIMALTD
 70
     2
  9
$DIMALTF
 40
25.4
  9
$DIMLFAC
 40
1.0
  9
$DIMTOFL
 70
     1
  9
$DIMTVP
 40
0.0
  9
$DIMTIX
 70
     0
  9
$DIMSOXD
 70
     0
  9
$DIMSAH
 70
     0
  9
$DIMBLK1
  1

  9
$DIMBLK2
  1

  9
$DIMSTYLE
  2
STANDARD
  9
$DIMCLRD
 70
     3
  9
$DIMCLRE
 70
     4
  9
$DIMCLRT
 70
     6
  9
$DIMTFAC
 40
1.0
  9
$DIMGAP
 40
0.5
  9
$DIMJUST
 70
     0
  9
$DIMSD1
 70
     0
  9
$DIMSD2
 70
     0
  9
$DIMTOLJ
 70
     1
  9
$DIMTZIN
 70
     8
  9
$DIMALTZ
 70
     0
  9
$DIMALTTZ
 70
     0
  9
$DIMFIT
 70
     5
  9
$DIMUPT
 70
     0
  9
$DIMUNIT
 70
     2
  9
$DIMDEC
 70
     2
  9
$DIMTDEC
 70
     2
  9
$DIMALTU
 70
     2
  9
$DIMALTTD
 70
     2
  9
$DIMTXSTY
  7
DEUTSCH
  9
$DIMAUNIT
 70
     0
  9
$LUNITS
 70
     2
  9
$LUPREC
 70
     2
  9
$SKETCHINC
 40
1.0
  9
$FILLETRAD
 40
0.0
  9
$AUNITS
 70
     0
  9
$AUPREC
 70
     0
  9
$MENU
  1
G:\R13\win\SUPPORT\acad
  9
$ELEVATION
 40
0.0
  9
$PELEVATION
 40
0.0
  9
$THICKNESS
 40
0.0
  9
$LIMCHECK
 70
     0
  9
$BLIPMODE
 70
     0
  9
$CHAMFERA
 40
0.0
  9
$CHAMFERB
 40
0.0
  9
$CHAMFERC
 40
0.0
  9
$CHAMFERD
 40
0.0
  9
$SKPOLY
 70
     0
  9
$TDCREATE
 40
2452733.624106146
  9
$TDUPDATE
 40
2452929.636301806
  9
$TDINDWG
 40
0.2067447801
  9
$TDUSRTIMER
 40
0.2067446644
  9
$USRTIMER
 70
     1
  9
$ANGBASE
 50
0.0
  9
$ANGDIR
 70
     0
  9
$PDMODE
 70
     0
  9
$PDSIZE
 40
0.0
  9
$PLINEWID
 40
0.5
  9
$COORDS
 70
     0
  9
$SPLFRAME
 70
     0
  9
$SPLINETYPE
 70
     6
  9
$SPLINESEGS
 70
     8
  9
$ATTDIA
 70
     0
  9
$ATTREQ
 70
     1
  9
$HANDLING
 70
  4097
  9
$HANDSEED
  5
A96
  9
$SURFTAB1
 70
    20
  9
$SURFTAB2
 70
    20
  9
$SURFTYPE
 70
     6
  9
$SURFU
 70
     6
  9
$SURFV
 70
     6
  9
$UCSNAME
  2

  9
$UCSORG
 10
0.0
 20
0.0
 30
0.0
  9
$UCSXDIR
 10
1.0
 20
0.0
 30
0.0
  9
$UCSYDIR
 10
0.0
 20
1.0
 30
0.0
  9
$PUCSNAME
  2

  9
$PUCSORG
 10
0.0
 20
0.0
 30
0.0
  9
$PUCSXDIR
 10
1.0
 20
0.0
 30
0.0
  9
$PUCSYDIR
 10
0.0
 20
1.0
 30
0.0
  9
$USERI1
 70
     0
  9
$USERI2
 70
     0
  9
$USERI3
 70
     0
  9
$USERI4
 70
     0
  9
$USERI5
 70
     0
  9
$USERR1
 40
0.0
  9
$USERR2
 40
0.0
  9
$USERR3
 40
0.0
  9
$USERR4
 40
0.0
  9
$USERR5
 40
0.0
  9
$WORLDVIEW
 70
     1
  9
$SHADEDGE
 70
     3
  9
$SHADEDIF
 70
    70
  9
$TILEMODE
 70
     1
  9
$MAXACTVP
 70
    16
  9
$PINSBASE
 10
0.0
 20
0.0
 30
0.0
  9
$PLIMCHECK
 70
     0
  9
$PEXTMIN
 10
1.121416700167918
 20
0.7784166786614364
 30
0.0
  9
$PEXTMAX
 10
10.09275030151127
 20
7.005750107952927
 30
0.0
  9
$PLIMMIN
 10
-0.2395834134319636
 20
-0.2395833383394977
  9
$PLIMMAX
 10
11.45374928872416
 20
8.037083017544482
  9
$UNITMODE
 70
     0
  9
$VISRETAIN
 70
     0
  9
$PLINEGEN
 70
     0
  9
$PSLTSCALE
 70
     0
  9
$TREEDEPTH
 70
  3020
  9
$PICKSTYLE
 70
     1
  9
$CMLSTYLE
  2
STANDARD
  9
$CMLJUST
 70
     0
  9
$CMLSCALE
 40
1.0
  9
$SAVEIMAGES
 70
     1
  0
ENDSEC
  0
SECTION
  2
CLASSES
  0
CLASS
  1
ACDBDICTIONARYWDFLT
  2
AcDbDictionaryWithDefault
  3
AutoCAD 2000
 90
    32768
280
     0
281
     0
  0
CLASS
  1
ACDBPLACEHOLDER
  2
AcDbPlaceHolder
  3
AutoCAD 2000
 90
    32768
280
     0
281
     0
  0
CLASS
  1
LAYOUT
  2
AcDbLayout
  3
AutoCAD 2000
 90
    32768
280
     0
281
     0
  0
CLASS
  1
PLOTSETTINGS
  2
AcDbPlotSettings
  3
AutoCAD 2000
 90
    32768
280
     0
281
     0
  0
CLASS
  1
LONG_TRANSACTION
  2
AcDbLongTransaction
  3
AutoCAD 2000
 90
    32768
280
     0
281
     0
  0
CLASS
  1
LWPOLYLINE
  2
AcDbPolyline
  3
AutoCAD 2000
 90
    32768
280
     0
281
     1
  0
CLASS
  1
HATCH
  2
AcDbHatch
  3
AutoCAD 2000
 90
    32768
280
     0
281
     1
  0
CLASS
  1
XRECORD
  2
AcDbXrecord
  3
AutoCAD 2000
 90
    32768
280
     0
281
     0
  0
CLASS
  1
LONG_TRANSACTION
  2
AcDbLongTransaction
  3
AutoCAD 2000
 90
    32768
280
     0
281
     0
  0
CLASS
  1
LWPOLYLINE
  2
AcDbPolyline
  3
AutoCAD 2000
 90
    32768
280
     0
281
     1
  0
CLASS
  1
HATCH
  2
AcDbHatch
  3
AutoCAD 2000
 90
    32768
280
     0
281
     1
  0
CLASS
  1
XRECORD
  2
AcDbXrecord
  3
AutoCAD 2000
 90
    32768
280
     0
281
     0
  0
ENDSEC
  0
SECTION
  2
TABLES
  0
TABLE
  2
VPORT
  5
8
330
0
100
AcDbSymbolTable
 70
     4
  0
VPORT
  5
184
330
8
100
AcDbSymbolTableRecord
100
AcDbViewportTableRecord
  2
PLOTFENSTER
 70
     0
 10
0.0
 20
0.0
 11
1.0
 21
1.0
 12
89.75000000000001
 22
143.0
 13
0.0
 23
0.0
 14
0.5
 24
0.5
 15
5.0
 25
5.0
 16
0.0
 26
0.0
 36
1.0
 17
0.0
 27
0.0
 37
0.0
 40
256.0
 41
1.550231839258114
 42
50.0
 43
0.0
 44
0.0
 50
0.0
 51
0.0
 71
     8
 72
 20000
 73
     1
 74
     0
 75
     0
 76
     0
 77
     0
 78
     0
  0
VPORT
  5
A6C
330
8
100
AcDbSymbolTableRecord
100
AcDbViewportTableRecord
  2
*ACTIVE
 70
     0
 10
0.0
 20
0.0
 11
1.0
 21
1.0
 12
89.75000083821582
 22
135.5000012643089
 13
0.0
 23
0.0
 14
110.8512516844081
 24
32.0
 15
8.660254037844385
 25
2.5
 16
0.0
 26
0.0
 36
1.0
 17
0.0
 27
0.0
 37
0.0
 40
274.1524338707646
 41
1.615136876006441
 42
50.0
 43
0.0
 44
0.0
 50
0.0
 51
0.0
 71
     8
 72
 20000
 73
     1
 74
     0
 75
     0
 76
     0
 77
     1
 78
     0
  0
ENDTAB
  0
TABLE
  2
LTYPE
  5
5
330
0
100
AcDbSymbolTable
 70
     4
  0
LTYPE
  5
12
330
5
100
AcDbSymbolTableRecord
100
AcDbLinetypeTableRecord
  2
BYBLOCK
 70
     0
  3

 72
    65
 73
     0
 40
0.0
  0
LTYPE
  5
13
330
5
100
AcDbSymbolTableRecord
100
AcDbLinetypeTableRecord
  2
BYLAYER
 70
     0
  3

 72
    65
 73
     0
 40
0.0
  0
LTYPE
  5
14
330
5
100
AcDbSymbolTableRecord
100
AcDbLinetypeTableRecord
  2
AUSGEZOGEN
 70
     0
  3
Ausgezogene Linie
 72
    65
 73
     0
 40
0.0
  0
LTYPE
  5
1B6
330
5
100
AcDbSymbolTableRecord
100
AcDbLinetypeTableRecord
  2
GESTRICHELT
 70
     0
  3
Strichlinie __ __ __ __ __ __ __ __ __ __ __ __
 72
    65
 73
     2
 40
0.75
 49
0.5
 74
     0
 49
-0.25
 74
     0
  0
LTYPE
  5
602
330
5
100
AcDbSymbolTableRecord
100
AcDbLinetypeTableRecord
  2
CONTINUOUS
 70
     0
  3
Solid line
 72
    65
 73
     0
 40
0.0
  0
ENDTAB
  0
TABLE
  2
LAYER
  5
2
330
0
100
AcDbSymbolTable
 70
     7
  0
LAYER
  5
F
330
2
100
AcDbSymbolTableRecord
100
AcDbLayerTableRecord
  2
0
 70
     0
 62
     7
  6
AUSGEZOGEN
  0
LAYER
  5
2B
330
2
100
AcDbSymbolTableRecord
100
AcDbLayerTableRecord
  2
D
 70
     1
 62
     4
  6
AUSGEZOGEN
  0
LAYER
  5
2C
330
2
100
AcDbSymbolTableRecord
100
AcDbLayerTableRecord
  2
E
 70
     0
 62
     6
  6
AUSGEZOGEN
  0
LAYER
  5
2D
330
2
100
AcDbSymbolTableRecord
100
AcDbLayerTableRecord
  2
F
 70
     1
 62
     2
  6
AUSGEZOGEN
  0
LAYER
  5
30
330
2
100
AcDbSymbolTableRecord
100
AcDbLayerTableRecord
  2
RAHMEN
 70
     0
 62
    -7
  6
AUSGEZOGEN
  0
LAYER
  5
309
330
2
100
AcDbSymbolTableRecord
100
AcDbLayerTableRecord
  2
I
 70
     1
 62
     3
  6
AUSGEZOGEN
  0
LAYER
  5
A69
330
2
100
AcDbSymbolTableRecord
100
AcDbLayerTableRecord
  2
A4EXT|HILFE
 70
    48
 62
     7
  6
Continuous
  0
ENDTAB
  0
TABLE
  2
STYLE
  5
3
330
0
100
AcDbSymbolTable
 70
     4
  0
STYLE
  5
10
330
3
100
AcDbSymbolTableRecord
100
AcDbTextStyleTableRecord
  2
STANDARD
 70
     0
 40
0.0
 41
1.0
 50
0.0
 71
     0
 42
2.0
  3
simplex.shx
  4

  0
STYLE
  5
1F
330
3
100
AcDbSymbolTableRecord
100
AcDbTextStyleTableRecord
  2
DEUTSCH
 70
     0
 40
0.0
 41
1.0
 50
0.0
 71
     0
 42
2.0
  3
simplex.shx
  4

  0
ENDTAB
  0
TABLE
  2
VIEW
  5
6
330
0
100
AcDbSymbolTable
 70
     0
  0
ENDTAB
  0
TABLE
  2
UCS
  5
7
330
0
100
AcDbSymbolTable
 70
     1
  0
UCS
  5
27
330
7
100
AcDbSymbolTableRecord
100
AcDbUCSTableRecord
  2
QUER
 70
     0
 10
395.0
 20
0.0000000000000001
 30
0.0
 11
-0.0000000000000002
 21
1.0
 31
0.0
 12
-1.0
 22
-0.0000000000000002
 32
0.0
  0
ENDTAB
  0
TABLE
  2
APPID
  5
9
330
0
100
AcDbSymbolTable
 70
     6
  0
APPID
  5
11
330
9
100
AcDbSymbolTableRecord
100
AcDbRegAppTableRecord
  2
ACAD
 70
     0
  0
APPID
  5
B4
330
9
100
AcDbSymbolTableRecord
100
AcDbRegAppTableRecord
  2
AVE_RENDER
 70
     0
  0
APPID
  5
B5
330
9
100
AcDbSymbolTableRecord
100
AcDbRegAppTableRecord
  2
AVE_ENTITY_MATERIAL
 70
     0
  0
APPID
  5
C2
330
9
100
AcDbSymbolTableRecord
100
AcDbRegAppTableRecord
  2
AVE_FINISH
 70
     0
  0
APPID
  5
C3
330
9
100
AcDbSymbolTableRecord
100
AcDbRegAppTableRecord
  2
AVE_MATERIAL
 70
     0
  0
APPID
  5
C4
330
9
100
AcDbSymbolTableRecord
100
AcDbRegAppTableRecord
  2
AVE_GLOBAL
 70
     0
  0
ENDTAB
  0
TABLE
  2
DIMSTYLE
  5
A
330
0
100
AcDbSymbolTable
 70
     2
  0
DIMSTYLE
105
2A
330
A
100
AcDbSymbolTableRecord
100
AcDbDimStyleTableRecord
  2
STANDARD
 70
     0
  3

  4
""
  5

  6

  7

 40
1.0
 41
2.0
 42
0.0
 43
8.0
 44
2.0
 45
0.0
 46
0.0
 47
0.0
 48
0.0
140
2.0
141
-5.0
142
0.0
143
25.4
144
1.0
145
0.0
146
1.0
147
0.5
 71
     0
 72
     0
 73
     0
 74
     0
 75
     0
 76
     0
 77
     1
 78
     8
170
     0
171
     2
172
     1
173
     0
174
     0
175
     0
176
     3
177
     4
178
     6
270
     2
271
     2
272
     2
273
     2
274
     2
340
1F
275
     0
280
     0
281
     0
282
     0
283
     1
284
     8
285
     0
286
     0
287
     5
288
     0
  0
ENDTAB
  0
TABLE
  2
BLOCK_RECORD
  5
1
330
0
100
AcDbSymbolTable
 70
     1
  0
BLOCK_RECORD
  5
18
102
{ACAD_XDICTIONARY
360
164
102
}
330
1
100
AcDbSymbolTableRecord
100
AcDbBlockTableRecord
  2
*MODEL_SPACE
  0
BLOCK_RECORD
  5
15
102
{ACAD_XDICTIONARY
360
162
102
}
330
1
100
AcDbSymbolTableRecord
100
AcDbBlockTableRecord
  2
*PAPER_SPACE
  0
BLOCK_RECORD
  5
1C
330
1
100
AcDbSymbolTableRecord
100
AcDbBlockTableRecord
  2
A4EXT
  0
ENDTAB
  0
ENDSEC
  0
SECTION
  2
BLOCKS
  0
BLOCK
  5
34
330
18
100
AcDbEntity
  8
0
100
AcDbBlockBegin
  2
*MODEL_SPACE
 70
     0
 10
0.0
 20
0.0
 30
0.0
  3
*MODEL_SPACE
  1

  0
ENDBLK
  5
35
330
18
100
AcDbEntity
  8
0
100
AcDbBlockEnd
  0
BLOCK
  5
32
330
15
100
AcDbEntity
 67
     1
  8
0
100
AcDbBlockBegin
  2
*PAPER_SPACE
 70
     0
 10
0.0
 20
0.0
 30
0.0
  3
*PAPER_SPACE
  1

  0
ENDBLK
  5
33
330
15
100
AcDbEntity
 67
     1
  8
0
100
AcDbBlockEnd
  0
BLOCK
  5
129
330
1C
100
AcDbEntity
  8
0
 62
     7
100
AcDbBlockBegin
  2
A4EXT
 70
    36
 10
0.0
 20
0.0
 30
0.0
  3
A4EXT
  1
c:\block\a4ext
  0
ENDBLK
  5
12B
330
1C
100
AcDbEntity
  8
0
 62
     7
100
AcDbBlockEnd
  0
ENDSEC
  0
SECTION
  2
ENTITIES
  0
INSERT
  5
39
330
18
100
AcDbEntity
  8
RAHMEN
100
AcDbBlockReference
  2
A4EXT
 10
0.0
 20
0.0
 30
0.0
  0
TEXT
  5
3C
330
18
100
AcDbEntity
  8
D
100
AcDbText
 10
66.0
 20
4.411608069337859
 30
0.0
 40
2.0
  1
Gezeichnet
100
AcDbText
  0
TEXT
  5
3D
330
18
100
AcDbEntity
  8
D
100
AcDbText
 10
66.0
 20
0.943890007935046
 30
0.0
 40
2.0
  1
Geprüft
100
AcDbText
  0
TEXT
  5
3E
330
18
100
AcDbEntity
  8
F
100
AcDbText
 10
66.25
 20
0.9654367331990517
 30
0.0
 40
2.0
  1
Examiné
100
AcDbText
  0
TEXT
  5
3F
330
18
100
AcDbEntity
  8
F
100
AcDbText
 10
66.3089784062909
 20
4.463900645547433
 30
0.0
 40
2.0
  1
Dessiné
100
AcDbText
  0
TEXT
  5
42
330
18
100
AcDbEntity
  8
D
100
AcDbText
 10
126.0
 20
4.334279436000729
 30
0.0
 40
2.0
  1
Bem.:
100
AcDbText
  0
TEXT
  5
43
330
18
100
AcDbEntity
  8
D
100
AcDbText
 10
126.0
 20
1.00923213086736
 30
0.0
 40
2.0
  1
Änderung
100
AcDbText
  0
TEXT
  5
44
330
18
100
AcDbEntity
  8
F
100
AcDbText
 10
126.0
 20
4.357718366599526
 30
0.0
 40
2.0
  1
Rem.:
100
AcDbText
  0
TEXT
  5
45
330
18
100
AcDbEntity
  8
F
100
AcDbText
 10
126.0
 20
0.9829548922663754
 30
0.0
 40
2.0
  1
Correction:
100
AcDbText
  0
TEXT
  5
54A
330
18
100
AcDbEntity
  8
D
100
AcDbText
 10
67.0
 20
10.0
 30
0.0
 40
2.0
  1
Abmessung SR300
100
AcDbText
  0
ELLIPSE
  5
7C7
330
18
100
AcDbEntity
  8
0
100
AcDbEllipse
 10
106.6507063386572
 20
90.57827594948184
 30
0.0
 11
-0.9531544603895728
 21
0.0
 31
0.0
210
0.0
220
0.0
230
1.0
 40
0.577350269189627
 41
3.976563348827658
 42
5.44821461194172
  0
ELLIPSE
  5
7C8
330
18
100
AcDbEntity
  8
0
100
AcDbEllipse
 10
124.118467460092
 20
100.6632925350822
 30
0.0
 11
-0.9531544603895728
 21
0.0
 31
0.0
210
0.0
220
0.0
230
1.0
 40
0.577350269189627
 41
3.976563348827658
 42
5.44821461194172
  0
ELLIPSE
  5
7C9
330
18
100
AcDbEntity
  8
0
100
AcDbEllipse
 10
124.118467460092
 20
100.6632925350822
 30
0.0
 11
-2.636569194049349
 21
0.0
 31
0.0
210
0.0
220
0.0
230
1.0
 40
0.5773502691896253
 41
2.354619498819911
 42
3.141626103376634
  0
ELLIPSE
  5
7CA
330
18
100
AcDbEntity
  8
0
100
AcDbEllipse
 10
106.0682145449825
 20
102.1238311725624
 30
0.0
 11
-12.08988399298197
 21
0.0
 31
0.0
210
0.0
220
0.0
230
1.0
 40
0.5773502691896257
 41
1.372486118453034
 42
3.141592653589793
  0
ELLIPSE
  5
7CB
330
18
100
AcDbEntity
  8
0
100
AcDbEllipse
 10
106.6507063386572
 20
91.39413114948183
 30
0.0
 11
-2.636569194049349
 21
0.0
 31
0.0
210
0.0
220
0.0
230
1.0
 40
0.5773502691896253
 41
0.6623867294546694
 42
2.35776948156591
  0
ELLIPSE
  5
7CC
330
18
100
AcDbEntity
  8
0
100
AcDbEllipse
 10
124.118467460092
 20
101.4791477350822
 30
0.0
 11
-2.636569194049349
 21
0.0
 31
0.0
210
0.0
220
0.0
230
1.0
 40
0.5773502691896253
 41
2.354619498819911
 42
3.934563825522222
  0
ELLIPSE
  5
7CD
330
18
100
AcDbEntity
  8
0
100
AcDbEllipse
 10
106.6507063386572
 20
91.39413114948183
 30
0.0
 11
-0.9531544603895728
 21
0.0
 31
0.0
210
0.0
220
0.0
230
1.0
 40
0.577350269189627
 41
0.0
 42
6.283185307179586
  0
ELLIPSE
  5
7CE
330
18
100
AcDbEntity
  8
0
100
AcDbEllipse
 10
124.118467460092
 20
101.4791477350822
 30
0.0
 11
-0.9531544603895728
 21
0.0
 31
0.0
210
0.0
220
0.0
230
1.0
 40
0.577350269189627
 41
0.0
 42
6.283185307179586
  0
ELLIPSE
  5
7CF
330
18
100
AcDbEntity
  8
0
100
AcDbEllipse
 10
106.6507063386572
 20
90.57827594948184
 30
0.0
 11
-2.636569194049349
 21
0.0
 31
0.0
210
0.0
220
0.0
230
1.0
 40
0.5773502691896253
 41
0.6623867294546694
 42
2.35776948156591
  0
ELLIPSE
  5
7D0
330
18
100
AcDbEntity
  8
0
100
AcDbEllipse
 10
59.09379728911074
 20
155.7915710711157
 30
0.0
 11
0.2745031636666794
 21
0.0000000000000004
 31
0.0
210
0.0
220
0.0
230
1.0
 40
0.5773502691896424
 41
0.6050000074227491
 42
2.33814205292516
  0
ELLIPSE
  5
7D1
330
18
100
AcDbEntity
  8
0
100
AcDbEllipse
 10
89.36568920274295
 20
186.5234487909457
 30
0.0
 11
-1.758164207788864
 21
0.0
 31
0.0
210
0.0
220
0.0
230
1.0
 40
0.5773502691896258
 41
5.388708123425359
 42
6.080873628697781
  0
ELLIPSE
  5
7D2
330
18
100
AcDbEntity
  8
0
100
AcDbEllipse
 10
88.45687098316762
 20
187.7134356997914
 30
0.0
 11
-0.3566080471520449
 21
0.0
 31
0.0
210
0.0
220
0.0
230
1.0
 40
0.5773502691896182
 41
2.201448559053194
 42
3.141592653589793
  0
ELLIPSE
  5
7D3
330
18
100
AcDbEntity
  8
0
100
AcDbEllipse
 10
89.36568920274295
 20
186.9313763909457
 30
0.0
 11
-1.758164207788864
 21
0.0
 31
0.0
210
0.0
220
0.0
230
1.0
 40
0.5773502691896258
 41
5.388708123425359
 42
8.738493431136609
  0
ELLIPSE
  5
7D4
330
18
100
AcDbEntity
  8
0
100
AcDbEllipse
 10
88.45687098316762
 20
188.1213632997914
 30
0.0
 11
-0.3566080471520449
 21
0.0
 31
0.0
210
0.0
220
0.0
230
1.0
 40
0.5773502691896182
 41
2.201448559053194
 42
4.144237032368607
  0
ELLIPSE
  5
7D5
330
18
100
AcDbEntity
  8
0
100
AcDbEllipse
 10
88.52114769871281
 20
188.6119173458803
 30
0.0
 11
-0.3566080471520449
 21
0.0
 31
0.0
210
0.0
220
0.0
230
1.0
 40
0.5773502691896182
 41
5.436107349552393
 42
7.316411432581467
  0
ELLIPSE
  5
7D6
330
18
100
AcDbEntity
  8
0
100
AcDbEllipse
 10
97.17196669324199
 20
190.1067859325159
 30
0.0
 11
-0.3566080471520449
 21
0.0
 31
0.0
210
0.0
220
0.0
230
1.0
 40
0.5773502691896182
 41
6.262831162691642
 42
6.948135864331422
  0
ELLIPSE
  5
7D7
330
18
100
AcDbEntity
  8
0
100
AcDbEllipse
 10
97.31914755513514
 20
191.1157028142411
 30
0.0
 11
-0.7851645692352184
 21
0.0
 31
0.0
210
0.0
220
0.0
230
1.0
 40
0.5773502691896267
 41
3.608288978692808
 42
5.673420055691604
  0
ELLIPSE
  5
7D8
330
18
100
AcDbEntity
  8
0
100
AcDbEllipse
 10
95.76545884142854
 20
191.1408217112109
 30
0.0
 11
-0.3566080471520449
 21
0.0
 31
0.0
210
0.0
220
0.0
230
1.0
 40
0.5773502691896182
 41
0.5230802009184295
 42
2.397603423495621
  0
ELLIPSE
  5
7D9
330
18
100
AcDbEntity
  8
0
100
AcDbEllipse
 10
94.31359947945725
 20
191.5475452678925
 30
0.0
 11
-0.3566080471520449
 21
0.0
 31
0.0
210
0.0
220
0.0
230
1.0
 40
0.5773502691896182
 41
3.752655114730266
 42
5.498287535397668
  0
ELLIPSE
  5
7DA
330
18
100
AcDbEntity
  8
0
100
AcDbEllipse
 10
97.31914755513514
 20
191.523630414241
 30
0.0
 11
-0.7851645692352184
 21
0.0
 31
0.0
210
0.0
220
0.0
230
1.0
 40
0.5773502691896267
 41
2.200741987807377
 42
5.673420055691604
  0
ELLIPSE
  5
7DB
330
18
100
AcDbEntity
  8
0
100
AcDbEllipse
 10
97.68627856131899
 20
189.4666219724907
 30
0.0
 11
-0.3566080471520449
 21
0.0
 31
0.0
210
0.0
220
0.0
230
1.0
 40
0.5773502691896182
 41
2.270780254926908
 42
3.806559299226828
  0
ELLIPSE
  5
7DC
330
18
100
AcDbEntity
  8
0
100
AcDbEllipse
 10
92.83414116011398
 20
186.665142878364
 30
0.0
 11
-0.3566080471520449
 21
0.0
 31
0.0
210
0.0
220
0.0
230
1.0
 40
0.5773502691896182
 41
0.8816120499793496
 42
2.445400010306466
  0
ELLIPSE
  5
7DD
330
18
100
AcDbEntity
  8
0
100
AcDbEllipse
 10
91.79134421617431
 20
186.6156572437621
 30
0.0
 11
-0.3566080471520449
 21
0.0
 31
0.0
210
0.0
220
0.0
230
1.0
 40
0.5773502691896182
 41
3.920268871396342
 42
5.65271353104234
  0
ELLIPSE
  5
7DE
330
18
100
AcDbEntity
  8
0
100
AcDbEllipse
 10
94.31359947945725
 20
191.9554728678926
 30
0.0
 11
-0.3566080471520449
 21
0.0
 31
0.0
210
0.0
220
0.0
230
1.0
 40
0.5773502691896182
 41
3.752655114730266
 42
5.498287535397668
  0
ELLIPSE
  5
7DF
330
18
100
AcDbEntity
  8
0
100
AcDbEllipse
 10
95.76545884142854
 20
191.5487493112109
 30
0.0
 11
-0.3566080471520449
 21
0.0
 31
0.0
210
0.0
220
0.0
230
1.0
 40
0.5773502691896182
 41
0.5230802009184295
 42
2.397603423495621
  0
ELLIPSE
  5
7E0
330
18
100
AcDbEntity
  8
0
100
AcDbEllipse
 10
97.17196669324199
 20
190.514713532516
 30
0.0
 11
-0.3566080471520449
 21
0.0
 31
0.0
210
0.0
220
0.0
230
1.0
 40
0.5773502691896182
 41
5.434603881228381
 42
6.948135864331422
  0
ELLIPSE
  5
7E1
330
18
100
AcDbEntity
  8
0
100
AcDbEllipse
 10
110.3431851967453
 20
197.7111924810691
 30
0.0
 11
-0.3566080471520449
 21
0.0
 31
0.0
210
0.0
220
0.0
230
1.0
 40
0.5773502691896182
 41
6.262831162691642
 42
6.948135864331422
  0
ELLIPSE
  5
7E2
330
18
100
AcDbEntity
  8
0
100
AcDbEllipse
 10
102.5369077062463
 20
194.1278553394987
 30
0.0
 11
-1.758164207788864
 21
0.0
 31
0.0
210
0.0
220
0.0
230
1.0
 40
0.5773502691896258
 41
5.388708123425359
 42
6.080873628697781
  0
ELLIPSE
  5
7E3
330
18
100
AcDbEntity
  8
0
100
AcDbEllipse
 10
110.4903660586385
 20
198.7201093627941
 30
0.0
 11
-0.7851645692352184
 21
0.0
 31
0.0
210
0.0
220
0.0
230
1.0
 40
0.5773502691896267
 41
3.608288978692808
 42
5.673420055691604
  0
ELLIPSE
  5
7E4
330
18
100
AcDbEntity
  8
0
100
AcDbEllipse
 10
101.628089486671
 20
195.3178422483445
 30
0.0
 11
-0.3566080471520449
 21
0.0
 31
0.0
210
0.0
220
0.0
230
1.0
 40
0.5773502691896182
 41
2.201448559053194
 42
3.141592653589793
  0
ELLIPSE
  5
7E5
330
18
100
AcDbEntity
  8
0
100
AcDbEllipse
 10
108.9366773449319
 20
198.745228259764
 30
0.0
 11
-0.3566080471520449
 21
0.0
 31
0.0
210
0.0
220
0.0
230
1.0
 40
0.5773502691896182
 41
0.5230802009184295
 42
2.397603423495621
  0
ELLIPSE
  5
7E6
330
18
100
AcDbEntity
  8
0
100
AcDbEllipse
 10
107.4848179829606
 20
199.1519518164456
 30
0.0
 11
-0.3566080471520449
 21
0.0
 31
0.0
210
0.0
220
0.0
230
1.0
 40
0.5773502691896182
 41
3.752655114730266
 42
5.498287535397668
  0
ELLIPSE
  5
7E7
330
18
100
AcDbEntity
  8
0
100
AcDbEllipse
 10
110.4903660586385
 20
199.1280369627941
 30
0.0
 11
-0.7851645692352184
 21
0.0
 31
0.0
210
0.0
220
0.0
230
1.0
 40
0.5773502691896267
 41
2.200741987807377
 42
5.673420055691604
  0
ELLIPSE
  5
7E8
330
18
100
AcDbEntity
  8
0
100
AcDbEllipse
 10
102.5369077062463
 20
194.5357829394987
 30
0.0
 11
-1.758164207788864
 21
0.0
 31
0.0
210
0.0
220
0.0
230
1.0
 40
0.5773502691896258
 41
5.388708123425359
 42
8.738493431136609
  0
ELLIPSE
  5
7E9
330
18
100
AcDbEntity
  8
0
100
AcDbEllipse
 10
110.8574970648223
 20
197.0710285210438
 30
0.0
 11
-0.3566080471520449
 21
0.0
 31
0.0
210
0.0
220
0.0
230
1.0
 40
0.5773502691896182
 41
2.270780254926908
 42
3.806559299226828
  0
ELLIPSE
  5
7EA
330
18
100
AcDbEntity
  8
0
100
AcDbEllipse
 10
106.0053596636173
 20
194.2695494269171
 30
0.0
 11
-0.3566080471520449
 21
0.0
 31
0.0
210
0.0
220
0.0
230
1.0
 40
0.5773502691896182
 41
0.8816120499793496
 42
2.445400010306466
  0
ELLIPSE
  5
7EB
330
18
100
AcDbEntity
  8
0
100
AcDbEllipse
 10
104.9625627196776
 20
194.2200637923151
 30
0.0
 11
-0.3566080471520449
 21
0.0
 31
0.0
210
0.0
220
0.0
230
1.0
 40
0.5773502691896182
 41
3.920268871396342
 42
5.65271353104234
  0
ELLIPSE
  5
7EC
330
18
100
AcDbEntity
  8
0
100
AcDbEllipse
 10
101.628089486671
 20
195.7257698483445
 30
0.0
 11
-0.3566080471520449
 21
0.0
 31
0.0
210
0.0
220
0.0
230
1.0
 40
0.5773502691896182
 41
2.201448559053194
 42
4.144237032368607
  0
ELLIPSE
  5
7ED
330
18
100
AcDbEntity
  8
0
100
AcDbEllipse
 10
101.6923662022161
 20
196.2163238944334
 30
0.0
 11
-0.3566080471520449
 21
0.0
 31
0.0
210
0.0
220
0.0
230
1.0
 40
0.5773502691896182
 41
5.436107349552393
 42
7.316411432581467
  0
ELLIPSE
  5
7EE
330
18
100
AcDbEntity
  8
0
100
AcDbEllipse
 10
107.4848179829606
 20
199.5598794164457
 30
0.0
 11
-0.3566080471520449
 21
0.0
 31
0.0
210
0.0
220
0.0
230
1.0
 40
0.5773502691896182
 41
3.752655114730266
 42
5.498287535397668
  0
ELLIPSE
  5
7EF
330
18
100
AcDbEntity
  8
0
100
AcDbEllipse
 10
108.9366773449319
 20
199.153155859764
 30
0.0
 11
-0.3566080471520449
 21
0.0
 31
0.0
210
0.0
220
0.0
230
1.0
 40
0.5773502691896182
 41
0.5230802009184295
 42
2.397603423495621
  0
ELLIPSE
  5
7F0
330
18
100
AcDbEntity
  8
0
100
AcDbEllipse
 10
110.3431851967453
 20
198.1191200810691
 30
0.0
 11
-0.3566080471520449
 21
0.0
 31
0.0
210
0.0
220
0.0
230
1.0
 40
0.5773502691896182
 41
5.434603881228381
 42
6.948135864331422
  0
ELLIPSE
  5
7F1
330
18
100
AcDbEntity
  8
0
100
AcDbEllipse
 10
115.6586439844479
 20
202.1116209119537
 30
0.0
 11
-1.758164207788864
 21
0.0
 31
0.0
210
0.0
220
0.0
230
1.0
 40
0.5773502691896258
 41
5.388708123425359
 42
8.738493431136609
  0
ELLIPSE
  5
7F2
330
18
100
AcDbEntity
  8
0
100
AcDbEllipse
 10
115.6586439844479
 20
201.7036933119537
 30
0.0
 11
-1.758164207788864
 21
0.0
 31
0.0
210
0.0
220
0.0
230
1.0
 40
0.5773502691896258
 41
5.388708123425359
 42
6.080873628697781
  0
ELLIPSE
  5
7F3
330
18
100
AcDbEntity
  8
0
100
AcDbEllipse
 10
114.8141024804177
 20
203.7921618668884
 30
0.0
 11
-0.3566080471520449
 21
0.0
 31
0.0
210
0.0
220
0.0
230
1.0
 40
0.5773502691896182
 41
5.436107349552393
 42
7.316411432581467
  0
ELLIPSE
  5
7F4
330
18
100
AcDbEntity
  8
0
100
AcDbEllipse
 10
114.7498257648726
 20
203.3016078207995
 30
0.0
 11
-0.3566080471520449
 21
0.0
 31
0.0
210
0.0
220
0.0
230
1.0
 40
0.5773502691896182
 41
2.201448559053194
 42
4.144237032368607
  0
ELLIPSE
  5
7F5
330
18
100
AcDbEntity
  8
0
100
AcDbEllipse
 10
118.0842989978793
 20
201.7959017647701
 30
0.0
 11
-0.3566080471520449
 21
0.0
 31
0.0
210
0.0
220
0.0
230
1.0
 40
0.5773502691896182
 41
3.920268871396342
 42
5.65271353104234
  0
ELLIPSE
  5
7F6
330
18
100
AcDbEntity
  8
0
100
AcDbEllipse
 10
119.127095941819
 20
201.845387399372
 30
0.0
 11
-0.3566080471520449
 21
0.0
 31
0.0
210
0.0
220
0.0
230
1.0
 40
0.5773502691896182
 41
0.8816120499793496
 42
2.445400010306466
  0
ELLIPSE
  5
7F7
330
18
100
AcDbEntity
  8
0
100
AcDbEllipse
 10
114.7498257648726
 20
202.8936802207995
 30
0.0
 11
-0.3566080471520449
 21
0.0
 31
0.0
210
0.0
220
0.0
230
1.0
 40
0.5773502691896182
 41
2.201448559053194
 42
3.141592653589793
  0
ELLIPSE
  5
7F8
330
18
100
AcDbEntity
  8
0
100
AcDbEllipse
 10
127.6330323380865
 20
208.1014179823698
 30
0.0
 11
0.3566080471520391
 21
0.0000000000000098
 31
0.0
210
0.0
220
0.0
230
1.0
 40
0.5773502691896417
 41
2.293011227638591
 42
3.806543210741581
  0
ELLIPSE
  5
7F9
330
18
100
AcDbEntity
  8
0
100
AcDbEllipse
 10
126.226524486273
 20
209.1354537610647
 30
0.0
 11
0.3566080471520547
 21
0.0000000000000173
 31
0.0
210
0.0
220
0.0
230
1.0
 40
0.5773502691895928
 41
3.664672854508178
 42
5.539196077085309
  0
ELLIPSE
  5
7FA
330
18
100
AcDbEntity
  8
0
100
AcDbEllipse
 10
124.7746651243017
 20
209.5421773177464
 30
0.0
 11
0.3566080471520566
 21
0.0000000000000096
 31
0.0
210
0.0
220
0.0
230
1.0
 40
0.5773502691895986
 41
0.6110624611404539
 42
2.356694881807827
  0
ELLIPSE
  5
7FB
330
18
100
AcDbEntity
  8
0
100
AcDbEllipse
 10
128.1473442061635
 20
207.0533264223446
 30
0.0
 11
-0.3566080471520538
 21
0.0000000000000134
 31
0.0
210
0.0
220
0.0
230
1.0
 40
0.5773502691895909
 41
2.270780254926907
 42
3.806559299226917
  0
ELLIPSE
  5
7FC
330
18
100
AcDbEntity
  8
0
100
AcDbEllipse
 10
127.7802131999796
 20
209.1103348640949
 30
0.0
 11
-0.7851645692352287
 21
0.0000000000000014
 31
0.0
210
0.0
220
0.0
230
1.0
 40
0.577350269189608
 41
2.200741987807369
 42
5.67342005569159
  0
ELLIPSE
  5
7FD
330
18
100
AcDbEntity
  8
0
100
AcDbEllipse
 10
124.7746651243017
 20
209.1342497177464
 30
0.0
 11
0.3566080471520566
 21
0.0000000000000096
 31
0.0
210
0.0
220
0.0
230
1.0
 40
0.5773502691895986
 41
0.6110624611404539
 42
2.356694881807827
  0
ELLIPSE
  5
7FE
330
18
100
AcDbEntity
  8
0
100
AcDbEllipse
 10
126.226524486273
 20
208.7275261610648
 30
0.0
 11
0.3566080471520547
 21
0.0000000000000173
 31
0.0
210
0.0
220
0.0
230
1.0
 40
0.5773502691895928
 41
3.664672854508178
 42
5.539196077085309
  0
ELLIPSE
  5
7FF
330
18
100
AcDbEntity
  8
0
100
AcDbEllipse
 10
127.7802131999796
 20
208.7024072640949
 30
0.0
 11
-0.7851645692352206
 21
0.0000000000000014
 31
0.0
210
0.0
220
0.0
230
1.0
 40
0.5773502691896261
 41
3.608288978692806
 42
5.673420055691605
  0
ELLIPSE
  5
800
330
18
100
AcDbEntity
  8
0
100
AcDbEllipse
 10
127.6330323380865
 20
207.6934903823698
 30
0.0
 11
-0.3566080471520427
 21
0.0000000000000435
 31
0.0
210
0.0
220
0.0
230
1.0
 40
0.5773502691897536
 41
-0.0203541444877278
 42
0.664950557151887
  0
ELLIPSE
  5
801
330
18
100
AcDbEntity
  8
0
100
AcDbEllipse
 10
84.34101394306486
 20
182.6988319082419
 30
0.0
 11
-0.3566080471520449
 21
0.0
 31
0.0
210
0.0
220
0.0
230
1.0
 40
0.5773502691896182
 41
6.262831162691642
 42
6.948135864331422
  0
ELLIPSE
  5
802
330
18
100
AcDbEntity
  8
0
100
AcDbEllipse
 10
76.53473645256588
 20
179.1154947666716
 30
0.0
 11
-1.758164207788864
 21
0.0
 31
0.0
210
0.0
220
0.0
230
1.0
 40
0.5773502691896258
 41
5.388708123425359
 42
6.080873628697781
  0
ELLIPSE
  5
803
330
18
100
AcDbEntity
  8
0
100
AcDbEllipse
 10
84.48819480495803
 20
183.707748789967
 30
0.0
 11
-0.7851645692352184
 21
0.0
 31
0.0
210
0.0
220
0.0
230
1.0
 40
0.5773502691896267
 41
3.608288978692808
 42
5.673420055691604
  0
ELLIPSE
  5
804
330
18
100
AcDbEntity
  8
0
100
AcDbEllipse
 10
75.6259182329905
 20
180.3054816755173
 30
0.0
 11
-0.3566080471520449
 21
0.0
 31
0.0
210
0.0
220
0.0
230
1.0
 40
0.5773502691896182
 41
2.201448559053194
 42
3.141592653589793
  0
ELLIPSE
  5
805
330
18
100
AcDbEntity
  8
0
100
AcDbEllipse
 10
82.93450609125143
 20
183.7328676869368
 30
0.0
 11
-0.3566080471520449
 21
0.0
 31
0.0
210
0.0
220
0.0
230
1.0
 40
0.5773502691896182
 41
0.5230802009184295
 42
2.397603423495621
  0
ELLIPSE
  5
806
330
18
100
AcDbEntity
  8
0
100
AcDbEllipse
 10
81.4826467292802
 20
184.1395912436184
 30
0.0
 11
-0.3566080471520449
 21
0.0
 31
0.0
210
0.0
220
0.0
230
1.0
 40
0.5773502691896182
 41
3.752655114730266
 42
5.498287535397668
  0
ELLIPSE
  5
807
330
18
100
AcDbEntity
  8
0
100
AcDbEllipse
 10
75.01964635536683
 20
76.75830482530786
 30
0.0
 11
0.8647242165107721
 21
-1.497746277531852
 31
0.0
210
0.0
220
0.0
230
1.0
 40
0.5773502691896237
 41
6.283185307179586
 42
7.137533175490144
  0
ELLIPSE
  5
808
330
18
100
AcDbEntity
  8
0
100
AcDbEllipse
 10
59.37000633368234
 20
85.76156078490944
 30
0.0
 11
0.2972076189927378
 21
-0.5147786964919967
 31
0.0
210
0.0
220
0.0
230
1.0
 40
0.5773502691896204
 41
3.926990816987252
 42
5.646759595832303
  0
ELLIPSE
  5
809
330
18
100
AcDbEntity
  8
0
100
AcDbEllipse
 10
59.37000633368234
 20
89.24158896432805
 30
0.0
 11
0.2972076189927348
 21
-0.5147786964920034
 31
0.0
210
0.0
220
0.0
230
0.9999999999999998
 40
0.5773502691896264
 41
3.778018364937061
 42
3.926990816987258
  0
ELLIPSE
  5
80A
330
18
100
AcDbEntity
  8
0
100
AcDbEllipse
 10
62.19621164972091
 20
84.12985038490941
 30
0.0
 11
0.2972076189927378
 21
-0.5147786964919967
 31
0.0
210
0.0
220
0.0
230
1.0
 40
0.5773502691896204
 41
3.926990816987252
 42
5.646759595832303
  0
ELLIPSE
  5
80B
330
18
100
AcDbEntity
  8
0
100
AcDbEllipse
 10
62.19621164972091
 20
87.60987856432809
 30
0.0
 11
0.2972076189927348
 21
-0.5147786964920034
 31
0.0
210
0.0
220
0.0
230
0.9999999999999998
 40
0.5773502691896264
 41
3.778018364937058
 42
3.926990816987258
  0
ELLIPSE
  5
80C
330
18
100
AcDbEntity
  8
0
100
AcDbEllipse
 10
65.02241696575942
 20
82.49813998490942
 30
0.0
 11
0.2972076189927378
 21
-0.5147786964919967
 31
0.0
210
0.0
220
0.0
230
1.0
 40
0.5773502691896204
 41
3.926990816987252
 42
5.646759595832303
  0
ELLIPSE
  5
80D
330
18
100
AcDbEntity
  8
0
100
AcDbEllipse
 10
65.02241696575942
 20
85.97816816432805
 30
0.0
 11
0.2972076189927348
 21
-0.5147786964920034
 31
0.0
210
0.0
220
0.0
230
0.9999999999999998
 40
0.5773502691896264
 41
3.778018364937058
 42
3.926990816987258
  0
ELLIPSE
  5
80E
330
18
100
AcDbEntity
  8
0
100
AcDbEllipse
 10
68.55517361080763
 20
80.45850198490946
 30
0.0
 11
0.2972076189927378
 21
-0.5147786964919967
 31
0.0
210
0.0
220
0.0
230
1.0
 40
0.5773502691896204
 41
3.926990816987252
 42
5.646759595832303
  0
ELLIPSE
  5
80F
330
18
100
AcDbEntity
  8
0
100
AcDbEllipse
 10
68.55517361080763
 20
83.93853016432808
 30
0.0
 11
0.2972076189927348
 21
-0.5147786964920034
 31
0.0
210
0.0
220
0.0
230
0.9999999999999998
 40
0.5773502691896264
 41
3.778018364937058
 42
3.926990816987258
  0
ELLIPSE
  5
810
330
18
100
AcDbEntity
  8
0
100
AcDbEllipse
 10
71.38137892684614
 20
78.82679158490943
 30
0.0
 11
0.2972076189927378
 21
-0.5147786964919967
 31
0.0
210
0.0
220
0.0
230
1.0
 40
0.5773502691896204
 41
3.926990816987252
 42
5.646759595832303
  0
ELLIPSE
  5
811
330
18
100
AcDbEntity
  8
0
100
AcDbEllipse
 10
71.38137892684614
 20
82.30681976432805
 30
0.0
 11
0.2972076189927348
 21
-0.5147786964920034
 31
0.0
210
0.0
220
0.0
230
0.9999999999999998
 40
0.5773502691896264
 41
3.778018364937058
 42
3.926990816987258
  0
ELLIPSE
  5
812
330
18
100
AcDbEntity
  8
0
100
AcDbEllipse
 10
74.20758424288464
 20
77.19508118490939
 30
0.0
 11
0.2972076189927378
 21
-0.5147786964919967
 31
0.0
210
0.0
220
0.0
230
1.0
 40
0.5773502691896204
 41
3.926990816987252
 42
5.646759595832303
  0
ELLIPSE
  5
813
330
18
100
AcDbEntity
  8
0
100
AcDbEllipse
 10
74.20758424288464
 20
80.67510936432809
 30
0.0
 11
0.2972076189927348
 21
-0.5147786964920034
 31
0.0
210
0.0
220
0.0
230
0.9999999999999998
 40
0.5773502691896264
 41
3.778018364937058
 42
3.926990816987258
  0
ELLIPSE
  5
814
330
18
100
AcDbEntity
  8
0
100
AcDbEllipse
 10
74.66637069086198
 20
76.55434102530787
 30
0.0
 11
0.8647242165107721
 21
-1.497746277531852
 31
0.0
210
0.0
220
0.0
230
1.0
 40
0.5773502691896237
 41
5.497787143782146
 42
7.137533175490144
  0
ELLIPSE
  5
815
330
18
100
AcDbEntity
  8
0
100
AcDbEllipse
 10
61.84293598521605
 20
87.40591476432809
 30
0.0
 11
0.2972076189927348
 21
-0.5147786964920034
 31
0.0
210
0.0
220
0.0
230
0.9999999999999998
 40
0.5773502691896264
 41
0.7853981633974435
 42
3.926990816987258
  0
ELLIPSE
  5
816
330
18
100
AcDbEntity
  8
0
100
AcDbEllipse
 10
61.84293598521605
 20
83.92588658490941
 30
0.0
 11
0.2972076189927378
 21
-0.5147786964919967
 31
0.0
210
0.0
220
0.0
230
1.0
 40
0.5773502691896204
 41
3.926990816987252
 42
7.068583470577051
  0
ELLIPSE
  5
817
330
18
100
AcDbEntity
  8
0
100
AcDbEllipse
 10
59.01673066917749
 20
85.55759698490943
 30
0.0
 11
0.2972076189927378
 21
-0.5147786964919967
 31
0.0
210
0.0
220
0.0
230
1.0
 40
0.5773502691896204
 41
3.926990816987252
 42
7.068583470577051
  0
ELLIPSE
  5
818
330
18
100
AcDbEntity
  8
0
100
AcDbEllipse
 10
59.01673066917749
 20
89.03762516432806
 30
0.0
 11
0.2972076189927348
 21
-0.5147786964920034
 31
0.0
210
0.0
220
0.0
230
0.9999999999999998
 40
0.5773502691896264
 41
0.7853981633974435
 42
3.926990816987258
  0
ELLIPSE
  5
819
330
18
100
AcDbEntity
  8
0
100
AcDbEllipse
 10
73.85430857837985
 20
76.9911173849094
 30
0.0
 11
0.2972076189927378
 21
-0.5147786964919967
 31
0.0
210
0.0
220
0.0
230
1.0
 40
0.5773502691896204
 41
3.926990816987252
 42
7.068583470577051
  0
ELLIPSE
  5
81A
330
18
100
AcDbEntity
  8
0
100
AcDbEllipse
 10
71.02810326234134
 20
82.10285596432806
 30
0.0
 11
0.2972076189927348
 21
-0.5147786964920034
 31
0.0
210
0.0
220
0.0
230
0.9999999999999998
 40
0.5773502691896264
 41
0.7853981633974435
 42
3.926990816987258
  0
ELLIPSE
  5
81B
330
18
100
AcDbEntity
  8
0
100
AcDbEllipse
 10
71.02810326234134
 20
78.62282778490943
 30
0.0
 11
0.2972076189927378
 21
-0.5147786964919967
 31
0.0
210
0.0
220
0.0
230
1.0
 40
0.5773502691896204
 41
3.926990816987252
 42
7.068583470577051
  0
ELLIPSE
  5
81C
330
18
100
AcDbEntity
  8
0
100
AcDbEllipse
 10
73.85430857837985
 20
80.47114556432807
 30
0.0
 11
0.2972076189927348
 21
-0.5147786964920034
 31
0.0
210
0.0
220
0.0
230
0.9999999999999998
 40
0.5773502691896264
 41
0.7853981633974435
 42
3.926990816987258
  0
ELLIPSE
  5
81D
330
18
100
AcDbEntity
  8
0
100
AcDbEllipse
 10
58.92913777847707
 20
184.25503745975
 30
0.0
 11
-0.274503163666683
 21
0.0
 31
0.0
210
0.0
220
0.0
230
1.0
 40
0.577350269189633
 41
3.746592661012549
 42
5.515839581048902
  0
ELLIPSE
  5
81E
330
18
100
AcDbEntity
  8
0
100
AcDbEllipse
 10
58.92913777847707
 20
184.25503745975
 30
0.0
 11
-0.7703236136190397
 21
0.0
 31
0.0
210
0.0
220
0.0
230
1.0
 40
0.5773502691896251
 41
4.285165304582596
 42
5.539428025970113
  0
ELLIPSE
  5
81F
330
18
100
AcDbEntity
  8
0
100
AcDbEllipse
 10
64.66914130125463
 20
85.77420436432806
 30
0.0
 11
0.2972076189927348
 21
-0.5147786964920034
 31
0.0
210
0.0
220
0.0
230
0.9999999999999998
 40
0.5773502691896264
 41
0.7853981633974435
 42
3.926990816987258
  0
ELLIPSE
  5
820
330
18
100
AcDbEntity
  8
0
100
AcDbEllipse
 10
64.66914130125463
 20
82.29417618490943
 30
0.0
 11
0.2972076189927378
 21
-0.5147786964919967
 31
0.0
210
0.0
220
0.0
230
1.0
 40
0.5773502691896204
 41
3.926990816987252
 42
7.068583470577051
  0
ELLIPSE
  5
821
330
18
100
AcDbEntity
  8
0
100
AcDbEllipse
 10
68.20189794630278
 20
80.25453818490941
 30
0.0
 11
0.2972076189927378
 21
-0.5147786964919967
 31
0.0
210
0.0
220
0.0
230
1.0
 40
0.5773502691896204
 41
3.926990816987252
 42
7.068583470577051
  0
ELLIPSE
  5
822
330
18
100
AcDbEntity
  8
0
100
AcDbEllipse
 10
68.20189794630278
 20
83.73456636432809
 30
0.0
 11
0.2972076189927348
 21
-0.5147786964920034
 31
0.0
210
0.0
220
0.0
230
0.9999999999999998
 40
0.5773502691896264
 41
0.7853981633974435
 42
3.926990816987258
  0
ELLIPSE
  5
823
330
18
100
AcDbEntity
  8
0
100
AcDbEllipse
 10
57.32326159728734
 20
86.56738972906824
 30
0.0
 11
0.8647242165107721
 21
-1.497746277531852
 31
0.0
210
0.0
220
0.0
230
1.0
 40
0.5773502691896237
 41
3.862077702013273
 42
5.497787143782146
  0
ELLIPSE
  5
824
330
18
100
AcDbEntity
  8
0
100
AcDbEllipse
 10
130.6440976729536
 20
109.2128890328418
 30
0.0
 11
0.4996072359990916
 21
-0.8653451165794669
 31
0.0
210
0.0
220
0.0
230
1.0
 40
0.5773502691896165
 41
7.068583470577018
 42
10.21017612416682
  0
ELLIPSE
  5
825
330
18
100
AcDbEntity
  8
0
100
AcDbEllipse
 10
122.5187573893429
 20
220.6249561727962
 30
0.0
 11
0.3882224319166268
 21
-0.6724209767175599
 31
0.0
210
0.0
220
0.0
230
1.0
 40
0.5773502691896339
 41
0.727122175272672
 42
3.956790247546941
  0
ELLIPSE
  5
826
330
18
100
AcDbEntity
  8
0
100
AcDbEllipse
 10
122.5187573893429
 20
217.6628279698294
 30
0.0
 11
0.8410193341726618
 21
-1.456688216934781
 31
0.0
210
0.0
220
0.0
230
0.9999999999999998
 40
0.5773502691896221
 41
2.835772082854391
 42
8.160454345848215
  0
ELLIPSE
  5
827
330
18
100
AcDbEntity
  8
0
100
AcDbEllipse
 10
84.48819480495803
 20
184.115676389967
 30
0.0
 11
-0.7851645692352184
 21
0.0
 31
0.0
210
0.0
220
0.0
230
1.0
 40
0.5773502691896267
 41
2.200741987807377
 42
5.673420055691604
  0
ELLIPSE
  5
828
330
18
100
AcDbEntity
  8
0
100
AcDbEllipse
 10
76.53473645256588
 20
179.5234223666716
 30
0.0
 11
-1.758164207788864
 21
0.0
 31
0.0
210
0.0
220
0.0
230
1.0
 40
0.5773502691896258
 41
5.388708123425359
 42
8.738493431136609
  0
ELLIPSE
  5
829
330
18
100
AcDbEntity
  8
0
100
AcDbEllipse
 10
84.85532581114188
 20
182.0586679482166
 30
0.0
 11
-0.3566080471520449
 21
0.0
 31
0.0
210
0.0
220
0.0
230
1.0
 40
0.5773502691896182
 41
2.270780254926908
 42
3.806559299226828
  0
ELLIPSE
  5
82A
330
18
100
AcDbEntity
  8
0
100
AcDbEllipse
 10
80.0031884099369
 20
179.2571888540899
 30
0.0
 11
-0.3566080471520449
 21
0.0
 31
0.0
210
0.0
220
0.0
230
1.0
 40
0.5773502691896182
 41
0.8816120499793496
 42
2.445400010306466
  0
ELLIPSE
  5
82B
330
18
100
AcDbEntity
  8
0
100
AcDbEllipse
 10
78.96039146599719
 20
179.2077032194879
 30
0.0
 11
-0.3566080471520449
 21
0.0
 31
0.0
210
0.0
220
0.0
230
1.0
 40
0.5773502691896182
 41
3.920268871396342
 42
5.65271353104234
  0
ELLIPSE
  5
82C
330
18
100
AcDbEntity
  8
0
100
AcDbEllipse
 10
75.6259182329905
 20
180.7134092755173
 30
0.0
 11
-0.3566080471520449
 21
0.0
 31
0.0
210
0.0
220
0.0
230
1.0
 40
0.5773502691896182
 41
2.201448559053194
 42
4.144237032368607
  0
ELLIPSE
  5
82D
330
18
100
AcDbEntity
  8
0
100
AcDbEllipse
 10
75.69019494853569
 20
181.2039633216062
 30
0.0
 11
-0.3566080471520449
 21
0.0
 31
0.0
210
0.0
220
0.0
230
1.0
 40
0.5773502691896182
 41
5.436107349552393
 42
7.316411432581467
  0
ELLIPSE
  5
82E
330
18
100
AcDbEntity
  8
0
100
AcDbEllipse
 10
81.4826467292802
 20
184.5475188436184
 30
0.0
 11
-0.3566080471520449
 21
0.0
 31
0.0
210
0.0
220
0.0
230
1.0
 40
0.5773502691896182
 41
3.752655114730266
 42
5.498287535397668
  0
ELLIPSE
  5
82F
330
18
100
AcDbEntity
  8
0
100
AcDbEllipse
 10
82.93450609125143
 20
184.1407952869368
 30
0.0
 11
-0.3566080471520449
 21
0.0
 31
0.0
210
0.0
220
0.0
230
1.0
 40
0.5773502691896182
 41
0.5230802009184295
 42
2.397603423495621
  0
ELLIPSE
  5
830
330
18
100
AcDbEntity
  8
0
100
AcDbEllipse
 10
84.34101394306486
 20
183.1067595082419
 30
0.0
 11
-0.3566080471520449
 21
0.0
 31
0.0
210
0.0
220
0.0
230
1.0
 40
0.5773502691896182
 41
5.434603881228381
 42
6.948135864331422
  0
ELLIPSE
  5
831
330
18
100
AcDbEntity
  8
0
100
AcDbEllipse
 10
121.3137005257891
 20
212.7768516369301
 30
0.0
 11
-1.049480084734778
 21
0.0000000000000033
 31
0.0
210
0.0
220
0.0
230
1.0
 40
0.5773502691897045
 41
0.7369210953258319
 42
4.001093817915241
  0
ELLIPSE
  5
832
330
18
100
AcDbEntity
  8
0
100
AcDbEllipse
 10
115.0840402981646
 20
216.373547646309
 30
0.0
 11
-1.049480084734849
 21
0.0
 31
0.0
210
0.0
220
0.0
230
1.0
 40
0.5773502691896285
 41
3.85288781605923
 42
7.117060538648631
  0
ELLIPSE
  5
833
330
18
100
AcDbEntity
  8
0
100
AcDbEllipse
 10
91.92873755199361
 20
204.1726582853846
 30
0.0
 11
-1.049480084734818
 21
0.0000000000000024
 31
0.0
210
0.0
220
0.0
230
1.0
 40
0.5773502691896656
 41
0.7369210953258567
 42
4.001093817915273
  0
ELLIPSE
  5
834
330
18
100
AcDbEntity
  8
0
100
AcDbEllipse
 10
90.15556919139227
 20
205.1963975156962
 30
0.0
 11
-1.049480084734826
 21
0.0000000000000043
 31
0.0
210
0.0
220
0.0
230
1.0
 40
0.5773502691896534
 41
3.852887816059211
 42
7.117060538648614
  0
ELLIPSE
  5
835
330
18
100
AcDbEntity
  8
0
100
AcDbEllipse
 10
89.45580790045994
 20
202.7449116853846
 30
0.0
 11
-1.049480084734818
 21
0.0000000000000024
 31
0.0
210
0.0
220
0.0
230
1.0
 40
0.5773502691896656
 41
0.7369210953258567
 42
4.001093817915273
  0
ELLIPSE
  5
836
330
18
100
AcDbEntity
  8
0
100
AcDbEllipse
 10
87.68263953985854
 20
203.7686509156963
 30
0.0
 11
-1.049480084734826
 21
0.0000000000000043
 31
0.0
210
0.0
220
0.0
230
1.0
 40
0.5773502691896534
 41
3.852887816059211
 42
7.117060538648614
  0
ELLIPSE
  5
837
330
18
100
AcDbEntity
  8
0
100
AcDbEllipse
 10
86.98287824892622
 20
201.3171650853846
 30
0.0
 11
-1.049480084734818
 21
0.0000000000000024
 31
0.0
210
0.0
220
0.0
230
1.0
 40
0.5773502691896656
 41
0.7369210953258567
 42
4.001093817915273
  0
ELLIPSE
  5
838
330
18
100
AcDbEntity
  8
0
100
AcDbEllipse
 10
85.20970988832482
 20
202.3409043156963
 30
0.0
 11
-1.049480084734826
 21
0.0000000000000043
 31
0.0
210
0.0
220
0.0
230
1.0
 40
0.5773502691896534
 41
3.852887816059211
 42
7.117060538648614
  0
ELLIPSE
  5
839
330
18
100
AcDbEntity
  8
0
100
AcDbEllipse
 10
82.03701894585879
 20
198.4616718853845
 30
0.0
 11
-1.049480084734818
 21
0.0000000000000024
 31
0.0
210
0.0
220
0.0
230
1.0
 40
0.5773502691896656
 41
0.7369210953258567
 42
4.001093817915273
  0
ELLIPSE
  5
83A
330
18
100
AcDbEntity
  8
0
100
AcDbEllipse
 10
80.26385058525738
 20
199.4854111156962
 30
0.0
 11
-1.049480084734826
 21
0.0000000000000043
 31
0.0
210
0.0
220
0.0
230
1.0
 40
0.5773502691896534
 41
3.852887816059211
 42
7.117060538648614
  0
ELLIPSE
  5
83B
330
18
100
AcDbEntity
  8
0
100
AcDbEllipse
 10
84.50994859739251
 20
199.8894184853845
 30
0.0
 11
-1.049480084734818
 21
0.0000000000000024
 31
0.0
210
0.0
220
0.0
230
1.0
 40
0.5773502691896656
 41
0.7369210953258567
 42
4.001093817915273
  0
ELLIPSE
  5
83C
330
18
100
AcDbEntity
  8
0
100
AcDbEllipse
 10
82.7367802367911
 20
200.9131577156963
 30
0.0
 11
-1.049480084734826
 21
0.0000000000000043
 31
0.0
210
0.0
220
0.0
230
1.0
 40
0.5773502691896534
 41
3.852887816059211
 42
7.117060538648614
  0
ELLIPSE
  5
83D
330
18
100
AcDbEntity
  8
0
100
AcDbEllipse
 10
71.3907162979288
 20
196.0418379850411
 30
0.0
 11
-1.049480084734849
 21
0.0
 31
0.0
210
0.0
220
0.0
230
1.0
 40
0.5773502691896285
 41
3.85288781605923
 42
7.117060538648631
  0
ELLIPSE
  5
83E
330
18
100
AcDbEntity
  8
0
100
AcDbEllipse
 10
74.61822999125757
 20
194.1784320853846
 30
0.0
 11
-1.049480084734818
 21
0.0000000000000024
 31
0.0
210
0.0
220
0.0
230
1.0
 40
0.5773502691896656
 41
0.7369210953258567
 42
4.001093817915273
  0
ELLIPSE
  5
83F
330
18
100
AcDbEntity
  8
0
100
AcDbEllipse
 10
73.86364594946252
 20
197.4695845850411
 30
0.0
 11
-1.049480084734849
 21
0.0
 31
0.0
210
0.0
220
0.0
230
1.0
 40
0.5773502691896285
 41
3.85288781605923
 42
7.117060538648631
  0
ELLIPSE
  5
840
330
18
100
AcDbEntity
  8
0
100
AcDbEllipse
 10
77.0911596427913
 20
195.6061786853846
 30
0.0
 11
-1.049480084734818
 21
0.0000000000000024
 31
0.0
210
0.0
220
0.0
230
1.0
 40
0.5773502691896656
 41
0.7369210953258567
 42
4.001093817915273
  0
ELLIPSE
  5
841
330
18
100
AcDbEntity
  8
0
100
AcDbEllipse
 10
77.79092093372367
 20
198.0576645156962
 30
0.0
 11
-1.049480084734826
 21
0.0000000000000043
 31
0.0
210
0.0
220
0.0
230
1.0
 40
0.5773502691896534
 41
3.852887816059211
 42
7.117060538648614
  0
ELLIPSE
  5
842
330
18
100
AcDbEntity
  8
0
100
AcDbEllipse
 10
79.56408929432507
 20
197.0339252853846
 30
0.0
 11
-1.049480084734818
 21
0.0000000000000024
 31
0.0
210
0.0
220
0.0
230
1.0
 40
0.5773502691896656
 41
0.7369210953258567
 42
4.001093817915273
  0
ELLIPSE
  5
843
330
18
100
AcDbEntity
  8
0
100
AcDbEllipse
 10
68.91778664639509
 20
194.6140913850412
 30
0.0
 11
-1.049480084734849
 21
0.0
 31
0.0
210
0.0
220
0.0
230
1.0
 40
0.5773502691896285
 41
3.85288781605923
 42
7.117060538648631
  0
ELLIPSE
  5
844
330
18
100
AcDbEntity
  8
0
100
AcDbEllipse
 10
72.14530033972386
 20
192.7506854853845
 30
0.0
 11
-1.049480084734818
 21
0.0000000000000024
 31
0.0
210
0.0
220
0.0
230
1.0
 40
0.5773502691896656
 41
0.7369210953258567
 42
4.001093817915273
  0
ELLIPSE
  5
845
330
18
100
AcDbEntity
  8
0
100
AcDbEllipse
 10
66.44485699486136
 20
193.1863447850411
 30
0.0
 11
-1.049480084734849
 21
0.0
 31
0.0
210
0.0
220
0.0
230
1.0
 40
0.5773502691896285
 41
3.85288781605923
 42
7.117060538648631
  0
ELLIPSE
  5
846
330
18
100
AcDbEntity
  8
0
100
AcDbEllipse
 10
69.6723706881902
 20
191.3229388853845
 30
0.0
 11
-1.049480084734818
 21
0.0000000000000024
 31
0.0
210
0.0
220
0.0
230
1.0
 40
0.5773502691896656
 41
0.7369210953258567
 42
4.001093817915273
  0
ELLIPSE
  5
847
330
18
100
AcDbEntity
  8
0
100
AcDbEllipse
 10
63.97192734332765
 20
191.7585981850411
 30
0.0
 11
-1.049480084734849
 21
0.0
 31
0.0
210
0.0
220
0.0
230
1.0
 40
0.5773502691896285
 41
3.85288781605923
 42
7.117060538648631
  0
ELLIPSE
  5
848
330
18
100
AcDbEntity
  8
0
100
AcDbEllipse
 10
67.19944103665648
 20
189.8951922853846
 30
0.0
 11
-1.049480084734818
 21
0.0000000000000024
 31
0.0
210
0.0
220
0.0
230
1.0
 40
0.5773502691896656
 41
0.7369210953258567
 42
4.001093817915273
  0
ELLIPSE
  5
849
330
18
100
AcDbEntity
  8
0
100
AcDbEllipse
 10
64.7265113851227
 20
188.4674456853846
 30
0.0
 11
-1.049480084734818
 21
0.0000000000000024
 31
0.0
210
0.0
220
0.0
230
1.0
 40
0.5773502691896656
 41
0.7369210953258567
 42
4.001093817915273
  0
ELLIPSE
  5
84A
330
18
100
AcDbEntity
  8
0
100
AcDbEllipse
 10
61.49899769179393
 20
190.3308515850411
 30
0.0
 11
-1.049480084734849
 21
0.0
 31
0.0
210
0.0
220
0.0
230
1.0
 40
0.5773502691896285
 41
3.85288781605923
 42
7.117060538648631
  0
ELLIPSE
  5
84B
330
18
100
AcDbEntity
  8
0
100
AcDbEllipse
 10
93.90446852517284
 20
208.3273143375525
 30
0.0
 11
-1.485886395809464
 21
0.0
 31
0.0
210
0.0
220
0.0
230
1.0
 40
0.5773502691896266
 41
0.7486422814889724
 42
2.413912445602591
  0
ELLIPSE
  5
84C
330
18
100
AcDbEntity
  8
0
100
AcDbEllipse
 10
112.2767239993098
 20
219.3550504980571
 30
0.0
 11
-1.998428943996334
 21
0.0
 31
0.0
210
0.0
220
0.0
230
1.0
 40
0.5773502691896258
 41
2.356194490192343
 42
3.99173704161553
  0
LINE
  5
84D
330
18
100
AcDbEntity
  8
0
100
AcDbLine
 10
128.4200967771571
 20
206.9206924217892
 30
0.0
 11
119.3557890383386
 21
201.6874119087648
 31
0.0
  0
LINE
  5
84E
330
18
100
AcDbEntity
  8
0
100
AcDbLine
 10
114.6760918054622
 20
203.5951656732591
 30
0.0
 11
124.5223790087789
 21
209.2797614758143
 31
0.0
  0
LINE
  5
84F
330
18
100
AcDbEntity
  8
0
100
AcDbLine
 10
114.5468787032227
 20
203.9284957122768
 30
0.0
 11
124.5223790087789
 21
209.6876890758143
 31
0.0
  0
LINE
  5
850
330
18
100
AcDbEntity
  8
0
100
AcDbLine
 10
134.1768543180019
 20
112.8842374328419
 30
0.0
 11
134.1768543180019
 21
207.5234406328419
 31
0.0
  0
POLYLINE
  5
851
330
18
100
AcDbEntity
  8
0
100
AcDb2dPolyline
 66
     1
 10
0.0
 20
0.0
 30
0.0
  0
VERTEX
  5
A6F
330
851
100
AcDbEntity
  8
0
100
AcDbVertex
100
AcDb2dVertex
 10
91.15155439101419
 20
203.7654749595369
 30
0.0
  0
VERTEX
  5
A70
330
851
100
AcDbEntity
  8
0
100
AcDbVertex
100
AcDb2dVertex
 10
89.3783860304128
 20
204.7892141898486
 30
0.0
  0
SEQEND
  5
A71
330
851
100
AcDbEntity
  8
0
  0
LINE
  5
852
330
18
100
AcDbEntity
  8
0
100
AcDbLine
 10
90.14092468892773
 20
203.203904580905
 30
0.0
 11
88.36775632832644
 21
204.2276438112167
 31
0.0
  0
LINE
  5
853
330
18
100
AcDbEntity
  8
0
100
AcDbLine
 10
70.85509294286936
 20
180.2094734954775
 30
0.0
 11
119.9516933135432
 21
208.5554089357816
 31
0.0
  0
LINE
  5
854
330
18
100
AcDbEntity
  8
0
100
AcDbLine
 10
112.0829852329761
 20
211.8746268642717
 30
0.0
 11
65.10603884933113
 21
184.7524742239675
 31
0.0
  0
LINE
  5
855
330
18
100
AcDbEntity
  8
0
100
AcDbLine
 10
112.2384355522527
 20
212.5205537328418
 30
0.0
 11
63.94565221444423
 21
184.6387022728418
 31
0.0
  0
LINE
  5
856
330
18
100
AcDbEntity
  8
0
100
AcDbLine
 10
73.76671568767824
 20
200.0583655528418
 30
0.0
 11
89.94674112199886
 21
209.3999075928418
 31
0.0
  0
LINE
  5
857
330
18
100
AcDbEntity
  8
0
100
AcDbLine
 10
137.0030596340404
 20
114.5159478328419
 30
0.0
 11
137.0030596340404
 21
209.1551510328419
 31
0.0
  0
LINE
  5
858
330
18
100
AcDbEntity
  8
0
100
AcDbLine
 10
137.0030596340404
 20
209.1551510328419
 30
0.0
 11
76.59292100371676
 21
174.2773412328419
 31
0.0
  0
LINE
  5
859
330
18
100
AcDbEntity
  8
0
100
AcDbLine
 10
108.5179762943386
 20
90.31945289877615
 30
0.0
 11
125.9857374157717
 21
100.4044694843756
 31
0.0
  0
LINE
  5
85A
330
18
100
AcDbEntity
  8
0
100
AcDbLine
 10
108.5179762943386
 20
89.50359769877616
 30
0.0
 11
125.9857374157717
 21
99.58861428437565
 31
0.0
  0
LINE
  5
85B
330
18
100
AcDbEntity
  8
0
100
AcDbLine
 10
69.62306939934655
 20
89.25515360946736
 30
0.0
 11
69.62306939934655
 21
111.8951354094673
 31
0.0
  0
LINE
  5
85C
330
18
100
AcDbEntity
  8
0
100
AcDbLine
 10
69.26979373484176
 20
89.05118980946737
 30
0.0
 11
69.26979373484176
 21
112.0990992094673
 31
0.0
  0
LINE
  5
85D
330
18
100
AcDbEntity
  8
0
100
AcDbLine
 10
73.01451577859279
 20
109.9370829294673
 30
0.0
 11
73.01451577859279
 21
86.88917352946736
 31
0.0
  0
LINE
  5
85E
330
18
100
AcDbEntity
  8
0
100
AcDbLine
 10
59.23457216528061
 20
95.25295528403104
 30
0.0
 11
59.23457216528055
 21
108.102674684031
 31
0.0
  0
LINE
  5
85F
330
18
100
AcDbEntity
  8
0
100
AcDbLine
 10
58.88129650077576
 20
95.04899148403103
 30
0.0
 11
58.88129650077576
 21
108.306638484031
 31
0.0
  0
LINE
  5
860
330
18
100
AcDbEntity
  8
0
100
AcDbLine
 10
62.6260185445268
 20
106.144622204031
 30
0.0
 11
62.6260185445268
 21
92.88697520403104
 31
0.0
  0
LINE
  5
861
330
18
100
AcDbEntity
  8
0
100
AcDbLine
 10
56.10293246243736
 20
135.1162916328419
 30
0.0
 11
56.10293246243736
 21
87.3635458017355
 31
0.0
  0
LINE
  5
862
330
18
100
AcDbEntity
  8
0
100
AcDbLine
 10
77.73319538975624
 20
80.29647575657184
 30
0.0
 11
77.73319538975624
 21
174.9356789565718
 31
0.0
  0
LINE
  5
863
330
18
100
AcDbEntity
  8
0
100
AcDbLine
 10
137.0030596340404
 20
114.5159478328419
 30
0.0
 11
76.59292100371676
 21
79.63813803284193
 31
0.0
  0
LINE
  5
864
330
18
100
AcDbEntity
  8
0
100
AcDbLine
 10
76.59292100371676
 20
79.63813803284193
 30
0.0
 11
76.59292100371676
 21
174.2773412328419
 31
0.0
  0
LINE
  5
865
330
18
100
AcDbEntity
  8
0
100
AcDbLine
 10
51.86362448837957
 20
188.5548072328419
 30
0.0
 11
51.86362448837957
 21
93.91560403284193
 31
0.0
  0
LINE
  5
866
330
18
100
AcDbEntity
  8
0
100
AcDbLine
 10
90.76738673731535
 20
83.74249363975422
 30
0.0
 11
101.7189323369647
 21
90.06537143975425
 31
0.0
  0
LINE
  5
867
330
18
100
AcDbEntity
  8
0
100
AcDbLine
 10
57.32326159728734
 20
85.15530099661534
 30
0.0
 11
74.66637069086203
 21
75.14225229285496
 31
0.0
  0
LINE
  5
868
330
18
100
AcDbEntity
  8
0
100
AcDbLine
 10
51.86362448837957
 20
93.91560403284193
 30
0.0
 11
56.10293246243736
 21
91.46803843284192
 31
0.0
  0
LINE
  5
86C
330
18
100
AcDbEntity
  8
0
100
AcDbLine
 10
75.53109490737279
 20
75.056594747776
 30
0.0
 11
75.88437057187758
 21
75.260558547776
 31
0.0
  0
LINE
  5
86D
330
18
100
AcDbEntity
  8
0
100
AcDbLine
 10
76.2396453392119
 20
76.15122405828978
 30
0.0
 11
76.2396453392119
 21
79.84210183284194
 31
0.0
  0
LINE
  5
86F
330
18
100
AcDbEntity
  8
0
100
AcDbLine
 10
75.88636967470711
 20
80.04606563284193
 30
0.0
 11
76.59292100371676
 21
79.63813803284193
 31
0.0
  0
LINE
  5
870
330
18
100
AcDbEntity
  8
0
100
AcDbLine
 10
75.88636967470711
 20
75.9472602582888
 30
0.0
 11
75.88636967470711
 21
80.04606563284193
 31
0.0
  0
LINE
  5
874
330
18
100
AcDbEntity
  8
0
100
AcDbLine
 10
58.88129650077576
 20
95.04899148403103
 30
0.0
 11
59.23457216528061
 21
95.25295528403104
 31
0.0
  0
LINE
  5
875
330
18
100
AcDbEntity
  8
0
100
AcDbLine
 10
62.6260185445268
 20
93.29490280403105
 30
0.0
 11
59.23457216528061
 21
95.25295528403104
 31
0.0
  0
LINE
  5
876
330
18
100
AcDbEntity
  8
0
100
AcDbLine
 10
62.6260185445268
 20
92.88697520403104
 30
0.0
 11
58.88129650077576
 21
95.04899148403103
 31
0.0
  0
LINE
  5
877
330
18
100
AcDbEntity
  8
0
100
AcDbLine
 10
58.94969128806224
 20
89.48425796906134
 30
0.0
 11
58.94969128806224
 21
88.08454781398301
 31
0.0
  0
LINE
  5
87F
330
18
100
AcDbEntity
  8
0
100
AcDbLine
 10
58.59641562355739
 20
89.28029416906133
 30
0.0
 11
58.59641562355739
 21
87.880584013983
 31
0.0
  0
LINE
  5
880
330
18
100
AcDbEntity
  8
0
100
AcDbLine
 10
59.4370457147977
 20
88.79495615959484
 30
0.0
 11
59.4370457147977
 21
87.3952460045165
 31
0.0
  0
LINE
  5
881
330
18
100
AcDbEntity
  8
0
100
AcDbLine
 10
69.26979373484176
 20
89.05118980946737
 30
0.0
 11
69.62306939934655
 21
89.25515360946736
 31
0.0
  0
LINE
  5
882
330
18
100
AcDbEntity
  8
0
100
AcDbLine
 10
73.01451577859279
 20
86.88917352946736
 30
0.0
 11
69.26979373484176
 21
89.05118980946737
 31
0.0
  0
LINE
  5
883
330
18
100
AcDbEntity
  8
0
100
AcDbLine
 10
73.01451577859279
 20
87.29710112946737
 30
0.0
 11
69.62306939934655
 21
89.25515360946736
 31
0.0
  0
LINE
  5
885
330
18
100
AcDbEntity
  8
0
100
AcDbLine
 10
87.23463009226719
 20
85.78213163975419
 30
0.0
 11
90.76738673731535
 21
83.74249363975422
 31
0.0
  0
LINE
  5
886
330
18
100
AcDbEntity
  8
0
100
AcDbLine
 10
90.76738673731535
 20
83.74249363975422
 30
0.0
 11
90.76738673731535
 21
87.82176963975416
 31
0.0
  0
LINE
  5
887
330
18
100
AcDbEntity
  8
0
100
AcDbLine
 10
101.7189323369647
 20
92.10500943975421
 30
0.0
 11
105.0292146981335
 21
90.1938170274397
 31
0.0
  0
LINE
  5
888
330
18
100
AcDbEntity
  8
0
100
AcDbLine
 10
101.7189323369647
 20
91.28915423975422
 30
0.0
 11
105.0292146981335
 21
89.37796182743971
 31
0.0
  0
LINE
  5
889
330
18
100
AcDbEntity
  8
0
100
AcDbLine
 10
101.7189323369647
 20
90.06537143975425
 30
0.0
 11
101.7189323369646
 21
94.14464743975418
 31
0.0
  0
LINE
  5
88B
330
18
100
AcDbEntity
  8
0
100
AcDbLine
 10
71.13144406306833
 20
174.2438912336445
 30
0.0
 11
71.13144406306833
 21
143.6493212336445
 31
0.0
  0
LINE
  5
88C
330
18
100
AcDbEntity
  8
0
100
AcDbLine
 10
70.77816839856348
 20
174.4478550336445
 30
0.0
 11
70.77816839856348
 21
143.4453574336445
 31
0.0
  0
LINE
  5
88D
330
18
100
AcDbEntity
  8
0
100
AcDbLine
 10
74.04596829523303
 20
141.5586922836445
 30
0.0
 11
74.04596829523303
 21
172.5611898836445
 31
0.0
  0
LINE
  5
890
330
18
100
AcDbEntity
  8
0
100
AcDbLine
 10
58.89653749322508
 20
155.7180252404616
 30
0.0
 11
58.92913777847588
 21
136.7480020328418
 31
0.0
  0
LINE
  5
891
330
18
100
AcDbEntity
  8
0
100
AcDbLine
 10
56.10293246243736
 20
135.1162916328419
 30
0.0
 11
58.92913777847588
 21
136.7480020328418
 31
0.0
  0
LINE
  5
892
330
18
100
AcDbEntity
  8
0
100
AcDbLine
 10
59.23457216528061
 20
113.0795151296284
 30
0.0
 11
59.23457216528055
 21
125.9292345296284
 31
0.0
  0
LINE
  5
893
330
18
100
AcDbEntity
  8
0
100
AcDbLine
 10
58.88129650077576
 20
112.8755513296284
 30
0.0
 11
58.88129650077576
 21
126.1331983296285
 31
0.0
  0
LINE
  5
894
330
18
100
AcDbEntity
  8
0
100
AcDbLine
 10
62.6260185445268
 20
123.9711820496284
 30
0.0
 11
62.6260185445268
 21
110.7135350496284
 31
0.0
  0
LINE
  5
895
330
18
100
AcDbEntity
  8
0
100
AcDbLine
 10
58.88129650077576
 20
108.306638484031
 30
0.0
 11
62.6260185445268
 21
106.144622204031
 31
0.0
  0
LINE
  5
896
330
18
100
AcDbEntity
  8
0
100
AcDbLine
 10
58.88129650077576
 20
112.8755513296284
 30
0.0
 11
59.23457216528061
 21
113.0795151296284
 31
0.0
  0
LINE
  5
897
330
18
100
AcDbEntity
  8
0
100
AcDbLine
 10
62.6260185445268
 20
111.1214626496284
 30
0.0
 11
59.23457216528061
 21
113.0795151296284
 31
0.0
  0
LINE
  5
898
330
18
100
AcDbEntity
  8
0
100
AcDbLine
 10
62.6260185445268
 20
110.7135350496284
 30
0.0
 11
58.88129650077576
 21
112.8755513296284
 31
0.0
  0
LINE
  5
899
330
18
100
AcDbEntity
  8
0
100
AcDbLine
 10
69.26979373484176
 20
112.0990992094673
 30
0.0
 11
73.01451577859279
 21
109.9370829294673
 31
0.0
  0
LINE
  5
89D
330
18
100
AcDbEntity
  8
0
100
AcDbLine
 10
58.88129650077576
 20
126.1331983296285
 30
0.0
 11
62.6260185445268
 21
123.9711820496284
 31
0.0
  0
LINE
  5
89F
330
18
100
AcDbEntity
  8
0
100
AcDbLine
 10
70.77816839856348
 20
143.4453574336445
 30
0.0
 11
71.13144406306833
 21
143.6493212336445
 31
0.0
  0
LINE
  5
8A0
330
18
100
AcDbEntity
  8
0
100
AcDbLine
 10
71.13144406306833
 20
143.6493212336445
 30
0.0
 11
74.04596829523303
 21
141.9666198836445
 31
0.0
  0
LINE
  5
8A1
330
18
100
AcDbEntity
  8
0
100
AcDbLine
 10
70.77816839856348
 20
143.4453574336445
 30
0.0
 11
74.04596829523303
 21
141.5586922836445
 31
0.0
  0
LINE
  5
8A2
330
18
100
AcDbEntity
  8
0
100
AcDbLine
 10
54.33655413991323
 20
154.4928526328419
 30
0.0
 11
58.90322971072226
 21
155.9056412029501
 31
0.0
  0
LINE
  5
8A3
330
18
100
AcDbEntity
  8
0
100
AcDbLine
 10
53.98327847540844
 20
180.8041828328418
 30
0.0
 11
58.37828685000909
 21
184.5690255024315
 31
0.0
  0
LINE
  5
8A4
330
18
100
AcDbEntity
  8
0
100
AcDbLine
 10
54.33655413991323
 20
180.6002190328418
 30
0.0
 11
58.73156251451388
 21
184.3650617024315
 31
0.0
  0
LINE
  5
8A5
330
18
100
AcDbEntity
  8
0
100
AcDbLine
 10
58.25668190218903
 20
184.8637738140342
 30
0.0
 11
51.86362448837957
 21
188.5548072328419
 31
0.0
  0
LINE
  5
8A6
330
18
100
AcDbEntity
  8
0
100
AcDbLine
 10
57.79865565206046
 20
190.8392017928419
 30
0.0
 11
56.80948379144701
 21
191.4103004328419
 31
0.0
  0
LINE
  5
8A7
330
18
100
AcDbEntity
  8
0
100
AcDbLine
 10
56.80948379144701
 20
191.4103004328419
 30
0.0
 11
57.93996591786243
 21
192.0629845928419
 31
0.0
  0
LINE
  5
8A8
330
18
100
AcDbEntity
  8
0
100
AcDbLine
 10
56.45620812694216
 20
190.0641393528418
 30
0.0
 11
57.79865565206046
 21
190.8392017928419
 31
0.0
  0
LINE
  5
8A9
330
18
100
AcDbEntity
  8
0
100
AcDbLine
 10
53.98327847540844
 20
180.8041828328418
 30
0.0
 11
53.98327847540844
 21
154.6968164328418
 31
0.0
  0
LINE
  5
8AA
330
18
100
AcDbEntity
  8
0
100
AcDbLine
 10
54.33655413991323
 20
180.6002190328418
 30
0.0
 11
54.33655413991323
 21
154.4928526328419
 31
0.0
  0
LINE
  5
8AB
330
18
100
AcDbEntity
  8
0
100
AcDbLine
 10
56.6510503957104
 20
178.9282754494725
 30
0.0
 11
56.6510503957104
 21
174.6321136499748
 31
0.0
  0
LINE
  5
8AC
330
18
100
AcDbEntity
  8
0
100
AcDbLine
 10
55.47795473026559
 20
178.2509883512427
 30
0.0
 11
55.47795473026559
 21
173.546898951745
 31
0.0
  0
LINE
  5
8AD
330
18
100
AcDbEntity
  8
0
100
AcDbLine
 10
57.00432606021525
 20
179.1322392494725
 30
0.0
 11
57.00432606021525
 21
174.4281498499748
 31
0.0
  0
LINE
  5
8AE
330
18
100
AcDbEntity
  8
0
100
AcDbLine
 10
55.47795473026559
 20
162.5613887470329
 30
0.0
 11
57.00432606021525
 21
163.4426396452627
 31
0.0
  0
LINE
  5
8AF
330
18
100
AcDbEntity
  8
0
100
AcDbLine
 10
57.00432606021525
 20
163.4426396452627
 30
0.0
 11
57.00432606021525
 21
158.738550245765
 31
0.0
  0
LINE
  5
8B0
330
18
100
AcDbEntity
  8
0
100
AcDbLine
 10
53.98327847540844
 20
154.6968164328418
 30
0.0
 11
54.33655413991323
 21
154.4928526328419
 31
0.0
  0
LINE
  5
8B1
330
18
100
AcDbEntity
  8
0
100
AcDbLine
 10
55.47795473026559
 20
157.8572993475352
 30
0.0
 11
57.00432606021525
 21
158.738550245765
 31
0.0
  0
LINE
  5
8B2
330
18
100
AcDbEntity
  8
0
100
AcDbLine
 10
55.47795473026559
 20
158.2652269475352
 30
0.0
 11
56.6510503957104
 21
158.942514045765
 31
0.0
  0
LINE
  5
8B3
330
18
100
AcDbEntity
  8
0
100
AcDbLine
 10
55.47795473026559
 20
162.5613887470329
 30
0.0
 11
55.47795473026559
 21
157.8572993475352
 31
0.0
  0
LINE
  5
8B4
330
18
100
AcDbEntity
  8
0
100
AcDbLine
 10
56.6510503957104
 20
163.2386758452627
 30
0.0
 11
56.6510503957104
 21
158.942514045765
 31
0.0
  0
LINE
  5
8B5
330
18
100
AcDbEntity
  8
0
100
AcDbLine
 10
55.47795473026559
 20
170.2082959978818
 30
0.0
 11
57.00432606021525
 21
171.0895468961116
 31
0.0
  0
LINE
  5
8B6
330
18
100
AcDbEntity
  8
0
100
AcDbLine
 10
55.47795473026559
 20
165.504206598384
 30
0.0
 11
57.00432606021525
 21
166.3854574966138
 31
0.0
  0
LINE
  5
8B7
330
18
100
AcDbEntity
  8
0
100
AcDbLine
 10
55.47795473026559
 20
165.9121341983841
 30
0.0
 11
56.6510503957104
 21
166.5894212966138
 31
0.0
  0
LINE
  5
8B8
330
18
100
AcDbEntity
  8
0
100
AcDbLine
 10
57.00432606021525
 20
171.0895468961116
 30
0.0
 11
57.00432606021525
 21
166.3854574966138
 31
0.0
  0
LINE
  5
8B9
330
18
100
AcDbEntity
  8
0
100
AcDbLine
 10
55.47795473026559
 20
170.2082959978818
 30
0.0
 11
55.47795473026559
 21
165.504206598384
 31
0.0
  0
LINE
  5
8BA
330
18
100
AcDbEntity
  8
0
100
AcDbLine
 10
56.6510503957104
 20
170.8855830961115
 30
0.0
 11
56.6510503957104
 21
166.5894212966138
 31
0.0
  0
LINE
  5
8BB
330
18
100
AcDbEntity
  8
0
100
AcDbLine
 10
55.47795473026559
 20
173.954826551745
 30
0.0
 11
56.6510503957104
 21
174.6321136499748
 31
0.0
  0
LINE
  5
8BC
330
18
100
AcDbEntity
  8
0
100
AcDbLine
 10
55.47795473026559
 20
173.546898951745
 30
0.0
 11
57.00432606021525
 21
174.4281498499748
 31
0.0
  0
LINE
  5
8BD
330
18
100
AcDbEntity
  8
0
100
AcDbLine
 10
55.4670362663287
 20
190.6352379928419
 30
0.0
 11
56.45620812694216
 21
190.0641393528418
 31
0.0
  0
LINE
  5
8BE
330
18
100
AcDbEntity
  8
0
100
AcDbLine
 10
54.33655413991329
 20
189.9825538328419
 30
0.0
 11
55.4670362663287
 21
190.6352379928419
 31
0.0
  0
LINE
  5
8BF
330
18
100
AcDbEntity
  8
0
100
AcDbLine
 10
54.33655413991323
 20
180.6002190328418
 30
0.0
 11
53.98327847540844
 21
180.8041828328418
 31
0.0
  0
LINE
  5
8C0
330
18
100
AcDbEntity
  8
0
100
AcDbLine
 10
55.47795473026559
 20
178.2509883512427
 30
0.0
 11
57.00432606021525
 21
179.1322392494725
 31
0.0
  0
LINE
  5
8C1
330
18
100
AcDbEntity
  8
0
100
AcDbLine
 10
55.32572600052674
 20
189.4114551928419
 30
0.0
 11
54.33655413991329
 21
189.9825538328419
 31
0.0
  0
LINE
  5
8C2
330
18
100
AcDbEntity
  8
0
100
AcDbLine
 10
53.98327847540844
 20
188.6363927528419
 30
0.0
 11
55.32572600052674
 21
189.4114551928419
 31
0.0
  0
LINE
  5
8C3
330
18
100
AcDbEntity
  8
0
100
AcDbLine
 10
52.99410661479498
 20
189.2074913928419
 30
0.0
 11
53.98327847540844
 21
188.6363927528419
 31
0.0
  0
LINE
  5
8C4
330
18
100
AcDbEntity
  8
0
100
AcDbLine
 10
51.86362448837957
 20
188.5548072328419
 30
0.0
 11
52.99410661479498
 21
189.2074913928419
 31
0.0
  0
LINE
  5
8C5
330
18
100
AcDbEntity
  8
0
100
AcDbLine
 10
70.05732121037755
 20
179.8863457328419
 30
0.0
 11
77.73319538975624
 21
174.9356789565718
 31
0.0
  0
LINE
  5
8C6
330
18
100
AcDbEntity
  8
0
100
AcDbLine
 10
58.92913777847707
 20
183.3836890724944
 30
0.0
 11
58.92913777847638
 21
157.3453798561599
 31
0.0
  0
LINE
  5
8C7
330
18
100
AcDbEntity
  8
0
100
AcDbLine
 10
76.59292100371676
 20
174.2773412328419
 30
0.0
 11
59.08526476945985
 21
184.3853912725695
 31
0.0
  0
LINE
  5
8C8
330
18
100
AcDbEntity
  8
0
100
AcDbLine
 10
76.59292100371676
 20
174.2773412328419
 30
0.0
 11
59.08526476945979
 21
184.3853912725695
 31
0.0
  0
LINE
  5
8C9
330
18
100
AcDbEntity
  8
0
100
AcDbLine
 10
59.24831799025866
 20
184.6598100140346
 30
0.0
 11
76.5588255509947
 21
174.6655838140347
 31
0.0
  0
LINE
  5
8CA
330
18
100
AcDbEntity
  8
0
100
AcDbLine
 10
58.89653749322508
 20
155.7180252404616
 30
0.0
 11
59.24979285772133
 21
155.9219773202463
 31
0.0
  0
LINE
  5
8CB
330
18
100
AcDbEntity
  8
0
100
AcDbLine
 10
59.3195767158744
 20
155.4737834313873
 30
0.0
 11
58.89653749322508
 21
155.7180252404616
 31
0.0
  0
LINE
  5
8CC
330
18
100
AcDbEntity
  8
0
100
AcDbLine
 10
59.3195767158744
 20
155.8817110313873
 30
0.0
 11
59.3195767158744
 21
155.4737834313873
 31
0.0
  0
LINE
  5
8CD
330
18
100
AcDbEntity
  8
0
100
AcDbLine
 10
74.04596829523303
 20
172.5611898836445
 30
0.0
 11
70.77816839856348
 21
174.4478550336445
 31
0.0
  0
LINE
  5
8CE
330
18
100
AcDbEntity
  8
0
100
AcDbLine
 10
76.5588255509947
 20
174.6655838140347
 30
0.0
 11
77.39946172978324
 21
175.1509253381488
 31
0.0
  0
LINE
  5
8CF
330
18
100
AcDbEntity
  8
0
100
AcDbLine
 10
93.6941756355837
 20
163.2326826603208
 30
0.0
 11
96.67825634765348
 21
164.9555424627178
 31
0.0
  0
LINE
  5
8D0
330
18
100
AcDbEntity
  8
0
100
AcDbLine
 10
93.6941756355837
 20
163.2326826603208
 30
0.0
 11
93.6941756355837
 21
170.6789579262334
 31
0.0
  0
LINE
  5
8D1
330
18
100
AcDbEntity
  8
0
100
AcDbLine
 10
96.32498068314868
 20
165.1595062627178
 30
0.0
 11
96.67825634765348
 21
164.9555424627178
 31
0.0
  0
LINE
  5
8D2
330
18
100
AcDbEntity
  8
0
100
AcDbLine
 10
93.6941756355837
 20
163.6406102603207
 30
0.0
 11
96.32498068314868
 21
165.1595062627178
 31
0.0
  0
LINE
  5
8D3
330
18
100
AcDbEntity
  8
0
100
AcDbLine
 10
96.32498068314868
 20
165.1595062627178
 30
0.0
 11
96.32498068314868
 21
172.1978539286305
 31
0.0
  0
LINE
  5
8D4
330
18
100
AcDbEntity
  8
0
100
AcDbLine
 10
93.6941756355837
 20
170.6789579262334
 30
0.0
 11
96.67825634765348
 21
172.4018177286305
 31
0.0
  0
LINE
  5
8D5
330
18
100
AcDbEntity
  8
0
100
AcDbLine
 10
96.67825634765348
 20
164.9555424627178
 30
0.0
 11
96.67825634765348
 21
172.4018177286305
 31
0.0
  0
LINE
  5
8D6
330
18
100
AcDbEntity
  8
0
100
AcDbLine
 10
75.55218427358011
 20
181.0069671279769
 30
0.0
 11
81.23036061375733
 21
184.2851030016863
 31
0.0
  0
POLYLINE
  5
8D7
330
18
100
AcDbEntity
  8
0
100
AcDb2dPolyline
 66
     1
 10
0.0
 20
0.0
 30
0.0
  0
VERTEX
  5
A72
330
8D7
100
AcDbEntity
  8
0
100
AcDbVertex
100
AcDb2dVertex
 10
78.78690613334561
 20
196.6267419595369
 30
0.0
  0
VERTEX
  5
A73
330
8D7
100
AcDbEntity
  8
0
100
AcDbVertex
100
AcDb2dVertex
 10
77.01373777274421
 20
197.6504811898486
 30
0.0
  0
SEQEND
  5
A74
330
8D7
100
AcDbEntity
  8
0
  0
LINE
  5
8D8
330
18
100
AcDbEntity
  8
0
100
AcDbLine
 10
80.24920608279291
 20
197.492918180905
 30
0.0
 11
78.47603772219156
 21
198.5166574112167
 31
0.0
  0
LINE
  5
8D9
330
18
100
AcDbEntity
  8
0
100
AcDbLine
 10
77.64882753731161
 20
178.7381533179925
 30
0.0
 11
78.75016178588828
 21
179.374008942876
 31
0.0
  0
LINE
  5
8DA
330
18
100
AcDbEntity
  8
0
100
AcDbLine
 10
75.42297117134069
 20
181.3402971669947
 30
0.0
 11
81.23036061375733
 21
184.6930306016863
 31
0.0
  0
POLYLINE
  5
8DB
330
18
100
AcDbEntity
  8
0
100
AcDb2dPolyline
 66
     1
 10
0.0
 20
0.0
 30
0.0
  0
VERTEX
  5
A75
330
8DB
100
AcDbEntity
  8
0
100
AcDbVertex
100
AcDb2dVertex
 10
66.42225787567702
 20
189.4880089595369
 30
0.0
  0
VERTEX
  5
A76
330
8DB
100
AcDbEntity
  8
0
100
AcDbVertex
100
AcDb2dVertex
 10
63.19474418234818
 20
191.3514148591935
 30
0.0
  0
SEQEND
  5
A77
330
8DB
100
AcDbEntity
  8
0
  0
LINE
  5
8DC
330
18
100
AcDbEntity
  8
0
100
AcDbLine
 10
67.88455782512426
 20
190.354185180905
 30
0.0
 11
64.65704413179548
 21
192.2175910805616
 31
0.0
  0
LINE
  5
8DD
330
18
100
AcDbEntity
  8
0
100
AcDbLine
 10
65.4116281735906
 20
188.926438580905
 30
0.0
 11
62.18411448026177
 21
190.7898444805616
 31
0.0
  0
LINE
  5
8DE
330
18
100
AcDbEntity
  8
0
100
AcDbLine
 10
65.10603884933113
 20
184.7524742239675
 30
0.0
 11
69.36818964154264
 21
182.2917203167574
 31
0.0
  0
LINE
  5
8DF
330
18
100
AcDbEntity
  8
0
100
AcDbLine
 10
66.59521969823038
 20
181.8851909728418
 30
0.0
 11
70.05732121037755
 21
179.8863457328419
 31
0.0
  0
LINE
  5
8E0
330
18
100
AcDbEntity
  8
0
100
AcDbLine
 10
58.25668190218903
 20
184.8637738140342
 30
0.0
 11
58.25668190218903
 21
184.4952162516495
 31
0.0
  0
LINE
  5
8E1
330
18
100
AcDbEntity
  8
0
100
AcDbLine
 10
58.57586211397182
 20
185.048052595227
 30
0.0
 11
58.57586211397182
 21
184.6502567130629
 31
0.0
  0
LINE
  5
8E2
330
18
100
AcDbEntity
  8
0
100
AcDbLine
 10
58.25668190218903
 20
184.8637738140342
 30
0.0
 11
58.57586211397182
 21
185.048052595227
 31
0.0
  0
LINE
  5
8E3
330
18
100
AcDbEntity
  8
0
100
AcDbLine
 10
58.57586211397182
 20
185.048052595227
 30
0.0
 11
59.29946116934172
 21
184.6302824858238
 31
0.0
  0
POLYLINE
  5
8E4
330
18
100
AcDbEntity
  8
0
100
AcDb2dPolyline
 66
     1
 10
0.0
 20
0.0
 30
0.0
  0
VERTEX
  5
A78
330
8E4
100
AcDbEntity
  8
0
100
AcDbVertex
100
AcDb2dVertex
 10
63.9493282241433
 20
188.0602623595369
 30
0.0
  0
VERTEX
  5
A79
330
8E4
100
AcDbEntity
  8
0
100
AcDbVertex
100
AcDb2dVertex
 10
60.72181453081447
 20
189.9236682591935
 30
0.0
  0
SEQEND
  5
A7A
330
8E4
100
AcDbEntity
  8
0
  0
LINE
  5
8E5
330
18
100
AcDbEntity
  8
0
100
AcDbLine
 10
67.65504669174482
 20
182.4970823728419
 30
0.0
 11
66.59521969823038
 21
181.8851909728418
 31
0.0
  0
LINE
  5
8E6
330
18
100
AcDbEntity
  8
0
100
AcDbLine
 10
63.94565221444423
 20
184.6387022728418
 30
0.0
 11
67.65504669174482
 21
182.4970823728419
 31
0.0
  0
LINE
  5
8E7
330
18
100
AcDbEntity
  8
0
100
AcDbLine
 10
75.98252628014257
 20
180.3054816755174
 30
0.0
 11
75.98252628014257
 21
180.7134092755173
 31
0.0
  0
LINE
  5
8E8
330
18
100
AcDbEntity
  8
0
100
AcDbLine
 10
75.9139302535657
 20
180.1840755042055
 30
0.0
 11
75.16357593380809
 21
179.7508582357058
 31
0.0
  0
LINE
  5
8E9
330
18
100
AcDbEntity
  8
0
100
AcDbLine
 10
68.30836264802821
 20
181.6798289167574
 30
0.0
 11
70.85509294286936
 21
180.2094734954775
 31
0.0
  0
LINE
  5
8EA
330
18
100
AcDbEntity
  8
0
100
AcDbLine
 10
75.9139302535657
 20
180.5920031042055
 30
0.0
 11
75.16357593380809
 21
180.1587858357058
 31
0.0
  0
LINE
  5
8EB
330
18
100
AcDbEntity
  8
0
100
AcDbLine
 10
75.43674623823313
 20
181.0591265738066
 30
0.0
 11
75.87157775240723
 21
180.8626525889505
 31
0.0
  0
LINE
  5
8EC
330
18
100
AcDbEntity
  8
0
100
AcDbLine
 10
69.36818964154264
 20
182.2917203167574
 30
0.0
 11
68.30836264802821
 21
181.6798289167574
 31
0.0
  0
LINE
  5
8ED
330
18
100
AcDbEntity
  8
0
100
AcDbLine
 10
67.83168452399729
 20
197.7739709928419
 30
0.0
 11
68.82085638461081
 21
197.2028723528419
 31
0.0
  0
POLYLINE
  5
8EE
330
18
100
AcDbEntity
  8
0
100
AcDb2dPolyline
 66
     1
 10
0.0
 20
0.0
 30
0.0
  0
VERTEX
  5
A7B
330
8EE
100
AcDbEntity
  8
0
100
AcDbVertex
100
AcDb2dVertex
 10
68.89518752721073
 20
190.9157555595369
 30
0.0
  0
VERTEX
  5
A7C
330
8EE
100
AcDbEntity
  8
0
100
AcDbVertex
100
AcDb2dVertex
 10
65.6676738338819
 20
192.7791614591935
 30
0.0
  0
SEQEND
  5
A7D
330
8EE
100
AcDbEntity
  8
0
  0
LINE
  5
8EF
330
18
100
AcDbEntity
  8
0
100
AcDbLine
 10
70.35748747665798
 20
191.781931780905
 30
0.0
 11
67.12997378332921
 21
193.6453376805616
 31
0.0
  0
LINE
  5
8F0
330
18
100
AcDbEntity
  8
0
100
AcDbLine
 10
67.69037425819533
 20
196.5501881928419
 30
0.0
 11
66.70120239758188
 21
197.1212868328419
 31
0.0
  0
LINE
  5
8F1
330
18
100
AcDbEntity
  8
0
100
AcDbLine
 10
66.70120239758188
 20
197.1212868328419
 30
0.0
 11
67.83168452399729
 21
197.7739709928419
 31
0.0
  0
LINE
  5
8F2
330
18
100
AcDbEntity
  8
0
100
AcDbLine
 10
64.22827274604816
 20
195.6935402328419
 30
0.0
 11
65.35875487246357
 21
196.3462243928419
 31
0.0
  0
LINE
  5
8F3
330
18
100
AcDbEntity
  8
0
100
AcDbLine
 10
65.35875487246357
 20
196.3462243928419
 30
0.0
 11
66.34792673307703
 21
195.7751257528419
 31
0.0
  0
LINE
  5
8F4
330
18
100
AcDbEntity
  8
0
100
AcDbLine
 10
66.34792673307703
 20
195.7751257528419
 30
0.0
 11
67.69037425819533
 21
196.5501881928419
 31
0.0
  0
LINE
  5
8F5
330
18
100
AcDbEntity
  8
0
100
AcDbLine
 10
62.74451495512796
 20
193.6946949928419
 30
0.0
 11
61.75534309451444
 21
194.2657936328419
 31
0.0
  0
LINE
  5
8F6
330
18
100
AcDbEntity
  8
0
100
AcDbLine
 10
61.75534309451444
 20
194.2657936328419
 30
0.0
 11
62.88582522092986
 21
194.9184777928419
 31
0.0
  0
LINE
  5
8F7
330
18
100
AcDbEntity
  8
0
100
AcDbLine
 10
62.88582522092986
 20
194.9184777928419
 30
0.0
 11
63.87499708154336
 21
194.3473791528419
 31
0.0
  0
LINE
  5
8F8
330
18
100
AcDbEntity
  8
0
100
AcDbLine
 10
63.87499708154336
 20
194.3473791528419
 30
0.0
 11
65.21744460666162
 21
195.1224415928419
 31
0.0
  0
LINE
  5
8F9
330
18
100
AcDbEntity
  8
0
100
AcDbLine
 10
60.27158530359418
 20
192.2669483928419
 30
0.0
 11
59.28241344298072
 21
192.8380470328419
 31
0.0
  0
LINE
  5
8FA
330
18
100
AcDbEntity
  8
0
100
AcDbLine
 10
59.28241344298072
 20
192.8380470328419
 30
0.0
 11
60.41289556939614
 21
193.4907311928419
 31
0.0
  0
LINE
  5
8FB
330
18
100
AcDbEntity
  8
0
100
AcDbLine
 10
60.41289556939614
 20
193.4907311928419
 30
0.0
 11
61.40206743000959
 21
192.9196325528419
 31
0.0
  0
LINE
  5
8FC
330
18
100
AcDbEntity
  8
0
100
AcDbLine
 10
61.40206743000959
 20
192.9196325528419
 30
0.0
 11
62.74451495512796
 21
193.6946949928419
 31
0.0
  0
LINE
  5
8FD
330
18
100
AcDbEntity
  8
0
100
AcDbLine
 10
57.93996591786243
 20
192.0629845928419
 30
0.0
 11
58.92913777847588
 21
191.4918859528419
 31
0.0
  0
LINE
  5
8FE
330
18
100
AcDbEntity
  8
0
100
AcDbLine
 10
58.92913777847588
 20
191.4918859528419
 30
0.0
 11
60.27158530359418
 21
192.2669483928419
 31
0.0
  0
LINE
  5
8FF
330
18
100
AcDbEntity
  8
0
100
AcDbLine
 10
65.21744460666162
 20
195.1224415928419
 30
0.0
 11
64.22827274604816
 21
195.6935402328419
 31
0.0
  0
POLYLINE
  5
900
330
18
100
AcDbEntity
  8
0
100
AcDb2dPolyline
 66
     1
 10
0.0
 20
0.0
 30
0.0
  0
VERTEX
  5
A7E
330
900
100
AcDbEntity
  8
0
100
AcDbVertex
100
AcDb2dVertex
 10
76.31397648181189
 20
195.1989953595369
 30
0.0
  0
VERTEX
  5
A7F
330
900
100
AcDbEntity
  8
0
100
AcDbVertex
100
AcDb2dVertex
 10
73.08646278848311
 20
197.0624012591935
 30
0.0
  0
SEQEND
  5
A80
330
900
100
AcDbEntity
  8
0
  0
LINE
  5
901
330
18
100
AcDbEntity
  8
0
100
AcDbLine
 10
77.77627643125914
 20
196.065171580905
 30
0.0
 11
74.54876273793042
 21
197.9285774805616
 31
0.0
  0
LINE
  5
902
330
18
100
AcDbEntity
  8
0
100
AcDbLine
 10
72.63623356126283
 20
199.4056813928419
 30
0.0
 11
71.64706170064931
 21
199.9767800328419
 31
0.0
  0
LINE
  5
903
330
18
100
AcDbEntity
  8
0
100
AcDbLine
 10
71.64706170064931
 20
199.9767800328419
 30
0.0
 11
72.77754382706473
 21
200.6294641928419
 31
0.0
  0
LINE
  5
904
330
18
100
AcDbEntity
  8
0
100
AcDbLine
 10
72.77754382706473
 20
200.6294641928419
 30
0.0
 11
73.76671568767824
 21
200.0583655528418
 31
0.0
  0
LINE
  5
905
330
18
100
AcDbEntity
  8
0
100
AcDbLine
 10
70.1633039097291
 20
197.9779347928419
 30
0.0
 11
69.1741320491156
 21
198.5490334328418
 31
0.0
  0
LINE
  5
906
330
18
100
AcDbEntity
  8
0
100
AcDbLine
 10
69.1741320491156
 20
198.5490334328418
 30
0.0
 11
70.30461417553102
 21
199.2017175928419
 31
0.0
  0
LINE
  5
907
330
18
100
AcDbEntity
  8
0
100
AcDbLine
 10
70.30461417553102
 20
199.2017175928419
 30
0.0
 11
71.29378603614452
 21
198.6306189528419
 31
0.0
  0
LINE
  5
908
330
18
100
AcDbEntity
  8
0
100
AcDbLine
 10
71.29378603614452
 20
198.6306189528419
 30
0.0
 11
72.63623356126283
 21
199.4056813928419
 31
0.0
  0
LINE
  5
909
330
18
100
AcDbEntity
  8
0
100
AcDbLine
 10
68.82085638461081
 20
197.2028723528419
 30
0.0
 11
70.1633039097291
 21
197.9779347928419
 31
0.0
  0
POLYLINE
  5
90A
330
18
100
AcDbEntity
  8
0
100
AcDb2dPolyline
 66
     1
 10
0.0
 20
0.0
 30
0.0
  0
VERTEX
  5
A81
330
90A
100
AcDbEntity
  8
0
100
AcDbVertex
100
AcDb2dVertex
 10
71.36811717874445
 20
192.3435021595368
 30
0.0
  0
VERTEX
  5
A82
330
90A
100
AcDbEntity
  8
0
100
AcDbVertex
100
AcDb2dVertex
 10
68.14060348541563
 20
194.2069080591935
 30
0.0
  0
SEQEND
  5
A83
330
90A
100
AcDbEntity
  8
0
  0
LINE
  5
90B
330
18
100
AcDbEntity
  8
0
100
AcDbLine
 10
72.83041712819169
 20
193.209678380905
 30
0.0
 11
69.60290343486298
 21
195.0730842805615
 31
0.0
  0
POLYLINE
  5
90C
330
18
100
AcDbEntity
  8
0
100
AcDb2dPolyline
 66
     1
 10
0.0
 20
0.0
 30
0.0
  0
VERTEX
  5
A84
330
90C
100
AcDbEntity
  8
0
100
AcDbVertex
100
AcDb2dVertex
 10
73.84104683027818
 20
193.7712487595368
 30
0.0
  0
VERTEX
  5
A85
330
90C
100
AcDbEntity
  8
0
100
AcDbVertex
100
AcDb2dVertex
 10
70.6135331369494
 20
195.6346546591935
 30
0.0
  0
SEQEND
  5
A86
330
90C
100
AcDbEntity
  8
0
  0
LINE
  5
90D
330
18
100
AcDbEntity
  8
0
100
AcDbLine
 10
75.30334677972547
 20
194.637424980905
 30
0.0
 11
72.07583308639669
 21
196.5008308805615
 31
0.0
  0
LINE
  5
90E
330
18
100
AcDbEntity
  8
0
100
AcDbLine
 10
88.38313702375723
 20
188.4149211522511
 30
0.0
 11
94.06131336393441
 21
191.6930570259604
 31
0.0
  0
LINE
  5
90F
330
18
100
AcDbEntity
  8
0
100
AcDbLine
 10
88.25392392151774
 20
188.7482511912688
 30
0.0
 11
94.06131336393441
 21
192.1009846259604
 31
0.0
  0
LINE
  5
910
330
18
100
AcDbEntity
  8
0
100
AcDbLine
 10
96.81824227567148
 20
190.5408435644588
 30
0.0
 11
96.81535864608997
 21
190.106785932516
 31
0.0
  0
LINE
  5
911
330
18
100
AcDbEntity
  8
0
100
AcDbLine
 10
88.81347903031969
 20
187.7134356997914
 30
0.0
 11
88.81347903031969
 21
188.1213632997914
 31
0.0
  0
LINE
  5
912
330
18
100
AcDbEntity
  8
0
100
AcDbLine
 10
88.74488300374276
 20
187.5920295284796
 30
0.0
 11
87.99452868398516
 21
187.1588122599799
 31
0.0
  0
LINE
  5
913
330
18
100
AcDbEntity
  8
0
100
AcDbLine
 10
88.74488300374276
 20
187.9999571284796
 30
0.0
 11
87.99452868398516
 21
187.5667398599799
 31
0.0
  0
LINE
  5
914
330
18
100
AcDbEntity
  8
0
100
AcDbLine
 10
88.26769898841019
 20
188.4670805980807
 30
0.0
 11
88.7025305025843
 21
188.2706066132247
 31
0.0
  0
LINE
  5
915
330
18
100
AcDbEntity
  8
0
100
AcDbLine
 10
83.98728952549436
 20
183.1328895401846
 30
0.0
 11
83.98440589591286
 21
182.6988319082419
 31
0.0
  0
LINE
  5
916
330
18
100
AcDbEntity
  8
0
100
AcDbLine
 10
84.06038220558128
 20
182.5717950012548
 30
0.0
 11
85.01980637282684
 21
181.8635230739412
 31
0.0
  0
LINE
  5
917
330
18
100
AcDbEntity
  8
0
100
AcDbLine
 10
83.17601120967863
 20
183.5813810790941
 30
0.0
 11
83.84453065107356
 21
183.967350958542
 31
0.0
  0
LINE
  5
918
330
18
100
AcDbEntity
  8
0
100
AcDbLine
 10
81.75144392185433
 20
184.27489013319
 30
0.0
 11
82.62558204080148
 21
183.6300162887172
 31
0.0
  0
LINE
  5
919
330
18
100
AcDbEntity
  8
0
100
AcDbLine
 10
85.08942155293146
 20
184.4072295859728
 30
0.0
 11
84.99317975354921
 21
184.4627948147535
 31
0.0
  0
LINE
  5
91A
330
18
100
AcDbEntity
  8
0
100
AcDbLine
 10
84.06038220558128
 20
182.9797226012548
 30
0.0
 11
85.13595400857145
 21
182.1857074618873
 31
0.0
  0
LINE
  5
91B
330
18
100
AcDbEntity
  8
0
100
AcDbLine
 10
84.07343544330149
 20
183.2428612419536
 30
0.0
 11
84.95073591982986
 21
183.7493709082374
 31
0.0
  0
LINE
  5
91C
330
18
100
AcDbEntity
  8
0
100
AcDbLine
 10
83.17601120967863
 20
183.9893086790941
 30
0.0
 11
83.84453065107356
 21
184.375278558542
 31
0.0
  0
LINE
  5
91D
330
18
100
AcDbEntity
  8
0
100
AcDbLine
 10
81.75144392185433
 20
184.68281773319
 30
0.0
 11
82.62558204080148
 21
184.0379438887172
 31
0.0
  0
LINE
  5
91E
330
18
100
AcDbEntity
  8
0
100
AcDbLine
 10
79.14250305283349
 20
179.3847198564025
 30
0.0
 11
79.79053617166989
 21
179.0919129989733
 31
0.0
  0
LINE
  5
91F
330
18
100
AcDbEntity
  8
0
100
AcDbLine
 10
85.12807838213552
 20
181.9260339476613
 30
0.0
 11
80.23188150645649
 21
179.0992133634826
 31
0.0
  0
LINE
  5
920
330
18
100
AcDbEntity
  8
0
100
AcDbLine
 10
90.47978028748872
 20
186.1461073422666
 30
0.0
 11
91.5811145360654
 21
186.7819629671502
 31
0.0
  0
LINE
  5
921
330
18
100
AcDbEntity
  8
0
100
AcDbLine
 10
96.89133495575839
 20
189.979749025529
 30
0.0
 11
97.85075912300392
 21
189.2714770982153
 31
0.0
  0
LINE
  5
922
330
18
100
AcDbEntity
  8
0
100
AcDbLine
 10
96.89133495575839
 20
190.387676625529
 30
0.0
 11
97.96690675874856
 21
189.5936614861614
 31
0.0
  0
LINE
  5
923
330
18
100
AcDbEntity
  8
0
100
AcDbLine
 10
91.97345580301055
 20
186.7926738806765
 30
0.0
 11
92.62148892184701
 21
186.4998670232474
 31
0.0
  0
LINE
  5
924
330
18
100
AcDbEntity
  8
0
100
AcDbLine
 10
97.95903113231265
 20
189.3339879719354
 30
0.0
 11
93.06283425663361
 21
186.5071673877567
 31
0.0
  0
POLYLINE
  5
925
330
18
100
AcDbEntity
  8
0
100
AcDb2dPolyline
 66
     1
 10
0.0
 20
0.0
 30
0.0
  0
VERTEX
  5
A87
330
925
100
AcDbEntity
  8
0
100
AcDbVertex
100
AcDb2dVertex
 10
88.67862473948049
 20
202.3377283595369
 30
0.0
  0
VERTEX
  5
A88
330
925
100
AcDbEntity
  8
0
100
AcDbVertex
100
AcDb2dVertex
 10
86.90545637887908
 20
203.3614675898486
 30
0.0
  0
SEQEND
  5
A89
330
925
100
AcDbEntity
  8
0
  0
POLYLINE
  5
926
330
18
100
AcDbEntity
  8
0
100
AcDb2dPolyline
 66
     1
 10
0.0
 20
0.0
 30
0.0
  0
VERTEX
  5
A8A
330
926
100
AcDbEntity
  8
0
100
AcDbVertex
100
AcDb2dVertex
 10
86.20569508794677
 20
200.9099817595369
 30
0.0
  0
VERTEX
  5
A8B
330
926
100
AcDbEntity
  8
0
100
AcDbVertex
100
AcDb2dVertex
 10
84.43252672734535
 20
201.9337209898486
 30
0.0
  0
SEQEND
  5
A8C
330
926
100
AcDbEntity
  8
0
  0
LINE
  5
927
330
18
100
AcDbEntity
  8
0
100
AcDbLine
 10
87.66799503739401
 20
201.7761579809049
 30
0.0
 11
85.89482667679272
 21
202.7998972112167
 31
0.0
  0
POLYLINE
  5
928
330
18
100
AcDbEntity
  8
0
100
AcDb2dPolyline
 66
     1
 10
0.0
 20
0.0
 30
0.0
  0
VERTEX
  5
A8D
330
928
100
AcDbEntity
  8
0
100
AcDbVertex
100
AcDb2dVertex
 10
81.25983578487932
 20
198.0544885595369
 30
0.0
  0
VERTEX
  5
A8E
330
928
100
AcDbEntity
  8
0
100
AcDbVertex
100
AcDb2dVertex
 10
79.48666742427793
 20
199.0782277898486
 30
0.0
  0
SEQEND
  5
A8F
330
928
100
AcDbEntity
  8
0
  0
LINE
  5
929
330
18
100
AcDbEntity
  8
0
100
AcDbLine
 10
82.72213573432663
 20
198.920664780905
 30
0.0
 11
80.94896737372527
 21
199.9444040112167
 31
0.0
  0
POLYLINE
  5
92A
330
18
100
AcDbEntity
  8
0
100
AcDb2dPolyline
 66
     1
 10
0.0
 20
0.0
 30
0.0
  0
VERTEX
  5
A90
330
92A
100
AcDbEntity
  8
0
100
AcDbVertex
100
AcDb2dVertex
 10
83.73276543641305
 20
199.4822351595369
 30
0.0
  0
VERTEX
  5
A91
330
92A
100
AcDbEntity
  8
0
100
AcDbVertex
100
AcDb2dVertex
 10
81.95959707581165
 20
200.5059743898486
 30
0.0
  0
SEQEND
  5
A92
330
92A
100
AcDbEntity
  8
0
  0
LINE
  5
92B
330
18
100
AcDbEntity
  8
0
100
AcDbLine
 10
85.19506538586028
 20
200.348411380905
 30
0.0
 11
83.42189702525899
 21
201.3721506112167
 31
0.0
  0
LINE
  5
92C
330
18
100
AcDbEntity
  8
0
100
AcDbLine
 10
97.92037430310859
 20
191.815183610247
 30
0.0
 11
97.82413250372634
 21
191.8707488390276
 31
0.0
  0
LINE
  5
92D
330
18
100
AcDbEntity
  8
0
100
AcDbLine
 10
96.00696395985574
 20
191.3972627033683
 30
0.0
 11
96.67548340125069
 21
191.7832325828161
 31
0.0
  0
LINE
  5
92E
330
18
100
AcDbEntity
  8
0
100
AcDbLine
 10
94.58239667203145
 20
192.0907717574641
 30
0.0
 11
95.45653479097859
 21
191.4458979129913
 31
0.0
  0
LINE
  5
92F
330
18
100
AcDbEntity
  8
0
100
AcDbLine
 10
96.00696395985574
 20
190.9893351033683
 30
0.0
 11
96.67548340125069
 21
191.3753049828161
 31
0.0
  0
LINE
  5
930
330
18
100
AcDbEntity
  8
0
100
AcDbLine
 10
94.58239667203145
 20
191.6828441574641
 30
0.0
 11
95.45653479097859
 21
191.0379703129913
 31
0.0
  0
LINE
  5
931
330
18
100
AcDbEntity
  8
0
100
AcDbLine
 10
96.9043881934786
 20
190.6508152662277
 30
0.0
 11
97.78168867000694
 21
191.1573249325115
 31
0.0
  0
LINE
  5
932
330
18
100
AcDbEntity
  8
0
100
AcDbLine
 10
118.1580985379645
 20
103.6358044711544
 30
0.0
 11
118.1580985379645
 21
102.1238311725624
 31
0.0
  0
LINE
  5
933
330
18
100
AcDbEntity
  8
0
100
AcDbLine
 10
136.2965083050307
 20
107.5811786328418
 30
0.0
 11
137.0030596340404
 21
114.5159478328419
 31
0.0
  0
LINE
  5
934
330
18
100
AcDbEntity
  8
0
100
AcDbLine
 10
133.4703029889922
 20
105.9494682328419
 30
0.0
 11
134.1768543180019
 21
112.8842374328419
 31
0.0
  0
LINE
  5
935
330
18
100
AcDbEntity
  8
0
100
AcDbLine
 10
129.937546343944
 20
107.9891062328419
 30
0.0
 11
129.937546343944
 21
109.6208166328419
 31
0.0
  0
LINE
  5
937
330
18
100
AcDbEntity
  8
0
100
AcDbLine
 10
133.4703029889922
 20
105.9494682328419
 30
0.0
 11
131.3506490019633
 21
107.1732510328418
 31
0.0
  0
LINE
  5
938
330
18
100
AcDbEntity
  8
0
100
AcDbLine
 10
126.7550366541413
 20
100.6632925350823
 30
0.0
 11
126.7550128325769
 21
101.4856185371453
 31
0.0
  0
LINE
  5
939
330
18
100
AcDbEntity
  8
0
100
AcDbLine
 10
125.9686314591095
 20
102.5636430542284
 30
0.0
 11
121.1348459745216
 21
105.3544304049602
 31
0.0
  0
LINE
  5
93A
330
18
100
AcDbEntity
  8
0
100
AcDbLine
 10
129.937546343944
 20
107.9891062328419
 30
0.0
 11
131.3506490019633
 21
108.8049614328419
 31
0.0
  0
LINE
  5
93B
330
18
100
AcDbEntity
  8
0
100
AcDbLine
 10
131.3506490019633
 20
107.1732510328418
 30
0.0
 11
131.3506490019633
 21
108.8049614328418
 31
0.0
  0
LINE
  5
93C
330
18
100
AcDbEntity
  8
0
100
AcDbLine
 10
129.937546343944
 20
107.9891062328419
 30
0.0
 11
127.8178923569152
 21
109.2128890328419
 31
0.0
  0
LINE
  5
93D
330
18
100
AcDbEntity
  8
0
100
AcDbLine
 10
136.2965083050307
 20
107.5811786328418
 30
0.0
 11
133.4703029889922
 21
105.9494682328419
 31
0.0
  0
LINE
  5
93E
330
18
100
AcDbEntity
  8
0
100
AcDbLine
 10
110.0625534592617
 20
197.584155574082
 30
0.0
 11
111.0219776265072
 21
196.8758836467684
 31
0.0
  0
LINE
  5
93F
330
18
100
AcDbEntity
  8
0
100
AcDbLine
 10
110.0625534592617
 20
197.9920831740821
 30
0.0
 11
111.1381252622519
 21
197.1980680347144
 31
0.0
  0
LINE
  5
940
330
18
100
AcDbEntity
  8
0
100
AcDbLine
 10
111.130249635816
 20
196.9383945204884
 30
0.0
 11
106.2340527601369
 21
194.1115739363098
 31
0.0
  0
LINE
  5
941
330
18
100
AcDbEntity
  8
0
100
AcDbLine
 10
110.0756066969819
 20
198.2552218147807
 30
0.0
 11
110.9529071735103
 21
198.7617314810646
 31
0.0
  0
LINE
  5
942
330
18
100
AcDbEntity
  8
0
100
AcDbLine
 10
109.178182463359
 20
199.0016692519213
 30
0.0
 11
109.846701904754
 21
199.3876391313692
 31
0.0
  0
LINE
  5
943
330
18
100
AcDbEntity
  8
0
100
AcDbLine
 10
107.7536151755348
 20
199.6951783060172
 30
0.0
 11
108.6277532944819
 21
199.0503044615444
 31
0.0
  0
LINE
  5
944
330
18
100
AcDbEntity
  8
0
100
AcDbLine
 10
103.650998790992
 20
193.7505138908197
 30
0.0
 11
104.7523330395687
 21
194.3863695157032
 31
0.0
  0
LINE
  5
945
330
18
100
AcDbEntity
  8
0
100
AcDbLine
 10
109.9894607791748
 20
198.1452501130118
 30
0.0
 11
109.9865771495933
 21
197.7111924810691
 31
0.0
  0
LINE
  5
946
330
18
100
AcDbEntity
  8
0
100
AcDbLine
 10
105.1446743065139
 20
194.3970804292296
 30
0.0
 11
105.7927074253503
 21
194.1042735718004
 31
0.0
  0
LINE
  5
947
330
18
100
AcDbEntity
  8
0
100
AcDbLine
 10
101.984697533823
 20
195.3178422483445
 30
0.0
 11
101.984697533823
 21
195.7257698483445
 31
0.0
  0
LINE
  5
948
330
18
100
AcDbEntity
  8
0
100
AcDbLine
 10
101.9161015072461
 20
195.1964360770326
 30
0.0
 11
101.1657471874885
 21
194.763218808533
 31
0.0
  0
LINE
  5
949
330
18
100
AcDbEntity
  8
0
100
AcDbLine
 10
101.9161015072461
 20
195.6043636770326
 30
0.0
 11
101.1657471874885
 21
195.171146408533
 31
0.0
  0
LINE
  5
94A
330
18
100
AcDbEntity
  8
0
100
AcDbLine
 10
101.4389174919135
 20
196.0714871466338
 30
0.0
 11
101.8737490060876
 21
195.8750131617777
 31
0.0
  0
LINE
  5
94B
330
18
100
AcDbEntity
  8
0
100
AcDbLine
 10
101.5543555272606
 20
196.0193277008041
 30
0.0
 11
107.2325318674377
 21
199.2974635745135
 31
0.0
  0
LINE
  5
94C
330
18
100
AcDbEntity
  8
0
100
AcDbLine
 10
101.4251424250211
 20
196.3526577398218
 30
0.0
 11
107.2325318674377
 21
199.7053911745135
 31
0.0
  0
LINE
  5
94D
330
18
100
AcDbEntity
  8
0
100
AcDbLine
 10
109.178182463359
 20
198.5937416519213
 30
0.0
 11
109.846701904754
 21
198.9797115313692
 31
0.0
  0
LINE
  5
94E
330
18
100
AcDbEntity
  8
0
100
AcDbLine
 10
107.7536151755348
 20
199.2872507060172
 30
0.0
 11
108.6277532944819
 21
198.6423768615444
 31
0.0
  0
LINE
  5
94F
330
18
100
AcDbEntity
  8
0
100
AcDbLine
 10
111.0915928066119
 20
199.4195901588
 30
0.0
 11
110.9953510072297
 21
199.4751553875806
 31
0.0
  0
LINE
  5
950
330
18
100
AcDbEntity
  8
0
100
AcDbLine
 10
115.0378377854477
 20
203.1802016494876
 30
0.0
 11
114.2874834656901
 21
202.746984380988
 31
0.0
  0
LINE
  5
951
330
18
100
AcDbEntity
  8
0
100
AcDbLine
 10
115.0378377854477
 20
202.7722740494876
 30
0.0
 11
114.2874834656901
 21
202.339056780988
 31
0.0
  0
LINE
  5
952
330
18
100
AcDbEntity
  8
0
100
AcDbLine
 10
115.1064338120246
 20
202.8936802207995
 30
0.0
 11
115.1064338120246
 21
203.3016078207995
 31
0.0
  0
LINE
  5
953
330
18
100
AcDbEntity
  8
0
100
AcDbLine
 10
118.2664105847155
 20
201.9729184016846
 30
0.0
 11
118.914443703552
 21
201.6801115442554
 31
0.0
  0
LINE
  5
954
330
18
100
AcDbEntity
  8
0
100
AcDbLine
 10
116.7727350691936
 20
201.3263518632747
 30
0.0
 11
117.8740693177704
 21
201.9622074881582
 31
0.0
  0
LINE
  5
955
330
18
100
AcDbEntity
  8
0
100
AcDbLine
 10
114.5606537701152
 20
203.6473251190888
 30
0.0
 11
114.9954852842893
 21
203.4508511342327
 31
0.0
  0
LINE
  5
956
330
18
100
AcDbEntity
  8
0
100
AcDbLine
 10
94.8927898027331
 20
207.6867210100888
 30
0.0
 11
113.6898266573291
 21
218.5391952980571
 31
0.0
  0
LINE
  5
957
330
18
100
AcDbEntity
  8
0
100
AcDbLine
 10
92.6138543404615
 20
204.631651180905
 30
0.0
 11
90.84068597986009
 21
205.6553904112167
 31
0.0
  0
LINE
  5
958
330
18
100
AcDbEntity
  8
0
100
AcDbLine
 10
89.94674112199886
 20
209.3999075928418
 30
0.0
 11
92.89310781831591
 21
207.6988219875918
 31
0.0
  0
LINE
  5
959
330
18
100
AcDbEntity
  8
0
100
AcDbLine
 10
121.9988173142569
 20
213.2358445324505
 30
0.0
 11
115.7691570866325
 21
216.8325405418294
 31
0.0
  0
LINE
  5
95A
330
18
100
AcDbEntity
  8
0
100
AcDbLine
 10
126.0515140343911
 20
212.2146080328419
 30
0.0
 11
120.4697585352149
 21
208.9919799928419
 31
0.0
  0
LINE
  5
95B
330
18
100
AcDbEntity
  8
0
100
AcDbLine
 10
120.2224655700616
 20
227.8178387328419
 30
0.0
 11
129.054357182682
 21
222.7187437328419
 31
0.0
  0
LINE
  5
95C
330
18
100
AcDbEntity
  8
0
100
AcDbLine
 10
118.1028115830327
 20
226.5940559328419
 30
0.0
 11
126.9347031956531
 21
221.4949609328419
 31
0.0
  0
LINE
  5
95D
330
18
100
AcDbEntity
  8
0
100
AcDbLine
 10
131.3506490019633
 20
209.9710062328418
 30
0.0
 11
113.6868657767225
 21
220.1691962328419
 31
0.0
  0
LINE
  5
95E
330
18
100
AcDbEntity
  8
0
100
AcDbLine
 10
110.1541091316743
 20
222.2088342328419
 30
0.0
 11
110.1541091316743
 21
216.4978478328419
 31
0.0
  0
LINE
  5
95F
330
18
100
AcDbEntity
  8
0
100
AcDbLine
 10
116.3451360251877
 20
209.4138729570615
 30
0.0
 11
117.4049630187021
 21
210.0257643570615
 31
0.0
  0
LINE
  5
960
330
18
100
AcDbEntity
  8
0
100
AcDbLine
 10
116.3451360251877
 20
209.4138729570615
 30
0.0
 11
112.0829852329761
 21
211.8746268642717
 31
0.0
  0
POLYLINE
  5
961
330
18
100
AcDbEntity
  8
0
100
AcDb2dPolyline
 66
     1
 10
0.0
 20
0.0
 30
0.0
  0
VERTEX
  5
A93
330
961
100
AcDbEntity
  8
0
100
AcDbVertex
100
AcDb2dVertex
 10
120.5365173648097
 20
212.3696683110824
 30
0.0
  0
VERTEX
  5
A94
330
961
100
AcDbEntity
  8
0
100
AcDbVertex
100
AcDb2dVertex
 10
114.3068571371852
 20
215.9663643204613
 30
0.0
  0
SEQEND
  5
A95
330
961
100
AcDbEntity
  8
0
  0
LINE
  5
962
330
18
100
AcDbEntity
  8
0
100
AcDbLine
 10
115.9478300295533
 20
210.3789338328419
 30
0.0
 11
112.2384355522527
 21
212.5205537328418
 31
0.0
  0
LINE
  5
963
330
18
100
AcDbEntity
  8
0
100
AcDbLine
 10
117.0076570230677
 20
210.9908252328419
 30
0.0
 11
115.9478300295533
 21
210.3789338328419
 31
0.0
  0
LINE
  5
964
330
18
100
AcDbEntity
  8
0
100
AcDbLine
 10
120.4697585352149
 20
208.9919799928419
 30
0.0
 11
117.0076570230677
 21
210.9908252328419
 31
0.0
  0
LINE
  5
965
330
18
100
AcDbEntity
  8
0
100
AcDbLine
 10
117.4049630187021
 20
210.0257643570615
 30
0.0
 11
119.9516933135432
 21
208.5554089357816
 31
0.0
  0
LINE
  5
966
330
18
100
AcDbEntity
  8
0
100
AcDbLine
 10
110.1541091316743
 20
222.2088342328419
 30
0.0
 11
112.2737631187032
 21
223.4326170328419
 31
0.0
  0
LINE
  5
967
330
18
100
AcDbEntity
  8
0
100
AcDbLine
 10
110.1541091316743
 20
222.2088342328419
 30
0.0
 11
113.6868657767225
 21
220.1691962328419
 31
0.0
  0
LINE
  5
968
330
18
100
AcDbEntity
  8
0
100
AcDbLine
 10
115.9557398542364
 20
225.6010241709767
 30
0.0
 11
118.1028115830327
 21
226.5940559328419
 31
0.0
  0
LINE
  5
969
330
18
100
AcDbEntity
  8
0
100
AcDbLine
 10
120.2224655700616
 20
227.8178387328419
 30
0.0
 11
118.1028115830327
 21
226.5940559328419
 31
0.0
  0
LINE
  5
96A
330
18
100
AcDbEntity
  8
0
100
AcDbLine
 10
113.6868657767225
 20
222.6085659719307
 30
0.0
 11
115.9557398542364
 21
225.6010241709767
 31
0.0
  0
LINE
  5
96B
330
18
100
AcDbEntity
  8
0
100
AcDbLine
 10
112.2737631187032
 20
223.4326170328419
 30
0.0
 11
113.6868657767225
 21
222.6167618328419
 31
0.0
  0
LINE
  5
96C
330
18
100
AcDbEntity
  8
0
100
AcDbLine
 10
113.6868657767225
 20
222.6085659719307
 30
0.0
 11
113.6868657767225
 21
220.1691962328419
 31
0.0
  0
LINE
  5
96D
330
18
100
AcDbEntity
  8
0
100
AcDbLine
 10
131.3506490019634
 20
212.4103759719307
 30
0.0
 11
129.0817749244494
 21
218.0227042897967
 31
0.0
  0
LINE
  5
96E
330
18
100
AcDbEntity
  8
0
100
AcDbLine
 10
131.2014289114783
 20
219.2464870897967
 30
0.0
 11
133.4703029889922
 21
213.6341587719307
 31
0.0
  0
LINE
  5
96F
330
18
100
AcDbEntity
  8
0
100
AcDbLine
 10
133.4703029889922
 20
213.6341587719307
 30
0.0
 11
131.3506490019634
 21
212.4103759719307
 31
0.0
  0
LINE
  5
970
330
18
100
AcDbEntity
  8
0
100
AcDbLine
 10
131.3506490019633
 20
209.9710062328418
 30
0.0
 11
133.4703029889922
 21
211.1947890328419
 31
0.0
  0
LINE
  5
971
330
18
100
AcDbEntity
  8
0
100
AcDbLine
 10
134.1768543180019
 20
207.5234406328419
 30
0.0
 11
126.0515140343911
 21
212.2146080328419
 31
0.0
  0
LINE
  5
972
330
18
100
AcDbEntity
  8
0
100
AcDbLine
 10
128.381439947953
 20
209.4018880601008
 30
0.0
 11
128.2851981485708
 21
209.4574532888814
 31
0.0
  0
LINE
  5
973
330
18
100
AcDbEntity
  8
0
100
AcDbLine
 10
126.4680296047002
 20
208.9839671532221
 30
0.0
 11
127.1365490460951
 21
209.3699370326699
 31
0.0
  0
LINE
  5
974
330
18
100
AcDbEntity
  8
0
100
AcDbLine
 10
127.279307920516
 20
208.1275480143126
 30
0.0
 11
127.2764242909344
 21
207.6934903823699
 31
0.0
  0
LINE
  5
975
330
18
100
AcDbEntity
  8
0
100
AcDbLine
 10
127.3524006006028
 20
207.5664534753828
 30
0.0
 11
128.3118247678484
 21
206.8581815480692
 31
0.0
  0
LINE
  5
976
330
18
100
AcDbEntity
  8
0
100
AcDbLine
 10
127.3524006006028
 20
207.9743810753828
 30
0.0
 11
128.4279724035931
 21
207.1803659360152
 31
0.0
  0
LINE
  5
977
330
18
100
AcDbEntity
  8
0
100
AcDbLine
 10
126.4680296047002
 20
208.5760395532221
 30
0.0
 11
127.1365490460951
 21
208.96200943267
 31
0.0
  0
LINE
  5
978
330
18
100
AcDbEntity
  8
0
100
AcDbLine
 10
127.3654538383231
 20
208.2375197160815
 30
0.0
 11
128.2427543148514
 21
208.7440293823653
 31
0.0
  0
LINE
  5
979
330
18
100
AcDbEntity
  8
0
100
AcDbLine
 10
125.0434623168759
 20
209.677476207318
 30
0.0
 11
125.9176004358231
 21
209.0326023628452
 31
0.0
  0
LINE
  5
97A
330
18
100
AcDbEntity
  8
0
100
AcDbLine
 10
125.0434623168759
 20
209.269548607318
 30
0.0
 11
125.9176004358231
 21
208.6246747628452
 31
0.0
  0
LINE
  5
97B
330
18
100
AcDbEntity
  8
0
100
AcDbLine
 10
131.3506490019634
 20
212.4103759719307
 30
0.0
 11
131.3506490019633
 21
209.9710062328418
 31
0.0
  0
LINE
  5
97C
330
18
100
AcDbEntity
  8
0
100
AcDbLine
 10
133.4703029889922
 20
213.6341587719307
 30
0.0
 11
133.4703029889922
 21
211.1947890328419
 31
0.0
  0
LINE
  5
97D
330
18
100
AcDbEntity
  8
0
100
AcDbLine
 10
133.4703029889922
 20
211.1947890328419
 30
0.0
 11
137.0030596340404
 21
209.1551510328419
 31
0.0
  0
LINE
  5
97E
330
18
100
AcDbEntity
  8
0
100
AcDbLine
 10
137.0030596340404
 20
209.1551510328419
 30
0.0
 11
134.1768543180019
 21
207.5234406328419
 31
0.0
  0
LINE
  5
97F
330
18
100
AcDbEntity
  8
0
100
AcDbLine
 10
121.9699717136005
 20
219.1981173504327
 30
0.0
 11
123.0668548046952
 21
219.8314030983457
 31
0.0
  0
LINE
  5
980
330
18
100
AcDbEntity
  8
0
100
AcDbLine
 10
123.0668548046952
 20
220.3093659531889
 30
0.0
 11
123.0668548046952
 21
218.5652445942228
 31
0.0
  0
LINE
  5
981
330
18
100
AcDbEntity
  8
0
100
AcDbLine
 10
121.9699717136005
 20
220.9606867179116
 30
0.0
 11
121.9699717136005
 21
219.1981173504327
 31
0.0
  0
LINE
  5
982
330
18
100
AcDbEntity
  8
0
100
AcDbLine
 10
131.2014289114783
 20
219.2464870897967
 30
0.0
 11
129.0817749244494
 21
218.0227042897967
 31
0.0
  0
LINE
  5
983
330
18
100
AcDbEntity
  8
0
100
AcDbLine
 10
126.9347031956531
 20
221.4949609328419
 30
0.0
 11
129.0817749244494
 21
218.0227042897967
 31
0.0
  0
LINE
  5
984
330
18
100
AcDbEntity
  8
0
100
AcDbLine
 10
129.054357182682
 20
222.7187437328419
 30
0.0
 11
131.2014289114783
 21
219.2464870897967
 31
0.0
  0
LINE
  5
985
330
18
100
AcDbEntity
  8
0
100
AcDbLine
 10
129.054357182682
 20
222.7187437328419
 30
0.0
 11
126.9347031956531
 21
221.4949609328419
 31
0.0
  0
LINE
  5
986
330
18
100
AcDbEntity
  8
0
100
AcDbLine
 10
71.64706170064931
 20
199.9767800328419
 30
0.0
 11
71.64706170064931
 21
198.8345827528419
 31
0.0
  0
LINE
  5
987
330
18
100
AcDbEntity
  8
0
100
AcDbLine
 10
69.1741320491156
 20
198.5490334328418
 30
0.0
 11
69.1741320491156
 21
197.4068361528418
 31
0.0
  0
LINE
  5
988
330
18
100
AcDbEntity
  8
0
100
AcDbLine
 10
66.70120239758188
 20
197.1212868328419
 30
0.0
 11
66.70120239758188
 21
195.9790895528419
 31
0.0
  0
LINE
  5
989
330
18
100
AcDbEntity
  8
0
100
AcDbLine
 10
64.22827274604816
 20
195.6935402328419
 30
0.0
 11
64.22827274604816
 21
194.5513429528419
 31
0.0
  0
LINE
  5
98A
330
18
100
AcDbEntity
  8
0
100
AcDbLine
 10
61.75534309451444
 20
194.2657936328419
 30
0.0
 11
61.75534309451444
 21
193.1235963528419
 31
0.0
  0
LINE
  5
98B
330
18
100
AcDbEntity
  8
0
100
AcDbLine
 10
59.28241344298072
 20
192.8380470328419
 30
0.0
 11
59.28241344298072
 21
191.6958497528419
 31
0.0
  0
LINE
  5
98C
330
18
100
AcDbEntity
  8
0
100
AcDbLine
 10
56.80948379144701
 20
191.4103004328419
 30
0.0
 11
56.80948379144701
 21
190.2681031528419
 31
0.0
  0
LINE
  5
98D
330
18
100
AcDbEntity
  8
0
100
AcDbLine
 10
54.33655413991329
 20
189.9825538328419
 30
0.0
 11
54.33655413991329
 21
188.8403565528419
 31
0.0
  0
SOLID
  5
98F
330
18
100
AcDbEntity
  8
0
100
AcDbTrace
 10
43.93553240357971
 20
92.88471005044021
 30
0.0
 11
43.47365218822801
 21
97.15137671710685
 31
0.0
 12
44.39741261893141
 22
96.61804338377356
 32
0.0
 13
44.39741261893141
 23
96.61804338377356
 33
0.0
  0
LINE
  5
990
330
18
100
AcDbEntity
  8
0
100
AcDbLine
 10
43.8883534987151
 20
193.1593320855848
 30
0.0
 11
43.88835349871505
 21
94.61757793216117
 31
0.0
  0
LINE
  5
991
330
18
100
AcDbEntity
  8
0
100
AcDbLine
 10
57.32326159728734
 20
85.15530099661534
 30
0.0
 11
42.27247790966766
 21
93.84487501017735
 31
0.0
  0
TEXT
  5
992
330
18
100
AcDbEntity
  8
I
100
AcDbText
 10
42.73365296033586
 20
144.334603001095
 30
0.0
 40
1.5
  1
246mm
 50
90.0
 51
30.0
 72
     1
 11
42.73365296033586
 21
148.334603001095
 31
0.0
100
AcDbText
  0
LINE
  5
993
330
18
100
AcDbEntity
  8
0
100
AcDbLine
 10
51.86362448837957
 20
188.5548072328419
 30
0.0
 11
42.3891619132915
 21
194.024890750996
 31
0.0
  0
SOLID
  5
994
330
18
100
AcDbEntity
  8
0
100
AcDbTrace
 10
43.8883534987151
 20
193.1593320855848
 30
0.0
 11
43.4264732833634
 21
189.4259987522515
 31
0.0
 12
44.3502337140668
 22
188.8926654189182
 32
0.0
 13
44.3502337140668
 23
188.8926654189182
 33
0.0
  0
LINE
  5
995
330
18
100
AcDbEntity
  8
0
100
AcDbLine
 10
51.86849120473841
 20
203.2421921900913
 30
0.0
 11
112.2737631187033
 21
238.1171921900914
 31
0.0
  0
LINE
  5
996
330
18
100
AcDbEntity
  8
0
100
AcDbLine
 10
112.2737631187032
 20
238.1171921900913
 30
0.0
 11
137.0030596340403
 21
223.8397261900913
 31
0.0
  0
LINE
  5
997
330
18
100
AcDbEntity
  8
0
100
AcDbLine
 10
112.2737631187032
 20
223.4326170328419
 30
0.0
 11
112.2737631187032
 21
240.4390804918471
 31
0.0
  0
SOLID
  5
998
330
18
100
AcDbEntity
  8
0
100
AcDbTrace
 10
112.2737631187032
 20
238.1171921900913
 30
0.0
 11
108.8096615035655
 21
236.6505255234247
 31
0.0
 12
108.8096615035655
 22
235.583858856758
 32
0.0
 13
108.8096615035655
 23
235.583858856758
 33
0.0
  0
SOLID
  5
999
330
18
100
AcDbEntity
  8
0
100
AcDbTrace
 10
112.2737631187032
 20
238.1171921900913
 30
0.0
 11
115.7378647338409
 21
235.583858856758
 31
0.0
 12
115.7378647338409
 22
236.6505255234246
 32
0.0
 13
115.7378647338409
 23
236.6505255234246
 33
0.0
  0
TEXT
  5
99A
330
18
100
AcDbEntity
  8
I
100
AcDbText
 10
123.8069541534565
 20
232.7918345748944
 30
0.0
 40
1.5
  1
70mm
 50
329.9999999999998
 51
330.0
 72
     1
 11
126.6524661944625
 21
231.1489774320373
 31
0.0
100
AcDbText
  0
LINE
  5
99B
330
18
100
AcDbEntity
  8
0
100
AcDbLine
 10
51.86849120473841
 20
188.557617032842
 30
0.0
 11
51.86849120473841
 21
206.42640257237
 31
0.0
  0
SOLID
  5
99C
330
18
100
AcDbEntity
  8
0
100
AcDbTrace
 10
51.86849120473841
 20
203.2421921900913
 30
0.0
 11
55.33259281987614
 21
205.7755255234246
 31
0.0
 12
55.33259281987614
 22
204.708858856758
 32
0.0
 13
55.33259281987614
 23
204.708858856758
 33
0.0
  0
LINE
  5
99D
330
18
100
AcDbEntity
  8
0
100
AcDbLine
 10
137.0030596340404
 20
209.1551510328419
 30
0.0
 11
137.0030596340404
 21
226.6807229434057
 31
0.0
  0
LINE
  5
99E
330
18
100
AcDbEntity
  8
0
100
AcDbLine
 10
129.054357182682
 20
222.7187437328419
 30
0.0
 11
138.026981656098
 21
217.5383965777777
 31
0.0
  0
LINE
  5
99F
330
18
100
AcDbEntity
  8
0
100
AcDbLine
 10
137.0030596340404
 20
218.1295582328419
 30
0.0
 11
166.2911561435214
 21
235.0390486366425
 31
0.0
  0
LINE
  5
9A0
330
18
100
AcDbEntity
  8
0
100
AcDbLine
 10
154.9192500864486
 20
228.7064378941434
 30
0.0
 11
154.9192500864485
 21
118.3330236133923
 31
0.0
  0
SOLID
  5
9A1
330
18
100
AcDbEntity
  8
0
100
AcDbTrace
 10
154.9192500864486
 20
228.7064378941434
 30
0.0
 11
155.3811303018003
 21
224.4397712274767
 31
0.0
 12
154.4573698710969
 22
224.97310456081
 32
0.0
 13
154.4573698710969
 23
224.97310456081
 33
0.0
  0
LINE
  5
9A2
330
18
100
AcDbEntity
  8
0
100
AcDbLine
 10
162.6061220977951
 20
233.1444555191206
 30
0.0
 11
162.7004032959168
 21
120.7858365134845
 31
0.0
  0
SOLID
  5
9A3
330
18
100
AcDbEntity
  8
0
100
AcDbTrace
 10
162.6061220977951
 20
233.1444555191206
 30
0.0
 11
163.0680023131468
 21
228.8777888524539
 31
0.0
 12
162.1442418824434
 22
229.4111221857872
 32
0.0
 13
162.1442418824434
 23
229.4111221857872
 33
0.0
  0
TEXT
  5
9A4
330
18
100
AcDbEntity
  8
I
100
AcDbText
 10
153.3396164868185
 20
164.1155055885345
 30
0.0
 40
1.5
  1
270mm
 50
86.98591532810224
 51
330.0
 72
     1
 11
153.5499422534774
 21
168.109972145145
 31
0.0
100
AcDbText
  0
TEXT
  5
9A5
330
18
100
AcDbEntity
  8
I
100
AcDbText
 10
161.2679438250587
 20
175.4351259398313
 30
0.0
 40
1.5
  1
279mm
 50
86.98591532810224
 51
330.0
 72
     1
 11
161.4782695917176
 21
179.4295924964417
 31
0.0
100
AcDbText
  0
TEXT
  5
9A6
330
18
100
AcDbEntity
  8
I
100
AcDbText
 10
79.74883518100367
 20
220.507770246392
 30
0.0
 40
1.5
  1
171mm
 50
30.00000000000014
 51
30.0
 72
     1
 11
82.96550096648871
 21
222.3649131035349
 31
0.0
100
AcDbText
  0
LINE
  5
9A7
330
18
100
AcDbEntity
  8
0
100
AcDbLine
 10
125.9857374157717
 20
99.58861428437565
 30
0.0
 11
165.3488660582024
 21
122.3149272022288
 31
0.0
  0
LINE
  5
9A8
330
18
100
AcDbEntity
  8
0
100
AcDbLine
 10
136.2965083050307
 20
107.5811786328418
 30
0.0
 11
157.4907843679792
 21
119.8176996230644
 31
0.0
  0
SOLID
  5
9A9
330
18
100
AcDbEntity
  8
0
100
AcDbTrace
 10
154.9192500864485
 20
118.3330236133923
 30
0.0
 11
155.3811303018002
 21
122.0663569467256
 31
0.0
 12
154.4573698710968
 22
122.5996902800589
 32
0.0
 13
154.4573698710968
 23
122.5996902800589
 33
0.0
  0
SOLID
  5
9AA
330
18
100
AcDbEntity
  8
0
100
AcDbTrace
 10
162.7004032959168
 20
120.7858365134845
 30
0.0
 11
163.1622835112685
 21
124.5191698468179
 31
0.0
 12
162.2385230805651
 22
125.0525031801512
 32
0.0
 13
162.2385230805651
 23
125.0525031801512
 33
0.0
  0
LINE
  5
9C8
330
18
100
AcDbEntity
  8
0
  6
GESTRICHELT
100
AcDbLine
 10
65.11095513107773
 20
88.55111030002456
 30
0.0
 11
73.01451577859279
 21
93.1142331674239
 31
0.0
  0
LINE
  5
9C9
330
18
100
AcDbEntity
  8
0
  6
GESTRICHELT
100
AcDbLine
 10
65.11095513107773
 20
101.582468679091
 30
0.0
 11
65.11095513107773
 21
88.55111030002456
 31
0.0
  0
ELLIPSE
  5
9CA
330
18
100
AcDbEntity
  8
0
  6
GESTRICHELT
100
AcDbEllipse
 10
63.6020284252026
 20
90.6459575284907
 30
0.0
 11
0.3706707129253361
 21
-0.6420205076644656
 31
0.0
210
0.0
220
0.0
230
1.0
 40
0.5773502691896253
 41
0.0
 42
6.283185307179586
  0
LINE
  5
9CB
330
18
100
AcDbEntity
  8
0
  6
GESTRICHELT
100
AcDbLine
 10
62.55618554009678
 20
90.02610721109485
 30
0.0
 11
62.55618554009678
 21
103.0574655901613
 31
0.0
  0
ELLIPSE
  5
9CC
330
18
100
AcDbEntity
  8
0
  6
GESTRICHELT
100
AcDbEllipse
 10
63.6020284252026
 20
100.7592097428546
 30
0.0
 11
0.3706707129253361
 21
-0.6420205076644656
 31
0.0
210
0.0
220
0.0
230
1.0
 40
0.5773502691896253
 41
0.0
 42
6.283185307179586
  0
LINE
  5
9CD
330
18
100
AcDbEntity
  8
0
  6
GESTRICHELT
100
AcDbLine
 10
65.11095513107773
 20
101.5824686790911
 30
0.0
 11
73.01451577859279
 21
106.1455915464904
 31
0.0
  0
LINE
  5
9CE
330
18
100
AcDbEntity
  8
0
  6
GESTRICHELT
100
AcDbLine
 10
62.55618554009678
 20
103.0574655901613
 30
0.0
 11
68.52761753802153
 21
106.5050734616107
 31
0.0
  0
LINE
  5
9CF
330
18
100
AcDbEntity
  8
0
  6
GESTRICHELT
100
AcDbLine
 10
62.55618554009678
 20
103.0574655901613
 30
0.0
 11
65.11095513107773
 21
101.582468679091
 31
0.0
  0
ELLIPSE
  5
9D0
330
18
100
AcDbEntity
  8
0
  6
GESTRICHELT
100
AcDbEllipse
 10
69.32613756228196
 20
106.4558886986785
 30
0.0
 11
0.3875900017076779
 21
-0.6713255754634142
 31
0.0
210
0.0
220
0.0
230
1.0
 40
0.5773502691896205
 41
0.0
 42
6.283185307179586
  0
LINE
  5
9D1
330
18
100
AcDbEntity
  8
0
  6
GESTRICHELT
100
AcDbLine
 10
70.89552136480714
 20
109.2490649584533
 30
0.0
 11
72.50269773674583
 21
108.3211612474792
 31
0.0
  0
LINE
  5
9D2
330
18
100
AcDbEntity
  8
0
  6
GESTRICHELT
100
AcDbLine
 10
68.52761753802153
 20
107.8819550466434
 30
0.0
 11
70.89552136480714
 21
109.2490649584533
 31
0.0
  0
LINE
  5
9D3
330
18
100
AcDbEntity
  8
0
  6
GESTRICHELT
100
AcDbLine
 10
70.13479390996022
 20
106.9540513356694
 30
0.0
 11
72.5026977367458
 21
108.3211612474792
 31
0.0
  0
LINE
  5
9D4
330
18
100
AcDbEntity
  8
0
  6
GESTRICHELT
100
AcDbLine
 10
70.13479390996022
 20
105.073979918917
 30
0.0
 11
72.5026977367458
 21
106.4410898307268
 31
0.0
  0
LINE
  5
9D5
330
18
100
AcDbEntity
  8
0
  6
GESTRICHELT
100
AcDbLine
 10
70.13479390996022
 20
106.9540513356694
 30
0.0
 11
70.13479390996022
 21
105.073979918917
 31
0.0
  0
LINE
  5
9D6
330
18
100
AcDbEntity
  8
0
  6
GESTRICHELT
100
AcDbLine
 10
68.52761753802153
 20
107.8819550466434
 30
0.0
 11
68.52761753802153
 21
106.001883629891
 31
0.0
  0
LINE
  5
9D7
330
18
100
AcDbEntity
  8
0
  6
GESTRICHELT
100
AcDbLine
 10
68.52761753802153
 20
106.001883629891
 30
0.0
 11
70.13479390996022
 21
105.073979918917
 31
0.0
  0
LINE
  5
9D8
330
18
100
AcDbEntity
  8
0
  6
GESTRICHELT
100
AcDbLine
 10
68.5276175380215
 20
107.8819550466434
 30
0.0
 11
70.13479390996022
 21
106.9540513356694
 31
0.0
  0
LINE
  5
9D9
330
18
100
AcDbEntity
  8
0
  6
GESTRICHELT
100
AcDbLine
 10
72.5026977367458
 20
108.3211612474792
 30
0.0
 11
72.5026977367458
 21
106.4410898307268
 31
0.0
  0
ELLIPSE
  5
9DA
330
18
100
AcDbEntity
  8
0
  6
GESTRICHELT
100
AcDbEllipse
 10
69.32613756228196
 20
91.14442500107665
 30
0.0
 11
0.3875900017076779
 21
-0.6713255754634142
 31
0.0
210
0.0
220
0.0
230
1.0
 40
0.5773502691896205
 41
4.891740036872175
 42
7.674630577486966
  0
LINE
  5
9DB
330
18
100
AcDbEntity
  8
0
  6
GESTRICHELT
100
AcDbLine
 10
72.50269773674583
 20
92.81873488318746
 30
0.0
 11
72.5026977367458
 21
91.12962613312499
 31
0.0
  0
LINE
  5
9DC
330
18
100
AcDbEntity
  8
0
  6
GESTRICHELT
100
AcDbLine
 10
70.13479390996022
 20
89.76251622131513
 30
0.0
 11
72.5026977367458
 21
91.12962613312499
 31
0.0
  0
LINE
  5
9DD
330
18
100
AcDbEntity
  8
0
  6
GESTRICHELT
100
AcDbLine
 10
70.13479390996022
 20
91.45162497137764
 30
0.0
 11
70.13479390996022
 21
89.76251622131513
 31
0.0
  0
LINE
  5
9DE
330
18
100
AcDbEntity
  8
0
  6
GESTRICHELT
100
AcDbLine
 10
68.67198282265147
 20
90.60707059634637
 30
0.0
 11
70.13479390996022
 21
89.76251622131513
 31
0.0
  0
LINE
  5
9DF
330
18
100
AcDbEntity
  8
0
  6
GESTRICHELT
100
AcDbLine
 10
65.11095513107773
 20
88.55111030002456
 30
0.0
 11
62.55618554009678
 21
90.02610721109489
 31
0.0
  0
ELLIPSE
  5
9E0
330
18
100
AcDbEntity
  8
0
  6
GESTRICHELT
100
AcDbEllipse
 10
63.6020284252026
 20
92.67722240128225
 30
0.0
 11
0.3706707129253361
 21
-0.6420205076644656
 31
0.0
210
0.0
220
0.0
230
1.0
 40
0.5773502691896253
 41
0.0
 42
6.283185307179586
  0
ELLIPSE
  5
9E1
330
18
100
AcDbEntity
  8
0
  6
GESTRICHELT
100
AcDbEllipse
 10
63.6020284252026
 20
94.70848727407384
 30
0.0
 11
0.3706707129253361
 21
-0.6420205076644656
 31
0.0
210
0.0
220
0.0
230
1.0
 40
0.5773502691896253
 41
0.0
 42
6.283185307179586
  0
ELLIPSE
  5
9E2
330
18
100
AcDbEntity
  8
0
  6
GESTRICHELT
100
AcDbEllipse
 10
63.6020284252026
 20
98.72794487006306
 30
0.0
 11
0.3706707129253361
 21
-0.6420205076644656
 31
0.0
210
0.0
220
0.0
230
1.0
 40
0.5773502691896253
 41
0.0
 42
6.283185307179586
  0
ELLIPSE
  5
9E3
330
18
100
AcDbEntity
  8
0
  6
GESTRICHELT
100
AcDbEllipse
 10
63.6020284252026
 20
96.69667999727151
 30
0.0
 11
0.3706707129253361
 21
-0.6420205076644656
 31
0.0
210
0.0
220
0.0
230
1.0
 40
0.5773502691896253
 41
0.0
 42
6.283185307179586
  0
LINE
  5
9E4
330
18
100
AcDbEntity
  8
0
100
AcDbLine
 10
75.8912363910658
 20
55.75383704211484
 30
0.0
 11
151.0520059118566
 21
99.1479275574427
 31
0.0
  0
LINE
  5
9E5
330
18
100
AcDbEntity
  8
0
100
AcDbLine
 10
65.11095513107773
 20
61.91512153087682
 30
0.0
 11
65.11095513107773
 21
88.55111030002456
 31
0.0
  0
LINE
  5
9E6
330
18
100
AcDbEntity
  8
0
100
AcDbLine
 10
65.11095513107773
 20
61.91512153087682
 30
0.0
 11
78.01480763166043
 21
54.54014639435607
 31
0.0
  0
SOLID
  5
9E7
330
18
100
AcDbEntity
  8
0
100
AcDbTrace
 10
75.8912363910658
 20
55.75383704211484
 30
0.0
 11
79.35533800620354
 21
58.28717037544814
 31
0.0
 12
79.35533800620354
 22
57.22050370878148
 32
0.0
 13
79.35533800620354
 23
57.22050370878148
 33
0.0
  0
TEXT
  5
9E8
330
18
100
AcDbEntity
  8
I
100
AcDbText
 10
106.2451018496748
 20
69.80822694349367
 30
0.0
 40
1.5
  1
400/480V  < 230mm
 50
30.0
 51
330.0
 72
     1
 11
117.1013488756868
 21
76.0760840863508
 31
0.0
100
AcDbText
  0
TEXT
  5
9E9
330
18
100
AcDbEntity
  8
I
100
AcDbText
 10
102.5162673451356
 20
72.72133682400391
 30
0.0
 40
1.5
  1
115/230V  < 200mm
 50
30.0
 51
330.0
 72
     1
 11
113.1250785414949
 21
78.84633682400391
 31
0.0
100
AcDbText
  0
SOLID
  5
9EA
330
18
100
AcDbEntity
  8
0
100
AcDbTrace
 10
151.0520059118564
 20
99.14792755744265
 30
0.0
 11
147.5879042967187
 21
97.681260890776
 31
0.0
 12
147.5879042967187
 22
96.61459422410931
 32
0.0
 13
147.5879042967187
 23
96.61459422410931
 33
0.0
  0
LINE
  5
9EB
330
18
100
AcDbEntity
  8
0
100
AcDbLine
 10
136.2965083050307
 20
107.5811786328418
 30
0.0
 11
152.7884142178966
 21
98.15551323130907
 31
0.0
  0
SOLID
  5
9EE
330
18
100
AcDbEntity
  8
0
100
AcDbTrace
 10
137.0030596340403
 20
223.8397261900913
 30
0.0
 11
133.5389580189026
 21
225.306392856758
 31
0.0
 12
133.5389580189026
 22
226.3730595234247
 32
0.0
 13
133.5389580189026
 23
226.3730595234247
 33
0.0
  0
LINE
  5
A07
330
18
100
AcDbEntity
  8
0
100
AcDbLine
 10
147.2013394207552
 20
232.7791010233329
 30
0.0
 11
147.2013394207552
 21
215.0431306129727
 31
0.0
  0
SOLID
  5
A08
330
18
100
AcDbEntity
  8
0
100
AcDbTrace
 10
147.2013394207552
 20
224.0175378129727
 30
0.0
 11
147.6632196361069
 21
219.7508711463061
 31
0.0
 12
146.7394592054035
 22
220.2842044796394
 32
0.0
 13
146.7394592054035
 23
220.2842044796394
 33
0.0
  0
TEXT
  5
A09
330
18
100
AcDbEntity
  8
I
100
AcDbText
 10
146.3770593938294
 20
225.328438516547
 30
0.0
 40
1.5
  1
22mm
 50
86.98591532810224
 51
330.0
 72
     1
 11
146.5498269878706
 21
228.6096074737628
 31
0.0
100
AcDbText
  0
LINE
  5
A0A
330
18
100
AcDbEntity
  8
0
100
AcDbLine
 10
137.0030596340404
 20
209.1551510328419
 30
0.0
 11
149.7728737022859
 21
216.5278066226449
 31
0.0
  0
SOLID
  5
A0B
330
18
100
AcDbEntity
  8
0
100
AcDbTrace
 10
147.2013394207552
 20
215.0431306129727
 30
0.0
 11
147.6632196361069
 21
218.7764639463061
 31
0.0
 12
146.7394592054035
 22
219.3097972796394
 32
0.0
 13
146.7394592054035
 23
219.3097972796394
 33
0.0
  0
TEXT
  5
A0D
330
18
100
AcDbEntity
  8
D
100
AcDbText
 10
79.74883518100367
 20
220.507770246392
 30
0.0
 40
1.5
  1
171mm
 50
30.00000000000014
 51
30.0
 72
     1
 11
82.96550096648871
 21
222.3649131035349
 31
0.0
100
AcDbText
  0
TEXT
  5
A0E
330
18
100
AcDbEntity
  8
D
100
AcDbText
 10
123.8069541534565
 20
232.7918345748944
 30
0.0
 40
1.5
  1
70mm
 50
329.9999999999998
 51
330.0
 72
     1
 11
126.6524661944625
 21
231.1489774320373
 31
0.0
100
AcDbText
  0
TEXT
  5
A0F
330
18
100
AcDbEntity
  8
D
100
AcDbText
 10
146.3770593938294
 20
225.328438516547
 30
0.0
 40
1.5
  1
22mm
 50
86.98591532810224
 51
330.0
 72
     1
 11
146.5498269878706
 21
228.6096074737628
 31
0.0
100
AcDbText
  0
TEXT
  5
A10
330
18
100
AcDbEntity
  8
D
100
AcDbText
 10
153.3396164868185
 20
164.1155055885345
 30
0.0
 40
1.5
  1
270mm
 50
86.98591532810224
 51
330.0
 72
     1
 11
153.5499422534774
 21
168.109972145145
 31
0.0
100
AcDbText
  0
TEXT
  5
A11
330
18
100
AcDbEntity
  8
D
100
AcDbText
 10
161.2679438250587
 20
175.4351259398313
 30
0.0
 40
1.5
  1
279mm
 50
86.98591532810224
 51
330.0
 72
     1
 11
161.4782695917176
 21
179.4295924964417
 31
0.0
100
AcDbText
  0
TEXT
  5
A12
330
18
100
AcDbEntity
  8
D
100
AcDbText
 10
102.5162673451356
 20
72.72133682400391
 30
0.0
 40
1.5
  1
115/230V  < 200mm
 50
30.0
 51
330.0
 72
     1
 11
113.1250785414949
 21
78.84633682400391
 31
0.0
100
AcDbText
  0
TEXT
  5
A13
330
18
100
AcDbEntity
  8
D
100
AcDbText
 10
106.2451018496748
 20
69.80822694349367
 30
0.0
 40
1.5
  1
400/480V  < 230mm
 50
30.0
 51
330.0
 72
     1
 11
117.1013488756868
 21
76.0760840863508
 31
0.0
100
AcDbText
  0
TEXT
  5
A14
330
18
100
AcDbEntity
  8
D
100
AcDbText
 10
42.73365296033586
 20
144.334603001095
 30
0.0
 40
1.5
  1
246mm
 50
90.0
 51
30.0
 72
     1
 11
42.73365296033586
 21
148.334603001095
 31
0.0
100
AcDbText
  0
TEXT
  5
A15
330
18
100
AcDbEntity
  8
E
100
AcDbText
 10
79.74883518100367
 20
220.507770246392
 30
0.0
 40
1.5
  1
171mm
 50
30.00000000000014
 51
30.0
 72
     1
 11
82.96550096648871
 21
222.3649131035349
 31
0.0
100
AcDbText
  0
TEXT
  5
A16
330
18
100
AcDbEntity
  8
E
100
AcDbText
 10
123.8069541534565
 20
232.7918345748944
 30
0.0
 40
1.5
  1
70mm
 50
329.9999999999998
 51
330.0
 72
     1
 11
126.6524661944625
 21
231.1489774320373
 31
0.0
100
AcDbText
  0
TEXT
  5
A17
330
18
100
AcDbEntity
  8
E
100
AcDbText
 10
146.3770593938294
 20
225.328438516547
 30
0.0
 40
1.5
  1
22mm
 50
86.98591532810224
 51
330.0
 72
     1
 11
146.5498269878706
 21
228.6096074737628
 31
0.0
100
AcDbText
  0
TEXT
  5
A18
330
18
100
AcDbEntity
  8
E
100
AcDbText
 10
153.3396164868185
 20
164.1155055885345
 30
0.0
 40
1.5
  1
270mm
 50
86.98591532810224
 51
330.0
 72
     1
 11
153.5499422534774
 21
168.109972145145
 31
0.0
100
AcDbText
  0
TEXT
  5
A19
330
18
100
AcDbEntity
  8
E
100
AcDbText
 10
161.2679438250587
 20
175.4351259398313
 30
0.0
 40
1.5
  1
279mm
 50
86.98591532810224
 51
330.0
 72
     1
 11
161.4782695917176
 21
179.4295924964417
 31
0.0
100
AcDbText
  0
TEXT
  5
A1A
330
18
100
AcDbEntity
  8
E
100
AcDbText
 10
102.5162673451356
 20
72.72133682400391
 30
0.0
 40
1.5
  1
115/230V  < 200mm
 50
30.0
 51
330.0
 72
     1
 11
113.1250785414949
 21
78.84633682400391
 31
0.0
100
AcDbText
  0
TEXT
  5
A1B
330
18
100
AcDbEntity
  8
E
100
AcDbText
 10
106.2451018496748
 20
69.80822694349367
 30
0.0
 40
1.5
  1
400/480V  < 230mm
 50
30.0
 51
330.0
 72
     1
 11
117.1013488756868
 21
76.0760840863508
 31
0.0
100
AcDbText
  0
TEXT
  5
A1C
330
18
100
AcDbEntity
  8
E
100
AcDbText
 10
42.73365296033586
 20
144.334603001095
 30
0.0
 40
1.5
  1
246mm
 50
90.0
 51
30.0
 72
     1
 11
42.73365296033586
 21
148.334603001095
 31
0.0
100
AcDbText
  0
TEXT
  5
A1D
330
18
100
AcDbEntity
  8
F
100
AcDbText
 10
79.74883518100367
 20
220.507770246392
 30
0.0
 40
1.5
  1
171mm
 50
30.00000000000014
 51
30.0
 72
     1
 11
82.96550096648871
 21
222.3649131035349
 31
0.0
100
AcDbText
  0
TEXT
  5
A1E
330
18
100
AcDbEntity
  8
F
100
AcDbText
 10
123.8069541534565
 20
232.7918345748944
 30
0.0
 40
1.5
  1
70mm
 50
329.9999999999998
 51
330.0
 72
     1
 11
126.6524661944625
 21
231.1489774320373
 31
0.0
100
AcDbText
  0
TEXT
  5
A1F
330
18
100
AcDbEntity
  8
F
100
AcDbText
 10
146.3770593938294
 20
225.328438516547
 30
0.0
 40
1.5
  1
22mm
 50
86.98591532810224
 51
330.0
 72
     1
 11
146.5498269878706
 21
228.6096074737628
 31
0.0
100
AcDbText
  0
TEXT
  5
A20
330
18
100
AcDbEntity
  8
F
100
AcDbText
 10
153.3396164868185
 20
164.1155055885345
 30
0.0
 40
1.5
  1
270mm
 50
86.98591532810224
 51
330.0
 72
     1
 11
153.5499422534774
 21
168.109972145145
 31
0.0
100
AcDbText
  0
TEXT
  5
A21
330
18
100
AcDbEntity
  8
F
100
AcDbText
 10
161.2679438250587
 20
175.4351259398313
 30
0.0
 40
1.5
  1
279mm
 50
86.98591532810224
 51
330.0
 72
     1
 11
161.4782695917176
 21
179.4295924964417
 31
0.0
100
AcDbText
  0
TEXT
  5
A22
330
18
100
AcDbEntity
  8
F
100
AcDbText
 10
102.5162673451356
 20
72.72133682400391
 30
0.0
 40
1.5
  1
115/230V  < 200mm
 50
30.0
 51
330.0
 72
     1
 11
113.1250785414949
 21
78.84633682400391
 31
0.0
100
AcDbText
  0
TEXT
  5
A23
330
18
100
AcDbEntity
  8
F
100
AcDbText
 10
106.2451018496748
 20
69.80822694349367
 30
0.0
 40
1.5
  1
400/480V  < 230mm
 50
30.0
 51
330.0
 72
     1
 11
117.1013488756868
 21
76.0760840863508
 31
0.0
100
AcDbText
  0
TEXT
  5
A24
330
18
100
AcDbEntity
  8
F
100
AcDbText
 10
42.73365296033586
 20
144.334603001095
 30
0.0
 40
1.5
  1
246mm
 50
90.0
 51
30.0
 72
     1
 11
42.73365296033586
 21
148.334603001095
 31
0.0
100
AcDbText
  0
LINE
  5
A26
330
18
100
AcDbEntity
  8
0
100
AcDbLine
 10
59.4370457147977
 20
87.3952460045165
 30
0.0
 11
58.5964156235574
 21
87.880584013983
 31
0.0
  0
LINE
  5
A27
330
18
100
AcDbEntity
  8
0
100
AcDbLine
 10
59.4370457147977
 20
86.81160718079492
 30
0.0
 11
58.59641562355739
 21
87.29694519026141
 31
0.0
  0
LINE
  5
A29
330
18
100
AcDbEntity
  8
0
100
AcDbLine
 10
59.4370457147977
 20
86.81160718079492
 30
0.0
 11
59.4370457147977
 21
85.3149279801762
 31
0.0
  0
LINE
  5
A2A
330
18
100
AcDbEntity
  8
0
100
AcDbLine
 10
58.59641562355739
 20
87.29694519026141
 30
0.0
 11
58.59641562355739
 21
85.80026598964268
 31
0.0
  0
LINE
  5
A2B
330
18
100
AcDbEntity
  8
0
100
AcDbLine
 10
58.94969128806224
 20
87.0929813902614
 30
0.0
 11
58.94969128806224
 21
86.00422978964267
 31
0.0
  0
LINE
  5
A2C
330
18
100
AcDbEntity
  8
0
  6
GESTRICHELT
100
AcDbLine
 10
58.59641562355739
 20
87.880584013983
 30
0.0
 11
58.94969128806224
 21
88.08454781398301
 31
0.0
  0
LINE
  5
A2D
330
18
100
AcDbEntity
  8
0
100
AcDbLine
 10
58.94969128806225
 20
88.08454781398301
 30
0.0
 11
59.4370457147977
 21
87.80317360451656
 31
0.0
  0
LINE
  5
A2E
330
18
100
AcDbEntity
  8
0
100
AcDbLine
 10
62.26325103083623
 20
85.76353560451646
 30
0.0
 11
61.42262093959592
 21
86.24887361398295
 31
0.0
  0
LINE
  5
A2F
330
18
100
AcDbEntity
  8
0
100
AcDbLine
 10
62.26325103083623
 20
87.16324575959481
 30
0.0
 11
62.26325103083623
 21
85.76353560451646
 31
0.0
  0
LINE
  5
A30
330
18
100
AcDbEntity
  8
0
100
AcDbLine
 10
62.26325103083623
 20
85.17989678079487
 30
0.0
 11
61.42262093959591
 21
85.66523479026136
 31
0.0
  0
LINE
  5
A31
330
18
100
AcDbEntity
  8
0
100
AcDbLine
 10
61.77589660410077
 20
85.46127099026135
 30
0.0
 11
61.77589660410077
 21
84.37251938964264
 31
0.0
  0
LINE
  5
A32
330
18
100
AcDbEntity
  8
0
100
AcDbLine
 10
61.42262093959591
 20
85.66523479026136
 30
0.0
 11
61.42262093959591
 21
84.16855558964263
 31
0.0
  0
LINE
  5
A33
330
18
100
AcDbEntity
  8
0
100
AcDbLine
 10
62.26325103083623
 20
85.17989678079487
 30
0.0
 11
62.26325103083623
 21
83.68321758017614
 31
0.0
  0
LINE
  5
A34
330
18
100
AcDbEntity
  8
0
100
AcDbLine
 10
61.77589660410077
 20
86.45283741398298
 30
0.0
 11
62.26325103083623
 21
86.1714632045165
 31
0.0
  0
LINE
  5
A35
330
18
100
AcDbEntity
  8
0
  6
GESTRICHELT
100
AcDbLine
 10
61.42262093959591
 20
86.24887361398295
 30
0.0
 11
61.77589660410076
 21
86.45283741398296
 31
0.0
  0
LINE
  5
A36
330
18
100
AcDbEntity
  8
0
100
AcDbLine
 10
61.42262093959591
 20
87.64858376906129
 30
0.0
 11
61.42262093959591
 21
86.24887361398295
 31
0.0
  0
LINE
  5
A37
330
18
100
AcDbEntity
  8
0
100
AcDbLine
 10
61.77589660410077
 20
87.85254756906129
 30
0.0
 11
61.77589660410077
 21
86.45283741398298
 31
0.0
  0
LINE
  5
A38
330
18
100
AcDbEntity
  8
0
100
AcDbLine
 10
65.0894563468748
 20
84.13182520451648
 30
0.0
 11
64.2488262556345
 21
84.61716321398297
 31
0.0
  0
LINE
  5
A39
330
18
100
AcDbEntity
  8
0
100
AcDbLine
 10
65.0894563468748
 20
85.53153535959483
 30
0.0
 11
65.0894563468748
 21
84.13182520451648
 31
0.0
  0
LINE
  5
A3A
330
18
100
AcDbEntity
  8
0
100
AcDbLine
 10
65.0894563468748
 20
83.54818638079491
 30
0.0
 11
64.24882625563448
 21
84.03352439026139
 31
0.0
  0
LINE
  5
A3B
330
18
100
AcDbEntity
  8
0
100
AcDbLine
 10
64.60210192013933
 20
83.82956059026138
 30
0.0
 11
64.60210192013933
 21
82.74080898964266
 31
0.0
  0
LINE
  5
A3C
330
18
100
AcDbEntity
  8
0
100
AcDbLine
 10
64.24882625563448
 20
84.03352439026139
 30
0.0
 11
64.24882625563448
 21
82.53684518964266
 31
0.0
  0
LINE
  5
A3D
330
18
100
AcDbEntity
  8
0
100
AcDbLine
 10
65.0894563468748
 20
83.54818638079491
 30
0.0
 11
65.0894563468748
 21
82.05150718017618
 31
0.0
  0
LINE
  5
A3E
330
18
100
AcDbEntity
  8
0
100
AcDbLine
 10
64.60210192013935
 20
84.821127013983
 30
0.0
 11
65.0894563468748
 21
84.53975280451654
 31
0.0
  0
LINE
  5
A3F
330
18
100
AcDbEntity
  8
0
  6
GESTRICHELT
100
AcDbLine
 10
64.24882625563448
 20
84.61716321398297
 30
0.0
 11
64.60210192013931
 21
84.82112701398298
 31
0.0
  0
LINE
  5
A40
330
18
100
AcDbEntity
  8
0
100
AcDbLine
 10
64.24882625563448
 20
86.01687336906131
 30
0.0
 11
64.24882625563448
 21
84.61716321398297
 31
0.0
  0
LINE
  5
A41
330
18
100
AcDbEntity
  8
0
100
AcDbLine
 10
64.60210192013933
 20
86.2208371690613
 30
0.0
 11
64.60210192013935
 21
84.821127013983
 31
0.0
  0
LINE
  5
A42
330
18
100
AcDbEntity
  8
0
100
AcDbLine
 10
68.62221299192295
 20
82.09218720451646
 30
0.0
 11
67.78158290068265
 21
82.57752521398295
 31
0.0
  0
LINE
  5
A43
330
18
100
AcDbEntity
  8
0
100
AcDbLine
 10
68.62221299192295
 20
83.4918973595948
 30
0.0
 11
68.62221299192295
 21
82.09218720451646
 31
0.0
  0
LINE
  5
A44
330
18
100
AcDbEntity
  8
0
100
AcDbLine
 10
68.62221299192295
 20
81.50854838079487
 30
0.0
 11
67.78158290068263
 21
81.99388639026137
 31
0.0
  0
LINE
  5
A45
330
18
100
AcDbEntity
  8
0
100
AcDbLine
 10
68.13485856518749
 20
81.78992259026136
 30
0.0
 11
68.13485856518749
 21
80.70117098964264
 31
0.0
  0
LINE
  5
A46
330
18
100
AcDbEntity
  8
0
100
AcDbLine
 10
67.78158290068263
 20
81.99388639026137
 30
0.0
 11
67.78158290068263
 21
80.49720718964264
 31
0.0
  0
LINE
  5
A47
330
18
100
AcDbEntity
  8
0
100
AcDbLine
 10
68.62221299192295
 20
81.50854838079487
 30
0.0
 11
68.62221299192295
 21
80.01186918017614
 31
0.0
  0
LINE
  5
A48
330
18
100
AcDbEntity
  8
0
100
AcDbLine
 10
68.1348585651875
 20
82.78148901398298
 30
0.0
 11
68.62221299192295
 21
82.50011480451652
 31
0.0
  0
LINE
  5
A49
330
18
100
AcDbEntity
  8
0
  6
GESTRICHELT
100
AcDbLine
 10
67.78158290068263
 20
82.57752521398295
 30
0.0
 11
68.13485856518747
 21
82.78148901398296
 31
0.0
  0
LINE
  5
A4A
330
18
100
AcDbEntity
  8
0
100
AcDbLine
 10
67.78158290068263
 20
83.97723536906129
 30
0.0
 11
67.78158290068263
 21
82.57752521398295
 31
0.0
  0
LINE
  5
A4B
330
18
100
AcDbEntity
  8
0
100
AcDbLine
 10
68.13485856518749
 20
84.18119916906128
 30
0.0
 11
68.1348585651875
 21
82.78148901398298
 31
0.0
  0
LINE
  5
A4C
330
18
100
AcDbEntity
  8
0
100
AcDbLine
 10
71.44841830796152
 20
80.46047680451648
 30
0.0
 11
70.60778821672122
 21
80.94581481398298
 31
0.0
  0
LINE
  5
A4D
330
18
100
AcDbEntity
  8
0
100
AcDbLine
 10
71.44841830796152
 20
81.86018695959482
 30
0.0
 11
71.44841830796152
 21
80.46047680451648
 31
0.0
  0
LINE
  5
A4E
330
18
100
AcDbEntity
  8
0
100
AcDbLine
 10
71.44841830796152
 20
79.87683798079491
 30
0.0
 11
70.6077882167212
 21
80.36217599026139
 31
0.0
  0
LINE
  5
A4F
330
18
100
AcDbEntity
  8
0
100
AcDbLine
 10
70.96106388122605
 20
80.15821219026138
 30
0.0
 11
70.96106388122605
 21
79.06946058964265
 31
0.0
  0
LINE
  5
A50
330
18
100
AcDbEntity
  8
0
100
AcDbLine
 10
70.6077882167212
 20
80.36217599026139
 30
0.0
 11
70.6077882167212
 21
78.86549678964266
 31
0.0
  0
LINE
  5
A51
330
18
100
AcDbEntity
  8
0
100
AcDbLine
 10
71.44841830796152
 20
79.87683798079491
 30
0.0
 11
71.44841830796152
 21
78.38015878017618
 31
0.0
  0
LINE
  5
A52
330
18
100
AcDbEntity
  8
0
100
AcDbLine
 10
70.96106388122606
 20
81.14977861398299
 30
0.0
 11
71.44841830796152
 21
80.86840440451654
 31
0.0
  0
LINE
  5
A53
330
18
100
AcDbEntity
  8
0
  6
GESTRICHELT
100
AcDbLine
 10
70.6077882167212
 20
80.94581481398298
 30
0.0
 11
70.96106388122604
 21
81.14977861398299
 31
0.0
  0
LINE
  5
A54
330
18
100
AcDbEntity
  8
0
100
AcDbLine
 10
70.6077882167212
 20
82.34552496906131
 30
0.0
 11
70.6077882167212
 21
80.94581481398298
 31
0.0
  0
LINE
  5
A55
330
18
100
AcDbEntity
  8
0
100
AcDbLine
 10
70.96106388122605
 20
82.54948876906132
 30
0.0
 11
70.96106388122606
 21
81.14977861398299
 31
0.0
  0
LINE
  5
A56
330
18
100
AcDbEntity
  8
0
100
AcDbLine
 10
74.27462362400003
 20
78.82876640451645
 30
0.0
 11
73.43399353275973
 21
79.31410441398295
 31
0.0
  0
LINE
  5
A57
330
18
100
AcDbEntity
  8
0
100
AcDbLine
 10
74.27462362400003
 20
80.22847655959479
 30
0.0
 11
74.27462362400003
 21
78.82876640451645
 31
0.0
  0
LINE
  5
A58
330
18
100
AcDbEntity
  8
0
100
AcDbLine
 10
74.27462362400003
 20
78.24512758079487
 30
0.0
 11
73.43399353275971
 21
78.73046559026136
 31
0.0
  0
LINE
  5
A59
330
18
100
AcDbEntity
  8
0
100
AcDbLine
 10
73.78726919726457
 20
78.52650179026134
 30
0.0
 11
73.78726919726457
 21
77.43775018964263
 31
0.0
  0
LINE
  5
A5A
330
18
100
AcDbEntity
  8
0
100
AcDbLine
 10
73.43399353275971
 20
78.73046559026136
 30
0.0
 11
73.43399353275971
 21
77.23378638964263
 31
0.0
  0
LINE
  5
A5B
330
18
100
AcDbEntity
  8
0
100
AcDbLine
 10
74.27462362400003
 20
78.24512758079487
 30
0.0
 11
74.27462362400003
 21
76.74844838017614
 31
0.0
  0
LINE
  5
A5C
330
18
100
AcDbEntity
  8
0
100
AcDbLine
 10
73.78726919726458
 20
79.51806821398297
 30
0.0
 11
74.27462362400003
 21
79.2366940045165
 31
0.0
  0
LINE
  5
A5D
330
18
100
AcDbEntity
  8
0
  6
GESTRICHELT
100
AcDbLine
 10
73.43399353275971
 20
79.31410441398295
 30
0.0
 11
73.78726919726455
 21
79.51806821398296
 31
0.0
  0
LINE
  5
A5E
330
18
100
AcDbEntity
  8
0
100
AcDbLine
 10
73.43399353275971
 20
80.71381456906129
 30
0.0
 11
73.43399353275971
 21
79.31410441398295
 31
0.0
  0
LINE
  5
A5F
330
18
100
AcDbEntity
  8
0
100
AcDbLine
 10
73.78726919726457
 20
80.91777836906128
 30
0.0
 11
73.78726919726458
 21
79.51806821398297
 31
0.0
  0
VIEWPORT
  5
188
330
15
100
AcDbEntity
 67
     1
  8
0
100
AcDbViewport
 10
5.607082937646099
 20
3.898749839602492
 30
0.0
 40
13.57493530686063
 41
8.756713004525252
 68
     1
 69
     1
1001
ACAD
1000
MVIEW
1002
{
1070
    16
1010
0.0
1020
0.0
1030
0.0
1010
0.0
1020
0.0
1030
1.0
1040
0.0
1040
8.756713004525252
1040
5.607082937646099
1040
3.898749839602492
1040
50.0
1040
0.0
1040
0.0
1070
     0
1070
 20000
1070
     1
1070
     1
1070
     0
1070
     0
1070
     0
1070
     0
1040
0.0
1040
0.0
1040
0.0
1040
10.0
1040
10.0
1040
10.0
1040
10.0
1070
     0
1002
{
1002
}
1002
}
  0
VIEWPORT
  5
18A
330
15
100
AcDbEntity
 67
     1
  8
0
100
AcDbViewport
 10
5.607083500839594
 20
3.892083393307181
 30
0.0
 40
8.971333601343351
 41
6.227333429291491
 68
     2
 69
     2
1001
ACAD
1000
MVIEW
1002
{
1070
    16
1010
0.0
1020
0.0
1030
0.0
1010
0.0
1020
0.0
1030
1.0
1040
0.0
1040
274.0306133694314
1040
89.75000041909513
1040
135.5000006321352
1040
50.0
1040
0.0
1040
0.0
1070
     8
1070
 20000
1070
     1
1070
     0
1070
     0
1070
     0
1070
     0
1070
     0
1040
0.0
1040
0.0
1040
0.0
1040
0.5
1040
0.5
1040
5.0
1040
5.0
1070
     0
1002
{
1002
}
1002
}
  0
ENDSEC
  0
SECTION
  2
OBJECTS
  0
DICTIONARY
  5
C
330
0
100
AcDbDictionary
  3
ACAD_GROUP
350
D
  3
ACAD_LAYOUT
350
131
  3
ACAD_MLINESTYLE
350
E
  3
ACAD_PLOTSETTINGS
350
132
1001
ACAD
1000
TREAT_AS_HARD
1070
     0
  0
DICTIONARY
  5
164
330
18
100
AcDbDictionary
  3
ACAD_LAYOUTSELFREF
350
A6E
1001
ACAD
1000
TREAT_AS_HARD
1070
     1
  0
DICTIONARY
  5
162
330
15
100
AcDbDictionary
  3
ACAD_LAYOUTSELFREF
350
A6D
1001
ACAD
1000
TREAT_AS_HARD
1070
     1
  0
DICTIONARY
  5
D
102
{ACAD_REACTORS
330
C
102
}
330
C
100
AcDbDictionary
1001
ACAD
1000
TREAT_AS_HARD
1070
     0
  0
DICTIONARY
  5
131
102
{ACAD_REACTORS
330
C
102
}
330
C
100
AcDbDictionary
1001
ACAD
1000
TREAT_AS_HARD
1070
     0
  0
DICTIONARY
  5
E
102
{ACAD_REACTORS
330
C
102
}
330
C
100
AcDbDictionary
  3
STANDARD
350
1B
1001
ACAD
1000
TREAT_AS_HARD
1070
     0
  0
DICTIONARY
  5
132
102
{ACAD_REACTORS
330
C
102
}
330
C
100
AcDbDictionary
  3
DRUCKA3
350
1BE
  3
DRUCKA4
350
1BF
  3
PDFA3
350
1C0
  3
PDFA4
350
1C1
  3
PLOTA3
350
1C2
  3
PLOTA4
350
1C3
  3
PLOTTER
350
139
1001
ACAD
1000
TREAT_AS_HARD
1070
     0
  0
XRECORD
  5
A6E
102
{ACAD_REACTORS
330
164
102
}
330
164
100
AcDbXrecord
340
18
  0
XRECORD
  5
A6D
102
{ACAD_REACTORS
330
162
102
}
330
162
100
AcDbXrecord
340
15
  0
MLINESTYLE
  5
1B
102
{ACAD_REACTORS
330
E
102
}
330
E
100
AcDbMlineStyle
  2
STANDARD
 70
     0
  3

 62
     0
 51
90.0
 52
90.0
 71
     2
 49
0.5
 62
   256
  6
BYLAYER
 49
-0.5
 62
   256
  6
BYLAYER
  0
PLOTSETTINGS
  5
1BE
102
{ACAD_REACTORS
330
132
102
}
330
132
100
AcDbPlotSettings
  1
DruckA3
  2
HP LaserJet 5000 A3.pc3
  4
A3
  6

 40
6.011333465576171
 41
4.233341693878173
 42
6.0113525390625
 43
4.23333740234375
 44
296.9259948730469
 45
419.9466552734374
 46
6.69
 47
115.7299999999999
 48
0.0
 49
0.0
140
0.0
141
0.0
142
1.0
143
1.0
 70
  1716
 72
     1
 73
     1
 74
     1
  7

 75
    16
147
1.0
148
0.2554872963274875
149
0.2582766719604024
  0
PLOTSETTINGS
  5
1BF
102
{ACAD_REACTORS
330
132
102
}
330
132
100
AcDbPlotSettings
  1
DruckA4
  2
HP LaserJet 5000 A4.pc3
  4
A4
  6

 40
6.011333465576171
 41
4.233341693878173
 42
6.011322021484375
 43
4.23333740234375
 44
209.9733276367187
 45
296.9259948730469
 46
8.97
 47
8.47
 48
0.0
 49
0.0
140
0.0
141
0.0
142
1.0
143
1.0
 70
  1716
 72
     1
 73
     0
 74
     1
  7

 75
    16
147
1.0
148
0.2554872963274875
149
0.2582766719604024
  0
PLOTSETTINGS
  5
1C0
102
{ACAD_REACTORS
330
132
102
}
330
132
100
AcDbPlotSettings
  1
PDFA3
  2
Acrobat Distiller
  4
A3
  6

 40
3.174999952316284
 41
3.174999952316284
 42
3.17498779296875
 43
3.17498779296875
 44
297.0106506347656
 45
420.1583251953125
 46
9.57
 47
116.9
 48
0.0
 49
20.0
140
395.0
141
271.0
142
1.0
143
1.0
 70
  1716
 72
     1
 73
     3
 74
     1
  7
schwarz.ctb
 75
    16
147
1.0
148
0.2582348423018743
149
0.2624208871384326
  0
PLOTSETTINGS
  5
1C1
102
{ACAD_REACTORS
330
132
102
}
330
132
100
AcDbPlotSettings
  1
PDFA4
  2
Acrobat Distiller
  4
A4
  6

 40
3.174999952316284
 41
3.174999952316284
 42
3.175003051757812
 43
3.17498779296875
 44
209.8886566162109
 45
297.0106506347656
 46
11.75999999999999
 47
9.57
 48
0.0
 49
15.0
140
179.4999999999999
141
271.0
142
1.0
143
1.0
 70
  1716
 72
     1
 73
     0
 74
     1
  7
schwarz.ctb
 75
    16
147
1.0
148
0.2582348423018743
149
0.2624208871384326
  0
PLOTSETTINGS
  5
1C2
102
{ACAD_REACTORS
330
132
102
}
330
132
100
AcDbPlotSettings
  1
plota3
  2
Datplot.pc3
  4
ISO_A3_(297.00_x_420.00_MM)
  6

 40
13.41874980926513
 41
11.16874980926513
 42
13.44375610351562
 43
11.19375610351562
 44
297.0
 45
420.0
 46
9.57
 47
1.32
 48
0.0
 49
20.0
140
395.0
141
271.0
142
1.0
143
1.0
 70
  1716
 72
     1
 73
     3
 74
     4
  7
schwarz.ctb
 75
    16
147
1.0
148
0.0
149
-20.0
  0
PLOTSETTINGS
  5
1C3
102
{ACAD_REACTORS
330
132
102
}
330
132
100
AcDbPlotSettings
  1
plota4
  2
Datplot.pc3
  4
ISO_A3_(297.00_x_420.00_MM)
  6

 40
13.41874980926513
 41
11.16874980926513
 42
13.44375610351562
 43
11.19375610351562
 44
297.0
 45
420.0
 46
7.07
 47
109.07
 48
0.0
 49
15.0
140
179.4999999999999
141
271.0
142
1.0
143
1.0
 70
  1716
 72
     1
 73
     3
 74
     4
  7
schwarz.ctb
 75
    16
147
1.0
148
0.0
149
-15.0
  0
PLOTSETTINGS
  5
139
102
{ACAD_REACTORS
330
132
102
}
330
132
100
AcDbPlotSettings
  1
Plotter
  2
QMS TCP/IP
  4
A4
  6

 40
6.085416793823242
 41
6.085390090942382
 42
6.424072265625
 43
6.085418701171875
 44
210.2273254394531
 45
297.0106506347656
 46
0.0
 47
0.0
 48
0.0
 49
0.0
140
0.0
141
0.0
142
1.0
143
1.3732527930515
 70
  1712
 72
     1
 73
     1
 74
     1
  7
schwarz.ctb
 75
     0
147
0.7281980455891909
148
0.2554927449737647
149
0.2582848903354034
  0
ENDSEC
  0
EOF
